999
DXF file: C:\Users\sesa63760\Dev\_Creo\CAD\MCADID0001248_3D-CAD\drw0001_5.dxf
999
Pro/ENGINEER 2019471 by Parametric Technology Corporation
  0
SECTION
  2
HEADER
  9
$ACADVER
  1
AC1024
  9
$DWGCODEPAGE
  3
ANSI_1252
  9
$EXTMAX
 10
292.6140489866
 20
413.839869281
 30
0.0
  9
$EXTMIN
 10
0.0
 20
0.0
 30
0.0
  9
$LIMMIN
 10
0.0
 20
0.0
  9
$LIMMAX
 10
292.6140489866
 20
413.839869281
  9
$VIEWCTR
 10
146.3070244933
 20
206.9199346405
  9
$VIEWSIZE
 40
413.839869281
  9
$CLAYER
  8
0
  9
$LTSCALE
 40
26.9762285161
  9
$CELTYPE
  6
BYLAYER
  9
$DIMSCALE
 40
1.0
  9
$DIMASZ
 40
3.4835005832
  9
$DIMEXO
 40
1.0
  9
$DIMDLI
 40
18.6381215202
  9
$DIMEXE
 40
1.0
  9
$DIMCEN
 40
4.414291939
  9
$DIMLFAC
 40
1.0
  9
$DIMBLK
  1
_FILLED
  9
$DIMALT
 70
0
  9
$DIMALTF
 40
0.0393700787
  9
$DIMTXT
 40
4.8769008164
  9
$DIMTOL
 70
1
  9
$DIMLIM
 70
0
  9
$DIMTFAC
 40
1.0
  9
$DIMTP
 40
0.01
  9
$DIMTM
 40
0.01
  9
$DIMGAP
 40
0.625
  9
$DIMDSEP
 70
46
  9
$AUNITS
 70
0
  9
$PDMODE
 70
3
  9
$PDSIZE
 40
0.3125
  9
$HANDSEED
  5
289
  9
$TILEMODE
 70
1
  9
$MEASUREMENT
 70
1
  9
$INSUNITS
 70
4
  0
ENDSEC
  0
SECTION
  2
CLASSES
  0
CLASS
  1
ACDBDICTIONARYWDFLT
  2
AcDbDictionaryWithDefault
  3
AutoCAD 2000
 90
0
 91
1
280
0
281
0
  0
CLASS
  1
ACDBPLACEHOLDER
  2
AcDbPlaceHolder
  3
AutoCAD 2000
 90
0
 91
1
280
0
281
0
  0
CLASS
  1
LAYOUT
  2
AcDbLayout
  3
AutoCAD 2000
 90
0
 91
0
280
0
281
0
  0
ENDSEC
  0
SECTION
  2
TABLES
  0
TABLE
  2
VPORT
  5
8
100
AcDbSymbolTable
 70
2
  0
VPORT
  5
1F4
100
AcDbSymbolTableRecord
100
AcDbViewportTableRecord
  2
*ACTIVE
 70
0
 10
0.0
 20
0.0
 11
1.0
 21
1.0
 12
146.3070244933
 22
206.9199346405
 13
0.0
 23
0.0
 14
1.0
 24
1.0
 15
0.0
 25
0.0
 16
0.0
 26
0.0
 36
1.0
 17
0.0
 27
0.0
 37
0.0
 40
413.839869281
 41
0.7070707071
 42
50.0
 43
0.0
 44
0.0
 50
0.0
 51
0.0
 71
0
 72
100
 73
1
 74
1
 75
0
 76
0
 77
0
 78
0
  0
ENDTAB
  0
TABLE
  2
LTYPE
  5
5
100
AcDbSymbolTable
 70
6
  0
LTYPE
  5
14
100
AcDbSymbolTableRecord
100
AcDbLinetypeTableRecord
  2
BYBLOCK
 70
0
  3

 72
65
 73
0
 40
0.0
  0
LTYPE
  5
15
100
AcDbSymbolTableRecord
100
AcDbLinetypeTableRecord
  2
BYLAYER
 70
0
  3

 72
65
 73
0
 40
0.0
  0
LTYPE
  5
16
100
AcDbSymbolTableRecord
100
AcDbLinetypeTableRecord
  2
CONTINUOUS
 70
64
  3
Solid line
 72
65
 73
0
 40
0.0
  0
LTYPE
  5
1F5
100
AcDbSymbolTableRecord
100
AcDbLinetypeTableRecord
  2
CENTER
 70
64
  3
____ _ ____ _ ____ _ ____ _ ____ _ ____ _ ____
 72
65
 73
4
 40
0.6
 49
0.375
 74
0
 49
-0.075
 74
0
 49
0.075
 74
0
 49
-0.075
 74
0
  0
LTYPE
  5
1F6
100
AcDbSymbolTableRecord
100
AcDbLinetypeTableRecord
  2
HIDDEN
 70
64
  3
- - - - - - - - - - - - - - - - - - - -
 72
65
 73
2
 40
0.2
 49
0.1
 74
0
 49
-0.1
 74
0
  0
LTYPE
  5
1F7
100
AcDbSymbolTableRecord
100
AcDbLinetypeTableRecord
  2
PHANTOM
 70
64
  3
_____ _ _ _____ _ _ _____ _ _ _____
 72
65
 73
6
 40
0.8
 49
0.45
 74
0
 49
-0.05
 74
0
 49
0.1
 74
0
 49
-0.05
 74
0
 49
0.1
 74
0
 49
-0.05
 74
0
  0
LTYPE
  5
1F8
100
AcDbSymbolTableRecord
100
AcDbLinetypeTableRecord
  2
DOT
 70
64
  3
. . . . . . . . . . . . . . . . . . . .
 72
65
 73
2
 40
0.2
 49
0.1
 74
0
 49
-0.1
 74
0
  0
LTYPE
  5
1F9
100
AcDbSymbolTableRecord
100
AcDbLinetypeTableRecord
  2
DASHED
 70
64
  3
- - - - - - - - - - - - - - - - - - - -
 72
65
 73
2
 40
0.2
 49
0.1
 74
0
 49
-0.1
 74
0
  0
ENDTAB
  0
TABLE
  2
LAYER
  5
2
100
AcDbSymbolTable
 70
36
  0
LAYER
  5
10
100
AcDbSymbolTableRecord
100
AcDbLayerTableRecord
  2
0
 70
0
 62
7
  6
CONTINUOUS
370
-3
390
F
  0
LAYER
  5
1FA
100
AcDbSymbolTableRecord
100
AcDbLayerTableRecord
  2
DEFAULT_1
 70
0
 62
7
  6
CENTER
370
-3
390
F
  0
LAYER
  5
1FB
100
AcDbSymbolTableRecord
100
AcDbLayerTableRecord
  2
DEFAULT_2
 70
0
 62
8
  6
HIDDEN
370
-3
390
F
  0
LAYER
  5
1FC
100
AcDbSymbolTableRecord
100
AcDbLayerTableRecord
  2
DEFAULT_3
 70
0
 62
7
  6
PHANTOM
370
-3
390
F
  0
LAYER
  5
1FD
100
AcDbSymbolTableRecord
100
AcDbLayerTableRecord
  2
00_COMPONENTS
 70
0
 62
7
  6
CONTINUOUS
370
-3
390
F
  0
LAYER
  5
1FE
100
AcDbSymbolTableRecord
100
AcDbLayerTableRecord
  2
01_1_DEFAULT_DATUMS
 70
0
 62
7
  6
CONTINUOUS
370
-3
390
F
  0
LAYER
  5
1FF
100
AcDbSymbolTableRecord
100
AcDbLayerTableRecord
  2
01_PLANES
 70
0
 62
7
  6
CONTINUOUS
370
-3
390
F
  0
LAYER
  5
200
100
AcDbSymbolTableRecord
100
AcDbLayerTableRecord
  2
02_COORD_SYS
 70
0
 62
7
  6
CONTINUOUS
370
-3
390
F
  0
LAYER
  5
201
100
AcDbSymbolTableRecord
100
AcDbLayerTableRecord
  2
03_AXES
 70
0
 62
7
  6
CONTINUOUS
370
-3
390
F
  0
LAYER
  5
202
100
AcDbSymbolTableRecord
100
AcDbLayerTableRecord
  2
04_POINTS
 70
0
 62
7
  6
CONTINUOUS
370
-3
390
F
  0
LAYER
  5
203
100
AcDbSymbolTableRecord
100
AcDbLayerTableRecord
  2
05_CURVES
 70
0
 62
7
  6
CONTINUOUS
370
-3
390
F
  0
LAYER
  5
204
100
AcDbSymbolTableRecord
100
AcDbLayerTableRecord
  2
06_SURFS
 70
0
 62
7
  6
CONTINUOUS
370
-3
390
F
  0
LAYER
  5
205
100
AcDbSymbolTableRecord
100
AcDbLayerTableRecord
  2
07_COSMETICS
 70
0
 62
7
  6
CONTINUOUS
370
-3
390
F
  0
LAYER
  5
206
100
AcDbSymbolTableRecord
100
AcDbLayerTableRecord
  2
1
 70
0
 62
7
  6
CONTINUOUS
370
-3
390
F
  0
LAYER
  5
207
100
AcDbSymbolTableRecord
100
AcDbLayerTableRecord
  2
10_NOTES
 70
0
 62
7
  6
CONTINUOUS
370
-3
390
F
  0
LAYER
  5
208
100
AcDbSymbolTableRecord
100
AcDbLayerTableRecord
  2
11_NOTES_PUB
 70
0
 62
7
  6
CONTINUOUS
370
-3
390
F
  0
LAYER
  5
209
100
AcDbSymbolTableRecord
100
AcDbLayerTableRecord
  2
13_REF_GTOL
 70
0
 62
7
  6
CONTINUOUS
370
-3
390
F
  0
LAYER
  5
20A
100
AcDbSymbolTableRecord
100
AcDbLayerTableRecord
  2
16_MISC
 70
0
 62
7
  6
CONTINUOUS
370
-3
390
F
  0
LAYER
  5
20B
100
AcDbSymbolTableRecord
100
AcDbLayerTableRecord
  2
17_NO_PRINT
 70
0
 62
7
  6
CONTINUOUS
370
-3
390
F
  0
LAYER
  5
20C
100
AcDbSymbolTableRecord
100
AcDbLayerTableRecord
  2
18_DATUM_CAMS_JOINTS
 70
0
 62
7
  6
CONTINUOUS
370
-3
390
F
  0
LAYER
  5
20D
100
AcDbSymbolTableRecord
100
AcDbLayerTableRecord
  2
19_DATUM_FUNCTIONAL
 70
0
 62
7
  6
CONTINUOUS
370
-3
390
F
  0
LAYER
  5
20E
100
AcDbSymbolTableRecord
100
AcDbLayerTableRecord
  2
2
 70
0
 62
7
  6
CONTINUOUS
370
-3
390
F
  0
LAYER
  5
20F
100
AcDbSymbolTableRecord
100
AcDbLayerTableRecord
  2
20_DATUM_KINEMATIC_SCHEME
 70
0
 62
7
  6
CONTINUOUS
370
-3
390
F
  0
ENDTAB
  0
TABLE
  2
STYLE
  5
3
100
AcDbSymbolTable
 70
1
  0
STYLE
  5
11
100
AcDbSymbolTableRecord
100
AcDbTextStyleTableRecord
  2
STANDARD
 70
0
 40
0.0
 41
0.8
 50
0.0
 71
0
 42
0.2
  3
txt
  4

  0
STYLE
  5
210
100
AcDbSymbolTableRecord
100
AcDbTextStyleTableRecord
  2
TEXTSTYLE_1
 70
0
 40
0.0
 41
0.8
 50
0.0
 71
0
 42
0.2
  3
gdt
  4

  0
ENDTAB
  0
TABLE
  2
VIEW
  5
6
100
AcDbSymbolTable
 70
0
  0
ENDTAB
  0
TABLE
  2
UCS
  5
7
100
AcDbSymbolTable
 70
0
  0
ENDTAB
  0
TABLE
  2
APPID
  5
9
100
AcDbSymbolTable
 70
1
  0
APPID
  5
211
100
AcDbSymbolTableRecord
100
AcDbRegAppTableRecord
  2
ACAD
 70
0
  0
ENDTAB
  0
TABLE
  2
BLOCK_RECORD
  5
1
100
AcDbSymbolTable
 70
0
  0
BLOCK_RECORD
  5
212
100
AcDbSymbolTableRecord
100
AcDbBlockTableRecord
  2
*Model_Space
  0
BLOCK_RECORD
  5
213
100
AcDbSymbolTableRecord
100
AcDbBlockTableRecord
  2
*Paper_Space
  0
BLOCK_RECORD
  5
214
100
AcDbSymbolTableRecord
100
AcDbBlockTableRecord
  2
_FILLED
  0
ENDTAB
  0
TABLE
  2
DIMSTYLE
  5
A
100
AcDbSymbolTable
 70
1
100
AcDbDimStyleTable
 71
0
  0
DIMSTYLE
105
215
100
AcDbSymbolTableRecord
100
AcDbDimStyleTableRecord
  2
STANDARD
 70
0
  3

  4

 40
1.0
 41
3.4835005832
 42
1.0
 43
0.38
 44
1.0
 45
0.0
 46
0.0
 47
0.01
 48
0.01
140
4.8769008164
141
0.09
142
0.0
143
25.4
144
1.0
145
0.0
146
1.0
147
0.625
 71
1
 72
0
 73
0
 74
0
 75
0
 76
0
 77
1
 78
8
 79
2
170
0
171
1
172
0
173
0
174
0
175
0
176
0
177
0
178
0
270
2
179
2
271
2
272
2
273
2
274
2
275
0
280
0
281
0
282
0
283
1
284
8
285
0
286
0
287
3
288
0
340
11
278
46
341
214
342
214
343
214
344
214
  0
ENDTAB
  0
ENDSEC
  0
SECTION
  2
BLOCKS
  0
BLOCK
  5
20
100
AcDbEntity
  8
0
100
AcDbBlockBegin
  2
*Model_Space
 70
0
 10
0.0
 20
0.0
 30
0.0
  3
*Model_Space
  1

  0
ENDBLK
  5
21
100
AcDbEntity
  8
0
100
AcDbBlockEnd
  0
BLOCK
  5
1C
100
AcDbEntity
  8
0
100
AcDbBlockBegin
  2
*Paper_Space
 70
0
 10
0.0
 20
0.0
 30
0.0
  3
*Paper_Space
  1

  0
ENDBLK
  5
1D
100
AcDbEntity
  8
0
100
AcDbBlockEnd
  0
BLOCK
  5
216
100
AcDbEntity
  8
0
100
AcDbBlockBegin
  2
_FILLED
 70
64
 10
0.0
 20
0.0
  3
_FILLED
  1

  0
SOLID
  5
217
100
AcDbEntity
  8
0
  6
BYBLOCK
 62
0
100
AcDbTrace
 10
0.0
 20
0.0
 11
-1.0
 21
0.25
 12
-1.0
 22
-0.25
 13
-1.0
 23
-0.25
  0
ENDBLK
  5
218
100
AcDbEntity
  8
0
  6
BYBLOCK
 62
0
100
AcDbBlockEnd
  0
ENDSEC
  0
SECTION
  2
ENTITIES
  0
LINE
  5
219
100
AcDbEntity
  8
1
100
AcDbLine
 62
7
  6
CONTINUOUS
 10
34.109312075
 20
72.4264705882
 11
103.9332381453
 21
72.4264705882
  0
LINE
  5
21A
100
AcDbEntity
  8
1
100
AcDbLine
 62
7
  6
CONTINUOUS
 10
230.409312075
 20
72.4264705882
 11
231.909312075
 21
72.4264705882
  0
LINE
  5
21B
100
AcDbEntity
  8
1
100
AcDbLine
 62
7
  6
CONTINUOUS
 10
103.509312075
 20
76.4264705882
 11
95.509312075
 21
76.4264705882
  0
LINE
  5
21C
100
AcDbEntity
  8
1
100
AcDbLine
 62
7
  6
CONTINUOUS
 10
231.909312075
 20
77.4264705882
 11
230.409312075
 21
77.4264705882
  0
LINE
  5
21D
100
AcDbEntity
  8
1
100
AcDbLine
 62
7
  6
CONTINUOUS
 10
95.509312075
 20
80.4264705882
 11
103.509312075
 21
80.4264705882
  0
LINE
  5
21E
100
AcDbEntity
  8
1
100
AcDbLine
 62
7
  6
CONTINUOUS
 10
230.409312075
 20
86.9264705882
 11
231.909312075
 21
86.9264705882
  0
LINE
  5
21F
100
AcDbEntity
  8
1
100
AcDbLine
 62
7
  6
CONTINUOUS
 10
34.109312075
 20
72.4264705882
 11
34.109312075
 21
342.4264705882
  0
LINE
  5
220
100
AcDbEntity
  8
1
100
AcDbLine
 62
7
  6
CONTINUOUS
 10
38.609312075
 20
72.4264705882
 11
38.609312075
 21
92.4264705882
  0
LINE
  5
221
100
AcDbEntity
  8
1
100
AcDbLine
 62
7
  6
CONTINUOUS
 10
38.609312075
 20
322.4264705882
 11
38.609312075
 21
342.4264705882
  0
LINE
  5
222
100
AcDbEntity
  8
1
100
AcDbLine
 62
7
  6
CONTINUOUS
 10
231.909312075
 20
91.9264705882
 11
230.409312075
 21
91.9264705882
  0
LINE
  5
223
100
AcDbEntity
  8
1
100
AcDbLine
 62
7
  6
CONTINUOUS
 10
38.609312075
 20
92.4264705882
 11
235.609312075
 21
92.4264705882
  0
LINE
  5
224
100
AcDbEntity
  8
1
100
AcDbLine
 62
7
  6
CONTINUOUS
 10
236.109312075
 20
92.4264705882
 11
251.109312075
 21
92.4264705882
  0
LINE
  5
225
100
AcDbEntity
  8
1
100
AcDbLine
 62
7
  6
CONTINUOUS
 10
235.609312075
 20
93.6264705882
 11
236.109312075
 21
93.6264705882
  0
LINE
  5
226
100
AcDbEntity
  8
1
100
AcDbLine
 62
7
  6
CONTINUOUS
 10
266.609312075
 20
97.3264705882
 11
251.109312075
 21
97.3264705882
  0
LINE
  5
227
100
AcDbEntity
  8
1
100
AcDbLine
 62
7
  6
CONTINUOUS
 10
266.609312075
 20
98.8264705882
 11
251.109312075
 21
98.8264705882
  0
LINE
  5
228
100
AcDbEntity
  8
1
100
AcDbLine
 62
7
  6
CONTINUOUS
 10
266.609312075
 20
99.3264705882
 11
251.109312075
 21
99.3264705882
  0
LINE
  5
229
100
AcDbEntity
  8
1
100
AcDbLine
 62
7
  6
CONTINUOUS
 10
251.109312075
 20
102.4264705882
 11
115.409312075
 21
102.4264705882
  0
LINE
  5
22A
100
AcDbEntity
  8
1
100
AcDbLine
 62
7
  6
CONTINUOUS
 10
58.509312075
 20
335.4264705882
 11
58.509312075
 21
337.4264705882
  0
LINE
  5
22B
100
AcDbEntity
  8
1
100
AcDbLine
 62
7
  6
CONTINUOUS
 10
68.509312075
 20
337.4264705882
 11
68.509312075
 21
335.4264705882
  0
LINE
  5
22C
100
AcDbEntity
  8
1
100
AcDbLine
 62
7
  6
CONTINUOUS
 10
76.509312075
 20
335.4264705882
 11
76.509312075
 21
337.4264705882
  0
LINE
  5
22D
100
AcDbEntity
  8
1
100
AcDbLine
 62
7
  6
CONTINUOUS
 10
251.109312075
 20
137.4264705882
 11
266.609312075
 21
137.4264705882
  0
LINE
  5
22E
100
AcDbEntity
  8
1
100
AcDbLine
 62
7
  6
CONTINUOUS
 10
86.509312075
 20
337.4264705882
 11
86.509312075
 21
335.4264705882
  0
LINE
  5
22F
100
AcDbEntity
  8
1
100
AcDbLine
 62
7
  6
CONTINUOUS
 10
266.609312075
 20
137.9264705882
 11
251.109312075
 21
137.9264705882
  0
LINE
  5
230
100
AcDbEntity
  8
1
100
AcDbLine
 62
7
  6
CONTINUOUS
 10
266.609312075
 20
139.4264705882
 11
251.109312075
 21
139.4264705882
  0
LINE
  5
231
100
AcDbEntity
  8
1
100
AcDbLine
 62
7
  6
CONTINUOUS
 10
94.509312075
 20
77.4264705882
 11
94.509312075
 21
79.4264705882
  0
LINE
  5
232
100
AcDbEntity
  8
1
100
AcDbLine
 62
7
  6
CONTINUOUS
 10
94.509312075
 20
335.4264705882
 11
94.509312075
 21
337.4264705882
  0
LINE
  5
233
100
AcDbEntity
  8
1
100
AcDbLine
 62
7
  6
CONTINUOUS
 10
114.109312075
 20
322.4264705882
 11
113.9317150968
 21
332.6009946527
  0
LINE
  5
234
100
AcDbEntity
  8
1
100
AcDbLine
 62
7
  6
CONTINUOUS
 10
104.509312075
 20
337.4264705882
 11
104.509312075
 21
335.4264705882
  0
LINE
  5
235
100
AcDbEntity
  8
1
100
AcDbLine
 62
7
  6
CONTINUOUS
 10
104.509312075
 20
79.4264705882
 11
104.509312075
 21
77.4264705882
  0
LINE
  5
236
100
AcDbEntity
  8
1
100
AcDbLine
 62
7
  6
CONTINUOUS
 10
115.409312075
 20
322.4264705882
 11
115.409312075
 21
312.4264705882
  0
LINE
  5
237
100
AcDbEntity
  8
1
100
AcDbLine
 62
7
  6
CONTINUOUS
 10
115.409312075
 20
102.4264705882
 11
115.409312075
 21
92.4264705882
  0
LINE
  5
238
100
AcDbEntity
  8
1
100
AcDbLine
 62
7
  6
CONTINUOUS
 10
113.9317150968
 20
82.2519465239
 11
114.109312075
 21
92.4264705882
  0
LINE
  5
239
100
AcDbEntity
  8
1
100
AcDbLine
 62
7
  6
CONTINUOUS
 10
122.409312075
 20
92.4264705882
 11
122.409312075
 21
92.8870785741
  0
LINE
  5
23A
100
AcDbEntity
  8
1
100
AcDbLine
 62
7
  6
CONTINUOUS
 10
122.409312075
 20
321.9658626024
 11
122.409312075
 21
322.4264705882
  0
LINE
  5
23B
100
AcDbEntity
  8
1
100
AcDbLine
 62
7
  6
CONTINUOUS
 10
137.1229557
 20
328.5764705882
 11
137.1229557
 21
322.4264705882
  0
LINE
  5
23C
100
AcDbEntity
  8
1
100
AcDbLine
 62
7
  6
CONTINUOUS
 10
250.359312075
 20
186.4574911026
 11
251.109312075
 21
186.4574911026
  0
LINE
  5
23D
100
AcDbEntity
  8
1
100
AcDbLine
 62
7
  6
CONTINUOUS
 10
251.109312075
 20
189.0651827407
 11
250.359312075
 21
189.0651827407
  0
LINE
  5
23E
100
AcDbEntity
  8
1
100
AcDbLine
 62
7
  6
CONTINUOUS
 10
145.385112075
 20
339.4264705882
 11
145.385112075
 21
322.4264705882
  0
LINE
  5
23F
100
AcDbEntity
  8
1
100
AcDbLine
 62
7
  6
CONTINUOUS
 10
146.959312075
 20
339.4264705882
 11
146.959312075
 21
322.4264705882
  0
LINE
  5
240
100
AcDbEntity
  8
1
100
AcDbLine
 62
7
  6
CONTINUOUS
 10
147.2319398431
 20
322.4264705882
 11
147.2319398431
 21
322.2518389311
  0
LINE
  5
241
100
AcDbEntity
  8
1
100
AcDbLine
 62
7
  6
CONTINUOUS
 10
147.459312075
 20
322.4264705882
 11
147.459312075
 21
339.4264705882
  0
LINE
  5
242
100
AcDbEntity
  8
1
100
AcDbLine
 62
7
  6
CONTINUOUS
 10
255.7485425595
 20
218.3064705882
 11
251.109312075
 21
218.3064705882
  0
LINE
  5
243
100
AcDbEntity
  8
1
100
AcDbLine
 62
7
  6
CONTINUOUS
 10
251.109312075
 20
232.1064705882
 11
255.7485425595
 21
232.1064705882
  0
LINE
  5
244
100
AcDbEntity
  8
1
100
AcDbLine
 62
7
  6
CONTINUOUS
 10
177.929312075
 20
339.4264705882
 11
177.929312075
 21
322.4264705882
  0
LINE
  5
245
100
AcDbEntity
  8
1
100
AcDbLine
 62
7
  6
CONTINUOUS
 10
178.2309481604
 20
322.2518389311
 11
178.2309481604
 21
322.4264705882
  0
LINE
  5
246
100
AcDbEntity
  8
1
100
AcDbLine
 62
7
  6
CONTINUOUS
 10
178.429312075
 20
339.4264705882
 11
178.429312075
 21
322.4264705882
  0
LINE
  5
247
100
AcDbEntity
  8
1
100
AcDbLine
 62
7
  6
CONTINUOUS
 10
180.003512075
 20
339.4264705882
 11
180.003512075
 21
322.4264705882
  0
LINE
  5
248
100
AcDbEntity
  8
1
100
AcDbLine
 62
7
  6
CONTINUOUS
 10
206.3314755293
 20
328.5764705882
 11
206.3314755293
 21
322.4264705882
  0
LINE
  5
249
100
AcDbEntity
  8
1
100
AcDbLine
 62
7
  6
CONTINUOUS
 10
250.359312075
 20
267.5477584357
 11
251.109312075
 21
267.5477584357
  0
LINE
  5
24A
100
AcDbEntity
  8
1
100
AcDbLine
 62
7
  6
CONTINUOUS
 10
251.109312075
 20
270.1554500738
 11
250.359312075
 21
270.1554500738
  0
LINE
  5
24B
100
AcDbEntity
  8
1
100
AcDbLine
 62
7
  6
CONTINUOUS
 10
228.156111932
 20
328.5764705882
 11
228.156111932
 21
322.4264705882
  0
LINE
  5
24C
100
AcDbEntity
  8
1
100
AcDbLine
 62
7
  6
CONTINUOUS
 10
230.409312075
 20
72.4264705882
 11
230.409312075
 21
92.4264705882
  0
LINE
  5
24D
100
AcDbEntity
  8
1
100
AcDbLine
 62
7
  6
CONTINUOUS
 10
231.909312075
 20
72.4264705882
 11
231.909312075
 21
92.4264705882
  0
LINE
  5
24E
100
AcDbEntity
  8
1
100
AcDbLine
 62
7
  6
CONTINUOUS
 10
257.109312075
 20
281.7084823297
 11
254.109312075
 21
281.7084823297
  0
LINE
  5
24F
100
AcDbEntity
  8
1
100
AcDbLine
 62
7
  6
CONTINUOUS
 10
235.609312075
 20
322.4264705882
 11
235.609312075
 21
92.4264705882
  0
LINE
  5
250
100
AcDbEntity
  8
1
100
AcDbLine
 62
7
  6
CONTINUOUS
 10
236.109312075
 20
92.4264705882
 11
236.109312075
 21
322.4264705882
  0
LINE
  5
251
100
AcDbEntity
  8
1
100
AcDbLine
 62
7
  6
CONTINUOUS
 10
250.359312075
 20
186.4574911026
 11
250.359312075
 21
189.0651827407
  0
LINE
  5
252
100
AcDbEntity
  8
1
100
AcDbLine
 62
7
  6
CONTINUOUS
 10
250.359312075
 20
267.5477584357
 11
250.359312075
 21
270.1554500738
  0
LINE
  5
253
100
AcDbEntity
  8
1
100
AcDbLine
 62
7
  6
CONTINUOUS
 10
251.109312075
 20
322.4264705882
 11
251.109312075
 21
317.4175025277
  0
LINE
  5
254
100
AcDbEntity
  8
1
100
AcDbLine
 62
7
  6
CONTINUOUS
 10
251.109312075
 20
92.4264705882
 11
251.109312075
 21
278.7084823297
  0
LINE
  5
255
100
AcDbEntity
  8
1
100
AcDbLine
 62
7
  6
CONTINUOUS
 10
255.7485425595
 20
232.1064705882
 11
255.7485425595
 21
218.3064705882
  0
LINE
  5
256
100
AcDbEntity
  8
1
100
AcDbLine
 62
7
  6
CONTINUOUS
 10
115.409312075
 20
312.4264705882
 11
259.9897530385
 21
312.4264705882
  0
LINE
  5
257
100
AcDbEntity
  8
1
100
AcDbLine
 62
7
  6
CONTINUOUS
 10
257.109312075
 20
314.5879839421
 11
254.109312075
 21
314.5879839421
  0
LINE
  5
258
100
AcDbEntity
  8
1
100
AcDbLine
 62
7
  6
CONTINUOUS
 10
260.109312075
 20
284.7084823297
 11
260.109312075
 21
311.5676820719
  0
LINE
  5
259
100
AcDbEntity
  8
1
100
AcDbLine
 62
7
  6
CONTINUOUS
 10
266.609312075
 20
97.3264705882
 11
266.609312075
 21
139.4264705882
  0
LINE
  5
25A
100
AcDbEntity
  8
1
100
AcDbLine
 62
7
  6
CONTINUOUS
 10
236.109312075
 20
321.2264705882
 11
235.609312075
 21
321.2264705882
  0
LINE
  5
25B
100
AcDbEntity
  8
1
100
AcDbLine
 62
7
  6
CONTINUOUS
 10
178.2309481604
 20
322.251838931
 11
147.2319398431
 21
322.251838931
  0
LINE
  5
25C
100
AcDbEntity
  8
1
100
AcDbLine
 62
7
  6
CONTINUOUS
 10
251.109312075
 20
322.4264705882
 11
236.109312075
 21
322.4264705882
  0
LINE
  5
25D
100
AcDbEntity
  8
1
100
AcDbLine
 62
7
  6
CONTINUOUS
 10
38.609312075
 20
322.4264705882
 11
235.609312075
 21
322.4264705882
  0
LINE
  5
25E
100
AcDbEntity
  8
1
100
AcDbLine
 62
7
  6
CONTINUOUS
 10
228.156111932
 20
328.5764705882
 11
206.3314755293
 21
328.5764705882
  0
LINE
  5
25F
100
AcDbEntity
  8
1
100
AcDbLine
 62
7
  6
CONTINUOUS
 10
145.385112075
 20
328.5764705882
 11
137.1229557
 21
328.5764705882
  0
LINE
  5
260
100
AcDbEntity
  8
1
100
AcDbLine
 62
7
  6
CONTINUOUS
 10
103.509312075
 20
334.4264705882
 11
95.509312075
 21
334.4264705882
  0
LINE
  5
261
100
AcDbEntity
  8
1
100
AcDbLine
 62
7
  6
CONTINUOUS
 10
85.509312075
 20
334.4264705882
 11
77.509312075
 21
334.4264705882
  0
LINE
  5
262
100
AcDbEntity
  8
1
100
AcDbLine
 62
7
  6
CONTINUOUS
 10
67.509312075
 20
334.4264705882
 11
59.509312075
 21
334.4264705882
  0
LINE
  5
263
100
AcDbEntity
  8
1
100
AcDbLine
 62
7
  6
CONTINUOUS
 10
59.509312075
 20
338.4264705882
 11
67.509312075
 21
338.4264705882
  0
LINE
  5
264
100
AcDbEntity
  8
1
100
AcDbLine
 62
7
  6
CONTINUOUS
 10
77.509312075
 20
338.4264705882
 11
85.509312075
 21
338.4264705882
  0
LINE
  5
265
100
AcDbEntity
  8
1
100
AcDbLine
 62
7
  6
CONTINUOUS
 10
95.509312075
 20
338.4264705882
 11
103.509312075
 21
338.4264705882
  0
LINE
  5
266
100
AcDbEntity
  8
1
100
AcDbLine
 62
7
  6
CONTINUOUS
 10
145.385112075
 20
339.4264705882
 11
180.003512075
 21
339.4264705882
  0
LINE
  5
267
100
AcDbEntity
  8
1
100
AcDbLine
 62
7
  6
CONTINUOUS
 10
103.9332381453
 20
342.4264705882
 11
34.109312075
 21
342.4264705882
  0
ARC
  5
268
100
AcDbEntity
  8
1
100
AcDbCircle
 62
7
  6
CONTINUOUS
 10
103.9332381453
 20
332.4264705882
 40
10.0
100
AcDbArc
 50
1.0000000003
 51
90.0
  0
ARC
  5
269
100
AcDbEntity
  8
1
100
AcDbCircle
 62
7
  6
CONTINUOUS
 10
103.9332381453
 20
82.4264705882
 40
10.0
100
AcDbArc
 50
270.0
 51
358.9999999999
  0
ARC
  5
26A
100
AcDbEntity
  8
2
100
AcDbCircle
 62
7
  6
CONTINUOUS
 10
234.1166658077
 20
256.0116965254
 40
9.0
100
AcDbArc
 50
79.4021879856
 51
82.0853801868
  0
ARC
  5
26B
100
AcDbEntity
  8
2
100
AcDbCircle
 62
7
  6
CONTINUOUS
 10
234.1166658077
 20
231.8412446511
 40
9.0
100
AcDbArc
 50
277.9148931307
 51
280.5980298512
  0
ARC
  5
26C
100
AcDbEntity
  8
2
100
AcDbCircle
 62
7
  6
CONTINUOUS
 10
234.1166658077
 20
206.0116965254
 40
9.0
100
AcDbArc
 50
79.4021879856
 51
82.0853801868
  0
ARC
  5
26D
100
AcDbEntity
  8
2
100
AcDbCircle
 62
7
  6
CONTINUOUS
 10
234.1166658077
 20
181.8412446511
 40
9.0
100
AcDbArc
 50
277.9148931307
 51
280.5980298512
  0
ARC
  5
26E
100
AcDbEntity
  8
2
100
AcDbCircle
 62
7
  6
CONTINUOUS
 10
234.1166658077
 20
306.0116965254
 40
9.0
100
AcDbArc
 50
79.4021879856
 51
82.0853801868
  0
ARC
  5
26F
100
AcDbEntity
  8
2
100
AcDbCircle
 62
7
  6
CONTINUOUS
 10
234.1166658077
 20
281.8412446511
 40
9.0
100
AcDbArc
 50
277.9148931307
 51
280.5980298512
  0
ARC
  5
270
100
AcDbEntity
  8
1
100
AcDbCircle
 62
7
  6
CONTINUOUS
 10
257.109312075
 20
284.7084823297
 40
3.0
100
AcDbArc
 50
270.0
 51
360.0
  0
ARC
  5
271
100
AcDbEntity
  8
1
100
AcDbCircle
 62
7
  6
CONTINUOUS
 10
254.109312075
 20
278.7084823297
 40
3.0
100
AcDbArc
 50
90.0
 51
180.0
  0
ARC
  5
272
100
AcDbEntity
  8
1
100
AcDbCircle
 62
7
  6
CONTINUOUS
 10
85.509312075
 20
337.4264705882
 40
1.0
100
AcDbArc
 50
0.0
 51
90.0
  0
ARC
  5
273
100
AcDbEntity
  8
1
100
AcDbCircle
 62
7
  6
CONTINUOUS
 10
77.509312075
 20
337.4264705882
 40
1.0
100
AcDbArc
 50
90.0
 51
180.0
  0
ARC
  5
274
100
AcDbEntity
  8
1
100
AcDbCircle
 62
7
  6
CONTINUOUS
 10
77.509312075
 20
335.4264705882
 40
1.0
100
AcDbArc
 50
180.0
 51
270.0
  0
ARC
  5
275
100
AcDbEntity
  8
1
100
AcDbCircle
 62
7
  6
CONTINUOUS
 10
85.509312075
 20
335.4264705882
 40
1.0
100
AcDbArc
 50
270.0
 51
360.0
  0
ARC
  5
276
100
AcDbEntity
  8
1
100
AcDbCircle
 62
7
  6
CONTINUOUS
 10
95.509312075
 20
337.4264705882
 40
1.0
100
AcDbArc
 50
90.0
 51
180.0
  0
ARC
  5
277
100
AcDbEntity
  8
1
100
AcDbCircle
 62
7
  6
CONTINUOUS
 10
95.509312075
 20
335.4264705882
 40
1.0
100
AcDbArc
 50
180.0
 51
270.0
  0
ARC
  5
278
100
AcDbEntity
  8
1
100
AcDbCircle
 62
7
  6
CONTINUOUS
 10
103.509312075
 20
335.4264705882
 40
1.0
100
AcDbArc
 50
270.0
 51
360.0
  0
ARC
  5
279
100
AcDbEntity
  8
1
100
AcDbCircle
 62
7
  6
CONTINUOUS
 10
103.509312075
 20
337.4264705882
 40
1.0
100
AcDbArc
 50
0.0
 51
90.0
  0
ARC
  5
27A
100
AcDbEntity
  8
1
100
AcDbCircle
 62
7
  6
CONTINUOUS
 10
59.509312075
 20
337.4264705882
 40
1.0
100
AcDbArc
 50
90.0
 51
180.0
  0
ARC
  5
27B
100
AcDbEntity
  8
1
100
AcDbCircle
 62
7
  6
CONTINUOUS
 10
59.509312075
 20
335.4264705882
 40
1.0
100
AcDbArc
 50
180.0
 51
270.0
  0
ARC
  5
27C
100
AcDbEntity
  8
1
100
AcDbCircle
 62
7
  6
CONTINUOUS
 10
67.509312075
 20
335.4264705882
 40
1.0
100
AcDbArc
 50
270.0
 51
360.0
  0
ARC
  5
27D
100
AcDbEntity
  8
1
100
AcDbCircle
 62
7
  6
CONTINUOUS
 10
67.509312075
 20
337.4264705882
 40
1.0
100
AcDbArc
 50
0.0
 51
90.0
  0
ARC
  5
27E
100
AcDbEntity
  8
1
100
AcDbCircle
 62
7
  6
CONTINUOUS
 10
95.509312075
 20
79.4264705882
 40
1.0
100
AcDbArc
 50
90.0
 51
180.0
  0
ARC
  5
27F
100
AcDbEntity
  8
1
100
AcDbCircle
 62
7
  6
CONTINUOUS
 10
103.509312075
 20
79.4264705882
 40
1.0
100
AcDbArc
 50
0.0
 51
90.0
  0
ARC
  5
280
100
AcDbEntity
  8
1
100
AcDbCircle
 62
7
  6
CONTINUOUS
 10
103.509312075
 20
77.4264705882
 40
1.0
100
AcDbArc
 50
270.0
 51
360.0
  0
ARC
  5
281
100
AcDbEntity
  8
1
100
AcDbCircle
 62
7
  6
CONTINUOUS
 10
95.509312075
 20
77.4264705882
 40
1.0
100
AcDbArc
 50
180.0
 51
270.0
  0
SPLINE
  5
282
100
AcDbEntity
  8
1
100
AcDbSpline
 62
7
  6
CONTINUOUS
 70
0
 71
3
 72
11
 73
7
 74
0
 42
0.0000001
 43
0.0000001
 44
0.0000000001
 40
0.0
 40
0.0
 40
0.0
 40
0.0
 40
0.260113399
 40
0.5173820916
 40
0.7662207057
 40
1.0
 40
1.0
 40
1.0
 40
1.0
 10
254.109312075
 20
314.5879839421
 30
0.0
 10
253.7158529432
 20
314.5879839421
 30
0.0
 10
252.925082119
 20
314.7423034556
 30
0.0
 10
251.9307474214
 20
315.3897769074
 30
0.0
 10
251.2704455265
 20
316.3271787248
 30
0.0
 10
251.109312075
 20
317.0638775376
 30
0.0
 10
251.109312075
 20
317.4175025277
 30
0.0
  0
SPLINE
  5
283
100
AcDbEntity
  8
1
100
AcDbSpline
 62
7
  6
CONTINUOUS
 70
0
 71
3
 72
11
 73
7
 74
0
 42
0.0000001
 43
0.0000001
 44
0.0000000001
 40
0.0
 40
0.0
 40
0.0
 40
0.0
 40
0.2504365942
 40
0.5001131693
 40
0.7496444991
 40
1.0
 40
1.0
 40
1.0
 40
1.0
 10
257.109312075
 20
314.5879839421
 30
0.0
 10
257.4308633208
 20
314.5879839421
 30
0.0
 10
258.0776713257
 20
314.4859151123
 30
0.0
 10
258.9472871749
 20
314.0362708611
 30
0.0
 10
259.6262707655
 20
313.330033483
 30
0.0
 10
259.901873382
 20
312.7356718498
 30
0.0
 10
259.9897530385
 20
312.4264705882
 30
0.0
  0
SPLINE
  5
284
100
AcDbEntity
  8
1
100
AcDbSpline
 62
7
  6
CONTINUOUS
 70
0
 71
3
 72
15
 73
11
 74
0
 42
0.0000001
 43
0.0000001
 44
0.0000000001
 40
0.0
 40
0.0
 40
0.0
 40
0.0
 40
0.3073695683
 40
0.4560978777
 40
0.5980997257
 40
0.7296474336
 40
0.8454013433
 40
0.9379763776
 40
0.9730686492
 40
1.0
 40
1.0
 40
1.0
 40
1.0
 10
115.409312075
 20
312.4264705882
 30
0.0
 10
116.1915870103
 20
313.3614679713
 30
0.0
 10
117.3527135531
 20
314.7486191939
 30
0.0
 10
118.856417702
 20
316.5834222791
 30
0.0
 10
119.9016809646
 20
317.8919637293
 30
0.0
 10
120.8405028549
 20
319.118593688
 30
0.0
 10
121.6171041476
 20
320.2195327436
 30
0.0
 10
122.1210928981
 20
321.0480075988
 30
0.0
 10
122.3568740166
 20
321.6144649416
 30
0.0
 10
122.409312075
 20
321.8590476317
 30
0.0
 10
122.409312075
 20
321.9658626024
 30
0.0
  0
SPLINE
  5
285
100
AcDbEntity
  8
1
100
AcDbSpline
 62
7
  6
CONTINUOUS
 70
0
 71
3
 72
15
 73
11
 74
0
 42
0.0000001
 43
0.0000001
 44
0.0000000001
 40
0.0
 40
0.0
 40
0.0
 40
0.0
 40
0.0269313891
 40
0.0620237187
 40
0.154598725
 40
0.2703526016
 40
0.4019003313
 40
0.5439021633
 40
0.6926304753
 40
1.0
 40
1.0
 40
1.0
 40
1.0
 10
122.409312075
 20
92.887078574
 30
0.0
 10
122.409312075
 20
92.9938936967
 30
0.0
 10
122.3568738439
 20
93.238476755
 30
0.0
 10
122.1210925146
 20
93.8049342932
 30
0.0
 10
121.6171037109
 20
94.6334090977
 30
0.0
 10
120.8405024691
 20
95.7343479979
 30
0.0
 10
119.9016806407
 20
96.9609778662
 30
0.0
 10
118.8564173514
 20
98.2695193379
 30
0.0
 10
117.3527133379
 20
100.1043222409
 30
0.0
 10
116.191586899
 20
101.4914733382
 30
0.0
 10
115.409312075
 20
102.4264705882
 30
0.0
  0
ELLIPSE
  5
286
100
AcDbEntity
  8
1
100
AcDbEllipse
 62
7
  6
CONTINUOUS
 10
257.109312075
 20
311.5676820719
 30
0.0
 11
-0.0
 21
3.072637544
 31
0.0
 40
0.9763598723
 41
-1.5707963268
 42
-1.2875276474
  0
ENDSEC
  0
SECTION
  2
OBJECTS
  0
DICTIONARY
  5
C
100
AcDbDictionary
280
0
281
1
  3
ACAD_GROUP
350
D
  3
ACAD_MLINESTYLE
350
17
  3
ACAD_LAYOUT
350
1A
  3
ACAD_PLOTSETTINGS
350
19
  3
ACAD_PLOTSTYLENAME
350
E
  0
DICTIONARY
  5
D
102
{ACAD_REACTORS
330
C
102
}
100
AcDbDictionary
280
0
281
1
  0
ACDBDICTIONARYWDFLT
  5
E
102
{ACAD_REACTORS
330
C
102
}
100
AcDbDictionary
281
1
  3
Normal
350
F
100
AcDbDictionaryWithDefault
340
F
  0
DICTIONARY
  5
17
102
{ACAD_REACTORS
330
C
102
}
100
AcDbDictionary
280
0
281
1
  3
Standard
350
18
  0
DICTIONARY
  5
19
102
{ACAD_REACTORS
330
C
102
}
100
AcDbDictionary
281
1
  0
DICTIONARY
  5
1A
102
{ACAD_REACTORS
330
C
102
}
100
AcDbDictionary
281
1
  3
Model
350
287
  3
Layout1
350
288
  0
ACDBPLACEHOLDER
  5
F
102
{ACAD_REACTORS
330
E
102
}
  0
MLINESTYLE
  5
18
102
{ACAD_REACTORS
330
17
102
}
100
AcDbMlineStyle
  2
STANDARD
 70
0
  3

 62
256
 51
90.0
 52
90.0
 71
2
 49
0.5
 62
256
  6
BYLAYER
 49
-0.5
 62
256
  6
BYLAYER
  0
LAYOUT
  5
287
102
{ACAD_REACTORS
330
1A
102
}
100
AcDbPlotSettings
  1

  2
none_device
  4

  6

 40
0.0
 41
0.0
 42
0.0
 43
0.0
 44
210.0
 45
297.0
 46
0.0
 47
0.0
 48
0.0
 49
0.0
140
0.0
141
0.0
142
1.0
143
1.0
 70
1024
 72
1
 73
0
 74
0
  7

 75
0
147
1.0
148
0.0
149
0.0
100
AcDbLayout
  1
Model
 70
0
 71
0
 10
0.0
 20
0.0
 11
210.0
 21
297.0
 12
0.0
 22
0.0
 32
0.0
 14
0.0
 24
0.0
 34
0.0
 15
0.0
 25
0.0
 35
0.0
146
0.0
 13
0.0
 23
0.0
 33
0.0
 16
1.0
 26
0.0
 36
0.0
 17
0.0
 27
1.0
 37
0.0
 76
0
330
212
345
0
346
0
  0
LAYOUT
  5
288
102
{ACAD_REACTORS
330
1A
102
}
100
AcDbPlotSettings
  1

  2
none_device
  4

  6

 40
0.0
 41
0.0
 42
0.0
 43
0.0
 44
210.0
 45
297.0
 46
0.0
 47
0.0
 48
0.0
 49
0.0
140
0.0
141
0.0
142
1.0
143
1.0
 70
0
 72
1
 73
0
 74
0
  7

 75
0
147
1.0
148
0.0
149
0.0
100
AcDbLayout
  1
Layout1
 70
0
 71
1
 10
0.0
 20
0.0
 11
210.0
 21
297.0
 12
0.0
 22
0.0
 32
0.0
 14
0.0
 24
0.0
 34
0.0
 15
0.0
 25
0.0
 35
0.0
146
0.0
 13
0.0
 23
0.0
 33
0.0
 16
1.0
 26
0.0
 36
0.0
 17
0.0
 27
1.0
 37
0.0
 76
0
330
213
345
0
346
0
  0
ENDSEC
  0
EOF
