999
DXF file: C:\Users\sesa63760\Dev\_Creo\CAD\MCADID0004817_3D-CAD\drw0001_4.dxf
999
Pro/ENGINEER 2019471 by Parametric Technology Corporation
  0
SECTION
  2
HEADER
  9
$ACADVER
  1
AC1024
  9
$DWGCODEPAGE
  3
ANSI_1252
  9
$EXTMAX
 10
63.3702114596
 20
89.6235847786
 30
0.0
  9
$EXTMIN
 10
0.0
 20
0.0
 30
0.0
  9
$LIMMIN
 10
0.0
 20
0.0
  9
$LIMMAX
 10
63.3702114596
 20
89.6235847786
  9
$VIEWCTR
 10
31.6851057298
 20
44.8117923893
  9
$VIEWSIZE
 40
89.6235847786
  9
$CLAYER
  8
0
  9
$LTSCALE
 40
5.8421299708
  9
$CELTYPE
  6
BYLAYER
  9
$DIMSCALE
 40
1.0
  9
$DIMASZ
 40
0.7544072793
  9
$DIMEXO
 40
1.0
  9
$DIMDLI
 40
4.0363807071
  9
$DIMEXE
 40
1.0
  9
$DIMCEN
 40
0.9559849043
  9
$DIMLFAC
 40
1.0
  9
$DIMBLK
  1
_FILLED
  9
$DIMALT
 70
0
  9
$DIMALTF
 40
0.0393700787
  9
$DIMTXT
 40
1.056170191
  9
$DIMTOL
 70
1
  9
$DIMLIM
 70
0
  9
$DIMTFAC
 40
1.0
  9
$DIMTP
 40
0.01
  9
$DIMTM
 40
0.01
  9
$DIMGAP
 40
0.625
  9
$DIMDSEP
 70
46
  9
$AUNITS
 70
0
  9
$PDMODE
 70
3
  9
$PDSIZE
 40
0.3125
  9
$HANDSEED
  5
271
  9
$TILEMODE
 70
1
  9
$MEASUREMENT
 70
1
  9
$INSUNITS
 70
4
  0
ENDSEC
  0
SECTION
  2
CLASSES
  0
CLASS
  1
ACDBDICTIONARYWDFLT
  2
AcDbDictionaryWithDefault
  3
AutoCAD 2000
 90
0
 91
1
280
0
281
0
  0
CLASS
  1
ACDBPLACEHOLDER
  2
AcDbPlaceHolder
  3
AutoCAD 2000
 90
0
 91
1
280
0
281
0
  0
CLASS
  1
LAYOUT
  2
AcDbLayout
  3
AutoCAD 2000
 90
0
 91
0
280
0
281
0
  0
ENDSEC
  0
SECTION
  2
TABLES
  0
TABLE
  2
VPORT
  5
8
100
AcDbSymbolTable
 70
2
  0
VPORT
  5
1F4
100
AcDbSymbolTableRecord
100
AcDbViewportTableRecord
  2
*ACTIVE
 70
0
 10
0.0
 20
0.0
 11
1.0
 21
1.0
 12
31.6851057298
 22
44.8117923893
 13
0.0
 23
0.0
 14
1.0
 24
1.0
 15
0.0
 25
0.0
 16
0.0
 26
0.0
 36
1.0
 17
0.0
 27
0.0
 37
0.0
 40
89.6235847786
 41
0.7070707071
 42
50.0
 43
0.0
 44
0.0
 50
0.0
 51
0.0
 71
0
 72
100
 73
1
 74
1
 75
0
 76
0
 77
0
 78
0
  0
ENDTAB
  0
TABLE
  2
LTYPE
  5
5
100
AcDbSymbolTable
 70
6
  0
LTYPE
  5
14
100
AcDbSymbolTableRecord
100
AcDbLinetypeTableRecord
  2
BYBLOCK
 70
0
  3

 72
65
 73
0
 40
0.0
  0
LTYPE
  5
15
100
AcDbSymbolTableRecord
100
AcDbLinetypeTableRecord
  2
BYLAYER
 70
0
  3

 72
65
 73
0
 40
0.0
  0
LTYPE
  5
16
100
AcDbSymbolTableRecord
100
AcDbLinetypeTableRecord
  2
CONTINUOUS
 70
64
  3
Solid line
 72
65
 73
0
 40
0.0
  0
LTYPE
  5
1F5
100
AcDbSymbolTableRecord
100
AcDbLinetypeTableRecord
  2
CENTER
 70
64
  3
____ _ ____ _ ____ _ ____ _ ____ _ ____ _ ____
 72
65
 73
4
 40
0.6
 49
0.375
 74
0
 49
-0.075
 74
0
 49
0.075
 74
0
 49
-0.075
 74
0
  0
LTYPE
  5
1F6
100
AcDbSymbolTableRecord
100
AcDbLinetypeTableRecord
  2
HIDDEN
 70
64
  3
- - - - - - - - - - - - - - - - - - - -
 72
65
 73
2
 40
0.2
 49
0.1
 74
0
 49
-0.1
 74
0
  0
LTYPE
  5
1F7
100
AcDbSymbolTableRecord
100
AcDbLinetypeTableRecord
  2
PHANTOM
 70
64
  3
_____ _ _ _____ _ _ _____ _ _ _____
 72
65
 73
6
 40
0.8
 49
0.45
 74
0
 49
-0.05
 74
0
 49
0.1
 74
0
 49
-0.05
 74
0
 49
0.1
 74
0
 49
-0.05
 74
0
  0
LTYPE
  5
1F8
100
AcDbSymbolTableRecord
100
AcDbLinetypeTableRecord
  2
DOT
 70
64
  3
. . . . . . . . . . . . . . . . . . . .
 72
65
 73
2
 40
0.2
 49
0.1
 74
0
 49
-0.1
 74
0
  0
LTYPE
  5
1F9
100
AcDbSymbolTableRecord
100
AcDbLinetypeTableRecord
  2
DASHED
 70
64
  3
- - - - - - - - - - - - - - - - - - - -
 72
65
 73
2
 40
0.2
 49
0.1
 74
0
 49
-0.1
 74
0
  0
ENDTAB
  0
TABLE
  2
LAYER
  5
2
100
AcDbSymbolTable
 70
36
  0
LAYER
  5
10
100
AcDbSymbolTableRecord
100
AcDbLayerTableRecord
  2
0
 70
0
 62
7
  6
CONTINUOUS
370
-3
390
F
  0
LAYER
  5
1FA
100
AcDbSymbolTableRecord
100
AcDbLayerTableRecord
  2
DEFAULT_1
 70
0
 62
7
  6
CENTER
370
-3
390
F
  0
LAYER
  5
1FB
100
AcDbSymbolTableRecord
100
AcDbLayerTableRecord
  2
DEFAULT_2
 70
0
 62
7
  6
HIDDEN
370
-3
390
F
  0
LAYER
  5
1FC
100
AcDbSymbolTableRecord
100
AcDbLayerTableRecord
  2
DEFAULT_3
 70
0
 62
7
  6
PHANTOM
370
-3
390
F
  0
LAYER
  5
1FD
100
AcDbSymbolTableRecord
100
AcDbLayerTableRecord
  2
00_COMPONENTS
 70
0
 62
7
  6
CONTINUOUS
370
-3
390
F
  0
LAYER
  5
1FE
100
AcDbSymbolTableRecord
100
AcDbLayerTableRecord
  2
01_1_DEFAULT_DATUMS
 70
0
 62
7
  6
CONTINUOUS
370
-3
390
F
  0
LAYER
  5
1FF
100
AcDbSymbolTableRecord
100
AcDbLayerTableRecord
  2
01_PLANES
 70
0
 62
7
  6
CONTINUOUS
370
-3
390
F
  0
LAYER
  5
200
100
AcDbSymbolTableRecord
100
AcDbLayerTableRecord
  2
02_COORD_SYS
 70
0
 62
7
  6
CONTINUOUS
370
-3
390
F
  0
LAYER
  5
201
100
AcDbSymbolTableRecord
100
AcDbLayerTableRecord
  2
03_AXES
 70
0
 62
7
  6
CONTINUOUS
370
-3
390
F
  0
LAYER
  5
202
100
AcDbSymbolTableRecord
100
AcDbLayerTableRecord
  2
04_POINTS
 70
0
 62
7
  6
CONTINUOUS
370
-3
390
F
  0
LAYER
  5
203
100
AcDbSymbolTableRecord
100
AcDbLayerTableRecord
  2
05_CURVES
 70
0
 62
7
  6
CONTINUOUS
370
-3
390
F
  0
LAYER
  5
204
100
AcDbSymbolTableRecord
100
AcDbLayerTableRecord
  2
06_SURFS
 70
0
 62
7
  6
CONTINUOUS
370
-3
390
F
  0
LAYER
  5
205
100
AcDbSymbolTableRecord
100
AcDbLayerTableRecord
  2
07_COSMETICS
 70
0
 62
7
  6
CONTINUOUS
370
-3
390
F
  0
LAYER
  5
206
100
AcDbSymbolTableRecord
100
AcDbLayerTableRecord
  2
10_NOTES
 70
0
 62
7
  6
CONTINUOUS
370
-3
390
F
  0
LAYER
  5
207
100
AcDbSymbolTableRecord
100
AcDbLayerTableRecord
  2
11_NOTES_PUB
 70
0
 62
7
  6
CONTINUOUS
370
-3
390
F
  0
LAYER
  5
208
100
AcDbSymbolTableRecord
100
AcDbLayerTableRecord
  2
13_REF_GTOL
 70
0
 62
7
  6
CONTINUOUS
370
-3
390
F
  0
LAYER
  5
209
100
AcDbSymbolTableRecord
100
AcDbLayerTableRecord
  2
16_MISC
 70
0
 62
7
  6
CONTINUOUS
370
-3
390
F
  0
LAYER
  5
20A
100
AcDbSymbolTableRecord
100
AcDbLayerTableRecord
  2
17_NO_PRINT
 70
0
 62
7
  6
CONTINUOUS
370
-3
390
F
  0
LAYER
  5
20B
100
AcDbSymbolTableRecord
100
AcDbLayerTableRecord
  2
18_DATUM_CAMS_JOINTS
 70
0
 62
7
  6
CONTINUOUS
370
-3
390
F
  0
LAYER
  5
20C
100
AcDbSymbolTableRecord
100
AcDbLayerTableRecord
  2
19_DATUM_FUNCTIONAL
 70
0
 62
7
  6
CONTINUOUS
370
-3
390
F
  0
LAYER
  5
20D
100
AcDbSymbolTableRecord
100
AcDbLayerTableRecord
  2
20_DATUM_KINEMATIC_SCHEME
 70
0
 62
7
  6
CONTINUOUS
370
-3
390
F
  0
ENDTAB
  0
TABLE
  2
STYLE
  5
3
100
AcDbSymbolTable
 70
1
  0
STYLE
  5
11
100
AcDbSymbolTableRecord
100
AcDbTextStyleTableRecord
  2
STANDARD
 70
0
 40
0.0
 41
1.0
 50
0.0
 71
0
 42
0.2
  3
ARIAL.TTF
  4

  0
STYLE
  5
20E
100
AcDbSymbolTableRecord
100
AcDbTextStyleTableRecord
  2
TEXTSTYLE_1
 70
0
 40
0.0
 41
0.8
 50
0.0
 71
0
 42
0.2
  3
gdt
  4

  0
ENDTAB
  0
TABLE
  2
VIEW
  5
6
100
AcDbSymbolTable
 70
0
  0
ENDTAB
  0
TABLE
  2
UCS
  5
7
100
AcDbSymbolTable
 70
0
  0
ENDTAB
  0
TABLE
  2
APPID
  5
9
100
AcDbSymbolTable
 70
1
  0
APPID
  5
20F
100
AcDbSymbolTableRecord
100
AcDbRegAppTableRecord
  2
ACAD
 70
0
  0
ENDTAB
  0
TABLE
  2
BLOCK_RECORD
  5
1
100
AcDbSymbolTable
 70
0
  0
BLOCK_RECORD
  5
210
100
AcDbSymbolTableRecord
100
AcDbBlockTableRecord
  2
*Model_Space
  0
BLOCK_RECORD
  5
211
100
AcDbSymbolTableRecord
100
AcDbBlockTableRecord
  2
*Paper_Space
  0
BLOCK_RECORD
  5
212
100
AcDbSymbolTableRecord
100
AcDbBlockTableRecord
  2
_FILLED
  0
ENDTAB
  0
TABLE
  2
DIMSTYLE
  5
A
100
AcDbSymbolTable
 70
1
100
AcDbDimStyleTable
 71
0
  0
DIMSTYLE
105
213
100
AcDbSymbolTableRecord
100
AcDbDimStyleTableRecord
  2
STANDARD
 70
0
  3

  4

 40
1.0
 41
0.7544072793
 42
1.0
 43
0.38
 44
1.0
 45
0.0
 46
0.0
 47
0.01
 48
0.01
140
1.056170191
141
0.09
142
0.0
143
25.4
144
1.0
145
0.0
146
1.0
147
0.625
 71
1
 72
0
 73
0
 74
0
 75
0
 76
0
 77
1
 78
8
 79
2
170
0
171
1
172
0
173
0
174
0
175
0
176
0
177
0
178
0
270
2
179
2
271
2
272
2
273
2
274
2
275
0
280
0
281
0
282
0
283
1
284
8
285
0
286
0
287
3
288
0
340
11
278
46
341
212
342
212
343
212
344
212
  0
ENDTAB
  0
ENDSEC
  0
SECTION
  2
BLOCKS
  0
BLOCK
  5
20
100
AcDbEntity
  8
0
100
AcDbBlockBegin
  2
*Model_Space
 70
0
 10
0.0
 20
0.0
 30
0.0
  3
*Model_Space
  1

  0
ENDBLK
  5
21
100
AcDbEntity
  8
0
100
AcDbBlockEnd
  0
BLOCK
  5
1C
100
AcDbEntity
  8
0
100
AcDbBlockBegin
  2
*Paper_Space
 70
0
 10
0.0
 20
0.0
 30
0.0
  3
*Paper_Space
  1

  0
ENDBLK
  5
1D
100
AcDbEntity
  8
0
100
AcDbBlockEnd
  0
BLOCK
  5
214
100
AcDbEntity
  8
0
100
AcDbBlockBegin
  2
_FILLED
 70
64
 10
0.0
 20
0.0
  3
_FILLED
  1

  0
SOLID
  5
215
100
AcDbEntity
  8
0
  6
BYBLOCK
 62
0
100
AcDbTrace
 10
0.0
 20
0.0
 11
-1.0
 21
0.25
 12
-1.0
 22
-0.25
 13
-1.0
 23
-0.25
  0
ENDBLK
  5
216
100
AcDbEntity
  8
0
  6
BYBLOCK
 62
0
100
AcDbBlockEnd
  0
ENDSEC
  0
SECTION
  2
ENTITIES
  0
LINE
  5
217
100
AcDbEntity
  8
0
100
AcDbLine
 62
7
  6
BYLAYER
 10
7.057817134
 20
68.0375464139
 11
7.057817134
 21
21.7416643436
  0
LINE
  5
218
100
AcDbEntity
  8
0
100
AcDbLine
 62
7
  6
BYLAYER
 10
7.157817134
 20
68.8375464139
 11
7.157817134
 21
68.0375464139
  0
LINE
  5
219
100
AcDbEntity
  8
0
100
AcDbLine
 62
7
  6
BYLAYER
 10
7.757817134
 20
21.4892678828
 11
7.7578171337
 21
28.7309351562
  0
LINE
  5
21A
100
AcDbEntity
  8
0
100
AcDbLine
 62
7
  6
BYLAYER
 10
7.7578202508
 20
30.3441780731
 11
7.757817134
 21
68.0375464139
  0
LINE
  5
21B
100
AcDbEntity
  8
0
100
AcDbLine
 62
7
  6
BYLAYER
 10
7.857817134
 20
68.0375464139
 11
7.857817134
 21
69.5375464139
  0
LINE
  5
21C
100
AcDbEntity
  8
0
100
AcDbLine
 62
7
  6
BYLAYER
 10
30.057817134
 20
19.5375464139
 11
14.057817134
 21
19.5375464139
  0
LINE
  5
21D
100
AcDbEntity
  8
0
100
AcDbLine
 62
7
  6
BYLAYER
 10
31.432817134
 20
22.0375464139
 11
27.557817134
 21
22.0375464139
  0
LINE
  5
21E
100
AcDbEntity
  8
0
100
AcDbLine
 62
7
  6
BYLAYER
 10
16.557817134
 20
22.0375464139
 11
12.682817134
 21
22.0375464139
  0
LINE
  5
21F
100
AcDbEntity
  8
0
100
AcDbLine
 62
7
  6
BYLAYER
 10
12.682817134
 20
23.1875464139
 11
15.0812198786
 21
23.1875464139
  0
LINE
  5
220
100
AcDbEntity
  8
0
100
AcDbLine
 62
7
  6
BYLAYER
 10
29.0344143894
 20
23.1875464139
 11
31.432817134
 21
23.1875464139
  0
LINE
  5
221
100
AcDbEntity
  8
0
100
AcDbLine
 62
7
  6
BYLAYER
 10
12.682817134
 20
22.0375464139
 11
12.682817134
 21
23.1875464139
  0
LINE
  5
222
100
AcDbEntity
  8
0
100
AcDbLine
 62
7
  6
BYLAYER
 10
13.282817134
 20
22.0375464139
 11
13.282817134
 21
23.1875464139
  0
LINE
  5
223
100
AcDbEntity
  8
0
100
AcDbLine
 62
7
  6
BYLAYER
 10
7.6898298123
 20
21.1970732147
 11
7.757817134
 21
21.4892678828
  0
LINE
  5
224
100
AcDbEntity
  8
0
100
AcDbLine
 62
7
  6
BYLAYER
 10
26.9946468737
 20
68.6607166742
 11
27.171423569
 21
68.8374933694
  0
LINE
  5
225
100
AcDbEntity
  8
0
100
AcDbLine
 62
7
  6
BYLAYER
 10
15.0812198786
 20
23.5375464139
 11
16.557817134
 21
23.5375464139
  0
LINE
  5
226
100
AcDbEntity
  8
0
100
AcDbLine
 62
7
  6
BYLAYER
 10
27.557817134
 20
23.5375464139
 11
29.0344143894
 21
23.5375464139
  0
LINE
  5
227
100
AcDbEntity
  8
0
100
AcDbLine
 62
7
  6
BYLAYER
 10
14.057817134
 20
20.0543035336
 11
14.057817134
 21
19.5375464139
  0
LINE
  5
228
100
AcDbEntity
  8
0
100
AcDbLine
 62
7
  6
BYLAYER
 10
15.0812198786
 20
23.1875464139
 11
15.0812198786
 21
23.5375464139
  0
LINE
  5
229
100
AcDbEntity
  8
0
100
AcDbLine
 62
7
  6
BYLAYER
 10
8.0526742766
 20
30.2888490774
 11
7.7578171338
 21
30.3441597029
  0
LINE
  5
22A
100
AcDbEntity
  8
0
100
AcDbLine
 62
7
  6
BYLAYER
 10
16.557817134
 20
22.0375464139
 11
16.557817134
 21
23.5375464139
  0
LINE
  5
22B
100
AcDbEntity
  8
0
100
AcDbLine
 62
7
  6
BYLAYER
 10
36.062959311
 20
30.2888527043
 11
36.3578183684
 21
30.3441531237
  0
LINE
  5
22C
100
AcDbEntity
  8
0
100
AcDbLine
 62
7
  6
BYLAYER
 10
7.9828194514
 20
29.5375462768
 11
7.6265647316
 21
29.5375466339
  0
LINE
  5
22D
100
AcDbEntity
  8
0
100
AcDbLine
 62
7
  6
BYLAYER
 10
36.1328131525
 20
29.5375466052
 11
36.4890710776
 21
29.5375460965
  0
LINE
  5
22E
100
AcDbEntity
  8
0
100
AcDbLine
 62
7
  6
BYLAYER
 10
36.0629599913
 20
28.7862437504
 11
36.3578171342
 21
28.7309331249
  0
LINE
  5
22F
100
AcDbEntity
  8
0
100
AcDbLine
 62
7
  6
BYLAYER
 10
8.0526748595
 20
28.786240643
 11
7.7578160728
 21
28.7309387807
  0
LINE
  5
230
100
AcDbEntity
  8
0
100
AcDbLine
 62
7
  6
BYLAYER
 10
36.2578701783
 20
59.7510467601
 11
36.081093483
 21
59.5742700648
  0
LINE
  5
231
100
AcDbEntity
  8
0
100
AcDbLine
 62
7
  6
BYLAYER
 10
27.557817134
 20
22.0375464139
 11
27.557817134
 21
23.5375464139
  0
LINE
  5
232
100
AcDbEntity
  8
0
100
AcDbLine
 62
7
  6
BYLAYER
 10
29.0344143894
 20
23.1875464139
 11
29.0344143894
 21
23.5375464139
  0
LINE
  5
233
100
AcDbEntity
  8
0
100
AcDbLine
 62
7
  6
BYLAYER
 10
30.057817134
 20
20.0543035336
 11
30.057817134
 21
19.5375464139
  0
LINE
  5
234
100
AcDbEntity
  8
0
100
AcDbLine
 62
7
  6
BYLAYER
 10
30.832817134
 20
22.0375464139
 11
30.832817134
 21
23.1875464139
  0
LINE
  5
235
100
AcDbEntity
  8
0
100
AcDbLine
 62
7
  6
BYLAYER
 10
31.432817134
 20
23.1875464139
 11
31.432817134
 21
22.0375464139
  0
LINE
  5
236
100
AcDbEntity
  8
0
100
AcDbLine
 62
7
  6
BYLAYER
 10
36.4258044557
 20
21.1970732147
 11
36.357817134
 21
21.4892678828
  0
LINE
  5
237
100
AcDbEntity
  8
0
100
AcDbLine
 62
7
  6
BYLAYER
 10
36.2578701784
 20
69.5374933694
 11
36.2578701784
 21
59.75104676
  0
LINE
  5
238
100
AcDbEntity
  8
0
100
AcDbLine
 62
7
  6
BYLAYER
 10
36.357817134
 20
58.9975464139
 11
36.3578171343
 21
30.3441597027
  0
LINE
  5
239
100
AcDbEntity
  8
0
100
AcDbLine
 62
7
  6
BYLAYER
 10
36.3578171344
 20
28.730933125
 11
36.357817134
 21
21.4892678828
  0
LINE
  5
23A
100
AcDbEntity
  8
0
100
AcDbLine
 62
7
  6
BYLAYER
 10
36.957817134
 20
58.3975464139
 11
36.957817134
 21
58.6975464139
  0
LINE
  5
23B
100
AcDbEntity
  8
0
100
AcDbLine
 62
7
  6
BYLAYER
 10
36.9578701784
 20
68.8374933694
 11
36.9578701784
 21
59.3010467625
  0
LINE
  5
23C
100
AcDbEntity
  8
0
100
AcDbLine
 62
7
  6
BYLAYER
 10
37.057817134
 20
21.7416643436
 11
37.057817134
 21
58.2975464139
  0
LINE
  5
23D
100
AcDbEntity
  8
0
100
AcDbLine
 62
7
  6
BYLAYER
 10
46.9578701784
 20
56.8874933694
 11
46.9578701784
 21
68.0374933694
  0
LINE
  5
23E
100
AcDbEntity
  8
0
100
AcDbLine
 62
7
  6
BYLAYER
 10
46.9578701784
 20
56.8874933694
 11
43.2953696853
 21
56.8874933694
  0
LINE
  5
23F
100
AcDbEntity
  8
0
100
AcDbLine
 62
7
  6
BYLAYER
 10
57.9578701784
 20
56.9374933694
 11
46.9578701784
 21
56.9374933694
  0
LINE
  5
240
100
AcDbEntity
  8
0
100
AcDbLine
 62
7
  6
BYLAYER
 10
37.057817134
 20
58.2975464139
 11
27.317817134
 21
68.0375464139
  0
LINE
  5
241
100
AcDbEntity
  8
0
100
AcDbLine
 62
7
  6
BYLAYER
 10
36.957817134
 20
58.6975464139
 11
26.117817134
 21
69.5375464139
  0
LINE
  5
242
100
AcDbEntity
  8
0
100
AcDbLine
 62
7
  6
BYLAYER
 10
27.171423569
 20
68.8374933694
 11
36.2578701784
 21
59.75104676
  0
LINE
  5
243
100
AcDbEntity
  8
0
100
AcDbLine
 62
7
  6
BYLAYER
 10
57.9578701784
 20
67.6374933694
 11
46.9578701784
 21
67.6374933694
  0
LINE
  5
244
100
AcDbEntity
  8
0
100
AcDbLine
 62
7
  6
BYLAYER
 10
7.057817134
 20
68.0375464139
 11
27.617817134
 21
68.0375464139
  0
LINE
  5
245
100
AcDbEntity
  8
0
100
AcDbLine
 62
7
  6
BYLAYER
 10
57.9578701784
 20
67.6374933694
 11
57.9578701784
 21
56.9374933694
  0
LINE
  5
246
100
AcDbEntity
  8
0
100
AcDbLine
 62
7
  6
BYLAYER
 10
27.171423569
 20
68.8374933694
 11
36.9578701784
 21
68.8374933694
  0
LINE
  5
247
100
AcDbEntity
  8
0
100
AcDbLine
 62
7
  6
BYLAYER
 10
7.157817134
 20
68.8375464139
 11
26.817817134
 21
68.8375464139
  0
LINE
  5
248
100
AcDbEntity
  8
0
100
AcDbLine
 62
7
  6
BYLAYER
 10
26.7214235715
 20
69.5374933694
 11
43.4857342234
 21
69.5374933694
  0
LINE
  5
249
100
AcDbEntity
  8
0
100
AcDbLine
 62
7
  6
BYLAYER
 10
26.117817134
 20
69.5375464139
 11
7.857817134
 21
69.5375464139
  0
LINE
  5
24A
100
AcDbEntity
  8
0
100
AcDbLine
 62
7
  6
BYLAYER
 10
46.9578701784
 20
68.0374933694
 11
44.3801614144
 21
69.3263477514
  0
ARC
  5
24B
100
AcDbEntity
  8
0
100
AcDbCircle
 62
7
  6
BYLAYER
 10
22.057817134
 20
82.9475464139
 40
63.4
100
AcDbArc
 50
271.9616823297
 51
283.32796159
  0
ARC
  5
24C
100
AcDbEntity
  8
0
100
AcDbCircle
 62
7
  6
BYLAYER
 10
22.057817134
 20
82.9475464139
 40
63.4
100
AcDbArc
 50
256.67203841
 51
268.0383176703
  0
ARC
  5
24D
100
AcDbEntity
  8
0
100
AcDbCircle
 62
7
  6
BYLAYER
 10
22.057817134
 20
82.9475464139
 40
63.1
100
AcDbArc
 50
256.9015825347
 51
283.0984174653
  0
ARC
  5
24E
100
AcDbEntity
  8
0
100
AcDbCircle
 62
7
  6
BYLAYER
 10
12.057817134
 20
29.5375464139
 40
4.375
100
AcDbArc
 50
190.6243053368
 51
169.3754245334
  0
CIRCLE
  5
24F
100
AcDbEntity
  8
0
100
AcDbCircle
 62
7
  6
BYLAYER
 10
12.057817134
 20
29.5375464139
 40
4.075
  0
CIRCLE
  5
250
100
AcDbEntity
  8
0
100
AcDbCircle
 62
7
  6
BYLAYER
 10
12.057817134
 20
29.5375464139
 40
2.125
  0
CIRCLE
  5
251
100
AcDbEntity
  8
0
100
AcDbCircle
 62
7
  6
BYLAYER
 10
23.557817134
 20
65.7375464139
 40
0.75
  0
CIRCLE
  5
252
100
AcDbEntity
  8
0
100
AcDbCircle
 62
7
  6
BYLAYER
 10
10.557817134
 20
65.7375464139
 40
0.75
  0
ARC
  5
253
100
AcDbEntity
  8
0
100
AcDbCircle
 62
7
  6
BYLAYER
 10
7.857817134
 20
68.8375464139
 40
0.7
100
AcDbArc
 50
90.0
 51
180.0
  0
ARC
  5
254
100
AcDbEntity
  8
0
100
AcDbCircle
 62
7
  6
BYLAYER
 10
7.557817134
 20
21.7416643436
 40
0.5
100
AcDbArc
 50
180.0
 51
256.6720384104
  0
ARC
  5
255
100
AcDbEntity
  8
0
100
AcDbCircle
 62
7
  6
BYLAYER
 10
11.5748761737
 20
207.841485186
 40
187.9929332072
100
AcDbArc
 50
277.5753023476
 51
277.7077406624
  0
ARC
  5
256
100
AcDbEntity
  8
0
100
AcDbCircle
 62
7
  6
BYLAYER
 10
43.2953696853
 20
68.8874933694
 40
12.0
100
AcDbArc
 50
238.1211456191
 51
270.0
  0
ARC
  5
257
100
AcDbEntity
  8
0
100
AcDbCircle
 62
7
  6
BYLAYER
 10
32.057817134
 20
29.5375464139
 40
4.375
100
AcDbArc
 50
10.6243314825
 51
349.3756685181
  0
CIRCLE
  5
258
100
AcDbEntity
  8
0
100
AcDbCircle
 62
7
  6
BYLAYER
 10
32.057817134
 20
29.5375464139
 40
4.075
  0
CIRCLE
  5
259
100
AcDbEntity
  8
0
100
AcDbCircle
 62
7
  6
BYLAYER
 10
32.057817134
 20
29.5375464139
 40
2.125
  0
ARC
  5
25A
100
AcDbEntity
  8
0
100
AcDbCircle
 62
7
  6
BYLAYER
 10
43.4857443814
 20
67.5374971755
 40
1.9999829849
100
AcDbArc
 50
63.4348696211
 51
90.0002910233
  0
ARC
  5
25B
100
AcDbEntity
  8
0
100
AcDbCircle
 62
7
  6
BYLAYER
 10
36.2578701784
 20
68.8374933694
 40
0.7
100
AcDbArc
 50
0.0
 51
90.0
  0
ARC
  5
25C
100
AcDbEntity
  8
0
100
AcDbCircle
 62
7
  6
BYLAYER
 10
36.557817134
 20
21.7416643436
 40
0.5
100
AcDbArc
 50
283.3279615896
 51
360.0
  0
ARC
  5
25D
100
AcDbEntity
  8
0
100
AcDbCircle
 62
7
  6
BYLAYER
 10
36.7078701784
 20
59.30104676
 40
0.25
100
AcDbArc
 50
224.9999999997
 51
360.0
  0
ARC
  5
25E
100
AcDbEntity
  8
0
100
AcDbCircle
 62
7
  6
BYLAYER
 10
26.721423569
 20
69.2874933694
 40
0.25
100
AcDbArc
 50
90.0
 51
225.0000000003
  0
ARC
  5
25F
100
AcDbEntity
  8
0
100
AcDbCircle
 62
7
  6
BYLAYER
 10
31.6305665867
 20
201.0571473934
 40
181.1478167157
100
AcDbArc
 50
262.2897451223
 51
262.4271883219
  0
SPLINE
  5
260
100
AcDbEntity
  8
0
100
AcDbSpline
 62
7
  6
BYLAYER
 70
0
 71
3
 72
29
 73
25
 74
0
 42
0.0000001
 43
0.0000001
 44
0.0000000001
 40
0.0
 40
0.0
 40
0.0
 40
0.0
 40
0.1803015877
 40
0.3563550697
 40
0.4412800715
 40
0.523358443
 40
0.6018560185
 40
0.6759889156
 40
0.7448911175
 40
0.8076307883
 40
0.8632323827
 40
0.888034817
 40
0.9106663701
 40
0.9310000823
 40
0.9489098923
 40
0.9642697752
 40
0.9769550863
 40
0.9868877857
 40
0.9908154225
 40
0.994047857
 40
0.9965831189
 40
0.9984194872
 40
0.9995562134
 40
1.0
 40
1.0
 40
1.0
 40
1.0
 10
36.2578701784
 20
59.75104676
 30
0.0
 10
36.2997908188
 20
59.7237686665
 30
0.0
 10
36.3830455373
 20
59.6704743326
 30
0.0
 10
36.4861005916
 20
59.6044194182
 30
0.0
 10
36.5661044569
 20
59.5528917502
 30
0.0
 10
36.6233790851
 20
59.5160508969
 30
0.0
 10
36.6781460656
 20
59.480845258
 30
0.0
 10
36.7298439998
 20
59.4476245433
 30
0.0
 10
36.7778645849
 20
59.4167668469
 30
0.0
 10
36.8215548866
 20
59.3886791601
 30
0.0
 10
36.8549477467
 20
59.3671951232
 30
0.0
 10
36.8789812257
 20
59.3517263192
 30
0.0
 10
36.8947868749
 20
59.3415500876
 30
0.0
 10
36.9089867823
 20
59.332411637
 30
0.0
 10
36.9214967484
 20
59.3243748633
 30
0.0
 10
36.9322330721
 20
59.3175015387
 30
0.0
 10
36.9411221496
 20
59.3118497044
 30
0.0
 10
36.947356585
 20
59.3079264009
 30
0.0
 10
36.9513628393
 20
59.3053979477
 30
0.0
 10
36.9536463815
 20
59.303961306
 30
0.0
 10
36.955392551
 20
59.3028173942
 30
0.0
 10
36.9567368061
 20
59.3019893107
 30
0.0
 10
36.9573879435
 20
59.3014223609
 30
0.0
 10
36.9578701785
 20
59.301169866
 30
0.0
 10
36.9578701784
 20
59.3010467628
 30
0.0
  0
SPLINE
  5
261
100
AcDbEntity
  8
0
100
AcDbSpline
 62
7
  6
BYLAYER
 70
0
 71
3
 72
17
 73
13
 74
0
 42
0.0000001
 43
0.0000001
 44
0.0000000001
 40
0.0
 40
0.0
 40
0.0
 40
0.0
 40
0.0517208832
 40
0.1037763467
 40
0.1565040515
 40
0.2102178811
 40
0.321649319
 40
0.4401523832
 40
0.5670770976
 40
0.7030653868
 40
0.8478338013
 40
1.0
 40
1.0
 40
1.0
 40
1.0
 10
43.2953696853
 20
56.8874933694
 30
0.0
 10
43.1497251584
 20
56.8875083881
 30
0.0
 10
42.8573171559
 20
56.9010495851
 30
0.0
 10
42.420235073
 20
56.9618379811
 30
0.0
 10
41.9849234116
 20
57.0631214963
 30
0.0
 10
41.4012009362
 20
57.2541767456
 30
0.0
 10
40.6766980504
 20
57.5995258684
 30
0.0
 10
39.8433993736
 20
58.1671271823
 30
0.0
 10
39.0430607929
 20
58.8877267291
 30
0.0
 10
38.284942016
 20
59.7529303362
 30
0.0
 10
37.579203803
 20
60.7492092878
 30
0.0
 10
37.1584956257
 20
61.4731646593
 30
0.0
 10
36.9578701784
 20
61.8517910752
 30
0.0
  0
SPLINE
  5
262
100
AcDbEntity
  8
0
100
AcDbSpline
 62
7
  6
BYLAYER
 70
0
 71
3
 72
42
 73
38
 74
0
 42
0.0000001
 43
0.0000001
 44
0.0000000001
 40
0.0
 40
0.0
 40
0.0
 40
0.0
 40
0.0000229833
 40
0.0000915415
 40
0.0002056409
 40
0.0003652473
 40
0.0005703268
 40
0.0008208451
 40
0.0014580625
 40
0.0022766267
 40
0.0032762655
 40
0.0044567061
 40
0.0058176761
 40
0.0090800957
 40
0.0130597241
 40
0.0177499343
 40
0.0231438113
 40
0.0292344402
 40
0.0360147926
 40
0.0434758661
 40
0.0516069828
 40
0.0698364248
 40
0.0906137072
 40
0.1138302678
 40
0.1393708532
 40
0.1671126962
 40
0.1969252323
 40
0.2286740419
 40
0.2622145936
 40
0.3340814592
 40
0.4113240169
 40
0.4927172958
 40
0.5770282009
 40
0.6630321544
 40
0.7495235814
 40
0.8352979131
 40
1.0
 40
1.0
 40
1.0
 40
1.0
 10
44.3801614144
 20
69.3263477514
 30
0.0
 10
44.3802166058
 20
69.3263050798
 30
0.0
 10
44.3802038047
 20
69.3259781891
 30
0.0
 10
44.3804539647
 20
69.325433489
 30
0.0
 10
44.3806822985
 20
69.3243995211
 30
0.0
 10
44.3810892737
 20
69.3230126945
 30
0.0
 10
44.3815767014
 20
69.3212067233
 30
0.0
 10
44.3824607054
 20
69.3180111145
 30
0.0
 10
44.3838320739
 20
69.3130156265
 30
0.0
 10
44.3858103092
 20
69.3058302055
 30
0.0
 10
44.3882247048
 20
69.2970540021
 30
0.0
 10
44.3910769388
 20
69.2866908797
 30
0.0
 10
44.3957525135
 20
69.2697056592
 30
0.0
 10
44.4026858821
 20
69.2445292762
 30
0.0
 10
44.4123076758
 20
69.2096114448
 30
0.0
 10
44.4236555074
 20
69.1684582676
 30
0.0
 10
44.4367156331
 20
69.1211303579
 30
0.0
 10
44.4514741421
 20
69.0676895623
 30
0.0
 10
44.4679150419
 20
69.0082037223
 30
0.0
 10
44.4860216081
 20
68.9427523295
 30
0.0
 10
44.5134228729
 20
68.8438143071
 30
0.0
 10
44.5516826834
 20
68.7059419724
 30
0.0
 10
44.6023258065
 20
68.5239852395
 30
0.0
 10
44.6590823358
 20
68.3206942737
 30
0.0
 10
44.7217076342
 20
68.0970931681
 30
0.0
 10
44.7899576759
 20
67.8542756117
 30
0.0
 10
44.8635924234
 20
67.5933969963
 30
0.0
 10
44.9423447359
 20
67.3156739112
 30
0.0
 10
45.0564103247
 20
66.915279844
 30
0.0
 10
45.2093192451
 20
66.3823656419
 30
0.0
 10
45.4041928528
 20
65.7103815584
 30
0.0
 10
45.611723084
 20
65.0027422369
 30
0.0
 10
45.8290150503
 20
64.2702549996
 30
0.0
 10
46.0531126772
 20
63.5236493056
 30
0.0
 10
46.2809145565
 20
62.7735217849
 30
0.0
 10
46.5812138117
 20
61.7957629495
 30
0.0
 10
46.8076844783
 20
61.069972817
 30
0.0
 10
46.9578701784
 20
60.5931270688
 30
0.0
  0
SPLINE
  5
263
100
AcDbEntity
  8
0
100
AcDbSpline
 62
7
  6
BYLAYER
 70
0
 71
3
 72
34
 73
30
 74
0
 42
0.0000001
 43
0.0000001
 44
0.0000000001
 40
0.0
 40
0.0
 40
0.0
 40
0.0
 40
0.1010391991
 40
0.1671202676
 40
0.2412104293
 40
0.3214316721
 40
0.4058033648
 40
0.4922854187
 40
0.5787030658
 40
0.6628211714
 40
0.7423023345
 40
0.814797476
 40
0.8477093373
 40
0.8780184202
 40
0.9054519308
 40
0.9297831829
 40
0.95079698
 40
0.9682780738
 40
0.9756293731
 40
0.9820335242
 40
0.9874803793
 40
0.9919597897
 40
0.9954616066
 40
0.9968427459
 40
0.9979756806
 40
0.9988591422
 40
0.9994918618
 40
0.9998725707
 40
1.0
 40
1.0
 40
1.0
 40
1.0
 10
46.9579276091
 20
57.5100249381
 30
0.0
 10
46.8150476338
 20
57.9069119488
 30
0.0
 10
46.5850301117
 20
58.5656571874
 30
0.0
 10
46.266364142
 20
59.5209342218
 30
0.0
 10
45.9841080775
 20
60.3966939079
 30
0.0
 10
45.6886889899
 20
61.34837744
 30
0.0
 10
45.3878040321
 20
62.3524796042
 30
0.0
 10
45.0895380198
 20
63.3843170356
 30
0.0
 10
44.8003938956
 20
64.4176452426
 30
0.0
 10
44.5272333437
 20
65.425058056
 30
0.0
 10
44.2758071117
 20
66.3781138487
 30
0.0
 10
44.0834619867
 20
67.1256469489
 30
0.0
 10
43.9444107779
 20
67.6749122444
 30
0.0
 10
43.8523589033
 20
68.0420149737
 30
0.0
 10
43.7696855619
 20
68.3745368852
 30
0.0
 10
43.6969080232
 20
68.6695308588
 30
0.0
 10
43.6344846018
 20
68.9242833801
 30
0.0
 10
43.5891736047
 20
69.1102431487
 30
0.0
 10
43.5583855941
 20
69.2369641546
 30
0.0
 10
43.5394899198
 20
69.3148719267
 30
0.0
 10
43.5234458726
 20
69.3811340706
 30
0.0
 10
43.5102760006
 20
69.4356251675
 30
0.0
 10
43.5011046977
 20
69.4736204182
 30
0.0
 10
43.4952250472
 20
69.498037689
 30
0.0
 10
43.4918960006
 20
69.5118260039
 30
0.0
 10
43.4893319147
 20
69.5225834104
 30
0.0
 10
43.4874295723
 20
69.5302729739
 30
0.0
 10
43.4864081168
 20
69.5349223845
 30
0.0
 10
43.4858189475
 20
69.5369663433
 30
0.0
 10
43.485733845
 20
69.5374914889
 30
0.0
  0
SPLINE
  5
264
100
AcDbEntity
  8
0
100
AcDbSpline
 62
7
  6
BYLAYER
 70
0
 71
3
 72
29
 73
25
 74
0
 42
0.0000001
 43
0.0000001
 44
0.0000000001
 40
0.0
 40
0.0
 40
0.0
 40
0.0
 40
0.180299862
 40
0.3563510278
 40
0.4412730223
 40
0.5233472298
 40
0.6018411027
 40
0.6759721973
 40
0.7448722704
 40
0.8076071178
 40
0.863203719
 40
0.8880072474
 40
0.9106439108
 40
0.9309843628
 40
0.9488987047
 40
0.9642570902
 40
0.9769319955
 40
0.9868521442
 40
0.9907752902
 40
0.9940056453
 40
0.9965421996
 40
0.9983843362
 40
0.9995329546
 40
1.0
 40
1.0
 40
1.0
 40
1.0
 10
27.171423569
 20
68.8374933694
 30
0.0
 10
27.1441495636
 20
68.8794165518
 30
0.0
 10
27.0908510081
 20
68.9626680698
 30
0.0
 10
27.0247946474
 20
69.0657209941
 30
0.0
 10
26.9732702263
 20
69.1457246764
 30
0.0
 10
26.93643388
 20
69.202999233
 30
0.0
 10
26.9012323814
 20
69.2577662738
 30
0.0
 10
26.8680124401
 20
69.3094627427
 30
0.0
 10
26.8371543101
 20
69.3574806778
 30
0.0
 10
26.8090723367
 20
69.4011711809
 30
0.0
 10
26.7875966147
 20
69.4345668717
 30
0.0
 10
26.7721271198
 20
69.4586005641
 30
0.0
 10
26.7619437901
 20
69.4744060841
 30
0.0
 10
26.7527960799
 20
69.4886055821
 30
0.0
 10
26.7447531511
 20
69.5011149645
 30
0.0
 10
26.737880944
 20
69.5118496567
 30
0.0
 10
26.7322429506
 20
69.5207397324
 30
0.0
 10
26.7283375336
 20
69.5269761934
 30
0.0
 10
26.7258214164
 20
69.5309844239
 30
0.0
 10
26.7243881447
 20
69.5332674593
 30
0.0
 10
26.7232468847
 20
69.53501937
 30
0.0
 10
26.7224049947
 20
69.536355766
 30
0.0
 10
26.7218363484
 20
69.537027366
 30
0.0
 10
26.7215531278
 20
69.5374933695
 30
0.0
 10
26.7214235718
 20
69.5374933694
 30
0.0
  0
SPLINE
  5
265
100
AcDbEntity
  8
0
100
AcDbSpline
 62
7
  6
BYLAYER
 70
0
 71
3
 72
9
 73
5
 74
0
 42
0.0000001
 43
0.0000001
 44
0.0000000001
 40
0.0
 40
0.0
 40
0.0
 40
0.0
 40
0.5000049544
 40
1.0
 40
1.0
 40
1.0
 40
1.0
 10
36.357817134
 20
28.7309331246
 30
0.0
 10
36.4004624671
 20
28.8607450139
 30
0.0
 10
36.4664399722
 20
29.1271883735
 30
0.0
 10
36.4890602892
 20
29.4009118246
 30
0.0
 10
36.4890671342
 20
29.5375464141
 30
0.0
  0
SPLINE
  5
266
100
AcDbEntity
  8
0
100
AcDbSpline
 62
7
  6
BYLAYER
 70
0
 71
3
 72
14
 73
10
 74
0
 42
0.0000001
 43
0.0000001
 44
0.0000000001
 40
0.0
 40
0.0
 40
0.0
 40
0.0
 40
0.0885416087
 40
0.1817336364
 40
0.2837826659
 40
0.3981277006
 40
0.52709101
 40
0.6708443612
 40
1.0
 40
1.0
 40
1.0
 40
1.0
 10
7.0578171342
 20
21.7416596289
 30
0.0
 10
7.0578207239
 20
21.7310797158
 30
0.0
 10
7.0608820308
 20
21.7092594417
 30
0.0
 10
7.074427284
 20
21.6778000472
 30
0.0
 10
7.0967449216
 20
21.6479299249
 30
0.0
 10
7.1276648223
 20
21.620264807
 30
0.0
 10
7.1668893015
 20
21.5954200942
 30
0.0
 10
7.2325215428
 20
21.5656227299
 30
0.0
 10
7.2881566207
 20
21.5523250664
 30
0.0
 10
7.327131827
 20
21.5470460358
 30
0.0
  0
SPLINE
  5
267
100
AcDbEntity
  8
0
100
AcDbSpline
 62
7
  6
BYLAYER
 70
0
 71
3
 72
14
 73
10
 74
0
 42
0.0000001
 43
0.0000001
 44
0.0000000001
 40
0.0
 40
0.0
 40
0.0
 40
0.0
 40
0.3291493125
 40
0.4729050783
 40
0.6018691727
 40
0.7162108437
 40
0.8182560785
 40
0.911449075
 40
1.0
 40
1.0
 40
1.0
 40
1.0
 10
36.7885009669
 20
21.5470493456
 30
0.0
 10
36.8274755225
 20
21.5523279676
 30
0.0
 10
36.883110089
 20
21.5656261344
 30
0.0
 10
36.9487422302
 20
21.5954229222
 30
0.0
 10
36.9879672534
 20
21.6202668184
 30
0.0
 10
37.0188872957
 20
21.6479307529
 30
0.0
 10
37.0412046667
 20
21.6778002825
 30
0.0
 10
37.0547499391
 20
21.7092605617
 30
0.0
 10
37.0578122636
 20
21.7310817468
 30
0.0
 10
37.0578171339
 20
21.7416627877
 30
0.0
  0
SPLINE
  5
268
100
AcDbEntity
  8
0
100
AcDbSpline
 62
7
  6
BYLAYER
 70
0
 71
3
 72
9
 73
5
 74
0
 42
0.0000001
 43
0.0000001
 44
0.0000000001
 40
0.0
 40
0.0
 40
0.0
 40
0.0
 40
0.4999922167
 40
1.0
 40
1.0
 40
1.0
 40
1.0
 10
36.4890671342
 20
29.5375464141
 30
0.0
 10
36.4890580756
 20
29.6741802798
 30
0.0
 10
36.4664471667
 20
29.9479050198
 30
0.0
 10
36.400458165
 20
30.2143455349
 30
0.0
 10
36.357817134
 20
30.3441597032
 30
0.0
  0
SPLINE
  5
269
100
AcDbEntity
  8
0
100
AcDbSpline
 62
7
  6
BYLAYER
 70
0
 71
3
 72
9
 73
5
 74
0
 42
0.0000001
 43
0.0000001
 44
0.0000000001
 40
0.0
 40
0.0
 40
0.0
 40
0.0
 40
0.4999925866
 40
1.0
 40
1.0
 40
1.0
 40
1.0
 10
7.6265671338
 20
29.5375464115
 30
0.0
 10
7.6265766715
 20
29.4009124809
 30
0.0
 10
7.649188455
 20
29.1271877802
 30
0.0
 10
7.7151783266
 20
28.8607478787
 30
0.0
 10
7.757817134
 20
28.7309331244
 30
0.0
  0
SPLINE
  5
26A
100
AcDbEntity
  8
0
100
AcDbSpline
 62
7
  6
BYLAYER
 70
0
 71
3
 72
9
 73
5
 74
0
 42
0.0000001
 43
0.0000001
 44
0.0000000001
 40
0.0
 40
0.0
 40
0.0
 40
0.0
 40
0.5000078885
 40
1.0
 40
1.0
 40
1.0
 40
1.0
 10
7.757817134
 20
30.3441706882
 30
0.0
 10
7.7151752068
 20
30.2143549237
 30
0.0
 10
7.6491900646
 20
29.9479098263
 30
0.0
 10
7.6265762299
 20
29.6741820158
 30
0.0
 10
7.6265671338
 20
29.5375464115
 30
0.0
  0
SPLINE
  5
26B
100
AcDbEntity
  8
0
100
AcDbSpline
 62
7
  6
BYLAYER
 70
0
 71
3
 72
14
 73
10
 74
0
 42
0.0000001
 43
0.0000001
 44
0.0000000001
 40
0.0
 40
0.0
 40
0.0
 40
0.0
 40
0.0924776434
 40
0.1935929183
 40
0.3067070856
 40
0.4323275761
 40
0.5689171911
 40
0.7124788483
 40
1.0
 40
1.0
 40
1.0
 40
1.0
 10
36.6730794551
 20
21.2551310998
 30
0.0
 10
36.6832964106
 20
21.2575515511
 30
0.0
 10
36.7040272888
 20
21.2658366235
 30
0.0
 10
36.7318853619
 20
21.2874012201
 30
0.0
 10
36.7556342795
 20
21.3182541537
 30
0.0
 10
36.7743838774
 20
21.3567961615
 30
0.0
 10
36.7869468211
 20
21.4013326967
 30
0.0
 10
36.7956595375
 20
21.4653383743
 30
0.0
 10
36.7932556235
 20
21.5147545433
 30
0.0
 10
36.7885007579
 20
21.5470510524
 30
0.0
  0
SPLINE
  5
26C
100
AcDbEntity
  8
0
100
AcDbSpline
 62
7
  6
BYLAYER
 70
0
 71
3
 72
11
 73
7
 74
0
 42
0.0000001
 43
0.0000001
 44
0.0000000001
 40
0.0
 40
0.0
 40
0.0
 40
0.0
 40
0.2458008334
 40
0.4952665359
 40
0.747065622
 40
1.0
 40
1.0
 40
1.0
 40
1.0
 10
24.2280705754
 20
19.584702412
 30
0.0
 10
24.0487376833
 20
19.5785600453
 30
0.0
 10
23.6865391539
 20
19.5921028625
 30
0.0
 10
23.14463884
 20
19.6550838689
 30
0.0
 10
22.6011367045
 20
19.7439165993
 30
0.0
 10
22.2390950941
 20
19.8124420878
 30
0.0
 10
22.057817134
 20
19.8475464139
 30
0.0
  0
SPLINE
  5
26D
100
AcDbEntity
  8
0
100
AcDbSpline
 62
7
  6
BYLAYER
 70
0
 71
3
 72
11
 73
7
 74
0
 42
0.0000001
 43
0.0000001
 44
0.0000000001
 40
0.0
 40
0.0
 40
0.0
 40
0.0
 40
0.2458001841
 40
0.4952659372
 40
0.7470648251
 40
1.0
 40
1.0
 40
1.0
 40
1.0
 10
19.8875636926
 20
19.584702412
 30
0.0
 10
20.0668958329
 20
19.578560071
 30
0.0
 10
20.4290904313
 20
19.5921829387
 30
0.0
 10
20.9709952244
 20
19.6550804188
 30
0.0
 10
21.5145056575
 20
19.743873953
 30
0.0
 10
21.8765388837
 20
19.8124420316
 30
0.0
 10
22.057817134
 20
19.8475464139
 30
0.0
  0
SPLINE
  5
26E
100
AcDbEntity
  8
0
100
AcDbSpline
 62
7
  6
BYLAYER
 70
0
 71
3
 72
14
 73
10
 74
0
 42
0.0000001
 43
0.0000001
 44
0.0000000001
 40
0.0
 40
0.0
 40
0.0
 40
0.0
 40
0.0902796516
 40
0.1894059808
 40
0.300840238
 40
0.4253862458
 40
0.5619475959
 40
0.7066836357
 40
1.0
 40
1.0
 40
1.0
 40
1.0
 10
7.4425548128
 20
21.2551310998
 30
0.0
 10
7.4325807221
 20
21.2574940151
 30
0.0
 10
7.4122802412
 20
21.2655130572
 30
0.0
 10
7.3847840054
 20
21.2864269822
 30
0.0
 10
7.3610418859
 20
21.3165937448
 30
0.0
 10
7.3420579491
 20
21.3546715256
 30
0.0
 10
7.3291382726
 20
21.3991190906
 30
0.0
 10
7.3199297565
 20
21.4638582099
 30
0.0
 10
7.3222828206
 20
21.514103675
 30
0.0
 10
7.3271335092
 20
21.5470510461
 30
0.0
  0
ENDSEC
  0
SECTION
  2
OBJECTS
  0
DICTIONARY
  5
C
100
AcDbDictionary
280
0
281
1
  3
ACAD_GROUP
350
D
  3
ACAD_MLINESTYLE
350
17
  3
ACAD_LAYOUT
350
1A
  3
ACAD_PLOTSETTINGS
350
19
  3
ACAD_PLOTSTYLENAME
350
E
  0
DICTIONARY
  5
D
102
{ACAD_REACTORS
330
C
102
}
100
AcDbDictionary
280
0
281
1
  0
ACDBDICTIONARYWDFLT
  5
E
102
{ACAD_REACTORS
330
C
102
}
100
AcDbDictionary
281
1
  3
Normal
350
F
100
AcDbDictionaryWithDefault
340
F
  0
DICTIONARY
  5
17
102
{ACAD_REACTORS
330
C
102
}
100
AcDbDictionary
280
0
281
1
  3
Standard
350
18
  0
DICTIONARY
  5
19
102
{ACAD_REACTORS
330
C
102
}
100
AcDbDictionary
281
1
  0
DICTIONARY
  5
1A
102
{ACAD_REACTORS
330
C
102
}
100
AcDbDictionary
281
1
  3
Model
350
26F
  3
Layout1
350
270
  0
ACDBPLACEHOLDER
  5
F
102
{ACAD_REACTORS
330
E
102
}
  0
MLINESTYLE
  5
18
102
{ACAD_REACTORS
330
17
102
}
100
AcDbMlineStyle
  2
STANDARD
 70
0
  3

 62
256
 51
90.0
 52
90.0
 71
2
 49
0.5
 62
256
  6
BYLAYER
 49
-0.5
 62
256
  6
BYLAYER
  0
LAYOUT
  5
26F
102
{ACAD_REACTORS
330
1A
102
}
100
AcDbPlotSettings
  1

  2
none_device
  4

  6

 40
0.0
 41
0.0
 42
0.0
 43
0.0
 44
210.0
 45
297.0
 46
0.0
 47
0.0
 48
0.0
 49
0.0
140
0.0
141
0.0
142
1.0
143
1.0
 70
1024
 72
1
 73
0
 74
0
  7

 75
0
147
1.0
148
0.0
149
0.0
100
AcDbLayout
  1
Model
 70
0
 71
0
 10
0.0
 20
0.0
 11
210.0
 21
297.0
 12
0.0
 22
0.0
 32
0.0
 14
0.0
 24
0.0
 34
0.0
 15
0.0
 25
0.0
 35
0.0
146
0.0
 13
0.0
 23
0.0
 33
0.0
 16
1.0
 26
0.0
 36
0.0
 17
0.0
 27
1.0
 37
0.0
 76
0
330
210
345
0
346
0
  0
LAYOUT
  5
270
102
{ACAD_REACTORS
330
1A
102
}
100
AcDbPlotSettings
  1

  2
none_device
  4

  6

 40
0.0
 41
0.0
 42
0.0
 43
0.0
 44
210.0
 45
297.0
 46
0.0
 47
0.0
 48
0.0
 49
0.0
140
0.0
141
0.0
142
1.0
143
1.0
 70
0
 72
1
 73
0
 74
0
  7

 75
0
147
1.0
148
0.0
149
0.0
100
AcDbLayout
  1
Layout1
 70
0
 71
1
 10
0.0
 20
0.0
 11
210.0
 21
297.0
 12
0.0
 22
0.0
 32
0.0
 14
0.0
 24
0.0
 34
0.0
 15
0.0
 25
0.0
 35
0.0
146
0.0
 13
0.0
 23
0.0
 33
0.0
 16
1.0
 26
0.0
 36
0.0
 17
0.0
 27
1.0
 37
0.0
 76
0
330
211
345
0
346
0
  0
ENDSEC
  0
EOF
