999
DXF file: C:\Users\sesa63760\Dev\_Creo\CAD\MCADPD0004168_3D-CAD\drw0001_1.dxf
999
Pro/ENGINEER 2019471 by Parametric Technology Corporation
  0
SECTION
  2
HEADER
  9
$ACADVER
  1
AC1024
  9
$DWGCODEPAGE
  3
ANSI_1252
  9
$EXTMAX
 10
72.4246097621
 20
102.4290909493
 30
0.0
  9
$EXTMIN
 10
0.0
 20
0.0
 30
0.0
  9
$LIMMIN
 10
0.0
 20
0.0
  9
$LIMMAX
 10
72.4246097621
 20
102.4290909493
  9
$VIEWCTR
 10
36.2123048811
 20
51.2145454746
  9
$VIEWSIZE
 40
102.4290909493
  9
$CLAYER
  8
0
  9
$LTSCALE
 40
6.6768592619
  9
$CELTYPE
  6
BYLAYER
  9
$DIMSCALE
 40
1.0
  9
$DIMASZ
 40
0.8621977353
  9
$DIMEXO
 40
1.0
  9
$DIMDLI
 40
4.6131027628
  9
$DIMEXE
 40
1.0
  9
$DIMCEN
 40
1.0925769701
  9
$DIMLFAC
 40
1.0
  9
$DIMBLK
  1
_FILLED
  9
$DIMALT
 70
0
  9
$DIMALTF
 40
0.0393700787
  9
$DIMTXT
 40
1.2070768294
  9
$DIMTOL
 70
1
  9
$DIMLIM
 70
0
  9
$DIMTFAC
 40
1.0
  9
$DIMTP
 40
0.01
  9
$DIMTM
 40
0.01
  9
$DIMGAP
 40
0.625
  9
$DIMDSEP
 70
46
  9
$AUNITS
 70
0
  9
$PDMODE
 70
3
  9
$PDSIZE
 40
0.3125
  9
$HANDSEED
  5
34F
  9
$TILEMODE
 70
1
  9
$MEASUREMENT
 70
1
  9
$INSUNITS
 70
4
  0
ENDSEC
  0
SECTION
  2
CLASSES
  0
CLASS
  1
ACDBDICTIONARYWDFLT
  2
AcDbDictionaryWithDefault
  3
AutoCAD 2000
 90
0
 91
1
280
0
281
0
  0
CLASS
  1
ACDBPLACEHOLDER
  2
AcDbPlaceHolder
  3
AutoCAD 2000
 90
0
 91
1
280
0
281
0
  0
CLASS
  1
LAYOUT
  2
AcDbLayout
  3
AutoCAD 2000
 90
0
 91
0
280
0
281
0
  0
ENDSEC
  0
SECTION
  2
TABLES
  0
TABLE
  2
VPORT
  5
8
100
AcDbSymbolTable
 70
2
  0
VPORT
  5
1F4
100
AcDbSymbolTableRecord
100
AcDbViewportTableRecord
  2
*ACTIVE
 70
0
 10
0.0
 20
0.0
 11
1.0
 21
1.0
 12
36.2123048811
 22
51.2145454746
 13
0.0
 23
0.0
 14
1.0
 24
1.0
 15
0.0
 25
0.0
 16
0.0
 26
0.0
 36
1.0
 17
0.0
 27
0.0
 37
0.0
 40
102.4290909493
 41
0.7070707071
 42
50.0
 43
0.0
 44
0.0
 50
0.0
 51
0.0
 71
0
 72
100
 73
1
 74
1
 75
0
 76
0
 77
0
 78
0
  0
ENDTAB
  0
TABLE
  2
LTYPE
  5
5
100
AcDbSymbolTable
 70
6
  0
LTYPE
  5
14
100
AcDbSymbolTableRecord
100
AcDbLinetypeTableRecord
  2
BYBLOCK
 70
0
  3

 72
65
 73
0
 40
0.0
  0
LTYPE
  5
15
100
AcDbSymbolTableRecord
100
AcDbLinetypeTableRecord
  2
BYLAYER
 70
0
  3

 72
65
 73
0
 40
0.0
  0
LTYPE
  5
16
100
AcDbSymbolTableRecord
100
AcDbLinetypeTableRecord
  2
CONTINUOUS
 70
64
  3
Solid line
 72
65
 73
0
 40
0.0
  0
LTYPE
  5
1F5
100
AcDbSymbolTableRecord
100
AcDbLinetypeTableRecord
  2
CENTER
 70
64
  3
____ _ ____ _ ____ _ ____ _ ____ _ ____ _ ____
 72
65
 73
4
 40
0.6
 49
0.375
 74
0
 49
-0.075
 74
0
 49
0.075
 74
0
 49
-0.075
 74
0
  0
LTYPE
  5
1F6
100
AcDbSymbolTableRecord
100
AcDbLinetypeTableRecord
  2
HIDDEN
 70
64
  3
- - - - - - - - - - - - - - - - - - - -
 72
65
 73
2
 40
0.2
 49
0.1
 74
0
 49
-0.1
 74
0
  0
LTYPE
  5
1F7
100
AcDbSymbolTableRecord
100
AcDbLinetypeTableRecord
  2
PHANTOM
 70
64
  3
_____ _ _ _____ _ _ _____ _ _ _____
 72
65
 73
6
 40
0.8
 49
0.45
 74
0
 49
-0.05
 74
0
 49
0.1
 74
0
 49
-0.05
 74
0
 49
0.1
 74
0
 49
-0.05
 74
0
  0
LTYPE
  5
1F8
100
AcDbSymbolTableRecord
100
AcDbLinetypeTableRecord
  2
DOT
 70
64
  3
. . . . . . . . . . . . . . . . . . . .
 72
65
 73
2
 40
0.2
 49
0.1
 74
0
 49
-0.1
 74
0
  0
LTYPE
  5
1F9
100
AcDbSymbolTableRecord
100
AcDbLinetypeTableRecord
  2
DASHED
 70
64
  3
- - - - - - - - - - - - - - - - - - - -
 72
65
 73
2
 40
0.2
 49
0.1
 74
0
 49
-0.1
 74
0
  0
ENDTAB
  0
TABLE
  2
LAYER
  5
2
100
AcDbSymbolTable
 70
36
  0
LAYER
  5
10
100
AcDbSymbolTableRecord
100
AcDbLayerTableRecord
  2
0
 70
0
 62
7
  6
CONTINUOUS
370
-3
390
F
  0
LAYER
  5
1FA
100
AcDbSymbolTableRecord
100
AcDbLayerTableRecord
  2
DEFAULT_1
 70
0
 62
7
  6
CENTER
370
-3
390
F
  0
LAYER
  5
1FB
100
AcDbSymbolTableRecord
100
AcDbLayerTableRecord
  2
DEFAULT_2
 70
0
 62
7
  6
HIDDEN
370
-3
390
F
  0
LAYER
  5
1FC
100
AcDbSymbolTableRecord
100
AcDbLayerTableRecord
  2
DEFAULT_3
 70
0
 62
7
  6
PHANTOM
370
-3
390
F
  0
LAYER
  5
1FD
100
AcDbSymbolTableRecord
100
AcDbLayerTableRecord
  2
00_COMPONENTS
 70
0
 62
7
  6
CONTINUOUS
370
-3
390
F
  0
LAYER
  5
1FE
100
AcDbSymbolTableRecord
100
AcDbLayerTableRecord
  2
01_1_DEFAULT_DATUMS
 70
0
 62
7
  6
CONTINUOUS
370
-3
390
F
  0
LAYER
  5
1FF
100
AcDbSymbolTableRecord
100
AcDbLayerTableRecord
  2
01_PLANES
 70
0
 62
7
  6
CONTINUOUS
370
-3
390
F
  0
LAYER
  5
200
100
AcDbSymbolTableRecord
100
AcDbLayerTableRecord
  2
02_COORD_SYS
 70
0
 62
7
  6
CONTINUOUS
370
-3
390
F
  0
LAYER
  5
201
100
AcDbSymbolTableRecord
100
AcDbLayerTableRecord
  2
03_AXES
 70
0
 62
7
  6
CONTINUOUS
370
-3
390
F
  0
LAYER
  5
202
100
AcDbSymbolTableRecord
100
AcDbLayerTableRecord
  2
04_POINTS
 70
0
 62
7
  6
CONTINUOUS
370
-3
390
F
  0
LAYER
  5
203
100
AcDbSymbolTableRecord
100
AcDbLayerTableRecord
  2
05_CURVES
 70
0
 62
7
  6
CONTINUOUS
370
-3
390
F
  0
LAYER
  5
204
100
AcDbSymbolTableRecord
100
AcDbLayerTableRecord
  2
06_SURFS
 70
0
 62
7
  6
CONTINUOUS
370
-3
390
F
  0
LAYER
  5
205
100
AcDbSymbolTableRecord
100
AcDbLayerTableRecord
  2
07_COSMETICS
 70
0
 62
7
  6
CONTINUOUS
370
-3
390
F
  0
LAYER
  5
206
100
AcDbSymbolTableRecord
100
AcDbLayerTableRecord
  2
10_NOTES
 70
0
 62
7
  6
CONTINUOUS
370
-3
390
F
  0
LAYER
  5
207
100
AcDbSymbolTableRecord
100
AcDbLayerTableRecord
  2
11_NOTES_PUB
 70
0
 62
7
  6
CONTINUOUS
370
-3
390
F
  0
LAYER
  5
208
100
AcDbSymbolTableRecord
100
AcDbLayerTableRecord
  2
13_REF_GTOL
 70
0
 62
7
  6
CONTINUOUS
370
-3
390
F
  0
LAYER
  5
209
100
AcDbSymbolTableRecord
100
AcDbLayerTableRecord
  2
16_MISC
 70
0
 62
7
  6
CONTINUOUS
370
-3
390
F
  0
LAYER
  5
20A
100
AcDbSymbolTableRecord
100
AcDbLayerTableRecord
  2
17_NO_PRINT
 70
0
 62
7
  6
CONTINUOUS
370
-3
390
F
  0
LAYER
  5
20B
100
AcDbSymbolTableRecord
100
AcDbLayerTableRecord
  2
18_DATUM_CAMS_JOINTS
 70
0
 62
7
  6
CONTINUOUS
370
-3
390
F
  0
LAYER
  5
20C
100
AcDbSymbolTableRecord
100
AcDbLayerTableRecord
  2
19_DATUM_FUNCTIONAL
 70
0
 62
7
  6
CONTINUOUS
370
-3
390
F
  0
LAYER
  5
20D
100
AcDbSymbolTableRecord
100
AcDbLayerTableRecord
  2
20_DATUM_KINEMATIC_SCHEME
 70
0
 62
7
  6
CONTINUOUS
370
-3
390
F
  0
ENDTAB
  0
TABLE
  2
STYLE
  5
3
100
AcDbSymbolTable
 70
1
  0
STYLE
  5
11
100
AcDbSymbolTableRecord
100
AcDbTextStyleTableRecord
  2
STANDARD
 70
0
 40
0.0
 41
1.0
 50
0.0
 71
0
 42
0.2
  3
ARIAL.TTF
  4

  0
STYLE
  5
20E
100
AcDbSymbolTableRecord
100
AcDbTextStyleTableRecord
  2
TEXTSTYLE_1
 70
0
 40
0.0
 41
0.8
 50
0.0
 71
0
 42
0.2
  3
gdt
  4

  0
ENDTAB
  0
TABLE
  2
VIEW
  5
6
100
AcDbSymbolTable
 70
0
  0
ENDTAB
  0
TABLE
  2
UCS
  5
7
100
AcDbSymbolTable
 70
0
  0
ENDTAB
  0
TABLE
  2
APPID
  5
9
100
AcDbSymbolTable
 70
1
  0
APPID
  5
20F
100
AcDbSymbolTableRecord
100
AcDbRegAppTableRecord
  2
ACAD
 70
0
  0
ENDTAB
  0
TABLE
  2
BLOCK_RECORD
  5
1
100
AcDbSymbolTable
 70
0
  0
BLOCK_RECORD
  5
210
100
AcDbSymbolTableRecord
100
AcDbBlockTableRecord
  2
*Model_Space
  0
BLOCK_RECORD
  5
211
100
AcDbSymbolTableRecord
100
AcDbBlockTableRecord
  2
*Paper_Space
  0
BLOCK_RECORD
  5
212
100
AcDbSymbolTableRecord
100
AcDbBlockTableRecord
  2
_FILLED
  0
ENDTAB
  0
TABLE
  2
DIMSTYLE
  5
A
100
AcDbSymbolTable
 70
1
100
AcDbDimStyleTable
 71
0
  0
DIMSTYLE
105
213
100
AcDbSymbolTableRecord
100
AcDbDimStyleTableRecord
  2
STANDARD
 70
0
  3

  4

 40
1.0
 41
0.8621977353
 42
1.0
 43
0.38
 44
1.0
 45
0.0
 46
0.0
 47
0.01
 48
0.01
140
1.2070768294
141
0.09
142
0.0
143
25.4
144
1.0
145
0.0
146
1.0
147
0.625
 71
1
 72
0
 73
0
 74
0
 75
0
 76
0
 77
1
 78
8
 79
2
170
0
171
1
172
0
173
0
174
0
175
0
176
0
177
0
178
0
270
2
179
2
271
2
272
2
273
2
274
2
275
0
280
0
281
0
282
0
283
1
284
8
285
0
286
0
287
3
288
0
340
11
278
46
341
212
342
212
343
212
344
212
  0
ENDTAB
  0
ENDSEC
  0
SECTION
  2
BLOCKS
  0
BLOCK
  5
20
100
AcDbEntity
  8
0
100
AcDbBlockBegin
  2
*Model_Space
 70
0
 10
0.0
 20
0.0
 30
0.0
  3
*Model_Space
  1

  0
ENDBLK
  5
21
100
AcDbEntity
  8
0
100
AcDbBlockEnd
  0
BLOCK
  5
1C
100
AcDbEntity
  8
0
100
AcDbBlockBegin
  2
*Paper_Space
 70
0
 10
0.0
 20
0.0
 30
0.0
  3
*Paper_Space
  1

  0
ENDBLK
  5
1D
100
AcDbEntity
  8
0
100
AcDbBlockEnd
  0
BLOCK
  5
214
100
AcDbEntity
  8
0
100
AcDbBlockBegin
  2
_FILLED
 70
64
 10
0.0
 20
0.0
  3
_FILLED
  1

  0
SOLID
  5
215
100
AcDbEntity
  8
0
  6
BYBLOCK
 62
0
100
AcDbTrace
 10
0.0
 20
0.0
 11
-1.0
 21
0.25
 12
-1.0
 22
-0.25
 13
-1.0
 23
-0.25
  0
ENDBLK
  5
216
100
AcDbEntity
  8
0
  6
BYBLOCK
 62
0
100
AcDbBlockEnd
  0
ENDSEC
  0
SECTION
  2
ENTITIES
  0
LINE
  5
217
100
AcDbEntity
  8
0
100
AcDbLine
 62
7
  6
BYLAYER
 10
29.6859164414
 20
85.4281798664
 11
8.7556428599
 21
73.3441529118
  0
LINE
  5
218
100
AcDbEntity
  8
0
100
AcDbLine
 62
7
  6
BYLAYER
 10
27.7733528687
 20
82.3710024299
 11
24.7976655201
 21
80.399169017
  0
LINE
  5
219
100
AcDbEntity
  8
0
100
AcDbLine
 62
7
  6
BYLAYER
 10
27.3701920527
 20
82.6037621698
 11
24.3338125163
 21
80.6669686152
  0
LINE
  5
21A
100
AcDbEntity
  8
0
100
AcDbLine
 62
7
  6
BYLAYER
 10
30.8172920017
 20
84.7749946591
 11
9.8870184201
 21
72.6909677045
  0
LINE
  5
21B
100
AcDbEntity
  8
0
100
AcDbLine
 62
7
  6
BYLAYER
 10
8.7556428599
 20
70.1189613094
 11
8.5435087648
 21
69.9964863636
  0
LINE
  5
21C
100
AcDbEntity
  8
0
100
AcDbLine
 62
7
  6
BYLAYER
 10
24.2214906524
 20
77.7103218803
 11
29.1681618418
 21
80.2169066036
  0
LINE
  5
21D
100
AcDbEntity
  8
0
100
AcDbLine
 62
7
  6
BYLAYER
 10
8.4020879973
 20
61.0403880067
 11
8.4020879973
 21
47.6805449663
  0
LINE
  5
21E
100
AcDbEntity
  8
0
100
AcDbLine
 62
7
  6
BYLAYER
 10
8.5435087648
 20
69.9964863636
 11
8.5435087648
 21
61.1220368375
  0
LINE
  5
21F
100
AcDbEntity
  8
0
100
AcDbLine
 62
7
  6
BYLAYER
 10
8.5435087648
 20
47.5988974953
 11
8.5435087648
 21
38.8877442709
  0
LINE
  5
220
100
AcDbEntity
  8
0
100
AcDbLine
 62
7
  6
BYLAYER
 10
8.7556428599
 20
73.3441529118
 11
8.7556428599
 21
69.874017639
  0
LINE
  5
221
100
AcDbEntity
  8
0
100
AcDbLine
 62
7
  6
BYLAYER
 10
8.7556428599
 20
38.4386745795
 11
8.7556428599
 21
34.9685393067
  0
LINE
  5
222
100
AcDbEntity
  8
0
100
AcDbLine
 62
7
  6
BYLAYER
 10
9.8870184201
 20
72.6909677045
 11
9.8870184201
 21
69.2208324317
  0
LINE
  5
223
100
AcDbEntity
  8
0
100
AcDbLine
 62
7
  6
BYLAYER
 10
9.8870184201
 20
37.7854893723
 11
9.8870184201
 21
34.3153540995
  0
LINE
  5
224
100
AcDbEntity
  8
0
100
AcDbLine
 62
7
  6
BYLAYER
 10
9.8870184201
 20
69.2208324317
 11
10.7355430248
 21
69.7107254164
  0
LINE
  5
225
100
AcDbEntity
  8
0
100
AcDbLine
 62
7
  6
BYLAYER
 10
34.4588673426
 20
82.0600597765
 11
30.8172920017
 21
79.9576078231
  0
LINE
  5
226
100
AcDbEntity
  8
0
100
AcDbLine
 62
7
  6
BYLAYER
 10
30.8172920017
 20
78.6512265307
 11
30.6023854035
 21
78.527150889
  0
LINE
  5
227
100
AcDbEntity
  8
0
100
AcDbLine
 62
7
  6
BYLAYER
 10
19.4329202225
 20
74.1364692037
 11
10.8088139623
 21
69.5051228945
  0
LINE
  5
228
100
AcDbEntity
  8
0
100
AcDbLine
 62
7
  6
BYLAYER
 10
8.7556428599
 20
34.9685393067
 11
9.8870184201
 21
34.3153540995
  0
LINE
  5
229
100
AcDbEntity
  8
0
100
AcDbLine
 62
7
  6
BYLAYER
 10
16.1095840014
 20
30.7228354597
 11
17.2409595617
 21
30.0696502524
  0
LINE
  5
22A
100
AcDbEntity
  8
0
100
AcDbLine
 62
7
  6
BYLAYER
 10
23.463525143
 20
26.4771316127
 11
24.7363226482
 21
25.7422982545
  0
LINE
  5
22B
100
AcDbEntity
  8
0
100
AcDbLine
 62
7
  6
BYLAYER
 10
30.9588882295
 20
22.1497796147
 11
32.0902637898
 21
21.4965944075
  0
LINE
  5
22C
100
AcDbEntity
  8
0
100
AcDbLine
 62
7
  6
BYLAYER
 10
38.312829371
 20
17.9040757677
 11
39.4442049313
 21
17.2508905605
  0
LINE
  5
22D
100
AcDbEntity
  8
0
100
AcDbLine
 62
7
  6
BYLAYER
 10
10.7355430248
 20
69.547424933
 11
10.7355430248
 21
69.7107254164
  0
LINE
  5
22E
100
AcDbEntity
  8
0
100
AcDbLine
 62
7
  6
BYLAYER
 10
34.5122927615
 20
78.2229331911
 11
31.8995940906
 21
76.5563898999
  0
LINE
  5
22F
100
AcDbEntity
  8
0
100
AcDbLine
 62
7
  6
BYLAYER
 10
31.8291756029
 20
76.3396166173
 11
32.0410160357
 21
76.474741749
  0
LINE
  5
230
100
AcDbEntity
  8
0
100
AcDbLine
 62
7
  6
BYLAYER
 10
34.6537147065
 20
78.1412850402
 11
34.8655551393
 21
78.2764101719
  0
LINE
  5
231
100
AcDbEntity
  8
0
100
AcDbLine
 62
7
  6
BYLAYER
 10
33.0481748731
 20
79.3256514208
 11
29.9511031488
 21
77.4238977245
  0
LINE
  5
232
100
AcDbEntity
  8
0
100
AcDbLine
 62
7
  6
BYLAYER
 10
37.039857583
 20
81.1824760194
 11
16.1095840014
 21
69.0984490648
  0
LINE
  5
233
100
AcDbEntity
  8
0
100
AcDbLine
 62
7
  6
BYLAYER
 10
38.1712331432
 20
80.5292908121
 11
17.2409595617
 21
68.4452638575
  0
LINE
  5
234
100
AcDbEntity
  8
0
100
AcDbLine
 62
7
  6
BYLAYER
 10
8.7556428599
 20
38.4386745795
 11
9.8870184201
 21
37.7854893723
  0
LINE
  5
235
100
AcDbEntity
  8
0
100
AcDbLine
 62
7
  6
BYLAYER
 10
16.1095840014
 20
34.1929707325
 11
17.2409595617
 21
33.5397855252
  0
LINE
  5
236
100
AcDbEntity
  8
0
100
AcDbLine
 62
7
  6
BYLAYER
 10
23.463525143
 20
29.9472668855
 11
24.7363226482
 21
29.2124335273
  0
LINE
  5
237
100
AcDbEntity
  8
0
100
AcDbLine
 62
7
  6
BYLAYER
 10
30.9588882295
 20
25.6199148875
 11
32.0902637898
 21
24.9667296803
  0
LINE
  5
238
100
AcDbEntity
  8
0
100
AcDbLine
 62
7
  6
BYLAYER
 10
38.312829371
 20
21.3742110405
 11
39.4442049313
 21
20.7210258333
  0
LINE
  5
239
100
AcDbEntity
  8
0
100
AcDbLine
 62
7
  6
BYLAYER
 10
16.9563075365
 20
33.8674262141
 11
30.8899853921
 21
25.8229955428
  0
LINE
  5
23A
100
AcDbEntity
  8
0
100
AcDbLine
 62
7
  6
BYLAYER
 10
8.5435087648
 20
38.8877442709
 11
16.9563075365
 21
34.0307225159
  0
LINE
  5
23B
100
AcDbEntity
  8
0
100
AcDbLine
 62
7
  6
BYLAYER
 10
31.0314061595
 20
25.9046443736
 11
39.5856256987
 21
20.9659751475
  0
LINE
  5
23C
100
AcDbEntity
  8
0
100
AcDbLine
 62
7
  6
BYLAYER
 10
40.1513051471
 20
21.2925683798
 11
40.2927295359
 21
21.2109188179
  0
LINE
  5
23D
100
AcDbEntity
  8
0
100
AcDbLine
 62
7
  6
BYLAYER
 10
16.1095840014
 20
69.0984490648
 11
16.1095840014
 21
65.628313792
  0
LINE
  5
23E
100
AcDbEntity
  8
0
100
AcDbLine
 62
7
  6
BYLAYER
 10
16.1095840014
 20
34.1929707325
 11
16.1095840014
 21
30.7228354597
  0
LINE
  5
23F
100
AcDbEntity
  8
0
100
AcDbLine
 62
7
  6
BYLAYER
 10
24.3338125163
 20
80.6669686152
 11
22.0843825416
 21
74.3264032657
  0
LINE
  5
240
100
AcDbEntity
  8
0
100
AcDbLine
 62
7
  6
BYLAYER
 10
35.2687159552
 20
78.043650432
 11
32.2930286066
 21
76.0718170191
  0
LINE
  5
241
100
AcDbEntity
  8
0
100
AcDbLine
 62
7
  6
BYLAYER
 10
8.4020879973
 20
61.0403880067
 11
8.5435087648
 21
61.1220368375
  0
LINE
  5
242
100
AcDbEntity
  8
0
100
AcDbLine
 62
7
  6
BYLAYER
 10
12.0254830875
 20
62.2496189212
 11
14.5064267557
 21
63.6819838658
  0
LINE
  5
243
100
AcDbEntity
  8
0
100
AcDbLine
 62
7
  6
BYLAYER
 10
16.9563075365
 20
64.9761683068
 11
17.097728304
 21
65.0578171375
  0
LINE
  5
244
100
AcDbEntity
  8
0
100
AcDbLine
 62
7
  6
BYLAYER
 10
17.2409595617
 20
64.9751285847
 11
18.0894841663
 21
65.4650215694
  0
LINE
  5
245
100
AcDbEntity
  8
0
100
AcDbLine
 62
7
  6
BYLAYER
 10
29.4738559455
 20
71.3337441491
 11
18.1627551038
 21
65.2594190475
  0
LINE
  5
246
100
AcDbEntity
  8
0
100
AcDbLine
 62
7
  6
BYLAYER
 10
31.716853739
 20
73.3829698823
 11
36.6635249284
 21
75.8895546057
  0
LINE
  5
247
100
AcDbEntity
  8
0
100
AcDbLine
 62
7
  6
BYLAYER
 10
16.9563075365
 20
64.9761683068
 11
16.9563075365
 21
56.1017187806
  0
LINE
  5
248
100
AcDbEntity
  8
0
100
AcDbLine
 62
7
  6
BYLAYER
 10
16.9563075365
 20
33.8674262141
 11
16.9563075365
 21
42.7418757402
  0
LINE
  5
249
100
AcDbEntity
  8
0
100
AcDbLine
 62
7
  6
BYLAYER
 10
17.2409595617
 20
68.4452638575
 11
17.2409595617
 21
64.9751285847
  0
LINE
  5
24A
100
AcDbEntity
  8
0
100
AcDbLine
 62
7
  6
BYLAYER
 10
17.2409595617
 20
33.5397855252
 11
17.2409595617
 21
30.0696502524
  0
LINE
  5
24B
100
AcDbEntity
  8
0
100
AcDbLine
 62
7
  6
BYLAYER
 10
18.0894841663
 20
65.3017210859
 11
18.0894841663
 21
65.4650215694
  0
LINE
  5
24C
100
AcDbEntity
  8
0
100
AcDbLine
 62
7
  6
BYLAYER
 10
24.7976655201
 20
80.399169017
 11
24.2214906524
 21
77.7103218802
  0
LINE
  5
24D
100
AcDbEntity
  8
0
100
AcDbLine
 62
7
  6
BYLAYER
 10
29.9511031488
 20
77.4238977245
 11
29.7048095628
 21
76.9476093491
  0
LINE
  5
24E
100
AcDbEntity
  8
0
100
AcDbLine
 62
7
  6
BYLAYER
 10
40.5435379597
 20
74.9982994229
 11
37.4464662354
 21
73.0965457266
  0
LINE
  5
24F
100
AcDbEntity
  8
0
100
AcDbLine
 62
7
  6
BYLAYER
 10
46.2499443836
 20
79.0902730886
 11
45.0478678603
 21
78.396258027
  0
LINE
  5
250
100
AcDbEntity
  8
0
100
AcDbLine
 62
7
  6
BYLAYER
 10
38.1712331432
 20
74.4055226837
 11
37.9954796295
 21
74.3040519509
  0
LINE
  5
251
100
AcDbEntity
  8
0
100
AcDbLine
 62
7
  6
BYLAYER
 10
41.7421081099
 20
76.3855071699
 11
39.1258239122
 21
74.8750038005
  0
LINE
  5
252
100
AcDbEntity
  8
0
100
AcDbLine
 62
7
  6
BYLAYER
 10
46.5327859185
 20
79.065007594
 11
46.4132472016
 21
78.9959922956
  0
LINE
  5
253
100
AcDbEntity
  8
0
100
AcDbLine
 62
7
  6
BYLAYER
 10
46.8156274534
 20
79.0397420995
 11
46.6960887365
 21
78.970726801
  0
LINE
  5
254
100
AcDbEntity
  8
0
100
AcDbLine
 62
7
  6
BYLAYER
 10
47.0984689883
 20
79.0144766049
 11
46.9789302713
 21
78.9454613065
  0
LINE
  5
255
100
AcDbEntity
  8
0
100
AcDbLine
 62
7
  6
BYLAYER
 10
47.3813105231
 20
78.9260544285
 11
47.316467879
 21
78.8886177339
  0
LINE
  5
256
100
AcDbEntity
  8
0
100
AcDbLine
 62
7
  6
BYLAYER
 10
44.3937987245
 20
76.9367721723
 11
23.463525143
 21
64.8527452178
  0
LINE
  5
257
100
AcDbEntity
  8
0
100
AcDbLine
 62
7
  6
BYLAYER
 10
48.0177186965
 20
78.0696712023
 11
46.8156421732
 21
77.3756561407
  0
LINE
  5
258
100
AcDbEntity
  8
0
100
AcDbLine
 62
7
  6
BYLAYER
 10
48.3005602314
 20
78.0444057077
 11
48.0177186965
 21
77.8811080462
  0
LINE
  5
259
100
AcDbEntity
  8
0
100
AcDbLine
 62
7
  6
BYLAYER
 10
39.4442049313
 20
29.7587758429
 11
30.8899853921
 21
34.6974450689
  0
LINE
  5
25A
100
AcDbEntity
  8
0
100
AcDbLine
 62
7
  6
BYLAYER
 10
8.4020879973
 20
47.6805449663
 11
16.9563075365
 21
42.7418757402
  0
LINE
  5
25B
100
AcDbEntity
  8
0
100
AcDbLine
 62
7
  6
BYLAYER
 10
42.7640790418
 20
73.7162984341
 11
39.7883916932
 21
71.7444650212
  0
LINE
  5
25C
100
AcDbEntity
  8
0
100
AcDbLine
 62
7
  6
BYLAYER
 10
42.0076558481
 20
73.8955811932
 11
39.3949571772
 21
72.229037902
  0
LINE
  5
25D
100
AcDbEntity
  8
0
100
AcDbLine
 62
7
  6
BYLAYER
 10
39.3245386895
 20
72.0122646194
 11
39.5363791222
 21
72.1473897511
  0
LINE
  5
25E
100
AcDbEntity
  8
0
100
AcDbLine
 62
7
  6
BYLAYER
 10
42.1490777931
 20
73.8139330423
 11
42.3609182259
 21
73.949058174
  0
LINE
  5
25F
100
AcDbEntity
  8
0
100
AcDbLine
 62
7
  6
BYLAYER
 10
48.5834017662
 20
78.0191402132
 11
48.3005602314
 21
77.8558425516
  0
LINE
  5
260
100
AcDbEntity
  8
0
100
AcDbLine
 62
7
  6
BYLAYER
 10
45.6665962298
 20
76.2019388142
 11
24.7363226482
 21
64.1179118596
  0
LINE
  5
261
100
AcDbEntity
  8
0
100
AcDbLine
 62
7
  6
BYLAYER
 10
48.8662433011
 20
77.9938747186
 11
48.5834017662
 21
77.830577057
  0
LINE
  5
262
100
AcDbEntity
  8
0
100
AcDbLine
 62
7
  6
BYLAYER
 10
49.149084836
 20
77.9054525422
 11
48.8662433011
 21
77.7421548807
  0
LINE
  5
263
100
AcDbEntity
  8
0
100
AcDbLine
 62
7
  6
BYLAYER
 10
39.2122168255
 20
69.0556178844
 11
44.1588880149
 21
71.5622026078
  0
LINE
  5
264
100
AcDbEntity
  8
0
100
AcDbLine
 62
7
  6
BYLAYER
 10
27.2819294346
 20
38.7655844598
 11
24.8070453966
 21
40.1944271006
  0
LINE
  5
265
100
AcDbEntity
  8
0
100
AcDbLine
 62
7
  6
BYLAYER
 10
28.519356623
 20
39.4800091155
 11
28.8729145403
 21
39.2758869746
  0
LINE
  5
266
100
AcDbEntity
  8
0
100
AcDbLine
 62
7
  6
BYLAYER
 10
23.463525143
 20
64.8527452178
 11
23.463525143
 21
61.382609945
  0
LINE
  5
267
100
AcDbEntity
  8
0
100
AcDbLine
 62
7
  6
BYLAYER
 10
23.463525143
 20
29.9472668855
 11
23.463525143
 21
26.4771316127
  0
LINE
  5
268
100
AcDbEntity
  8
0
100
AcDbLine
 62
7
  6
BYLAYER
 10
24.7363226482
 20
64.1179118596
 11
24.7363226482
 21
60.6477765868
  0
LINE
  5
269
100
AcDbEntity
  8
0
100
AcDbLine
 62
7
  6
BYLAYER
 10
24.7363226482
 20
29.2124335273
 11
24.7363226482
 21
25.7422982545
  0
LINE
  5
26A
100
AcDbEntity
  8
0
100
AcDbLine
 62
7
  6
BYLAYER
 10
24.8070453966
 20
40.1944271006
 11
24.8070453966
 21
46.3181952291
  0
LINE
  5
26B
100
AcDbEntity
  8
0
100
AcDbLine
 62
7
  6
BYLAYER
 10
31.8291756029
 20
76.3396166173
 11
29.9547540763
 21
71.0561037649
  0
LINE
  5
26C
100
AcDbEntity
  8
0
100
AcDbLine
 62
7
  6
BYLAYER
 10
46.8156421732
 20
73.7013952637
 11
49.5026367546
 21
75.2527230484
  0
LINE
  5
26D
100
AcDbEntity
  8
0
100
AcDbLine
 62
7
  6
BYLAYER
 10
24.7363226482
 20
60.6477765868
 11
25.5848472529
 21
61.1376695715
  0
LINE
  5
26E
100
AcDbEntity
  8
0
100
AcDbLine
 62
7
  6
BYLAYER
 10
50.2097464798
 20
74.0279798767
 11
47.5227518983
 21
72.476652092
  0
LINE
  5
26F
100
AcDbEntity
  8
0
100
AcDbLine
 62
7
  6
BYLAYER
 10
50.386523911
 20
73.9259196881
 11
49.1137370041
 21
73.1910802111
  0
LINE
  5
270
100
AcDbEntity
  8
0
100
AcDbLine
 62
7
  6
BYLAYER
 10
48.0530841922
 20
72.1704715261
 11
49.4672918666
 21
72.9869598339
  0
LINE
  5
271
100
AcDbEntity
  8
0
100
AcDbLine
 62
7
  6
BYLAYER
 10
45.6665962298
 20
70.0781706857
 11
45.490842716
 21
69.976699953
  0
LINE
  5
272
100
AcDbEntity
  8
0
100
AcDbLine
 62
7
  6
BYLAYER
 10
36.969219032
 20
67.0063921512
 11
25.6581181904
 21
60.9320670496
  0
LINE
  5
273
100
AcDbEntity
  8
0
100
AcDbLine
 62
7
  6
BYLAYER
 10
29.1911198046
 20
39.2963217481
 11
37.6764365063
 21
34.3974326938
  0
LINE
  5
274
100
AcDbEntity
  8
0
100
AcDbLine
 62
7
  6
BYLAYER
 10
25.5848472529
 20
60.974369088
 11
25.5848472529
 21
61.1376695715
  0
LINE
  5
275
100
AcDbEntity
  8
0
100
AcDbLine
 62
7
  6
BYLAYER
 10
26.0444756397
 20
47.4408693297
 11
26.0444756397
 21
47.0326216485
  0
LINE
  5
276
100
AcDbEntity
  8
0
100
AcDbLine
 62
7
  6
BYLAYER
 10
27.2819294346
 20
44.8893525882
 11
27.2819294346
 21
38.7655844598
  0
LINE
  5
277
100
AcDbEntity
  8
0
100
AcDbLine
 62
7
  6
BYLAYER
 10
32.2930286066
 20
76.0718170191
 11
31.716853739
 21
73.3829698824
  0
LINE
  5
278
100
AcDbEntity
  8
0
100
AcDbLine
 62
7
  6
BYLAYER
 10
37.4464662354
 20
73.0965457266
 11
37.3205563165
 21
72.8530581405
  0
LINE
  5
279
100
AcDbEntity
  8
0
100
AcDbLine
 62
7
  6
BYLAYER
 10
49.3615969896
 20
69.6498773461
 11
46.7488983187
 21
67.983334055
  0
LINE
  5
27A
100
AcDbEntity
  8
0
100
AcDbLine
 62
7
  6
BYLAYER
 10
48.0389010462
 20
70.670947425
 11
44.941829322
 21
68.7691937286
  0
LINE
  5
27B
100
AcDbEntity
  8
0
100
AcDbLine
 62
7
  6
BYLAYER
 10
51.889161811
 20
72.6094201744
 11
30.9588882295
 21
60.5253932198
  0
LINE
  5
27C
100
AcDbEntity
  8
0
100
AcDbLine
 62
7
  6
BYLAYER
 10
53.0205373713
 20
71.9562349672
 11
32.0902637898
 21
59.8722080126
  0
LINE
  5
27D
100
AcDbEntity
  8
0
100
AcDbLine
 62
7
  6
BYLAYER
 10
37.6764365063
 20
38.8881959881
 11
29.1911198046
 21
43.7870850423
  0
LINE
  5
27E
100
AcDbEntity
  8
0
100
AcDbLine
 62
7
  6
BYLAYER
 10
24.8070453966
 20
46.3181952291
 11
27.2819294346
 21
44.8893525882
  0
LINE
  5
27F
100
AcDbEntity
  8
0
100
AcDbLine
 62
7
  6
BYLAYER
 10
38.3835403436
 20
39.2964401419
 11
29.8982236418
 21
44.1953291962
  0
LINE
  5
280
100
AcDbEntity
  8
0
100
AcDbLine
 62
7
  6
BYLAYER
 10
28.8729145403
 20
45.8079063116
 11
26.0444756397
 21
47.4408693297
  0
LINE
  5
281
100
AcDbEntity
  8
0
100
AcDbLine
 62
7
  6
BYLAYER
 10
28.8729145403
 20
39.2758869746
 11
28.8729145403
 21
45.8079063116
  0
LINE
  5
282
100
AcDbEntity
  8
0
100
AcDbLine
 62
7
  6
BYLAYER
 10
29.1911198046
 20
43.7870850423
 11
29.1911198046
 21
39.2963217481
  0
LINE
  5
283
100
AcDbEntity
  8
0
100
AcDbLine
 62
7
  6
BYLAYER
 10
30.8172920017
 20
78.6512265307
 11
30.8172920017
 21
84.7749946591
  0
LINE
  5
284
100
AcDbEntity
  8
0
100
AcDbLine
 62
7
  6
BYLAYER
 10
30.8899853921
 20
56.9317376354
 11
30.8899853921
 21
48.0572881093
  0
LINE
  5
285
100
AcDbEntity
  8
0
100
AcDbLine
 62
7
  6
BYLAYER
 10
30.8899853921
 20
25.8229955428
 11
30.8899853921
 21
34.6974450689
  0
LINE
  5
286
100
AcDbEntity
  8
0
100
AcDbLine
 62
7
  6
BYLAYER
 10
30.9588882295
 20
60.5253932198
 11
30.9588882295
 21
57.055257947
  0
LINE
  5
287
100
AcDbEntity
  8
0
100
AcDbLine
 62
7
  6
BYLAYER
 10
30.9588882295
 20
25.6199148875
 11
30.9588882295
 21
22.1497796147
  0
LINE
  5
288
100
AcDbEntity
  8
0
100
AcDbLine
 62
7
  6
BYLAYER
 10
31.0314061595
 20
57.0133864662
 11
31.0314061595
 21
48.1389369401
  0
LINE
  5
289
100
AcDbEntity
  8
0
100
AcDbLine
 62
7
  6
BYLAYER
 10
31.0314061595
 20
34.6157975979
 11
31.0314061595
 21
25.9046443736
  0
LINE
  5
28A
100
AcDbEntity
  8
0
100
AcDbLine
 62
7
  6
BYLAYER
 10
50.2594421283
 20
69.3889464362
 11
47.2837547798
 21
67.4171130233
  0
LINE
  5
28B
100
AcDbEntity
  8
0
100
AcDbLine
 62
7
  6
BYLAYER
 10
49.8562813124
 20
69.6217061761
 11
49.6444408796
 21
69.4865810443
  0
LINE
  5
28C
100
AcDbEntity
  8
0
100
AcDbLine
 62
7
  6
BYLAYER
 10
47.0317422088
 20
67.8200377532
 11
46.819901776
 21
67.6849126214
  0
LINE
  5
28D
100
AcDbEntity
  8
0
100
AcDbLine
 62
7
  6
BYLAYER
 10
30.8899853921
 20
56.9317376354
 11
31.0314061595
 21
57.0133864662
  0
LINE
  5
28E
100
AcDbEntity
  8
0
100
AcDbLine
 62
7
  6
BYLAYER
 10
54.7529164543
 20
70.3435501218
 11
53.4801295474
 21
69.6087106448
  0
LINE
  5
28F
100
AcDbEntity
  8
0
100
AcDbLine
 62
7
  6
BYLAYER
 10
32.0902637898
 20
56.4020727398
 11
32.9387883944
 21
56.8919657244
  0
LINE
  5
290
100
AcDbEntity
  8
0
100
AcDbLine
 62
7
  6
BYLAYER
 10
53.0205373713
 20
67.2204969619
 11
55.3186148327
 21
68.5472846831
  0
LINE
  5
291
100
AcDbEntity
  8
0
100
AcDbLine
 62
7
  6
BYLAYER
 10
41.6361655921
 20
61.3177095117
 11
33.0120593319
 21
56.6863632025
  0
LINE
  5
292
100
AcDbEntity
  8
0
100
AcDbLine
 62
7
  6
BYLAYER
 10
46.7075799121
 20
64.7282658865
 11
51.6542511015
 21
67.2348506098
  0
LINE
  5
293
100
AcDbEntity
  8
0
100
AcDbLine
 62
7
  6
BYLAYER
 10
39.4442049313
 20
43.1186188832
 11
30.8899853921
 21
48.0572881093
  0
LINE
  5
294
100
AcDbEntity
  8
0
100
AcDbLine
 62
7
  6
BYLAYER
 10
8.4020879973
 20
61.0403880067
 11
16.9563075365
 21
56.1017187806
  0
LINE
  5
295
100
AcDbEntity
  8
0
100
AcDbLine
 62
7
  6
BYLAYER
 10
8.5435087648
 20
61.1220368375
 11
16.9563075365
 21
56.2650150824
  0
LINE
  5
296
100
AcDbEntity
  8
0
100
AcDbLine
 62
7
  6
BYLAYER
 10
31.0314061595
 20
48.1389369401
 11
39.5856256987
 21
43.200267714
  0
LINE
  5
297
100
AcDbEntity
  8
0
100
AcDbLine
 62
7
  6
BYLAYER
 10
31.8995940906
 20
76.5563898999
 11
31.9073725731
 21
76.3894955557
  0
LINE
  5
298
100
AcDbEntity
  8
0
100
AcDbLine
 62
7
  6
BYLAYER
 10
32.0902637898
 20
59.8722080126
 11
32.0902637898
 21
56.4020727398
  0
LINE
  5
299
100
AcDbEntity
  8
0
100
AcDbLine
 62
7
  6
BYLAYER
 10
32.0902637898
 20
24.9667296803
 11
32.0902637898
 21
21.4965944075
  0
LINE
  5
29A
100
AcDbEntity
  8
0
100
AcDbLine
 62
7
  6
BYLAYER
 10
32.9387883944
 20
56.728665241
 11
32.9387883944
 21
56.8919657244
  0
LINE
  5
29B
100
AcDbEntity
  8
0
100
AcDbLine
 62
7
  6
BYLAYER
 10
39.3245386895
 20
72.0122646194
 11
37.4501171628
 21
66.728751767
  0
LINE
  5
29C
100
AcDbEntity
  8
0
100
AcDbLine
 62
7
  6
BYLAYER
 10
55.5342641328
 20
66.3435954271
 11
52.4371924085
 21
64.4418417307
  0
LINE
  5
29D
100
AcDbEntity
  8
0
100
AcDbLine
 62
7
  6
BYLAYER
 10
53.0205373713
 20
65.8324668387
 11
52.883936942
 21
65.7536010149
  0
LINE
  5
29E
100
AcDbEntity
  8
0
100
AcDbLine
 62
7
  6
BYLAYER
 10
59.2431029526
 20
68.3637163274
 11
38.312829371
 21
56.2796893728
  0
LINE
  5
29F
100
AcDbEntity
  8
0
100
AcDbLine
 62
7
  6
BYLAYER
 10
9.0384880162
 20
38.6019743319
 11
8.7556428599
 21
38.4386745795
  0
LINE
  5
2A0
100
AcDbEntity
  8
0
100
AcDbLine
 62
7
  6
BYLAYER
 10
39.7883916932
 20
71.7444650212
 11
39.2122168255
 21
69.0556178845
  0
LINE
  5
2A1
100
AcDbEntity
  8
0
100
AcDbLine
 62
7
  6
BYLAYER
 10
44.941829322
 20
68.7691937286
 11
44.815919403
 21
68.5257061426
  0
LINE
  5
2A2
100
AcDbEntity
  8
0
100
AcDbLine
 62
7
  6
BYLAYER
 10
60.3744785128
 20
67.7105311202
 11
39.4442049313
 21
55.6265041656
  0
LINE
  5
2A3
100
AcDbEntity
  8
0
100
AcDbLine
 62
7
  6
BYLAYER
 10
10.1698635765
 20
37.9487891246
 11
9.8870184201
 21
37.7854893723
  0
LINE
  5
2A4
100
AcDbEntity
  8
0
100
AcDbLine
 62
7
  6
BYLAYER
 10
24.8070453966
 20
46.3181952291
 11
26.3980335571
 21
47.2367471888
  0
LINE
  5
2A5
100
AcDbEntity
  8
0
100
AcDbLine
 62
7
  6
BYLAYER
 10
30.8899853921
 20
48.0572881093
 11
31.0314061595
 21
48.1389369401
  0
LINE
  5
2A6
100
AcDbEntity
  8
0
100
AcDbLine
 62
7
  6
BYLAYER
 10
34.4249000273
 20
49.544118262
 11
36.9065359315
 21
50.9768828669
  0
LINE
  5
2A7
100
AcDbEntity
  8
0
100
AcDbLine
 62
7
  6
BYLAYER
 10
14.4410767386
 20
41.7689524452
 11
11.9404136132
 21
40.3756049024
  0
LINE
  5
2A8
100
AcDbEntity
  8
0
100
AcDbLine
 62
7
  6
BYLAYER
 10
37.6764365063
 20
34.3974326938
 11
37.6764365063
 21
38.8881959881
  0
LINE
  5
2A9
100
AcDbEntity
  8
0
100
AcDbLine
 62
7
  6
BYLAYER
 10
38.1712331432
 20
74.4055226837
 11
38.1712331432
 21
80.5292908121
  0
LINE
  5
2AA
100
AcDbEntity
  8
0
100
AcDbLine
 62
7
  6
BYLAYER
 10
38.312829371
 20
56.2796893728
 11
38.312829371
 21
52.8095541
  0
LINE
  5
2AB
100
AcDbEntity
  8
0
100
AcDbLine
 62
7
  6
BYLAYER
 10
38.312829371
 20
21.3742110405
 11
38.312829371
 21
17.9040757677
  0
LINE
  5
2AC
100
AcDbEntity
  8
0
100
AcDbLine
 62
7
  6
BYLAYER
 10
38.3835403436
 20
34.8056768477
 11
38.3835403436
 21
39.2964401419
  0
LINE
  5
2AD
100
AcDbEntity
  8
0
100
AcDbLine
 62
7
  6
BYLAYER
 10
39.4442049313
 20
55.6265041656
 11
39.4442049313
 21
52.1563688928
  0
LINE
  5
2AE
100
AcDbEntity
  8
0
100
AcDbLine
 62
7
  6
BYLAYER
 10
39.4442049313
 20
20.7210258333
 11
39.4442049313
 21
17.2508905605
  0
LINE
  5
2AF
100
AcDbEntity
  8
0
100
AcDbLine
 62
7
  6
BYLAYER
 10
39.4442049313
 20
29.7587758429
 11
39.4442049313
 21
43.1186188832
  0
LINE
  5
2B0
100
AcDbEntity
  8
0
100
AcDbLine
 62
7
  6
BYLAYER
 10
39.5856256987
 20
20.9659751475
 11
39.5856256987
 21
29.8404246736
  0
LINE
  5
2B1
100
AcDbEntity
  8
0
100
AcDbLine
 62
7
  6
BYLAYER
 10
39.5856256987
 20
43.200267714
 11
39.5856256987
 21
52.0747172401
  0
LINE
  5
2B2
100
AcDbEntity
  8
0
100
AcDbLine
 62
7
  6
BYLAYER
 10
39.4442049313
 20
52.1563688928
 11
40.2927295359
 21
52.6462618774
  0
LINE
  5
2B3
100
AcDbEntity
  8
0
100
AcDbLine
 62
7
  6
BYLAYER
 10
40.2927295359
 20
52.482961394
 11
39.5856256987
 21
52.0747172401
  0
LINE
  5
2B4
100
AcDbEntity
  8
0
100
AcDbLine
 62
7
  6
BYLAYER
 10
27.2819294346
 20
44.8893525882
 11
28.8729160677
 21
45.8079036661
  0
LINE
  5
2B5
100
AcDbEntity
  8
0
100
AcDbLine
 62
7
  6
BYLAYER
 10
9.8870184201
 20
34.3153540995
 11
13.1751318401
 21
36.2137359358
  0
LINE
  5
2B6
100
AcDbEntity
  8
0
100
AcDbLine
 62
7
  6
BYLAYER
 10
29.8982236418
 20
44.1953291962
 11
29.1911198046
 21
43.7870850423
  0
LINE
  5
2B7
100
AcDbEntity
  8
0
100
AcDbLine
 62
7
  6
BYLAYER
 10
65.147429414
 20
64.3424110303
 11
60.3744785128
 21
61.5867629917
  0
LINE
  5
2B8
100
AcDbEntity
  8
0
100
AcDbLine
 62
7
  6
BYLAYER
 10
30.8899853921
 20
56.9317376354
 11
16.9563075365
 21
64.9761683068
  0
LINE
  5
2B9
100
AcDbEntity
  8
0
100
AcDbLine
 62
7
  6
BYLAYER
 10
8.5435087648
 20
69.9964863636
 11
17.2409595617
 21
64.9751285847
  0
LINE
  5
2BA
100
AcDbEntity
  8
0
100
AcDbLine
 62
7
  6
BYLAYER
 10
23.463525143
 20
61.382609945
 11
24.7363226482
 21
60.6477765868
  0
LINE
  5
2BB
100
AcDbEntity
  8
0
100
AcDbLine
 62
7
  6
BYLAYER
 10
30.9588882295
 20
57.055257947
 11
39.5856256987
 21
52.0747172401
  0
LINE
  5
2BC
100
AcDbEntity
  8
0
100
AcDbLine
 62
7
  6
BYLAYER
 10
40.2927295359
 20
52.482961394
 11
40.1513051471
 21
52.5646109558
  0
LINE
  5
2BD
100
AcDbEntity
  8
0
100
AcDbLine
 62
7
  6
BYLAYER
 10
38.312829371
 20
53.6260314275
 11
32.7973640055
 21
56.8103148029
  0
LINE
  5
2BE
100
AcDbEntity
  8
0
100
AcDbLine
 62
7
  6
BYLAYER
 10
30.9588882295
 20
57.8717352745
 11
25.443422864
 21
61.0560186499
  0
LINE
  5
2BF
100
AcDbEntity
  8
0
100
AcDbLine
 62
7
  6
BYLAYER
 10
23.463525143
 20
62.1990872724
 11
17.9480597774
 21
65.3833706478
  0
LINE
  5
2C0
100
AcDbEntity
  8
0
100
AcDbLine
 62
7
  6
BYLAYER
 10
16.1095840014
 20
66.4447911194
 11
10.5941186359
 21
69.6290744948
  0
LINE
  5
2C1
100
AcDbEntity
  8
0
100
AcDbLine
 62
7
  6
BYLAYER
 10
39.3949571772
 20
72.229037902
 11
39.4027356596
 21
72.0621435577
  0
LINE
  5
2C2
100
AcDbEntity
  8
0
100
AcDbLine
 62
7
  6
BYLAYER
 10
40.2927295359
 20
52.6462618774
 11
40.2927295359
 21
52.482961394
  0
LINE
  5
2C3
100
AcDbEntity
  8
0
100
AcDbLine
 62
7
  6
BYLAYER
 10
40.2927295359
 20
21.3742193014
 11
40.2927295359
 21
21.2109188179
  0
LINE
  5
2C4
100
AcDbEntity
  8
0
100
AcDbLine
 62
7
  6
BYLAYER
 10
41.7421081099
 20
76.3855071699
 11
41.7421081099
 21
75.4058270207
  0
LINE
  5
2C5
100
AcDbEntity
  8
0
100
AcDbLine
 62
7
  6
BYLAYER
 10
46.819901776
 20
67.6849126214
 11
44.5704718012
 21
61.3443472719
  0
LINE
  5
2C6
100
AcDbEntity
  8
0
100
AcDbLine
 62
7
  6
BYLAYER
 10
16.3924291578
 20
34.3562704848
 11
16.1095840014
 21
34.1929707325
  0
LINE
  5
2C7
100
AcDbEntity
  8
0
100
AcDbLine
 62
7
  6
BYLAYER
 10
17.3823839505
 20
33.6214364468
 11
17.2409595617
 21
33.5397855252
  0
LINE
  5
2C8
100
AcDbEntity
  8
0
100
AcDbLine
 62
7
  6
BYLAYER
 10
27.2819294346
 20
38.7655844598
 11
28.8729145403
 21
39.6841346558
  0
LINE
  5
2C9
100
AcDbEntity
  8
0
100
AcDbLine
 62
7
  6
BYLAYER
 10
8.7556428599
 20
73.3441529118
 11
9.8870184201
 21
72.6909677045
  0
LINE
  5
2CA
100
AcDbEntity
  8
0
100
AcDbLine
 62
7
  6
BYLAYER
 10
16.1095840014
 20
69.0984490648
 11
17.2409595617
 21
68.4452638575
  0
LINE
  5
2CB
100
AcDbEntity
  8
0
100
AcDbLine
 62
7
  6
BYLAYER
 10
23.463525143
 20
64.8527452178
 11
24.7363226482
 21
64.1179118596
  0
LINE
  5
2CC
100
AcDbEntity
  8
0
100
AcDbLine
 62
7
  6
BYLAYER
 10
30.9588882295
 20
60.5253932198
 11
32.0902637898
 21
59.8722080126
  0
LINE
  5
2CD
100
AcDbEntity
  8
0
100
AcDbLine
 62
7
  6
BYLAYER
 10
38.312829371
 20
56.2796893728
 11
39.4442049313
 21
55.6265041656
  0
LINE
  5
2CE
100
AcDbEntity
  8
0
100
AcDbLine
 62
7
  6
BYLAYER
 10
45.0478678603
 20
78.396258027
 11
45.0478678603
 21
76.5591537236
  0
LINE
  5
2CF
100
AcDbEntity
  8
0
100
AcDbLine
 62
7
  6
BYLAYER
 10
45.6665962298
 20
70.0781706857
 11
45.6665962298
 21
76.2019388142
  0
LINE
  5
2D0
100
AcDbEntity
  8
0
100
AcDbLine
 62
7
  6
BYLAYER
 10
47.2837547798
 20
67.4171130233
 11
46.7075799121
 21
64.7282658865
  0
LINE
  5
2D1
100
AcDbEntity
  8
0
100
AcDbLine
 62
7
  6
BYLAYER
 10
39.4442049313
 20
43.1186188832
 11
39.5856256987
 21
43.200267714
  0
LINE
  5
2D2
100
AcDbEntity
  8
0
100
AcDbLine
 62
7
  6
BYLAYER
 10
17.2409595617
 20
30.0696502524
 11
20.3876522142
 21
31.886383258
  0
LINE
  5
2D3
100
AcDbEntity
  8
0
100
AcDbLine
 62
7
  6
BYLAYER
 10
46.7488983187
 20
67.983334055
 11
46.7694367024
 21
67.5426645405
  0
LINE
  5
2D4
100
AcDbEntity
  8
0
100
AcDbLine
 62
7
  6
BYLAYER
 10
46.8156421732
 20
77.3756561407
 11
46.8156421732
 21
73.7013952637
  0
LINE
  5
2D5
100
AcDbEntity
  8
0
100
AcDbLine
 62
7
  6
BYLAYER
 10
48.0177186965
 20
77.8811080462
 11
48.0177186965
 21
78.0696712023
  0
LINE
  5
2D6
100
AcDbEntity
  8
0
100
AcDbLine
 62
7
  6
BYLAYER
 10
48.0530841922
 20
72.1704715261
 11
48.0530841922
 21
70.670947425
  0
LINE
  5
2D7
100
AcDbEntity
  8
0
100
AcDbLine
 62
7
  6
BYLAYER
 10
48.3005602314
 20
77.8558425516
 11
48.3005602314
 21
78.0444057077
  0
LINE
  5
2D8
100
AcDbEntity
  8
0
100
AcDbLine
 62
7
  6
BYLAYER
 10
48.5834017662
 20
77.830577057
 11
48.5834017662
 21
78.0191402132
  0
LINE
  5
2D9
100
AcDbEntity
  8
0
100
AcDbLine
 62
7
  6
BYLAYER
 10
48.8662433011
 20
77.7421548807
 11
48.8662433011
 21
77.9938747186
  0
LINE
  5
2DA
100
AcDbEntity
  8
0
100
AcDbLine
 62
7
  6
BYLAYER
 10
38.3835403436
 20
39.2964401419
 11
37.6764365063
 21
38.8881959881
  0
LINE
  5
2DB
100
AcDbEntity
  8
0
100
AcDbLine
 62
7
  6
BYLAYER
 10
23.6049495318
 20
30.0289178071
 11
23.463525143
 21
29.9472668855
  0
LINE
  5
2DC
100
AcDbEntity
  8
0
100
AcDbLine
 62
7
  6
BYLAYER
 10
44.3375994447
 20
59.7580712335
 11
41.6361655921
 21
61.3177095117
  0
LINE
  5
2DD
100
AcDbEntity
  8
0
100
AcDbLine
 62
7
  6
BYLAYER
 10
19.4329202225
 20
74.1364692037
 11
22.1343540751
 21
72.5768309254
  0
LINE
  5
2DE
100
AcDbEntity
  8
0
100
AcDbLine
 62
7
  6
BYLAYER
 10
27.7733528687
 20
82.3710024299
 11
29.1681618418
 21
80.2169066036
  0
LINE
  5
2DF
100
AcDbEntity
  8
0
100
AcDbLine
 62
7
  6
BYLAYER
 10
49.4672918666
 20
71.2111612566
 11
49.4672918666
 21
72.9869598339
  0
LINE
  5
2E0
100
AcDbEntity
  8
0
100
AcDbLine
 62
7
  6
BYLAYER
 10
49.5026367546
 20
77.7013234106
 11
49.5026367546
 21
75.2527230484
  0
LINE
  5
2E1
100
AcDbEntity
  8
0
100
AcDbLine
 62
7
  6
BYLAYER
 10
50.386523911
 20
71.7418769569
 11
50.386523911
 21
73.9259196881
  0
LINE
  5
2E2
100
AcDbEntity
  8
0
100
AcDbLine
 62
7
  6
BYLAYER
 10
24.8777470371
 20
29.2940844489
 11
24.7363226482
 21
29.2124335273
  0
LINE
  5
2E3
100
AcDbEntity
  8
0
100
AcDbLine
 62
7
  6
BYLAYER
 10
38.3835403436
 20
34.8056768477
 11
37.6764365063
 21
34.3974326938
  0
LINE
  5
2E4
100
AcDbEntity
  8
0
100
AcDbLine
 62
7
  6
BYLAYER
 10
45.8278096393
 20
60.6184393548
 11
44.5704718012
 21
61.3443472719
  0
LINE
  5
2E5
100
AcDbEntity
  8
0
100
AcDbLine
 62
7
  6
BYLAYER
 10
23.6245642697
 20
73.4371990468
 11
22.0843825416
 21
74.3264032656
  0
LINE
  5
2E6
100
AcDbEntity
  8
0
100
AcDbLine
 62
7
  6
BYLAYER
 10
39.5768185634
 20
65.500927918
 11
36.969219032
 21
67.0063921512
  0
LINE
  5
2E7
100
AcDbEntity
  8
0
100
AcDbLine
 62
7
  6
BYLAYER
 10
32.0814554768
 20
69.8282799159
 11
29.4738559455
 21
71.3337441491
  0
LINE
  5
2E8
100
AcDbEntity
  8
0
100
AcDbLine
 62
7
  6
BYLAYER
 10
35.2687159552
 20
78.043650432
 11
36.6635249284
 21
75.8895546057
  0
LINE
  5
2E9
100
AcDbEntity
  8
0
100
AcDbLine
 62
7
  6
BYLAYER
 10
53.0205373713
 20
65.8324668387
 11
53.0205373713
 21
71.9562349672
  0
LINE
  5
2EA
100
AcDbEntity
  8
0
100
AcDbLine
 62
7
  6
BYLAYER
 10
53.4801295474
 20
69.6087106448
 11
53.4801295474
 21
67.4858410446
  0
LINE
  5
2EB
100
AcDbEntity
  8
0
100
AcDbLine
 62
7
  6
BYLAYER
 10
24.7363226482
 20
25.7422982545
 11
27.8830153007
 21
27.5590312601
  0
LINE
  5
2EC
100
AcDbEntity
  8
0
100
AcDbLine
 62
7
  6
BYLAYER
 10
42.7640790418
 20
73.7162984341
 11
44.1588880149
 21
71.5622026078
  0
LINE
  5
2ED
100
AcDbEntity
  8
0
100
AcDbLine
 62
7
  6
BYLAYER
 10
30.8899853921
 20
25.8229955428
 11
31.0314061595
 21
25.9046443736
  0
LINE
  5
2EE
100
AcDbEntity
  8
0
100
AcDbLine
 62
7
  6
BYLAYER
 10
31.2417333858
 20
25.7832146399
 11
30.9588882295
 21
25.6199148875
  0
LINE
  5
2EF
100
AcDbEntity
  8
0
100
AcDbLine
 62
7
  6
BYLAYER
 10
39.4442049313
 20
29.7587758429
 11
39.5856256987
 21
29.8404246736
  0
LINE
  5
2F0
100
AcDbEntity
  8
0
100
AcDbLine
 62
7
  6
BYLAYER
 10
32.3731089461
 20
25.1300294327
 11
32.0902637898
 21
24.9667296803
  0
LINE
  5
2F1
100
AcDbEntity
  8
0
100
AcDbLine
 62
7
  6
BYLAYER
 10
36.8427207385
 20
29.0607387285
 11
34.34136679
 21
27.6670062652
  0
LINE
  5
2F2
100
AcDbEntity
  8
0
100
AcDbLine
 62
7
  6
BYLAYER
 10
45.0897432878
 20
68.6837974925
 11
44.941829322
 21
68.7691937286
  0
LINE
  5
2F3
100
AcDbEntity
  8
0
100
AcDbLine
 62
7
  6
BYLAYER
 10
39.7883916932
 20
71.7444650212
 11
39.3245386895
 21
72.0122646194
  0
LINE
  5
2F4
100
AcDbEntity
  8
0
100
AcDbLine
 62
7
  6
BYLAYER
 10
37.5943802013
 20
73.0111494904
 11
37.4464662354
 21
73.0965457265
  0
LINE
  5
2F5
100
AcDbEntity
  8
0
100
AcDbLine
 62
7
  6
BYLAYER
 10
32.2930286066
 20
76.0718170191
 11
31.8291756029
 21
76.3396166173
  0
LINE
  5
2F6
100
AcDbEntity
  8
0
100
AcDbLine
 62
7
  6
BYLAYER
 10
30.2404390598
 20
77.2568533375
 11
29.9511031488
 21
77.4238977245
  0
LINE
  5
2F7
100
AcDbEntity
  8
0
100
AcDbLine
 62
7
  6
BYLAYER
 10
24.7976655201
 20
80.399169017
 11
24.3338125163
 21
80.6669686152
  0
LINE
  5
2F8
100
AcDbEntity
  8
0
100
AcDbLine
 62
7
  6
BYLAYER
 10
46.819901776
 20
67.6849126214
 11
47.2837547798
 21
67.4171130233
  0
LINE
  5
2F9
100
AcDbEntity
  8
0
100
AcDbLine
 62
7
  6
BYLAYER
 10
31.8995940906
 20
76.5563898999
 11
32.0410160357
 21
76.474741749
  0
LINE
  5
2FA
100
AcDbEntity
  8
0
100
AcDbLine
 62
7
  6
BYLAYER
 10
39.3949571772
 20
72.229037902
 11
39.5363791222
 21
72.1473897511
  0
LINE
  5
2FB
100
AcDbEntity
  8
0
100
AcDbLine
 62
7
  6
BYLAYER
 10
46.7488983187
 20
67.983334055
 11
47.0317422088
 21
67.8200377532
  0
LINE
  5
2FC
100
AcDbEntity
  8
0
100
AcDbLine
 62
7
  6
BYLAYER
 10
60.3744785128
 20
29.3349175151
 11
60.3744785128
 21
35.4586856436
  0
LINE
  5
2FD
100
AcDbEntity
  8
0
100
AcDbLine
 62
7
  6
BYLAYER
 10
60.3744785128
 20
61.5867629917
 11
60.3744785128
 21
67.7105311202
  0
LINE
  5
2FE
100
AcDbEntity
  8
0
100
AcDbLine
 62
7
  6
BYLAYER
 10
32.0902637898
 20
21.4965944075
 11
35.3783772097
 21
23.3949762438
  0
LINE
  5
2FF
100
AcDbEntity
  8
0
100
AcDbLine
 62
7
  6
BYLAYER
 10
47.2483977559
 20
70.1855396953
 11
45.6665962298
 21
71.0987725721
  0
LINE
  5
300
100
AcDbEntity
  8
0
100
AcDbLine
 62
7
  6
BYLAYER
 10
39.1258239122
 20
74.8750038005
 11
39.7530346693
 21
74.5128916932
  0
LINE
  5
301
100
AcDbEntity
  8
0
100
AcDbLine
 62
7
  6
BYLAYER
 10
34.5122927615
 20
78.2229331911
 11
34.6537147065
 21
78.1412850402
  0
LINE
  5
302
100
AcDbEntity
  8
0
100
AcDbLine
 62
7
  6
BYLAYER
 10
42.0076558481
 20
73.8955811932
 11
42.1490777931
 21
73.8139330423
  0
LINE
  5
303
100
AcDbEntity
  8
0
100
AcDbLine
 62
7
  6
BYLAYER
 10
49.3615969896
 20
69.6498773461
 11
49.6444408796
 21
69.4865810443
  0
LINE
  5
304
100
AcDbEntity
  8
0
100
AcDbLine
 62
7
  6
BYLAYER
 10
48.2852568135
 20
70.5287170741
 11
48.0389010462
 21
70.670947425
  0
LINE
  5
305
100
AcDbEntity
  8
0
100
AcDbLine
 62
7
  6
BYLAYER
 10
42.7640790418
 20
73.7162984341
 11
42.3609182259
 21
73.949058174
  0
LINE
  5
306
100
AcDbEntity
  8
0
100
AcDbLine
 62
7
  6
BYLAYER
 10
40.7898937269
 20
74.856069072
 11
40.5435379597
 21
74.9982994229
  0
LINE
  5
307
100
AcDbEntity
  8
0
100
AcDbLine
 62
7
  6
BYLAYER
 10
35.2687159552
 20
78.043650432
 11
34.8655551393
 21
78.2764101719
  0
LINE
  5
308
100
AcDbEntity
  8
0
100
AcDbLine
 62
7
  6
BYLAYER
 10
33.4359525854
 20
79.101772919
 11
33.0481748731
 21
79.3256514208
  0
LINE
  5
309
100
AcDbEntity
  8
0
100
AcDbLine
 62
7
  6
BYLAYER
 10
27.7733528687
 20
82.3710024299
 11
27.3701920527
 21
82.6037621698
  0
LINE
  5
30A
100
AcDbEntity
  8
0
100
AcDbLine
 62
7
  6
BYLAYER
 10
49.8562813124
 20
69.6217061761
 11
50.2594421283
 21
69.3889464362
  0
LINE
  5
30B
100
AcDbEntity
  8
0
100
AcDbLine
 62
7
  6
BYLAYER
 10
55.5342641328
 20
66.343595427
 11
55.639197955
 21
66.2830132271
  0
LINE
  5
30C
100
AcDbEntity
  8
0
100
AcDbLine
 62
7
  6
BYLAYER
 10
48.0530841922
 20
72.1704715261
 11
47.5227518983
 21
72.476652092
  0
LINE
  5
30D
100
AcDbEntity
  8
0
100
AcDbLine
 62
7
  6
BYLAYER
 10
50.2594421283
 20
69.3889464362
 11
51.6542511015
 21
67.2348506098
  0
LINE
  5
30E
100
AcDbEntity
  8
0
100
AcDbLine
 62
7
  6
BYLAYER
 10
60.3744785128
 20
35.4586856436
 11
65.147429414
 21
38.2143336822
  0
LINE
  5
30F
100
AcDbEntity
  8
0
100
AcDbLine
 62
7
  6
BYLAYER
 10
38.5956745274
 20
21.5375107929
 11
38.312829371
 21
21.3742110405
  0
LINE
  5
310
100
AcDbEntity
  8
0
100
AcDbLine
 62
7
  6
BYLAYER
 10
55.3186148327
 20
68.5472846831
 11
53.4801295474
 21
69.6087106448
  0
LINE
  5
311
100
AcDbEntity
  8
0
100
AcDbLine
 62
7
  6
BYLAYER
 10
42.5905481358
 20
75.8956711741
 11
41.7421081099
 21
76.3855071699
  0
LINE
  5
312
100
AcDbEntity
  8
0
100
AcDbLine
 62
7
  6
BYLAYER
 10
49.1137370041
 20
73.1910802111
 11
49.4672918666
 21
72.9869598339
  0
LINE
  5
313
100
AcDbEntity
  8
0
100
AcDbLine
 62
7
  6
BYLAYER
 10
34.4588673426
 20
82.0600597765
 11
36.5093939013
 21
80.8762144981
  0
LINE
  5
314
100
AcDbEntity
  8
0
100
AcDbLine
 62
7
  6
BYLAYER
 10
38.1712331432
 20
79.9167728699
 11
43.8633350428
 21
76.6305106511
  0
LINE
  5
315
100
AcDbEntity
  8
0
100
AcDbLine
 62
7
  6
BYLAYER
 10
54.7529164543
 20
70.3435501218
 11
58.7126392709
 21
68.0574548061
  0
LINE
  5
316
100
AcDbEntity
  8
0
100
AcDbLine
 62
7
  6
BYLAYER
 10
60.3744785128
 20
67.0980131779
 11
65.147429414
 21
64.3424110303
  0
LINE
  5
317
100
AcDbEntity
  8
0
100
AcDbLine
 62
7
  6
BYLAYER
 10
29.6859164414
 20
85.4281798664
 11
30.8172920017
 21
84.7749946591
  0
LINE
  5
318
100
AcDbEntity
  8
0
100
AcDbLine
 62
7
  6
BYLAYER
 10
37.039857583
 20
81.1824760194
 11
38.1712331432
 21
80.5292908121
  0
LINE
  5
319
100
AcDbEntity
  8
0
100
AcDbLine
 62
7
  6
BYLAYER
 10
44.3937987245
 20
76.9367721723
 11
45.6665962298
 21
76.2019388142
  0
LINE
  5
31A
100
AcDbEntity
  8
0
100
AcDbLine
 62
7
  6
BYLAYER
 10
51.889161811
 20
72.6094201744
 11
53.0205373713
 21
71.9562349672
  0
LINE
  5
31B
100
AcDbEntity
  8
0
100
AcDbLine
 62
7
  6
BYLAYER
 10
59.2431029526
 20
68.3637163274
 11
60.3744785128
 21
67.7105311202
  0
LINE
  5
31C
100
AcDbEntity
  8
0
100
AcDbLine
 62
7
  6
BYLAYER
 10
50.386523911
 20
73.9259196881
 11
50.2097464798
 21
74.0279798767
  0
LINE
  5
31D
100
AcDbEntity
  8
0
100
AcDbLine
 62
7
  6
BYLAYER
 10
65.147429414
 20
38.2143336822
 11
65.147429414
 21
64.3424110303
  0
LINE
  5
31E
100
AcDbEntity
  8
0
100
AcDbLine
 62
7
  6
BYLAYER
 10
40.2927295359
 20
21.3742193014
 11
39.5856256987
 21
20.9659751475
  0
LINE
  5
31F
100
AcDbEntity
  8
0
100
AcDbLine
 62
7
  6
BYLAYER
 10
40.2927295359
 20
21.2109188179
 11
39.4442049313
 21
20.7210258333
  0
LINE
  5
320
100
AcDbEntity
  8
0
100
AcDbLine
 62
7
  6
BYLAYER
 10
45.0478678603
 20
78.396258027
 11
46.8156421732
 21
77.3756561407
  0
LINE
  5
321
100
AcDbEntity
  8
0
100
AcDbLine
 62
7
  6
BYLAYER
 10
46.2499443836
 20
79.0902730886
 11
48.0177186965
 21
78.0696712023
  0
LINE
  5
322
100
AcDbEntity
  8
0
100
AcDbLine
 62
7
  6
BYLAYER
 10
46.5327859185
 20
79.065007594
 11
48.3005602314
 21
78.0444057077
  0
LINE
  5
323
100
AcDbEntity
  8
0
100
AcDbLine
 62
7
  6
BYLAYER
 10
46.8156274534
 20
79.0397420995
 11
48.5834017662
 21
78.0191402132
  0
LINE
  5
324
100
AcDbEntity
  8
0
100
AcDbLine
 62
7
  6
BYLAYER
 10
47.0984689883
 20
79.0144766049
 11
48.8662433011
 21
77.9938747186
  0
LINE
  5
325
100
AcDbEntity
  8
0
100
AcDbLine
 62
7
  6
BYLAYER
 10
49.149084836
 20
77.9054525422
 11
47.3813105231
 21
78.9260544285
  0
LINE
  5
326
100
AcDbEntity
  8
0
100
AcDbLine
 62
7
  6
BYLAYER
 10
47.6313062814
 20
78.9508183708
 11
49.3990805943
 21
77.9302164845
  0
LINE
  5
327
100
AcDbEntity
  8
0
100
AcDbLine
 62
7
  6
BYLAYER
 10
39.4442049313
 20
17.2508905605
 11
60.3744785128
 21
29.3349175151
  0
SPLINE
  5
328
100
AcDbEntity
  8
0
100
AcDbSpline
 62
7
  6
BYLAYER
 70
0
 71
3
 72
11
 73
7
 74
0
 42
0.0000001
 43
0.0000001
 44
0.0000000001
 40
0.0
 40
0.0
 40
0.0
 40
0.0
 40
0.2794231048
 40
0.5385299331
 40
0.7777262028
 40
1.0
 40
1.0
 40
1.0
 40
1.0
 10
11.1951643461
 20
64.7504800275
 30
0.0
 10
11.1951643461
 20
64.86805626
 30
0.0
 10
11.2082028322
 20
65.0949891631
 30
0.0
 10
11.2715855231
 20
65.4172563429
 30
0.0
 10
11.377568827
 20
65.7028750312
 30
0.0
 10
11.4790448599
 20
65.8702987912
 30
0.0
 10
11.5360994288
 20
65.9444096403
 30
0.0
  0
SPLINE
  5
329
100
AcDbEntity
  8
0
100
AcDbSpline
 62
7
  6
BYLAYER
 70
0
 71
3
 72
11
 73
7
 74
0
 42
0.0000001
 43
0.0000001
 44
0.0000000001
 40
0.0
 40
0.0
 40
0.0
 40
0.0
 40
0.2177442246
 40
0.4508817658
 40
0.7104588047
 40
1.0
 40
1.0
 40
1.0
 40
1.0
 10
49.3990666061
 20
77.9301922561
 30
0.0
 10
49.4155567021
 20
77.9206719013
 30
0.0
 10
49.4464409242
 20
77.8947674002
 30
0.0
 10
49.4792941791
 20
77.8410268165
 30
0.0
 10
49.4987707641
 20
77.7748212578
 30
0.0
 10
49.5026367546
 20
77.7266428401
 30
0.0
 10
49.5026367546
 20
77.7013234106
 30
0.0
  0
SPLINE
  5
32A
100
AcDbEntity
  8
0
100
AcDbSpline
 62
7
  6
BYLAYER
 70
0
 71
3
 72
11
 73
7
 74
0
 42
0.0000001
 43
0.0000001
 44
0.0000000001
 40
0.0
 40
0.0
 40
0.0
 40
0.0
 40
0.2177456295
 40
0.4508837762
 40
0.7104602913
 40
1.0
 40
1.0
 40
1.0
 40
1.0
 10
47.6312922935
 20
78.9507941423
 30
0.0
 10
47.6148027393
 20
78.9603141726
 30
0.0
 10
47.5769278665
 20
78.9741074215
 30
0.0
 10
47.5139629248
 20
78.9756885616
 30
0.0
 10
47.4468917252
 20
78.9594536859
 30
0.0
 10
47.4032368438
 20
78.9387135201
 30
0.0
 10
47.3813105231
 20
78.9260544285
 30
0.0
  0
SPLINE
  5
32B
100
AcDbEntity
  8
0
100
AcDbSpline
 62
7
  6
BYLAYER
 70
0
 71
3
 72
13
 73
9
 74
0
 42
0.0000001
 43
0.0000001
 44
0.0000000001
 40
0.0
 40
0.0
 40
0.0
 40
0.0
 40
0.1080932131
 40
0.2182331267
 40
0.332258229
 40
0.4516885327
 40
0.7106279546
 40
1.0
 40
1.0
 40
1.0
 40
1.0
 10
14.411147854
 20
38.1553221631
 30
0.0
 10
14.4644324739
 20
38.1860841763
 30
0.0
 10
14.5669051325
 20
38.2575443504
 30
0.0
 10
14.7022273948
 20
38.390812378
 30
0.0
 10
14.8186749143
 20
38.5489022813
 30
0.0
 10
14.9507000011
 20
38.7971029028
 30
0.0
 10
15.0594447135
 20
39.1653597161
 30
0.0
 10
15.0842737224
 20
39.4783946455
 30
0.0
 10
15.0842737224
 20
39.6431057067
 30
0.0
  0
SPLINE
  5
32C
100
AcDbEntity
  8
0
100
AcDbSpline
 62
7
  6
BYLAYER
 70
0
 71
3
 72
20
 73
16
 74
0
 42
0.0000001
 43
0.0000001
 44
0.0000000001
 40
0.0
 40
0.0
 40
0.0
 40
0.0
 40
0.0443255041
 40
0.0918144892
 40
0.143084019
 40
0.1983906389
 40
0.2576770172
 40
0.3206359499
 40
0.3867747864
 40
0.4554481128
 40
0.5972411393
 40
0.7395380938
 40
0.8756395203
 40
0.9396236859
 40
1.0
 40
1.0
 40
1.0
 40
1.0
 10
14.7447640214
 20
38.429995135
 30
0.0
 10
14.6561826783
 20
38.4147257971
 30
0.0
 10
14.4688124764
 20
38.4033311574
 30
0.0
 10
14.1797055919
 20
38.4410214972
 30
0.0
 10
13.8793465361
 20
38.5312685166
 30
0.0
 10
13.5729207446
 20
38.6721889156
 30
0.0
 10
13.2655308856
 20
38.8611266809
 30
0.0
 10
12.9623920275
 20
39.0946369877
 30
0.0
 10
12.668807565
 20
39.3686991419
 30
0.0
 10
12.2930699142
 20
39.7859387595
 30
0.0
 10
11.8809961031
 20
40.3747024759
 30
0.0
 10
11.5022817421
 20
41.1414042172
 30
0.0
 10
11.2952472594
 20
41.8081320367
 30
0.0
 10
11.2102670435
 20
42.3301304404
 30
0.0
 10
11.1951643461
 20
42.5824775597
 30
0.0
 10
11.1951643461
 20
42.704914765
 30
0.0
  0
SPLINE
  5
32D
100
AcDbEntity
  8
0
100
AcDbSpline
 62
7
  6
BYLAYER
 70
0
 71
3
 72
13
 73
9
 74
0
 42
0.0000001
 43
0.0000001
 44
0.0000000001
 40
0.0
 40
0.0
 40
0.0
 40
0.0
 40
0.1080932131
 40
0.2182331267
 40
0.332258229
 40
0.4516885327
 40
0.7106279546
 40
1.0
 40
1.0
 40
1.0
 40
1.0
 10
36.9679480862
 20
47.1780073564
 30
0.0
 10
37.0212327061
 20
47.2087693696
 30
0.0
 10
37.1237053647
 20
47.2802295437
 30
0.0
 10
37.2590276269
 20
47.4134975713
 30
0.0
 10
37.3754751465
 20
47.5715874746
 30
0.0
 10
37.5075002333
 20
47.8197880961
 30
0.0
 10
37.6162449457
 20
48.1880449094
 30
0.0
 10
37.6410739546
 20
48.5010798388
 30
0.0
 10
37.6410739546
 20
48.6657909
 30
0.0
  0
SPLINE
  5
32E
100
AcDbEntity
  8
0
100
AcDbSpline
 62
7
  6
BYLAYER
 70
0
 71
3
 72
20
 73
16
 74
0
 42
0.0000001
 43
0.0000001
 44
0.0000000001
 40
0.0
 40
0.0
 40
0.0
 40
0.0
 40
0.0443255041
 40
0.0918144892
 40
0.143084019
 40
0.1983906389
 40
0.2576770172
 40
0.3206359499
 40
0.3867747864
 40
0.4554481128
 40
0.5972411393
 40
0.7395380938
 40
0.8756395203
 40
0.9396236859
 40
1.0
 40
1.0
 40
1.0
 40
1.0
 10
37.3015642536
 20
47.4526803283
 30
0.0
 10
37.2129829104
 20
47.4374109904
 30
0.0
 10
37.0256127085
 20
47.4260163507
 30
0.0
 10
36.7365058241
 20
47.4637066905
 30
0.0
 10
36.4361467683
 20
47.5539537099
 30
0.0
 10
36.1297209768
 20
47.6948741089
 30
0.0
 10
35.8223311178
 20
47.8838118742
 30
0.0
 10
35.5191922597
 20
48.117322181
 30
0.0
 10
35.2256077972
 20
48.3913843352
 30
0.0
 10
34.8498701464
 20
48.8086239528
 30
0.0
 10
34.4377963353
 20
49.3973876692
 30
0.0
 10
34.0590819743
 20
50.1640894105
 30
0.0
 10
33.8520474916
 20
50.83081723
 30
0.0
 10
33.7670672757
 20
51.3528156337
 30
0.0
 10
33.7519645783
 20
51.605162753
 30
0.0
 10
33.7519645783
 20
51.7275999583
 30
0.0
  0
SPLINE
  5
32F
100
AcDbEntity
  8
0
100
AcDbSpline
 62
7
  6
BYLAYER
 70
0
 71
3
 72
13
 73
9
 74
0
 42
0.0000001
 43
0.0000001
 44
0.0000000001
 40
0.0
 40
0.0
 40
0.0
 40
0.0
 40
0.1080932131
 40
0.2182331267
 40
0.332258229
 40
0.4516885327
 40
0.7106279546
 40
1.0
 40
1.0
 40
1.0
 40
1.0
 10
36.9679480862
 20
25.1324420939
 30
0.0
 10
37.0212327061
 20
25.1632041071
 30
0.0
 10
37.1237053647
 20
25.2346642812
 30
0.0
 10
37.2590276269
 20
25.3679323088
 30
0.0
 10
37.3754751465
 20
25.5260222121
 30
0.0
 10
37.5075002333
 20
25.7742228336
 30
0.0
 10
37.6162449457
 20
26.1424796469
 30
0.0
 10
37.6410739546
 20
26.4555145763
 30
0.0
 10
37.6410739546
 20
26.6202256375
 30
0.0
  0
SPLINE
  5
330
100
AcDbEntity
  8
0
100
AcDbSpline
 62
7
  6
BYLAYER
 70
0
 71
3
 72
20
 73
16
 74
0
 42
0.0000001
 43
0.0000001
 44
0.0000000001
 40
0.0
 40
0.0
 40
0.0
 40
0.0
 40
0.0443255041
 40
0.0918144892
 40
0.143084019
 40
0.1983906389
 40
0.2576770172
 40
0.3206359499
 40
0.3867747864
 40
0.4554481128
 40
0.5972411393
 40
0.7395380938
 40
0.8756395203
 40
0.9396236859
 40
1.0
 40
1.0
 40
1.0
 40
1.0
 10
37.3015642536
 20
25.4071150658
 30
0.0
 10
37.2129829104
 20
25.3918457279
 30
0.0
 10
37.0256127085
 20
25.3804510882
 30
0.0
 10
36.7365058241
 20
25.418141428
 30
0.0
 10
36.4361467683
 20
25.5083884474
 30
0.0
 10
36.1297209768
 20
25.6493088464
 30
0.0
 10
35.8223311178
 20
25.8382466117
 30
0.0
 10
35.5191922597
 20
26.0717569185
 30
0.0
 10
35.2256077972
 20
26.3458190727
 30
0.0
 10
34.8498701464
 20
26.7630586903
 30
0.0
 10
34.4377963353
 20
27.3518224067
 30
0.0
 10
34.0590819743
 20
28.118524148
 30
0.0
 10
33.8520474916
 20
28.7852519676
 30
0.0
 10
33.7670672757
 20
29.3072503712
 30
0.0
 10
33.7519645783
 20
29.5595974905
 30
0.0
 10
33.7519645783
 20
29.6820346958
 30
0.0
  0
SPLINE
  5
331
100
AcDbEntity
  8
0
100
AcDbSpline
 62
7
  6
BYLAYER
 70
0
 71
3
 72
13
 73
9
 74
0
 42
0.0000001
 43
0.0000001
 44
0.0000000001
 40
0.0
 40
0.0
 40
0.0
 40
0.0
 40
0.1080932131
 40
0.2182331267
 40
0.332258229
 40
0.4516885327
 40
0.7106279546
 40
1.0
 40
1.0
 40
1.0
 40
1.0
 10
14.411147854
 20
60.2008874256
 30
0.0
 10
14.4644324739
 20
60.2316494388
 30
0.0
 10
14.5669051325
 20
60.3031096129
 30
0.0
 10
14.7022273948
 20
60.4363776405
 30
0.0
 10
14.8186749143
 20
60.5944675438
 30
0.0
 10
14.9507000011
 20
60.8426681653
 30
0.0
 10
15.0594447135
 20
61.2109249786
 30
0.0
 10
15.0842737224
 20
61.523959908
 30
0.0
 10
15.0842737224
 20
61.6886709692
 30
0.0
  0
SPLINE
  5
332
100
AcDbEntity
  8
0
100
AcDbSpline
 62
7
  6
BYLAYER
 70
0
 71
3
 72
20
 73
16
 74
0
 42
0.0000001
 43
0.0000001
 44
0.0000000001
 40
0.0
 40
0.0
 40
0.0
 40
0.0
 40
0.0443255041
 40
0.0918144892
 40
0.143084019
 40
0.1983906389
 40
0.2576770172
 40
0.3206359499
 40
0.3867747864
 40
0.4554481128
 40
0.5972411393
 40
0.7395380938
 40
0.8756395203
 40
0.9396236859
 40
1.0
 40
1.0
 40
1.0
 40
1.0
 10
14.7447640214
 20
60.4755603975
 30
0.0
 10
14.6561826783
 20
60.4602910596
 30
0.0
 10
14.4688124764
 20
60.4488964199
 30
0.0
 10
14.1797055919
 20
60.4865867597
 30
0.0
 10
13.8793465361
 20
60.5768337791
 30
0.0
 10
13.5729207446
 20
60.7177541781
 30
0.0
 10
13.2655308856
 20
60.9066919434
 30
0.0
 10
12.9623920275
 20
61.1402022502
 30
0.0
 10
12.668807565
 20
61.4142644044
 30
0.0
 10
12.2930699142
 20
61.831504022
 30
0.0
 10
11.8809961031
 20
62.4202677384
 30
0.0
 10
11.5022817421
 20
63.1869694797
 30
0.0
 10
11.2952472594
 20
63.8536972992
 30
0.0
 10
11.2102670435
 20
64.3756957029
 30
0.0
 10
11.1951643461
 20
64.6280428222
 30
0.0
 10
11.1951643461
 20
64.7504800275
 30
0.0
  0
SPLINE
  5
333
100
AcDbEntity
  8
0
100
AcDbSpline
 62
7
  6
BYLAYER
 70
0
 71
3
 72
11
 73
7
 74
0
 42
0.0000001
 43
0.0000001
 44
0.0000000001
 40
0.0
 40
0.0
 40
0.0
 40
0.0
 40
0.2794231048
 40
0.5385299331
 40
0.7777262028
 40
1.0
 40
1.0
 40
1.0
 40
1.0
 10
11.1951643461
 20
42.704914765
 30
0.0
 10
11.1951643461
 20
42.8224909975
 30
0.0
 10
11.2082028322
 20
43.0494239006
 30
0.0
 10
11.2715855231
 20
43.3716910804
 30
0.0
 10
11.377568827
 20
43.6573097687
 30
0.0
 10
11.4790448599
 20
43.8247335287
 30
0.0
 10
11.5360994288
 20
43.8988443778
 30
0.0
  0
SPLINE
  5
334
100
AcDbEntity
  8
0
100
AcDbSpline
 62
7
  6
BYLAYER
 70
0
 71
3
 72
22
 73
18
 74
0
 42
0.0000001
 43
0.0000001
 44
0.0000000001
 40
0.0
 40
0.0
 40
0.0
 40
0.0
 40
0.0623815194
 40
0.1287701769
 40
0.1983756527
 40
0.2703722708
 40
0.4173882734
 40
0.4904330273
 40
0.5617409585
 40
0.630359979
 40
0.6954661554
 40
0.7564323105
 40
0.8128873958
 40
0.8648024704
 40
0.9125923329
 40
0.957180845
 40
1.0
 40
1.0
 40
1.0
 40
1.0
 10
15.0842737224
 20
39.6431057067
 30
0.0
 10
15.0842737224
 20
39.7778918758
 30
0.0
 10
15.065957564
 20
40.0563053731
 30
0.0
 10
14.9908676441
 20
40.4790164352
 30
0.0
 10
14.8686300119
 20
40.9122316393
 30
0.0
 10
14.6449543966
 20
41.4950098968
 30
0.0
 10
14.3428840747
 20
42.0532570037
 30
0.0
 10
13.9753769037
 20
42.5651102505
 30
0.0
 10
13.6747677912
 20
42.9143925434
 30
0.0
 10
13.3551896573
 20
43.2221939992
 30
0.0
 10
13.0232947168
 20
43.4819963902
 30
0.0
 10
12.6860360015
 20
43.688342916
 30
0.0
 10
12.350233036
 20
43.8367675326
 30
0.0
 10
12.022563578
 20
43.9237949581
 30
0.0
 10
11.7094843324
 20
43.9468605156
 30
0.0
 10
11.4179244012
 20
43.9041381601
 30
0.0
 10
11.2413107658
 20
43.8307111703
 30
0.0
 10
11.1611863773
 20
43.7844541547
 30
0.0
  0
SPLINE
  5
335
100
AcDbEntity
  8
0
100
AcDbSpline
 62
7
  6
BYLAYER
 70
0
 71
3
 72
22
 73
18
 74
0
 42
0.0000001
 43
0.0000001
 44
0.0000000001
 40
0.0
 40
0.0
 40
0.0
 40
0.0
 40
0.0623815194
 40
0.1287701769
 40
0.1983756527
 40
0.2703722708
 40
0.4173882734
 40
0.4904330273
 40
0.5617409585
 40
0.630359979
 40
0.6954661554
 40
0.7564323105
 40
0.8128873958
 40
0.8648024704
 40
0.9125923329
 40
0.957180845
 40
1.0
 40
1.0
 40
1.0
 40
1.0
 10
15.0842737224
 20
61.6886709692
 30
0.0
 10
15.0842737224
 20
61.8234571383
 30
0.0
 10
15.065957564
 20
62.1018706356
 30
0.0
 10
14.9908676441
 20
62.5245816977
 30
0.0
 10
14.8686300119
 20
62.9577969018
 30
0.0
 10
14.6449543966
 20
63.5405751593
 30
0.0
 10
14.3428840747
 20
64.0988222662
 30
0.0
 10
13.9753769037
 20
64.610675513
 30
0.0
 10
13.6747677912
 20
64.9599578059
 30
0.0
 10
13.3551896573
 20
65.2677592617
 30
0.0
 10
13.0232947168
 20
65.5275616527
 30
0.0
 10
12.6860360015
 20
65.7339081785
 30
0.0
 10
12.350233036
 20
65.8823327951
 30
0.0
 10
12.022563578
 20
65.9693602206
 30
0.0
 10
11.7094843324
 20
65.9924257781
 30
0.0
 10
11.4179244012
 20
65.9497034226
 30
0.0
 10
11.2413107658
 20
65.8762764328
 30
0.0
 10
11.1611863773
 20
65.8300194172
 30
0.0
  0
SPLINE
  5
336
100
AcDbEntity
  8
0
100
AcDbSpline
 62
7
  6
BYLAYER
 70
0
 71
3
 72
22
 73
18
 74
0
 42
0.0000001
 43
0.0000001
 44
0.0000000001
 40
0.0
 40
0.0
 40
0.0
 40
0.0
 40
0.0623815194
 40
0.1287701769
 40
0.1983756527
 40
0.2703722708
 40
0.4173882734
 40
0.4904330273
 40
0.5617409585
 40
0.630359979
 40
0.6954661554
 40
0.7564323105
 40
0.8128873958
 40
0.8648024704
 40
0.9125923329
 40
0.957180845
 40
1.0
 40
1.0
 40
1.0
 40
1.0
 10
37.6410739546
 20
48.6657909
 30
0.0
 10
37.6410739546
 20
48.8005770691
 30
0.0
 10
37.6227577962
 20
49.0789905664
 30
0.0
 10
37.5476678763
 20
49.5017016285
 30
0.0
 10
37.4254302441
 20
49.9349168326
 30
0.0
 10
37.2017546288
 20
50.5176950901
 30
0.0
 10
36.8996843069
 20
51.075942197
 30
0.0
 10
36.5321771359
 20
51.5877954438
 30
0.0
 10
36.2315680234
 20
51.9370777367
 30
0.0
 10
35.9119898895
 20
52.2448791925
 30
0.0
 10
35.580094949
 20
52.5046815835
 30
0.0
 10
35.2428362337
 20
52.7110281093
 30
0.0
 10
34.9070332682
 20
52.8594527259
 30
0.0
 10
34.5793638102
 20
52.9464801514
 30
0.0
 10
34.2662845646
 20
52.9695457089
 30
0.0
 10
33.9747246334
 20
52.9268233534
 30
0.0
 10
33.798110998
 20
52.8533963636
 30
0.0
 10
33.7179866095
 20
52.807139348
 30
0.0
  0
SPLINE
  5
337
100
AcDbEntity
  8
0
100
AcDbSpline
 62
7
  6
BYLAYER
 70
0
 71
3
 72
13
 73
9
 74
0
 42
0.0000001
 43
0.0000001
 44
0.0000000001
 40
0.0
 40
0.0
 40
0.0
 40
0.0
 40
0.1141755944
 40
0.2375687028
 40
0.4999988186
 40
0.7624295809
 40
0.8858234769
 40
1.0
 40
1.0
 40
1.0
 40
1.0
 10
50.2097464798
 20
74.0279798767
 30
0.0
 10
50.1613739828
 20
74.0559071191
 30
0.0
 10
50.0657763773
 20
74.1229873136
 30
0.0
 10
49.8866817907
 20
74.2904470141
 30
0.0
 10
49.6976756865
 20
74.5488300005
 30
0.0
 10
49.5684109787
 20
74.8417052955
 30
0.0
 10
49.51293216
 20
75.0805363734
 30
0.0
 10
49.5026367546
 20
75.1968671617
 30
0.0
 10
49.5026367546
 20
75.2527230484
 30
0.0
  0
SPLINE
  5
338
100
AcDbEntity
  8
0
100
AcDbSpline
 62
7
  6
BYLAYER
 70
0
 71
3
 72
11
 73
7
 74
0
 42
0.0000001
 43
0.0000001
 44
0.0000000001
 40
0.0
 40
0.0
 40
0.0
 40
0.0
 40
0.2794231048
 40
0.5385299331
 40
0.7777262028
 40
1.0
 40
1.0
 40
1.0
 40
1.0
 10
33.7519645783
 20
29.6820346958
 30
0.0
 10
33.7519645783
 20
29.7996109283
 30
0.0
 10
33.7650030644
 20
30.0265438314
 30
0.0
 10
33.8283857553
 20
30.3488110112
 30
0.0
 10
33.9343690592
 20
30.6344296996
 30
0.0
 10
34.0358450921
 20
30.8018534595
 30
0.0
 10
34.092899661
 20
30.8759643086
 30
0.0
  0
SPLINE
  5
339
100
AcDbEntity
  8
0
100
AcDbSpline
 62
7
  6
BYLAYER
 70
0
 71
3
 72
22
 73
18
 74
0
 42
0.0000001
 43
0.0000001
 44
0.0000000001
 40
0.0
 40
0.0
 40
0.0
 40
0.0
 40
0.0623815194
 40
0.1287701769
 40
0.1983756527
 40
0.2703722708
 40
0.4173882734
 40
0.4904330273
 40
0.5617409585
 40
0.630359979
 40
0.6954661554
 40
0.7564323105
 40
0.8128873958
 40
0.8648024704
 40
0.9125923329
 40
0.957180845
 40
1.0
 40
1.0
 40
1.0
 40
1.0
 10
37.6410739546
 20
26.6202256375
 30
0.0
 10
37.6410739546
 20
26.7550118066
 30
0.0
 10
37.6227577962
 20
27.0334253039
 30
0.0
 10
37.5476678763
 20
27.456136366
 30
0.0
 10
37.4254302441
 20
27.8893515701
 30
0.0
 10
37.2017546288
 20
28.4721298276
 30
0.0
 10
36.8996843069
 20
29.0303769345
 30
0.0
 10
36.5321771359
 20
29.5422301813
 30
0.0
 10
36.2315680234
 20
29.8915124742
 30
0.0
 10
35.9119898895
 20
30.19931393
 30
0.0
 10
35.580094949
 20
30.459116321
 30
0.0
 10
35.2428362337
 20
30.6654628468
 30
0.0
 10
34.9070332682
 20
30.8138874634
 30
0.0
 10
34.5793638102
 20
30.9009148889
 30
0.0
 10
34.2662845646
 20
30.9239804464
 30
0.0
 10
33.9747246334
 20
30.8812580909
 30
0.0
 10
33.798110998
 20
30.8078311011
 30
0.0
 10
33.7179866095
 20
30.7615740855
 30
0.0
  0
SPLINE
  5
33A
100
AcDbEntity
  8
0
100
AcDbSpline
 62
7
  6
BYLAYER
 70
0
 71
3
 72
11
 73
7
 74
0
 42
0.0000001
 43
0.0000001
 44
0.0000000001
 40
0.0
 40
0.0
 40
0.0
 40
0.0
 40
0.2794231048
 40
0.5385299331
 40
0.7777262028
 40
1.0
 40
1.0
 40
1.0
 40
1.0
 10
33.7519645783
 20
51.7275999583
 30
0.0
 10
33.7519645783
 20
51.8451761908
 30
0.0
 10
33.7650030644
 20
52.0721090939
 30
0.0
 10
33.8283857553
 20
52.3943762737
 30
0.0
 10
33.9343690592
 20
52.679994962
 30
0.0
 10
34.0358450921
 20
52.847418722
 30
0.0
 10
34.092899661
 20
52.9215295711
 30
0.0
  0
SPLINE
  5
33B
100
AcDbEntity
  8
0
100
AcDbSpline
 62
7
  6
BYLAYER
 70
0
 71
3
 72
11
 73
7
 74
0
 42
0.0000001
 43
0.0000001
 44
0.0000000001
 40
0.0
 40
0.0
 40
0.0
 40
0.0
 40
0.2895396729
 40
0.5491163863
 40
0.7822545095
 40
1.0
 40
1.0
 40
1.0
 40
1.0
 10
49.149084836
 20
77.9054525422
 30
0.0
 10
49.1710111536
 20
77.918111632
 30
0.0
 10
49.2146660574
 20
77.9388517759
 30
0.0
 10
49.2817372614
 20
77.9550866898
 30
0.0
 10
49.3447022035
 20
77.9535055184
 30
0.0
 10
49.3825770677
 20
77.939712289
 30
0.0
 10
49.3990666061
 20
77.9301922561
 30
0.0
  0
SPLINE
  5
33C
100
AcDbEntity
  8
0
100
AcDbSpline
 62
7
  6
BYLAYER
 70
0
 71
3
 72
22
 73
18
 74
0
 42
0.0000001
 43
0.0000001
 44
0.0000000001
 40
0.0
 40
0.0
 40
0.0
 40
0.0
 40
0.0623815194
 40
0.1287701769
 40
0.1983756527
 40
0.2703722708
 40
0.4173882734
 40
0.4904330273
 40
0.5617409585
 40
0.630359979
 40
0.6954661554
 40
0.7564323105
 40
0.8128873958
 40
0.8648024704
 40
0.9125923329
 40
0.957180845
 40
1.0
 40
1.0
 40
1.0
 40
1.0
 10
33.0448607411
 20
29.2737905419
 30
0.0
 10
33.0448607411
 20
29.1390043728
 30
0.0
 10
33.0631768995
 20
28.8605908755
 30
0.0
 10
33.1382668194
 20
28.4378798134
 30
0.0
 10
33.2605044516
 20
28.0046646093
 30
0.0
 10
33.4841800669
 20
27.4218863518
 30
0.0
 10
33.7862503888
 20
26.8636392448
 30
0.0
 10
34.1537575598
 20
26.351785998
 30
0.0
 10
34.4543666723
 20
26.0025037052
 30
0.0
 10
34.7739448062
 20
25.6947022494
 30
0.0
 10
35.1058397467
 20
25.4348998584
 30
0.0
 10
35.443098462
 20
25.2285533326
 30
0.0
 10
35.7789014275
 20
25.080128716
 30
0.0
 10
36.1065708855
 20
24.9931012905
 30
0.0
 10
36.4196501311
 20
24.970035733
 30
0.0
 10
36.7112100623
 20
25.0127580885
 30
0.0
 10
36.8878236977
 20
25.0861850783
 30
0.0
 10
36.9679480862
 20
25.1324420939
 30
0.0
  0
SPLINE
  5
33D
100
AcDbEntity
  8
0
100
AcDbSpline
 62
7
  6
BYLAYER
 70
0
 71
3
 72
13
 73
9
 74
0
 42
0.0000001
 43
0.0000001
 44
0.0000000001
 40
0.0
 40
0.0
 40
0.0
 40
0.0
 40
0.1080932131
 40
0.2182331267
 40
0.332258229
 40
0.4516885327
 40
0.7106279546
 40
1.0
 40
1.0
 40
1.0
 40
1.0
 10
33.7179866095
 20
30.7615740855
 30
0.0
 10
33.6647019896
 20
30.7308120723
 30
0.0
 10
33.562229331
 20
30.6593518982
 30
0.0
 10
33.4269070687
 20
30.5260838706
 30
0.0
 10
33.3104595492
 20
30.3679939673
 30
0.0
 10
33.1784344624
 20
30.1197933458
 30
0.0
 10
33.06968975
 20
29.7515365325
 30
0.0
 10
33.0448607411
 20
29.4385016031
 30
0.0
 10
33.0448607411
 20
29.2737905419
 30
0.0
  0
SPLINE
  5
33E
100
AcDbEntity
  8
0
100
AcDbSpline
 62
7
  6
BYLAYER
 70
0
 71
3
 72
13
 73
9
 74
0
 42
0.0000001
 43
0.0000001
 44
0.0000000001
 40
0.0
 40
0.0
 40
0.0
 40
0.0
 40
0.1141764757
 40
0.2375702783
 40
0.5000009872
 40
0.7624311564
 40
0.8858243582
 40
1.0
 40
1.0
 40
1.0
 40
1.0
 10
46.8156421732
 20
73.7013952637
 30
0.0
 10
46.8156421732
 20
73.6455394001
 30
0.0
 10
46.8259375449
 20
73.5292086782
 30
0.0
 10
46.8814163592
 20
73.2903776959
 30
0.0
 10
47.0106809846
 20
72.9975024245
 30
0.0
 10
47.1996870681
 20
72.7391193549
 30
0.0
 10
47.3787817352
 20
72.571659603
 30
0.0
 10
47.4743793813
 20
72.5045793459
 30
0.0
 10
47.5227518983
 20
72.476652092
 30
0.0
  0
SPLINE
  5
33F
100
AcDbEntity
  8
0
100
AcDbSpline
 62
7
  6
BYLAYER
 70
0
 71
3
 72
22
 73
18
 74
0
 42
0.0000001
 43
0.0000001
 44
0.0000000001
 40
0.0
 40
0.0
 40
0.0
 40
0.0
 40
0.0623815194
 40
0.1287701769
 40
0.1983756527
 40
0.2703722708
 40
0.4173882734
 40
0.4904330273
 40
0.5617409585
 40
0.630359979
 40
0.6954661554
 40
0.7564323105
 40
0.8128873958
 40
0.8648024704
 40
0.9125923329
 40
0.957180845
 40
1.0
 40
1.0
 40
1.0
 40
1.0
 10
10.4880605089
 20
42.2966706111
 30
0.0
 10
10.4880605089
 20
42.161884442
 30
0.0
 10
10.5063766673
 20
41.8834709447
 30
0.0
 10
10.5814665872
 20
41.4607598826
 30
0.0
 10
10.7037042194
 20
41.0275446785
 30
0.0
 10
10.9273798347
 20
40.444766421
 30
0.0
 10
11.2294501566
 20
39.886519314
 30
0.0
 10
11.5969573276
 20
39.3746660672
 30
0.0
 10
11.8975664401
 20
39.0253837744
 30
0.0
 10
12.217144574
 20
38.7175823186
 30
0.0
 10
12.5490395145
 20
38.4577799276
 30
0.0
 10
12.8862982298
 20
38.2514334018
 30
0.0
 10
13.2221011953
 20
38.1030087852
 30
0.0
 10
13.5497706533
 20
38.0159813597
 30
0.0
 10
13.8628498989
 20
37.9929158022
 30
0.0
 10
14.1544098301
 20
38.0356381577
 30
0.0
 10
14.3310234655
 20
38.1090651475
 30
0.0
 10
14.411147854
 20
38.1553221631
 30
0.0
  0
SPLINE
  5
340
100
AcDbEntity
  8
0
100
AcDbSpline
 62
7
  6
BYLAYER
 70
0
 71
3
 72
13
 73
9
 74
0
 42
0.0000001
 43
0.0000001
 44
0.0000000001
 40
0.0
 40
0.0
 40
0.0
 40
0.0
 40
0.1080932131
 40
0.2182331267
 40
0.332258229
 40
0.4516885327
 40
0.7106279546
 40
1.0
 40
1.0
 40
1.0
 40
1.0
 10
11.1611863773
 20
65.8300194172
 30
0.0
 10
11.1079017574
 20
65.799257404
 30
0.0
 10
11.0054290988
 20
65.7277972298
 30
0.0
 10
10.8701068366
 20
65.5945292023
 30
0.0
 10
10.753659317
 20
65.436439299
 30
0.0
 10
10.6216342302
 20
65.1882386775
 30
0.0
 10
10.5128895178
 20
64.8199818642
 30
0.0
 10
10.4880605089
 20
64.5069469348
 30
0.0
 10
10.4880605089
 20
64.3422358736
 30
0.0
  0
SPLINE
  5
341
100
AcDbEntity
  8
0
100
AcDbSpline
 62
7
  6
BYLAYER
 70
0
 71
3
 72
13
 73
9
 74
0
 42
0.0000001
 43
0.0000001
 44
0.0000000001
 40
0.0
 40
0.0
 40
0.0
 40
0.0
 40
0.1080932131
 40
0.2182331267
 40
0.332258229
 40
0.4516885327
 40
0.7106279546
 40
1.0
 40
1.0
 40
1.0
 40
1.0
 10
11.1611863773
 20
43.7844541547
 30
0.0
 10
11.1079017574
 20
43.7536921415
 30
0.0
 10
11.0054290988
 20
43.6822319674
 30
0.0
 10
10.8701068366
 20
43.5489639398
 30
0.0
 10
10.753659317
 20
43.3908740365
 30
0.0
 10
10.6216342302
 20
43.142673415
 30
0.0
 10
10.5128895178
 20
42.7744166017
 30
0.0
 10
10.4880605089
 20
42.4613816723
 30
0.0
 10
10.4880605089
 20
42.2966706111
 30
0.0
  0
SPLINE
  5
342
100
AcDbEntity
  8
0
100
AcDbSpline
 62
7
  6
BYLAYER
 70
0
 71
3
 72
22
 73
18
 74
0
 42
0.0000001
 43
0.0000001
 44
0.0000000001
 40
0.0
 40
0.0
 40
0.0
 40
0.0
 40
0.0623815194
 40
0.1287701769
 40
0.1983756527
 40
0.2703722708
 40
0.4173882734
 40
0.4904330273
 40
0.5617409585
 40
0.630359979
 40
0.6954661554
 40
0.7564323105
 40
0.8128873958
 40
0.8648024704
 40
0.9125923329
 40
0.957180845
 40
1.0
 40
1.0
 40
1.0
 40
1.0
 10
10.4880605089
 20
64.3422358736
 30
0.0
 10
10.4880605089
 20
64.2074497045
 30
0.0
 10
10.5063766673
 20
63.9290362072
 30
0.0
 10
10.5814665872
 20
63.5063251451
 30
0.0
 10
10.7037042194
 20
63.073109941
 30
0.0
 10
10.9273798347
 20
62.4903316835
 30
0.0
 10
11.2294501566
 20
61.9320845765
 30
0.0
 10
11.5969573276
 20
61.4202313297
 30
0.0
 10
11.8975664401
 20
61.0709490369
 30
0.0
 10
12.217144574
 20
60.7631475811
 30
0.0
 10
12.5490395145
 20
60.5033451901
 30
0.0
 10
12.8862982298
 20
60.2969986643
 30
0.0
 10
13.2221011953
 20
60.1485740477
 30
0.0
 10
13.5497706533
 20
60.0615466222
 30
0.0
 10
13.8628498989
 20
60.0384810647
 30
0.0
 10
14.1544098301
 20
60.0812034202
 30
0.0
 10
14.3310234655
 20
60.15463041
 30
0.0
 10
14.411147854
 20
60.2008874256
 30
0.0
  0
SPLINE
  5
343
100
AcDbEntity
  8
0
100
AcDbSpline
 62
7
  6
BYLAYER
 70
0
 71
3
 72
22
 73
18
 74
0
 42
0.0000001
 43
0.0000001
 44
0.0000000001
 40
0.0
 40
0.0
 40
0.0
 40
0.0
 40
0.0623815194
 40
0.1287701769
 40
0.1983756527
 40
0.2703722708
 40
0.4173882734
 40
0.4904330273
 40
0.5617409585
 40
0.630359979
 40
0.6954661554
 40
0.7564323105
 40
0.8128873958
 40
0.8648024704
 40
0.9125923329
 40
0.957180845
 40
1.0
 40
1.0
 40
1.0
 40
1.0
 10
33.0448607411
 20
51.3193558044
 30
0.0
 10
33.0448607411
 20
51.1845696353
 30
0.0
 10
33.0631768995
 20
50.906156138
 30
0.0
 10
33.1382668194
 20
50.4834450759
 30
0.0
 10
33.2605044516
 20
50.0502298718
 30
0.0
 10
33.4841800669
 20
49.4674516143
 30
0.0
 10
33.7862503888
 20
48.9092045073
 30
0.0
 10
34.1537575598
 20
48.3973512605
 30
0.0
 10
34.4543666723
 20
48.0480689677
 30
0.0
 10
34.7739448062
 20
47.7402675119
 30
0.0
 10
35.1058397467
 20
47.4804651209
 30
0.0
 10
35.443098462
 20
47.2741185951
 30
0.0
 10
35.7789014275
 20
47.1256939785
 30
0.0
 10
36.1065708855
 20
47.038666553
 30
0.0
 10
36.4196501311
 20
47.0156009955
 30
0.0
 10
36.7112100623
 20
47.058323351
 30
0.0
 10
36.8878236977
 20
47.1317503408
 30
0.0
 10
36.9679480862
 20
47.1780073564
 30
0.0
  0
SPLINE
  5
344
100
AcDbEntity
  8
0
100
AcDbSpline
 62
7
  6
BYLAYER
 70
0
 71
3
 72
13
 73
9
 74
0
 42
0.0000001
 43
0.0000001
 44
0.0000000001
 40
0.0
 40
0.0
 40
0.0
 40
0.0
 40
0.1080932131
 40
0.2182331267
 40
0.332258229
 40
0.4516885327
 40
0.7106279546
 40
1.0
 40
1.0
 40
1.0
 40
1.0
 10
33.7179866095
 20
52.807139348
 30
0.0
 10
33.6647019896
 20
52.7763773348
 30
0.0
 10
33.562229331
 20
52.7049171607
 30
0.0
 10
33.4269070687
 20
52.5716491331
 30
0.0
 10
33.3104595492
 20
52.4135592298
 30
0.0
 10
33.1784344624
 20
52.1653586083
 30
0.0
 10
33.06968975
 20
51.797101795
 30
0.0
 10
33.0448607411
 20
51.4840668656
 30
0.0
 10
33.0448607411
 20
51.3193558044
 30
0.0
  0
ELLIPSE
  5
345
100
AcDbEntity
  8
0
100
AcDbEllipse
 62
7
  6
BYLAYER
 10
31.2394499345
 20
79.2746981072
 30
0.0
 11
-2.4569286026
 21
2.3807613071
 31
0.0
 40
0.2867709769
 41
0.8938188204
 42
1.7733581182
  0
ELLIPSE
  5
346
100
AcDbEntity
  8
0
100
AcDbEllipse
 62
7
  6
BYLAYER
 10
53.7255391942
 20
66.2926421134
 30
0.0
 11
-2.4569286026
 21
2.3807613071
 31
0.0
 40
0.2867709769
 41
0.8938188204
 42
1.7864951357
  0
ELLIPSE
  5
347
100
AcDbEntity
  8
0
100
AcDbEllipse
 62
7
  6
BYLAYER
 10
46.2301761076
 20
70.6199941114
 30
0.0
 11
-2.4569286026
 21
2.3807613071
 31
0.0
 40
0.2867709769
 41
0.8938188204
 42
1.7733581182
  0
ELLIPSE
  5
348
100
AcDbEntity
  8
0
100
AcDbEllipse
 62
7
  6
BYLAYER
 10
38.7348130211
 20
74.9473461093
 30
0.0
 11
-2.4569286026
 21
2.3807613071
 31
0.0
 40
0.2867709769
 41
0.8938188204
 42
1.7733581182
  0
ELLIPSE
  5
349
100
AcDbEntity
  8
0
100
AcDbEllipse
 62
7
  6
BYLAYER
 10
49.1704510033
 20
63.9844809207
 30
0.0
 11
0.4120081538
 21
3.4894830493
 31
0.0
 40
0.7268973157
 41
1.4424129203
 42
2.4686602722
  0
ELLIPSE
  5
34A
100
AcDbEntity
  8
0
100
AcDbEllipse
 62
7
  6
BYLAYER
 10
41.6750879168
 20
68.3118329186
 30
0.0
 11
0.4120081538
 21
3.4894830493
 31
0.0
 40
0.7268973157
 41
1.4424129203
 42
2.5168488044
  0
ELLIPSE
  5
34B
100
AcDbEntity
  8
0
100
AcDbEllipse
 62
7
  6
BYLAYER
 10
34.1797248302
 20
72.6391849165
 30
0.0
 11
0.4120081538
 21
3.4894830493
 31
0.0
 40
0.7268973157
 41
1.4424129203
 42
2.5168488044
  0
ELLIPSE
  5
34C
100
AcDbEntity
  8
0
100
AcDbEllipse
 62
7
  6
BYLAYER
 10
26.6843617437
 20
76.9665369145
 30
0.0
 11
0.4120081538
 21
3.4894830493
 31
0.0
 40
0.7268973157
 41
1.4424129203
 42
2.5648873799
  0
ENDSEC
  0
SECTION
  2
OBJECTS
  0
DICTIONARY
  5
C
100
AcDbDictionary
280
0
281
1
  3
ACAD_GROUP
350
D
  3
ACAD_MLINESTYLE
350
17
  3
ACAD_LAYOUT
350
1A
  3
ACAD_PLOTSETTINGS
350
19
  3
ACAD_PLOTSTYLENAME
350
E
  0
DICTIONARY
  5
D
102
{ACAD_REACTORS
330
C
102
}
100
AcDbDictionary
280
0
281
1
  0
ACDBDICTIONARYWDFLT
  5
E
102
{ACAD_REACTORS
330
C
102
}
100
AcDbDictionary
281
1
  3
Normal
350
F
100
AcDbDictionaryWithDefault
340
F
  0
DICTIONARY
  5
17
102
{ACAD_REACTORS
330
C
102
}
100
AcDbDictionary
280
0
281
1
  3
Standard
350
18
  0
DICTIONARY
  5
19
102
{ACAD_REACTORS
330
C
102
}
100
AcDbDictionary
281
1
  0
DICTIONARY
  5
1A
102
{ACAD_REACTORS
330
C
102
}
100
AcDbDictionary
281
1
  3
Model
350
34D
  3
Layout1
350
34E
  0
ACDBPLACEHOLDER
  5
F
102
{ACAD_REACTORS
330
E
102
}
  0
MLINESTYLE
  5
18
102
{ACAD_REACTORS
330
17
102
}
100
AcDbMlineStyle
  2
STANDARD
 70
0
  3

 62
256
 51
90.0
 52
90.0
 71
2
 49
0.5
 62
256
  6
BYLAYER
 49
-0.5
 62
256
  6
BYLAYER
  0
LAYOUT
  5
34D
102
{ACAD_REACTORS
330
1A
102
}
100
AcDbPlotSettings
  1

  2
none_device
  4

  6

 40
0.0
 41
0.0
 42
0.0
 43
0.0
 44
210.0
 45
297.0
 46
0.0
 47
0.0
 48
0.0
 49
0.0
140
0.0
141
0.0
142
1.0
143
1.0
 70
1024
 72
1
 73
0
 74
0
  7

 75
0
147
1.0
148
0.0
149
0.0
100
AcDbLayout
  1
Model
 70
0
 71
0
 10
0.0
 20
0.0
 11
210.0
 21
297.0
 12
0.0
 22
0.0
 32
0.0
 14
0.0
 24
0.0
 34
0.0
 15
0.0
 25
0.0
 35
0.0
146
0.0
 13
0.0
 23
0.0
 33
0.0
 16
1.0
 26
0.0
 36
0.0
 17
0.0
 27
1.0
 37
0.0
 76
0
330
210
345
0
346
0
  0
LAYOUT
  5
34E
102
{ACAD_REACTORS
330
1A
102
}
100
AcDbPlotSettings
  1

  2
none_device
  4

  6

 40
0.0
 41
0.0
 42
0.0
 43
0.0
 44
210.0
 45
297.0
 46
0.0
 47
0.0
 48
0.0
 49
0.0
140
0.0
141
0.0
142
1.0
143
1.0
 70
0
 72
1
 73
0
 74
0
  7

 75
0
147
1.0
148
0.0
149
0.0
100
AcDbLayout
  1
Layout1
 70
0
 71
1
 10
0.0
 20
0.0
 11
210.0
 21
297.0
 12
0.0
 22
0.0
 32
0.0
 14
0.0
 24
0.0
 34
0.0
 15
0.0
 25
0.0
 35
0.0
146
0.0
 13
0.0
 23
0.0
 33
0.0
 16
1.0
 26
0.0
 36
0.0
 17
0.0
 27
1.0
 37
0.0
 76
0
330
211
345
0
346
0
  0
ENDSEC
  0
EOF
