999
DXF file: C:\Users\sesa63760\Dev\_Creo\CAD\MCADID0003884_3D-CAD\drw0001_1.dxf
999
Pro/ENGINEER 2019471 by Parametric Technology Corporation
  0
SECTION
  2
HEADER
  9
$ACADVER
  1
AC1024
  9
$DWGCODEPAGE
  3
ANSI_1252
  9
$EXTMAX
 10
42.6053844084
 20
60.2561865205
 30
0.0
  9
$EXTMIN
 10
0.0
 20
0.0
 30
0.0
  9
$LIMMIN
 10
0.0
 20
0.0
  9
$LIMMAX
 10
42.6053844084
 20
60.2561865205
  9
$VIEWCTR
 10
21.3026922042
 20
30.1280932602
  9
$VIEWSIZE
 40
60.2561865205
  9
$CLAYER
  8
0
  9
$LTSCALE
 40
3.9278106769
  9
$CELTYPE
  6
BYLAYER
  9
$DIMSCALE
 40
1.0
  9
$DIMASZ
 40
0.5072069572
  9
$DIMEXO
 40
1.0
  9
$DIMDLI
 40
2.713760104
  9
$DIMEXE
 40
1.0
  9
$DIMCEN
 40
0.6427326562
  9
$DIMLFAC
 40
1.0
  9
$DIMBLK
  1
_FILLED
  9
$DIMALT
 70
0
  9
$DIMALTF
 40
0.0393700787
  9
$DIMTXT
 40
0.7100897401
  9
$DIMTOL
 70
1
  9
$DIMLIM
 70
0
  9
$DIMTFAC
 40
1.0
  9
$DIMTP
 40
0.01
  9
$DIMTM
 40
0.01
  9
$DIMGAP
 40
0.625
  9
$DIMDSEP
 70
46
  9
$AUNITS
 70
0
  9
$PDMODE
 70
3
  9
$PDSIZE
 40
0.3125
  9
$HANDSEED
  5
2C3
  9
$TILEMODE
 70
1
  9
$MEASUREMENT
 70
1
  9
$INSUNITS
 70
4
  0
ENDSEC
  0
SECTION
  2
CLASSES
  0
CLASS
  1
ACDBDICTIONARYWDFLT
  2
AcDbDictionaryWithDefault
  3
AutoCAD 2000
 90
0
 91
1
280
0
281
0
  0
CLASS
  1
ACDBPLACEHOLDER
  2
AcDbPlaceHolder
  3
AutoCAD 2000
 90
0
 91
1
280
0
281
0
  0
CLASS
  1
LAYOUT
  2
AcDbLayout
  3
AutoCAD 2000
 90
0
 91
0
280
0
281
0
  0
ENDSEC
  0
SECTION
  2
TABLES
  0
TABLE
  2
VPORT
  5
8
100
AcDbSymbolTable
 70
2
  0
VPORT
  5
1F4
100
AcDbSymbolTableRecord
100
AcDbViewportTableRecord
  2
*ACTIVE
 70
0
 10
0.0
 20
0.0
 11
1.0
 21
1.0
 12
21.3026922042
 22
30.1280932602
 13
0.0
 23
0.0
 14
1.0
 24
1.0
 15
0.0
 25
0.0
 16
0.0
 26
0.0
 36
1.0
 17
0.0
 27
0.0
 37
0.0
 40
60.2561865205
 41
0.7070707071
 42
50.0
 43
0.0
 44
0.0
 50
0.0
 51
0.0
 71
0
 72
100
 73
1
 74
1
 75
0
 76
0
 77
0
 78
0
  0
ENDTAB
  0
TABLE
  2
LTYPE
  5
5
100
AcDbSymbolTable
 70
6
  0
LTYPE
  5
14
100
AcDbSymbolTableRecord
100
AcDbLinetypeTableRecord
  2
BYBLOCK
 70
0
  3

 72
65
 73
0
 40
0.0
  0
LTYPE
  5
15
100
AcDbSymbolTableRecord
100
AcDbLinetypeTableRecord
  2
BYLAYER
 70
0
  3

 72
65
 73
0
 40
0.0
  0
LTYPE
  5
16
100
AcDbSymbolTableRecord
100
AcDbLinetypeTableRecord
  2
CONTINUOUS
 70
64
  3
Solid line
 72
65
 73
0
 40
0.0
  0
LTYPE
  5
1F5
100
AcDbSymbolTableRecord
100
AcDbLinetypeTableRecord
  2
CENTER
 70
64
  3
____ _ ____ _ ____ _ ____ _ ____ _ ____ _ ____
 72
65
 73
4
 40
0.6
 49
0.375
 74
0
 49
-0.075
 74
0
 49
0.075
 74
0
 49
-0.075
 74
0
  0
LTYPE
  5
1F6
100
AcDbSymbolTableRecord
100
AcDbLinetypeTableRecord
  2
HIDDEN
 70
64
  3
- - - - - - - - - - - - - - - - - - - -
 72
65
 73
2
 40
0.2
 49
0.1
 74
0
 49
-0.1
 74
0
  0
LTYPE
  5
1F7
100
AcDbSymbolTableRecord
100
AcDbLinetypeTableRecord
  2
PHANTOM
 70
64
  3
_____ _ _ _____ _ _ _____ _ _ _____
 72
65
 73
6
 40
0.8
 49
0.45
 74
0
 49
-0.05
 74
0
 49
0.1
 74
0
 49
-0.05
 74
0
 49
0.1
 74
0
 49
-0.05
 74
0
  0
LTYPE
  5
1F8
100
AcDbSymbolTableRecord
100
AcDbLinetypeTableRecord
  2
DOT
 70
64
  3
. . . . . . . . . . . . . . . . . . . .
 72
65
 73
2
 40
0.2
 49
0.1
 74
0
 49
-0.1
 74
0
  0
LTYPE
  5
1F9
100
AcDbSymbolTableRecord
100
AcDbLinetypeTableRecord
  2
DASHED
 70
64
  3
- - - - - - - - - - - - - - - - - - - -
 72
65
 73
2
 40
0.2
 49
0.1
 74
0
 49
-0.1
 74
0
  0
ENDTAB
  0
TABLE
  2
LAYER
  5
2
100
AcDbSymbolTable
 70
36
  0
LAYER
  5
10
100
AcDbSymbolTableRecord
100
AcDbLayerTableRecord
  2
0
 70
0
 62
7
  6
CONTINUOUS
370
-3
390
F
  0
LAYER
  5
1FA
100
AcDbSymbolTableRecord
100
AcDbLayerTableRecord
  2
DEFAULT_1
 70
0
 62
7
  6
CENTER
370
-3
390
F
  0
LAYER
  5
1FB
100
AcDbSymbolTableRecord
100
AcDbLayerTableRecord
  2
DEFAULT_2
 70
0
 62
7
  6
HIDDEN
370
-3
390
F
  0
LAYER
  5
1FC
100
AcDbSymbolTableRecord
100
AcDbLayerTableRecord
  2
DEFAULT_3
 70
0
 62
7
  6
PHANTOM
370
-3
390
F
  0
LAYER
  5
1FD
100
AcDbSymbolTableRecord
100
AcDbLayerTableRecord
  2
00_COMPONENTS
 70
0
 62
7
  6
CONTINUOUS
370
-3
390
F
  0
LAYER
  5
1FE
100
AcDbSymbolTableRecord
100
AcDbLayerTableRecord
  2
01_1_DEFAULT_DATUMS
 70
0
 62
7
  6
CONTINUOUS
370
-3
390
F
  0
LAYER
  5
1FF
100
AcDbSymbolTableRecord
100
AcDbLayerTableRecord
  2
01_PLANES
 70
0
 62
7
  6
CONTINUOUS
370
-3
390
F
  0
LAYER
  5
200
100
AcDbSymbolTableRecord
100
AcDbLayerTableRecord
  2
02_COORD_SYS
 70
0
 62
7
  6
CONTINUOUS
370
-3
390
F
  0
LAYER
  5
201
100
AcDbSymbolTableRecord
100
AcDbLayerTableRecord
  2
03_AXES
 70
0
 62
7
  6
CONTINUOUS
370
-3
390
F
  0
LAYER
  5
202
100
AcDbSymbolTableRecord
100
AcDbLayerTableRecord
  2
04_POINTS
 70
0
 62
7
  6
CONTINUOUS
370
-3
390
F
  0
LAYER
  5
203
100
AcDbSymbolTableRecord
100
AcDbLayerTableRecord
  2
05_CURVES
 70
0
 62
7
  6
CONTINUOUS
370
-3
390
F
  0
LAYER
  5
204
100
AcDbSymbolTableRecord
100
AcDbLayerTableRecord
  2
06_SURFS
 70
0
 62
7
  6
CONTINUOUS
370
-3
390
F
  0
LAYER
  5
205
100
AcDbSymbolTableRecord
100
AcDbLayerTableRecord
  2
07_COSMETICS
 70
0
 62
7
  6
CONTINUOUS
370
-3
390
F
  0
LAYER
  5
206
100
AcDbSymbolTableRecord
100
AcDbLayerTableRecord
  2
10_NOTES
 70
0
 62
7
  6
CONTINUOUS
370
-3
390
F
  0
LAYER
  5
207
100
AcDbSymbolTableRecord
100
AcDbLayerTableRecord
  2
11_NOTES_PUB
 70
0
 62
7
  6
CONTINUOUS
370
-3
390
F
  0
LAYER
  5
208
100
AcDbSymbolTableRecord
100
AcDbLayerTableRecord
  2
13_REF_GTOL
 70
0
 62
7
  6
CONTINUOUS
370
-3
390
F
  0
LAYER
  5
209
100
AcDbSymbolTableRecord
100
AcDbLayerTableRecord
  2
16_MISC
 70
0
 62
7
  6
CONTINUOUS
370
-3
390
F
  0
LAYER
  5
20A
100
AcDbSymbolTableRecord
100
AcDbLayerTableRecord
  2
17_NO_PRINT
 70
0
 62
7
  6
CONTINUOUS
370
-3
390
F
  0
LAYER
  5
20B
100
AcDbSymbolTableRecord
100
AcDbLayerTableRecord
  2
18_DATUM_CAMS_JOINTS
 70
0
 62
7
  6
CONTINUOUS
370
-3
390
F
  0
LAYER
  5
20C
100
AcDbSymbolTableRecord
100
AcDbLayerTableRecord
  2
19_DATUM_FUNCTIONAL
 70
0
 62
7
  6
CONTINUOUS
370
-3
390
F
  0
LAYER
  5
20D
100
AcDbSymbolTableRecord
100
AcDbLayerTableRecord
  2
20_DATUM_KINEMATIC_SCHEME
 70
0
 62
7
  6
CONTINUOUS
370
-3
390
F
  0
ENDTAB
  0
TABLE
  2
STYLE
  5
3
100
AcDbSymbolTable
 70
1
  0
STYLE
  5
11
100
AcDbSymbolTableRecord
100
AcDbTextStyleTableRecord
  2
STANDARD
 70
0
 40
0.0
 41
1.0
 50
0.0
 71
0
 42
0.2
  3
ARIAL.TTF
  4

  0
STYLE
  5
20E
100
AcDbSymbolTableRecord
100
AcDbTextStyleTableRecord
  2
TEXTSTYLE_1
 70
0
 40
0.0
 41
0.8
 50
0.0
 71
0
 42
0.2
  3
gdt
  4

  0
ENDTAB
  0
TABLE
  2
VIEW
  5
6
100
AcDbSymbolTable
 70
0
  0
ENDTAB
  0
TABLE
  2
UCS
  5
7
100
AcDbSymbolTable
 70
0
  0
ENDTAB
  0
TABLE
  2
APPID
  5
9
100
AcDbSymbolTable
 70
1
  0
APPID
  5
20F
100
AcDbSymbolTableRecord
100
AcDbRegAppTableRecord
  2
ACAD
 70
0
  0
ENDTAB
  0
TABLE
  2
BLOCK_RECORD
  5
1
100
AcDbSymbolTable
 70
0
  0
BLOCK_RECORD
  5
210
100
AcDbSymbolTableRecord
100
AcDbBlockTableRecord
  2
*Model_Space
  0
BLOCK_RECORD
  5
211
100
AcDbSymbolTableRecord
100
AcDbBlockTableRecord
  2
*Paper_Space
  0
BLOCK_RECORD
  5
212
100
AcDbSymbolTableRecord
100
AcDbBlockTableRecord
  2
_FILLED
  0
ENDTAB
  0
TABLE
  2
DIMSTYLE
  5
A
100
AcDbSymbolTable
 70
1
100
AcDbDimStyleTable
 71
0
  0
DIMSTYLE
105
213
100
AcDbSymbolTableRecord
100
AcDbDimStyleTableRecord
  2
STANDARD
 70
0
  3

  4

 40
1.0
 41
0.5072069572
 42
1.0
 43
0.38
 44
1.0
 45
0.0
 46
0.0
 47
0.01
 48
0.01
140
0.7100897401
141
0.09
142
0.0
143
25.4
144
1.0
145
0.0
146
1.0
147
0.625
 71
1
 72
0
 73
0
 74
0
 75
0
 76
0
 77
1
 78
8
 79
2
170
0
171
1
172
0
173
0
174
0
175
0
176
0
177
0
178
0
270
2
179
2
271
2
272
2
273
2
274
2
275
0
280
0
281
0
282
0
283
1
284
8
285
0
286
0
287
3
288
0
340
11
278
46
341
212
342
212
343
212
344
212
  0
ENDTAB
  0
ENDSEC
  0
SECTION
  2
BLOCKS
  0
BLOCK
  5
20
100
AcDbEntity
  8
0
100
AcDbBlockBegin
  2
*Model_Space
 70
0
 10
0.0
 20
0.0
 30
0.0
  3
*Model_Space
  1

  0
ENDBLK
  5
21
100
AcDbEntity
  8
0
100
AcDbBlockEnd
  0
BLOCK
  5
1C
100
AcDbEntity
  8
0
100
AcDbBlockBegin
  2
*Paper_Space
 70
0
 10
0.0
 20
0.0
 30
0.0
  3
*Paper_Space
  1

  0
ENDBLK
  5
1D
100
AcDbEntity
  8
0
100
AcDbBlockEnd
  0
BLOCK
  5
214
100
AcDbEntity
  8
0
100
AcDbBlockBegin
  2
_FILLED
 70
64
 10
0.0
 20
0.0
  3
_FILLED
  1

  0
SOLID
  5
215
100
AcDbEntity
  8
0
  6
BYBLOCK
 62
0
100
AcDbTrace
 10
0.0
 20
0.0
 11
-1.0
 21
0.25
 12
-1.0
 22
-0.25
 13
-1.0
 23
-0.25
  0
ENDBLK
  5
216
100
AcDbEntity
  8
0
  6
BYBLOCK
 62
0
100
AcDbBlockEnd
  0
ENDSEC
  0
SECTION
  2
ENTITIES
  0
LINE
  5
217
100
AcDbEntity
  8
0
100
AcDbLine
 62
7
  6
BYLAYER
 10
13.8599094267
 20
23.0384893565
 11
13.8599138426
 21
22.4261307745
  0
LINE
  5
218
100
AcDbEntity
  8
0
100
AcDbLine
 62
7
  6
BYLAYER
 10
5.4145082768
 20
24.5061322712
 11
6.2057350709
 21
25.2255649895
  0
LINE
  5
219
100
AcDbEntity
  8
0
100
AcDbLine
 62
7
  6
BYLAYER
 10
11.5618616685
 20
27.0188485912
 11
11.0315473711
 21
27.3250344479
  0
LINE
  5
21A
100
AcDbEntity
  8
0
100
AcDbLine
 62
7
  6
BYLAYER
 10
35.3079290616
 20
40.9617472916
 11
35.6381575206
 21
41.0708996891
  0
LINE
  5
21B
100
AcDbEntity
  8
0
100
AcDbLine
 62
7
  6
BYLAYER
 10
6.4073569321
 20
25.3730576673
 11
6.2057350709
 21
25.2255649895
  0
LINE
  5
21C
100
AcDbEntity
  8
0
100
AcDbLine
 62
7
  6
BYLAYER
 10
27.9366985437
 20
38.8214043216
 11
25.4268857573
 21
37.3723718833
  0
LINE
  5
21D
100
AcDbEntity
  8
0
100
AcDbLine
 62
7
  6
BYLAYER
 10
29.6695085044
 20
39.8218366471
 11
32.1793218432
 21
41.2708694043
  0
LINE
  5
21E
100
AcDbEntity
  8
0
100
AcDbLine
 62
7
  6
BYLAYER
 10
9.0314838959
 20
27.523173381
 11
7.5819210296
 21
26.6862728656
  0
LINE
  5
21F
100
AcDbEntity
  8
0
100
AcDbLine
 62
7
  6
BYLAYER
 10
6.5487776996
 20
25.454706498
 11
6.4073569321
 21
25.3730576673
  0
LINE
  5
220
100
AcDbEntity
  8
0
100
AcDbLine
 62
7
  6
BYLAYER
 10
30.1527627225
 20
39.0193686726
 11
27.6429494092
 21
37.5703359301
  0
LINE
  5
221
100
AcDbEntity
  8
0
100
AcDbLine
 62
7
  6
BYLAYER
 10
31.8855727039
 20
40.01980101
 11
34.3953854744
 21
41.4688334392
  0
LINE
  5
222
100
AcDbEntity
  8
0
100
AcDbLine
 62
7
  6
BYLAYER
 10
17.2079678346
 20
31.377816294
 11
10.5522576576
 21
27.5351631693
  0
LINE
  5
223
100
AcDbEntity
  8
0
100
AcDbLine
 62
7
  6
BYLAYER
 10
7.4265914728
 20
25.7305697281
 11
7.220650548
 21
25.6116703894
  0
LINE
  5
224
100
AcDbEntity
  8
0
100
AcDbLine
 62
7
  6
BYLAYER
 10
30.6074962364
 20
38.7978781707
 11
28.1680158717
 21
37.3894519326
  0
LINE
  5
225
100
AcDbEntity
  8
0
100
AcDbLine
 62
7
  6
BYLAYER
 10
32.410638709
 20
39.8389167485
 11
34.8501194457
 21
41.2473432013
  0
LINE
  5
226
100
AcDbEntity
  8
0
100
AcDbLine
 62
7
  6
BYLAYER
 10
35.3079290616
 20
40.9617472915
 11
35.222456049
 21
40.9123997193
  0
LINE
  5
227
100
AcDbEntity
  8
0
100
AcDbLine
 62
7
  6
BYLAYER
 10
8.3201920521
 20
23.3452458563
 11
8.1702169391
 21
23.2586582013
  0
LINE
  5
228
100
AcDbEntity
  8
0
100
AcDbLine
 62
7
  6
BYLAYER
 10
21.5923885272
 20
27.5211579932
 11
21.2448407454
 21
26.6711577673
  0
LINE
  5
229
100
AcDbEntity
  8
0
100
AcDbLine
 62
7
  6
BYLAYER
 10
9.0534682876
 20
22.0655656078
 11
7.6702191776
 21
21.2669264375
  0
LINE
  5
22A
100
AcDbEntity
  8
0
100
AcDbLine
 62
7
  6
BYLAYER
 10
33.0685103265
 20
35.7363625393
 11
30.6290296005
 21
34.3279360926
  0
LINE
  5
22B
100
AcDbEntity
  8
0
100
AcDbLine
 62
7
  6
BYLAYER
 10
34.8716528079
 20
36.7774011222
 11
37.3111331657
 21
38.1858273563
  0
LINE
  5
22C
100
AcDbEntity
  8
0
100
AcDbLine
 62
7
  6
BYLAYER
 10
5.8691862882
 20
24.4272622074
 11
6.2522513006
 21
24.5538789886
  0
LINE
  5
22D
100
AcDbEntity
  8
0
100
AcDbLine
 62
7
  6
BYLAYER
 10
19.3102291657
 20
31.4739975534
 11
18.4003341271
 21
31.598017162
  0
LINE
  5
22E
100
AcDbEntity
  8
0
100
AcDbLine
 62
7
  6
BYLAYER
 10
33.2873887671
 20
35.1198748555
 11
30.7775761511
 21
33.6708425156
  0
LINE
  5
22F
100
AcDbEntity
  8
0
100
AcDbLine
 62
7
  6
BYLAYER
 10
35.0201991732
 20
36.1203074382
 11
37.5300117915
 21
37.5693397794
  0
LINE
  5
230
100
AcDbEntity
  8
0
100
AcDbLine
 62
7
  6
BYLAYER
 10
9.3240426018
 20
21.0670573218
 11
8.1702169391
 21
20.4008997413
  0
LINE
  5
231
100
AcDbEntity
  8
0
100
AcDbLine
 62
7
  6
BYLAYER
 10
37.8079178694
 20
36.6316138108
 11
37.6682228145
 21
36.5509613147
  0
LINE
  5
232
100
AcDbEntity
  8
0
100
AcDbLine
 62
7
  6
BYLAYER
 10
20.4579532847
 20
25.7486427691
 11
13.8165882755
 21
21.9142717814
  0
LINE
  5
233
100
AcDbEntity
  8
0
100
AcDbLine
 62
7
  6
BYLAYER
 10
10.676576923
 20
20.1013962031
 11
10.4672194424
 21
19.9805243269
  0
LINE
  5
234
100
AcDbEntity
  8
0
100
AcDbLine
 62
7
  6
BYLAYER
 10
9.9987622543
 20
19.4791222946
 11
9.8573414869
 21
19.3974734639
  0
LINE
  5
235
100
AcDbEntity
  8
0
100
AcDbLine
 62
7
  6
BYLAYER
 10
13.0314659883
 20
20.5949598119
 11
11.581903122
 21
19.7580592964
  0
LINE
  5
236
100
AcDbEntity
  8
0
100
AcDbLine
 62
7
  6
BYLAYER
 10
33.2873887682
 20
32.1651141507
 11
30.7775761499
 21
30.7160818095
  0
LINE
  5
237
100
AcDbEntity
  8
0
100
AcDbLine
 62
7
  6
BYLAYER
 10
35.0201991744
 20
33.1655467334
 11
37.5300117904
 21
34.6145790733
  0
LINE
  5
238
100
AcDbEntity
  8
0
100
AcDbLine
 62
7
  6
BYLAYER
 10
33.0685101458
 20
31.7201485873
 11
30.6290297812
 21
30.3117223492
  0
LINE
  5
239
100
AcDbEntity
  8
0
100
AcDbLine
 62
7
  6
BYLAYER
 10
34.8716526185
 20
32.7611871651
 11
37.3111333551
 21
34.1696136179
  0
LINE
  5
23A
100
AcDbEntity
  8
0
100
AcDbLine
 62
7
  6
BYLAYER
 10
9.6287976291
 20
19.2966113304
 11
9.8573414869
 21
19.3974734639
  0
LINE
  5
23B
100
AcDbEntity
  8
0
100
AcDbLine
 62
7
  6
BYLAYER
 10
8.610135539
 20
18.9711104516
 11
9.6287976291
 21
19.2966113304
  0
LINE
  5
23C
100
AcDbEntity
  8
0
100
AcDbLine
 62
7
  6
BYLAYER
 10
38.3256966007
 20
37.9393912843
 11
38.3256977783
 21
37.7760956625
  0
LINE
  5
23D
100
AcDbEntity
  8
0
100
AcDbLine
 62
7
  6
BYLAYER
 10
36.6993858796
 20
40.7562608966
 11
36.5579687336
 21
40.8379104584
  0
ARC
  5
23E
100
AcDbEntity
  8
0
100
AcDbCircle
 62
7
  6
BYLAYER
 10
37.8919945337
 20
30.7069673649
 40
12.2755903538
100
AcDbArc
 50
132.0534887544
 51
133.780866191
  0
ARC
  5
23F
100
AcDbEntity
  8
0
100
AcDbCircle
 62
7
  6
BYLAYER
 10
33.5483152733
 20
28.3651686141
 40
12.1279586812
100
AcDbArc
 50
132.0396992382
 51
133.7881072131
  0
ARC
  5
240
100
AcDbEntity
  8
0
100
AcDbCircle
 62
7
  6
BYLAYER
 10
35.2598366221
 20
39.387690897
 40
11.7536651219
100
AcDbArc
 50
228.1581111933
 51
229.6057436704
  0
ARC
  5
241
100
AcDbEntity
  8
0
100
AcDbCircle
 62
7
  6
BYLAYER
 10
44.0043580367
 20
38.496324197
 40
9.2930650881
100
AcDbArc
 50
190.6592921552
 51
194.8137076721
  0
ARC
  5
242
100
AcDbEntity
  8
0
100
AcDbCircle
 62
7
  6
BYLAYER
 10
39.7086216637
 20
36.0349952702
 40
9.2386557464
100
AcDbArc
 50
190.6479120324
 51
194.826794555
  0
ARC
  5
243
100
AcDbEntity
  8
0
100
AcDbCircle
 62
7
  6
BYLAYER
 10
32.598044412
 20
37.4231776093
 40
8.5657877058
100
AcDbArc
 50
234.6566516374
 51
238.8570150999
  0
ARC
  5
244
100
AcDbEntity
  8
0
100
AcDbCircle
 62
7
  6
BYLAYER
 10
25.1978815923
 20
32.5950457178
 40
8.4743593693
100
AcDbArc
 50
17.3337492925
 51
21.757877044
  0
ARC
  5
245
100
AcDbEntity
  8
0
100
AcDbCircle
 62
7
  6
BYLAYER
 10
29.4427473127
 20
35.0451280687
 40
8.4720417558
100
AcDbArc
 50
17.3342821796
 51
21.7596211558
  0
ARC
  5
246
100
AcDbEntity
  8
0
100
AcDbCircle
 62
7
  6
BYLAYER
 10
32.8047529799
 20
39.7109011618
 40
7.2005822881
100
AcDbArc
 50
274.2111729435
 51
275.1146623764
  0
ARC
  5
247
100
AcDbEntity
  8
0
100
AcDbCircle
 62
7
  6
BYLAYER
 10
31.2650737168
 20
35.3662981585
 40
6.3036768324
100
AcDbArc
 50
179.9898390875
 51
183.3892728426
  0
ARC
  5
248
100
AcDbEntity
  8
0
100
AcDbCircle
 62
7
  6
BYLAYER
 10
27.7289246967
 20
33.4646185769
 40
6.0605515935
100
AcDbArc
 50
61.6425041607
 51
66.4257523861
  0
ARC
  5
249
100
AcDbEntity
  8
0
100
AcDbCircle
 62
7
  6
BYLAYER
 10
31.9937795339
 20
35.9606414816
 40
6.0089843372
100
AcDbArc
 50
61.6181927883
 51
66.4424972061
  0
ARC
  5
24A
100
AcDbEntity
  8
0
100
AcDbCircle
 62
7
  6
BYLAYER
 10
34.3264074788
 20
37.5502599585
 40
3.9969029912
100
AcDbArc
 50
38.7935033423
 51
39.6142681729
  0
ARC
  5
24B
100
AcDbEntity
  8
0
100
AcDbCircle
 62
7
  6
BYLAYER
 10
18.0671684997
 20
28.169143209
 40
3.6281319783
100
AcDbArc
 50
39.6142017241
 51
40.7423633647
  0
ARC
  5
24C
100
AcDbEntity
  8
0
100
AcDbCircle
 62
7
  6
BYLAYER
 10
34.68777833
 20
37.7660325632
 40
3.6232954455
100
AcDbArc
 50
39.6128081007
 51
40.7303020561
  0
ARC
  5
24D
100
AcDbEntity
  8
0
100
AcDbCircle
 62
7
  6
BYLAYER
 10
35.2903846946
 20
38.1098578449
 40
3.0042298144
100
AcDbArc
 50
39.6041080851
 51
42.0492379911
  0
ARC
  5
24E
100
AcDbEntity
  8
0
100
AcDbCircle
 62
7
  6
BYLAYER
 10
6.0269882808
 20
22.0501830857
 40
2.5803048422
100
AcDbArc
 50
60.8761451138
 51
62.6966301057
  0
ARC
  5
24F
100
AcDbEntity
  8
0
100
AcDbCircle
 62
7
  6
BYLAYER
 10
35.81336821
 20
37.7738874373
 40
2.512328268
100
AcDbArc
 50
0.050390368
 51
3.5246883791
  0
ARC
  5
250
100
AcDbEntity
  8
0
100
AcDbCircle
 62
7
  6
BYLAYER
 10
35.3208526839
 20
38.6969783131
 40
2.4726587104
100
AcDbArc
 50
56.2639771269
 51
59.978948647
  0
ARC
  5
251
100
AcDbEntity
  8
0
100
AcDbCircle
 62
7
  6
BYLAYER
 10
33.2996541719
 20
34.1926149816
 40
1.6601489742
100
AcDbArc
 50
271.7124965953
 51
275.0808177507
  0
ARC
  5
252
100
AcDbEntity
  8
0
100
AcDbCircle
 62
7
  6
BYLAYER
 10
6.986944364
 20
24.3682991583
 40
1.159936888
100
AcDbArc
 50
111.9686320317
 51
119.9781762984
  0
ARC
  5
253
100
AcDbEntity
  8
0
100
AcDbCircle
 62
7
  6
BYLAYER
 10
9.2806277124
 20
20.3964023631
 40
1.1534513852
100
AcDbArc
 50
299.999221613
 51
307.9309329462
  0
ARC
  5
254
100
AcDbEntity
  8
0
100
AcDbCircle
 62
7
  6
BYLAYER
 10
21.0578236789
 20
27.921766455
 40
0.8320490491
100
AcDbArc
 50
298.930956268
 51
299.9976873431
  0
ARC
  5
255
100
AcDbEntity
  8
0
100
AcDbCircle
 62
7
  6
BYLAYER
 10
19.3894723455
 20
30.8113301212
 40
0.8313392984
100
AcDbArc
 50
119.9977846882
 51
121.0492549355
  0
ARC
  5
256
100
AcDbEntity
  8
0
100
AcDbCircle
 62
7
  6
BYLAYER
 10
9.1576600774
 20
21.548370999
 40
0.5
100
AcDbArc
 50
119.9998519061
 51
289.3453509699
  0
ARC
  5
257
100
AcDbEntity
  8
0
100
AcDbCircle
 62
7
  6
BYLAYER
 10
7.9202180584
 20
23.6916715494
 40
0.5
100
AcDbArc
 50
129.6140097615
 51
299.9998519061
  0
ARC
  5
258
100
AcDbEntity
  8
0
100
AcDbCircle
 62
7
  6
BYLAYER
 10
7.9202180584
 20
20.8339130894
 40
0.5
100
AcDbArc
 50
119.9998519061
 51
299.9998519061
  0
SPLINE
  5
259
100
AcDbEntity
  8
0
100
AcDbSpline
 62
7
  6
BYLAYER
 70
0
 71
3
 72
15
 73
11
 74
0
 42
0.0000001
 43
0.0000001
 44
0.0000000001
 40
0.0
 40
0.0
 40
0.0
 40
0.0
 40
0.129055516
 40
0.2596758569
 40
0.390399805
 40
0.5198187543
 40
0.6465632616
 40
0.7694317216
 40
0.8874571585
 40
1.0
 40
1.0
 40
1.0
 40
1.0
 10
37.6050462426
 20
40.0249919646
 30
0.0
 10
37.6600395058
 20
39.9585515858
 30
0.0
 10
37.7651239335
 20
39.820158434
 30
0.0
 10
37.9059625903
 20
39.6002291915
 30
0.0
 10
38.0291753379
 20
39.3696660596
 30
0.0
 10
38.1326489449
 20
39.1324131929
 30
0.0
 10
38.2145728065
 20
38.8924050205
 30
0.0
 10
38.2734649307
 20
38.6535227046
 30
0.0
 10
38.3081432897
 20
38.4195184563
 30
0.0
 10
38.3146467676
 20
38.2651815442
 30
0.0
 10
38.3132329705
 20
38.1899829594
 30
0.0
  0
SPLINE
  5
25A
100
AcDbEntity
  8
0
100
AcDbSpline
 62
7
  6
BYLAYER
 70
0
 71
3
 72
13
 73
9
 74
0
 42
0.0000001
 43
0.0000001
 44
0.0000000001
 40
0.0
 40
0.0
 40
0.0
 40
0.0
 40
0.1199957894
 40
0.2418406162
 40
0.4901292416
 40
0.6161412389
 40
0.7431513945
 40
1.0
 40
1.0
 40
1.0
 40
1.0
 10
37.189688889
 20
40.4336362514
 30
0.0
 10
37.1805531751
 20
40.4407900492
 30
0.0
 10
37.1618972133
 20
40.4548981496
 30
0.0
 10
37.1233400439
 20
40.4824657171
 30
0.0
 10
37.0833519406
 20
40.5090011481
 30
0.0
 10
37.0423301375
 20
40.5348305857
 30
0.0
 10
37.0002618032
 20
40.5605448775
 30
0.0
 10
36.968213498
 20
40.5792813693
 30
0.0
 10
36.9466254215
 20
40.59156226
 30
0.0
  0
SPLINE
  5
25B
100
AcDbEntity
  8
0
100
AcDbSpline
 62
7
  6
BYLAYER
 70
0
 71
3
 72
22
 73
18
 74
0
 42
0.0000001
 43
0.0000001
 44
0.0000000001
 40
0.0
 40
0.0
 40
0.0
 40
0.0
 40
0.0334313203
 40
0.0641184739
 40
0.0928367857
 40
0.1204807315
 40
0.1744248685
 40
0.2289317445
 40
0.2852222714
 40
0.3434233235
 40
0.4033798823
 40
0.4649981854
 40
0.5281204292
 40
0.5925387858
 40
0.7247257705
 40
0.8607759211
 40
1.0
 40
1.0
 40
1.0
 40
1.0
 10
37.2893189483
 20
40.2611874702
 30
0.0
 10
37.2912227864
 20
40.2627525221
 30
0.0
 10
37.294652883
 20
40.2660446811
 30
0.0
 10
37.2986668028
 20
40.2716375406
 30
0.0
 10
37.3013586893
 20
40.2775046249
 30
0.0
 10
37.3034327218
 20
40.2853991898
 30
0.0
 10
37.3038235937
 20
40.2955557208
 30
0.0
 10
37.3013845253
 20
40.3075367953
 30
0.0
 10
37.2968103607
 20
40.3191689203
 30
0.0
 10
37.2907770458
 20
40.3305467472
 30
0.0
 10
37.2835928918
 20
40.3416989799
 30
0.0
 10
37.2754466123
 20
40.3526195232
 30
0.0
 10
37.2665056869
 20
40.3633278404
 30
0.0
 10
37.2536070589
 20
40.3774844147
 30
0.0
 10
37.2361074746
 20
40.3946912159
 30
0.0
 10
37.213563108
 20
40.414557034
 30
0.0
 10
37.1977697244
 20
40.427308485
 30
0.0
 10
37.189688889
 20
40.4336362514
 30
0.0
  0
SPLINE
  5
25C
100
AcDbEntity
  8
0
100
AcDbSpline
 62
7
  6
BYLAYER
 70
0
 71
3
 72
11
 73
7
 74
0
 42
0.0000001
 43
0.0000001
 44
0.0000000001
 40
0.0
 40
0.0
 40
0.0
 40
0.0
 40
0.2540639031
 40
0.5054301219
 40
0.7540248486
 40
1.0
 40
1.0
 40
1.0
 40
1.0
 10
36.2750930232
 20
39.8288598844
 30
0.0
 10
36.3783517404
 20
39.7004063721
 30
0.0
 10
36.5760832387
 20
39.438567889
 30
0.0
 10
36.8469956088
 20
39.0309872599
 30
0.0
 10
37.0919514325
 20
38.6134218718
 30
0.0
 10
37.2403925791
 20
38.3288531878
 30
0.0
 10
37.3111331657
 20
38.1858273563
 30
0.0
  0
SPLINE
  5
25D
100
AcDbEntity
  8
0
100
AcDbSpline
 62
7
  6
BYLAYER
 70
0
 71
3
 72
11
 73
7
 74
0
 42
0.0000001
 43
0.0000001
 44
0.0000000001
 40
0.0
 40
0.0
 40
0.0
 40
0.0
 40
0.2382406496
 40
0.4837780008
 40
0.7375145352
 40
1.0
 40
1.0
 40
1.0
 40
1.0
 10
37.5300117904
 20
37.5693397788
 30
0.0
 10
37.5552874205
 20
37.4612770284
 30
0.0
 10
37.6008759056
 20
37.2404482329
 30
0.0
 10
37.6513056137
 20
36.9004236582
 30
0.0
 10
37.6825083386
 20
36.5467428226
 30
0.0
 10
37.6893131568
 20
36.3062048432
 30
0.0
 10
37.6893131568
 20
36.1839315638
 30
0.0
  0
SPLINE
  5
25E
100
AcDbEntity
  8
0
100
AcDbSpline
 62
7
  6
BYLAYER
 70
0
 71
3
 72
11
 73
7
 74
0
 42
0.0000001
 43
0.0000001
 44
0.0000000001
 40
0.0
 40
0.0
 40
0.0
 40
0.0
 40
0.2838182685
 40
0.5441134718
 40
0.7821132734
 40
1.0
 40
1.0
 40
1.0
 40
1.0
 10
33.4466541224
 20
41.4618230019
 30
0.0
 10
33.5361755352
 20
41.4698203202
 30
0.0
 10
33.7080953837
 20
41.4821164207
 30
0.0
 10
33.9557475411
 20
41.4893159721
 30
0.0
 10
34.1825933065
 20
41.48524664
 30
0.0
 10
34.3266992422
 20
41.4753967923
 30
0.0
 10
34.3953854744
 20
41.4688334392
 30
0.0
  0
SPLINE
  5
25F
100
AcDbEntity
  8
0
100
AcDbSpline
 62
7
  6
BYLAYER
 70
0
 71
3
 72
9
 73
5
 74
0
 42
0.0000001
 43
0.0000001
 44
0.0000000001
 40
0.0
 40
0.0
 40
0.0
 40
0.0
 40
0.2424643805
 40
1.0
 40
1.0
 40
1.0
 40
1.0
 10
37.5300117915
 20
34.614579074
 30
0.0
 10
37.5134209429
 20
34.5780926322
 30
0.0
 10
37.4437595611
 20
34.4281736385
 30
0.0
 10
37.3694583488
 20
34.2804286845
 30
0.0
 10
37.3111333551
 20
34.1696136179
 30
0.0
  0
SPLINE
  5
260
100
AcDbEntity
  8
0
100
AcDbSpline
 62
7
  6
BYLAYER
 70
0
 71
3
 72
11
 73
7
 74
0
 42
0.0000001
 43
0.0000001
 44
0.0000000001
 40
0.0
 40
0.0
 40
0.0
 40
0.0
 40
0.2400091685
 40
0.4872767974
 40
0.7409421827
 40
1.0
 40
1.0
 40
1.0
 40
1.0
 10
37.6893131568
 20
36.1839315638
 30
0.0
 10
37.6893131568
 20
36.0575693217
 30
0.0
 10
37.6818194777
 20
35.8009778048
 30
0.0
 10
37.6500816651
 20
35.4120255297
 30
0.0
 10
37.5993376924
 20
35.0150099916
 30
0.0
 10
37.5547141613
 20
34.7487145973
 30
0.0
 10
37.5300117904
 20
34.6145790733
 30
0.0
  0
SPLINE
  5
261
100
AcDbEntity
  8
0
100
AcDbSpline
 62
7
  6
BYLAYER
 70
0
 71
3
 72
11
 73
7
 74
0
 42
0.0000001
 43
0.0000001
 44
0.0000000001
 40
0.0
 40
0.0
 40
0.0
 40
0.0
 40
0.251694617
 40
0.5025854198
 40
0.7522000199
 40
1.0
 40
1.0
 40
1.0
 40
1.0
 10
34.8501192597
 20
41.2473430939
 30
0.0
 10
34.9804894687
 20
41.1398538528
 30
0.0
 10
35.2368188922
 20
40.9202964295
 30
0.0
 10
35.6053724649
 20
40.5748108451
 30
0.0
 10
35.9536469473
 20
40.2124435013
 30
0.0
 10
36.1708685898
 20
39.9585166452
 30
0.0
 10
36.2750930232
 20
39.8288598844
 30
0.0
  0
SPLINE
  5
262
100
AcDbEntity
  8
0
100
AcDbSpline
 62
7
  6
BYLAYER
 70
0
 71
3
 72
11
 73
7
 74
0
 42
0.0000001
 43
0.0000001
 44
0.0000000001
 40
0.0
 40
0.0
 40
0.0
 40
0.0
 40
0.2260254036
 40
0.4696668294
 40
0.7285597842
 40
1.0
 40
1.0
 40
1.0
 40
1.0
 10
33.446679041
 20
32.5389895463
 30
0.0
 10
33.554955043
 20
32.5486617329
 30
0.0
 10
33.7795303072
 20
32.5735501209
 30
0.0
 10
34.1263611469
 20
32.623774875
 30
0.0
 10
34.4932473885
 20
32.6869078051
 30
0.0
 10
34.7436814502
 20
32.7353707936
 30
0.0
 10
34.8716528045
 20
32.7611872725
 30
0.0
  0
SPLINE
  5
263
100
AcDbEntity
  8
0
100
AcDbSpline
 62
7
  6
BYLAYER
 70
0
 71
3
 72
9
 73
5
 74
0
 42
0.0000001
 43
0.0000001
 44
0.0000000001
 40
0.0
 40
0.0
 40
0.0
 40
0.0
 40
0.252215653
 40
1.0
 40
1.0
 40
1.0
 40
1.0
 10
29.3984878517
 20
39.5698372131
 30
0.0
 10
29.3892438532
 20
39.5233139796
 30
0.0
 10
29.3535336383
 20
39.3386716781
 30
0.0
 10
29.321818607
 20
39.1532442811
 30
0.0
 10
29.3008753305
 20
39.0141810791
 30
0.0
  0
SPLINE
  5
264
100
AcDbEntity
  8
0
100
AcDbSpline
 62
7
  6
BYLAYER
 70
0
 71
3
 72
11
 73
7
 74
0
 42
0.0000001
 43
0.0000001
 44
0.0000000001
 40
0.0
 40
0.0
 40
0.0
 40
0.0
 40
0.2703282154
 40
0.5284969806
 40
0.7723445916
 40
1.0
 40
1.0
 40
1.0
 40
1.0
 10
32.179321567
 20
41.2708692448
 30
0.0
 10
32.2927301723
 20
41.2929292335
 30
0.0
 10
32.5147942249
 20
41.3343033271
 30
0.0
 10
32.8404808767
 20
41.3882025899
 30
0.0
 10
33.149362887
 20
41.4313941468
 30
0.0
 10
33.3497435103
 20
41.4531660993
 30
0.0
 10
33.4466541224
 20
41.4618230019
 30
0.0
  0
SPLINE
  5
265
100
AcDbEntity
  8
0
100
AcDbSpline
 62
7
  6
BYLAYER
 70
0
 71
3
 72
9
 73
5
 74
0
 42
0.0000001
 43
0.0000001
 44
0.0000000001
 40
0.0
 40
0.0
 40
0.0
 40
0.0
 40
0.2550575008
 40
1.0
 40
1.0
 40
1.0
 40
1.0
 10
32.410638709
 20
39.8389167485
 30
0.0
 10
32.3655026981
 20
39.8527923188
 30
0.0
 10
32.1889674752
 20
39.9085704718
 30
0.0
 10
32.0142516876
 20
39.9701757207
 30
0.0
 10
31.8855724325
 20
40.0198008534
 30
0.0
  0
SPLINE
  5
266
100
AcDbEntity
  8
0
100
AcDbSpline
 62
7
  6
BYLAYER
 70
0
 71
3
 72
11
 73
7
 74
0
 42
0.0000001
 43
0.0000001
 44
0.0000000001
 40
0.0
 40
0.0
 40
0.0
 40
0.0
 40
0.2540639021
 40
0.5054301221
 40
0.75402485
 40
1.0
 40
1.0
 40
1.0
 40
1.0
 10
33.4466791901
 20
38.1958841441
 30
0.0
 10
33.343420457
 20
38.3243376686
 30
0.0
 10
33.1456889484
 20
38.5861761942
 30
0.0
 10
32.874776518
 20
38.9937568549
 30
0.0
 10
32.6298206431
 20
39.4113222831
 30
0.0
 10
32.4813794899
 20
39.6958910078
 30
0.0
 10
32.410638895
 20
39.8389168559
 30
0.0
  0
SPLINE
  5
267
100
AcDbEntity
  8
0
100
AcDbSpline
 62
7
  6
BYLAYER
 70
0
 71
3
 72
11
 73
7
 74
0
 42
0.0000001
 43
0.0000001
 44
0.0000000001
 40
0.0
 40
0.0
 40
0.0
 40
0.0
 40
0.2703282122
 40
0.5284969816
 40
0.7723445961
 40
1.0
 40
1.0
 40
1.0
 40
1.0
 10
31.8855727039
 20
40.01980101
 30
0.0
 10
31.7721641124
 20
39.9977410239
 30
0.0
 10
31.5501000839
 20
39.9563669345
 30
0.0
 10
31.2244134671
 20
39.9024676714
 30
0.0
 10
30.9155314903
 20
39.8592761114
 30
0.0
 10
30.7151508891
 20
39.8375041651
 30
0.0
 10
30.6182402897
 20
39.8288472617
 30
0.0
  0
SPLINE
  5
268
100
AcDbEntity
  8
0
100
AcDbSpline
 62
7
  6
BYLAYER
 70
0
 71
3
 72
11
 73
7
 74
0
 42
0.0000001
 43
0.0000001
 44
0.0000000001
 40
0.0
 40
0.0
 40
0.0
 40
0.0
 40
0.2838182595
 40
0.5441134674
 40
0.7821132765
 40
1.0
 40
1.0
 40
1.0
 40
1.0
 10
30.6182402897
 20
39.8288472617
 30
0.0
 10
30.5287188651
 20
39.8208499406
 30
0.0
 10
30.3567989893
 20
39.8085538421
 30
0.0
 10
30.1091467904
 20
39.8013542815
 30
0.0
 10
29.8823009844
 20
39.8054236043
 30
0.0
 10
29.7381950233
 20
39.8152734526
 30
0.0
 10
29.6695087806
 20
39.8218368066
 30
0.0
  0
SPLINE
  5
269
100
AcDbEntity
  8
0
100
AcDbSpline
 62
7
  6
BYLAYER
 70
0
 71
3
 72
9
 73
5
 74
0
 42
0.0000001
 43
0.0000001
 44
0.0000000001
 40
0.0
 40
0.0
 40
0.0
 40
0.0
 40
0.2408791305
 40
1.0
 40
1.0
 40
1.0
 40
1.0
 10
34.8716526185
 20
32.7611871651
 30
0.0
 10
34.882288186
 20
32.7941052291
 30
0.0
 10
34.9278219596
 20
32.9303154631
 30
0.0
 10
34.978865732
 20
33.0646658563
 30
0.0
 10
35.0201991732
 20
33.1655467327
 30
0.0
  0
SPLINE
  5
26A
100
AcDbEntity
  8
0
100
AcDbSpline
 62
7
  6
BYLAYER
 70
0
 71
3
 72
11
 73
7
 74
0
 42
0.0000001
 43
0.0000001
 44
0.0000000001
 40
0.0
 40
0.0
 40
0.0
 40
0.0
 40
0.2382406496
 40
0.4837780008
 40
0.7375145352
 40
1.0
 40
1.0
 40
1.0
 40
1.0
 10
35.0201991744
 20
33.1655467334
 30
0.0
 10
34.9949235442
 20
33.2736094837
 30
0.0
 10
34.9493350592
 20
33.4944382793
 30
0.0
 10
34.898905351
 20
33.8344628539
 30
0.0
 10
34.8677026261
 20
34.1881436895
 30
0.0
 10
34.8608978079
 20
34.4286816689
 30
0.0
 10
34.8608978079
 20
34.5509549483
 30
0.0
  0
SPLINE
  5
26B
100
AcDbEntity
  8
0
100
AcDbSpline
 62
7
  6
BYLAYER
 70
0
 71
3
 72
11
 73
7
 74
0
 42
0.0000001
 43
0.0000001
 44
0.0000000001
 40
0.0
 40
0.0
 40
0.0
 40
0.0
 40
0.2400091685
 40
0.4872767974
 40
0.7409421827
 40
1.0
 40
1.0
 40
1.0
 40
1.0
 10
34.8608978079
 20
34.5509549483
 30
0.0
 10
34.8608978079
 20
34.6773171904
 30
0.0
 10
34.868391487
 20
34.9339087073
 30
0.0
 10
34.9001292996
 20
35.3228609825
 30
0.0
 10
34.9508732723
 20
35.7198765206
 30
0.0
 10
34.9954968034
 20
35.9861719148
 30
0.0
 10
35.0201991744
 20
36.1203074389
 30
0.0
  0
SPLINE
  5
26C
100
AcDbEntity
  8
0
100
AcDbSpline
 62
7
  6
BYLAYER
 70
0
 71
3
 72
21
 73
17
 74
0
 42
0.0000001
 43
0.0000001
 44
0.0000000001
 40
0.0
 40
0.0
 40
0.0
 40
0.0
 40
0.149075768
 40
0.2931416342
 40
0.3628741554
 40
0.4308625424
 40
0.4969733797
 40
0.561101571
 40
0.6231652507
 40
0.6831138902
 40
0.7409259282
 40
0.7966173383
 40
0.8502427715
 40
0.9019121697
 40
0.9517747258
 40
1.0
 40
1.0
 40
1.0
 40
1.0
 10
33.4466783825
 20
38.1958837684
 30
0.0
 10
33.3412384953
 20
38.3270528301
 30
0.0
 10
33.1237611198
 20
38.5770322826
 30
0.0
 10
32.8297143443
 20
38.8630458428
 30
0.0
 10
32.5869563084
 20
39.0687872985
 30
0.0
 10
32.4044771946
 20
39.209124609
 30
0.0
 10
32.2203899724
 20
39.3365389822
 30
0.0
 10
32.0354892073
 20
39.450506492
 30
0.0
 10
31.850543234
 20
39.550520778
 30
0.0
 10
31.6663445775
 20
39.6361746333
 30
0.0
 10
31.4836580513
 20
39.7070713075
 30
0.0
 10
31.3032675879
 20
39.7629290165
 30
0.0
 10
31.1259179197
 20
39.803472266
 30
0.0
 10
30.9523448061
 20
39.8285279649
 30
0.0
 10
30.7833246163
 20
39.8379341856
 30
0.0
 10
30.6724657582
 20
39.8336916222
 30
0.0
 10
30.6182394571
 20
39.8288468174
 30
0.0
  0
SPLINE
  5
26D
100
AcDbEntity
  8
0
100
AcDbSpline
 62
7
  6
BYLAYER
 70
0
 71
3
 72
15
 73
11
 74
0
 42
0.0000001
 43
0.0000001
 44
0.0000000001
 40
0.0
 40
0.0
 40
0.0
 40
0.0
 40
0.1270803854
 40
0.2509757336
 40
0.3728647694
 40
0.4941358055
 40
0.6161979334
 40
0.740398912
 40
0.8679754745
 40
1.0
 40
1.0
 40
1.0
 40
1.0
 10
30.6182394571
 20
39.8288468174
 30
0.0
 10
30.5570868838
 20
39.8233847539
 30
0.0
 10
30.4367930634
 20
39.8056409129
 30
0.0
 10
30.262737343
 20
39.7574471758
 30
0.0
 10
30.0988955324
 20
39.6882660279
 30
0.0
 10
29.9463677795
 20
39.5985363092
 30
0.0
 10
29.8060948722
 20
39.4888417419
 30
0.0
 10
29.6789592437
 20
39.3598761278
 30
0.0
 10
29.5656976155
 20
39.2125276717
 30
0.0
 10
29.5010880544
 20
39.1046755046
 30
0.0
 10
29.4712211434
 20
39.048315485
 30
0.0
  0
SPLINE
  5
26E
100
AcDbEntity
  8
0
100
AcDbSpline
 62
7
  6
BYLAYER
 70
0
 71
3
 72
11
 73
7
 74
0
 42
0.0000001
 43
0.0000001
 44
0.0000000001
 40
0.0
 40
0.0
 40
0.0
 40
0.0
 40
0.2516946164
 40
0.5025854196
 40
0.7522000205
 40
1.0
 40
1.0
 40
1.0
 40
1.0
 10
34.8716528079
 20
36.7774011222
 30
0.0
 10
34.7412826144
 20
36.8848903504
 30
0.0
 10
34.484953229
 20
37.1044477571
 30
0.0
 10
34.1163996847
 20
37.4499332845
 30
0.0
 10
33.7681252188
 20
37.8123005642
 30
0.0
 10
33.5509036148
 20
38.0662274018
 30
0.0
 10
33.4466791901
 20
38.1958841441
 30
0.0
  0
SPLINE
  5
26F
100
AcDbEntity
  8
0
100
AcDbSpline
 62
7
  6
BYLAYER
 70
0
 71
3
 72
23
 73
19
 74
0
 42
0.0000001
 43
0.0000001
 44
0.0000000001
 40
0.0
 40
0.0
 40
0.0
 40
0.0
 40
0.0583031266
 40
0.115294756
 40
0.1713530566
 40
0.2269333302
 40
0.2825161451
 40
0.3385720072
 40
0.3955510609
 40
0.4538676353
 40
0.5138886011
 40
0.575920851
 40
0.6402120602
 40
0.706941772
 40
0.7762362964
 40
0.8481770744
 40
0.9227900099
 40
1.0
 40
1.0
 40
1.0
 40
1.0
 10
33.4466783328
 20
32.5389891132
 30
0.0
 10
33.4993646644
 20
32.5436950481
 30
0.0
 10
33.6031791453
 20
32.5581684065
 30
0.0
 10
33.7543203024
 20
32.5957809225
 30
0.0
 10
33.8981277824
 20
32.648923346
 30
0.0
 10
34.0339064058
 20
32.7173328497
 30
0.0
 10
34.1610327203
 20
32.8007243039
 30
0.0
 10
34.2789492865
 20
32.8986824619
 30
0.0
 10
34.3871028423
 20
33.0107747706
 30
0.0
 10
34.4850542217
 20
33.13644996
 30
0.0
 10
34.5723728857
 20
33.275152655
 30
0.0
 10
34.6487355973
 20
33.426247182
 30
0.0
 10
34.7138101329
 20
33.5890834328
 30
0.0
 10
34.7673767441
 20
33.7629424458
 30
0.0
 10
34.8092014132
 20
33.9470965997
 30
0.0
 10
34.8391421924
 20
34.1407761276
 30
0.0
 10
34.8570547554
 20
34.343124192
 30
0.0
 10
34.8608978079
 20
34.4809054312
 30
0.0
 10
34.8608978079
 20
34.5509549483
 30
0.0
  0
SPLINE
  5
270
100
AcDbEntity
  8
0
100
AcDbSpline
 62
7
  6
BYLAYER
 70
0
 71
3
 72
17
 73
13
 74
0
 42
0.0000001
 43
0.0000001
 44
0.0000000001
 40
0.0
 40
0.0
 40
0.0
 40
0.0
 40
0.0545804003
 40
0.1108722145
 40
0.168752772
 40
0.2281136925
 40
0.3507563955
 40
0.477663778
 40
0.6075021905
 40
0.7388320789
 40
0.8701618746
 40
1.0
 40
1.0
 40
1.0
 40
1.0
 10
34.8608978079
 20
34.5509549483
 30
0.0
 10
34.8608978079
 20
34.6233352444
 30
0.0
 10
34.8566606363
 20
34.7703923633
 30
0.0
 10
34.8383640655
 20
34.9935225582
 30
0.0
 10
34.8080672761
 20
35.2217425851
 30
0.0
 10
34.7512597756
 20
35.5348451742
 30
0.0
 10
34.6505812925
 20
35.9325235812
 30
0.0
 10
34.486798188
 20
36.4087909224
 30
0.0
 10
34.281493083
 20
36.8812634525
 30
0.0
 10
34.0381398783
 20
37.3419376676
 30
0.0
 10
33.760877664
 20
37.7829965952
 30
0.0
 10
33.5545548979
 20
38.0616859932
 30
0.0
 10
33.4466783825
 20
38.1958837684
 30
0.0
  0
SPLINE
  5
271
100
AcDbEntity
  8
0
100
AcDbSpline
 62
7
  6
BYLAYER
 70
0
 71
3
 72
25
 73
21
 74
0
 42
0.0000001
 43
0.0000001
 44
0.0000000001
 40
0.0
 40
0.0
 40
0.0
 40
0.0
 40
0.0623687644
 40
0.1287296335
 40
0.198313865
 40
0.2702910451
 40
0.3436690129
 40
0.4173996926
 40
0.4904243892
 40
0.561710424
 40
0.630307293
 40
0.6953957341
 40
0.7563431131
 40
0.8127800716
 40
0.864681734
 40
0.9124572373
 40
0.9351018716
 40
0.9571072055
 40
0.9786681079
 40
1.0
 40
1.0
 40
1.0
 40
1.0
 10
8.2737729209
 20
20.6297927122
 30
0.0
 10
8.2737729209
 20
20.6505309639
 30
0.0
 10
8.2709576175
 20
20.6933629589
 30
0.0
 10
8.259401784
 20
20.7583954616
 30
0.0
 10
8.2405971115
 20
20.8250357632
 30
0.0
 10
8.2149639269
 20
20.8918498579
 30
0.0
 10
8.1830395758
 20
20.9574292786
 30
0.0
 10
8.1455087966
 20
21.0203733647
 30
0.0
 10
8.1031714108
 20
21.0793393772
 30
0.0
 10
8.0569258679
 20
21.1330683845
 30
0.0
 10
8.0077578056
 20
21.1804215465
 30
0.0
 10
7.9567011162
 20
21.2203956138
 30
0.0
 10
7.9048140241
 20
21.2521386449
 30
0.0
 10
7.8531476967
 20
21.2749689386
 30
0.0
 10
7.8027499714
 20
21.2883673525
 30
0.0
 10
7.7618736947
 20
21.2913669832
 30
0.0
 10
7.7312160867
 20
21.2884904701
 30
0.0
 10
7.7096322142
 20
21.283883324
 30
0.0
 10
7.689185438
 20
21.2768200983
 30
0.0
 10
7.6763621761
 20
21.2704725963
 30
0.0
 10
7.6702197799
 20
21.2669253944
 30
0.0
  0
SPLINE
  5
272
100
AcDbEntity
  8
0
100
AcDbSpline
 62
7
  6
BYLAYER
 70
0
 71
3
 72
12
 73
8
 74
0
 42
0.0000001
 43
0.0000001
 44
0.0000000001
 40
0.0
 40
0.0
 40
0.0
 40
0.0
 40
0.2750940985
 40
0.5298168879
 40
0.7689591382
 40
0.8850292526
 40
1.0
 40
1.0
 40
1.0
 40
1.0
 10
9.0770909834
 20
21.992394089
 30
0.0
 10
9.0617933658
 20
21.9970924824
 30
0.0
 10
9.0315805045
 20
22.0039815803
 30
0.0
 10
8.986624887
 20
22.0059448075
 30
0.0
 10
8.9513153171
 20
21.9999842541
 30
0.0
 10
8.9255125401
 20
21.9907516081
 30
0.0
 10
8.9134535186
 20
21.9847279921
 30
0.0
 10
8.9076617989
 20
21.981383304
 30
0.0
  0
SPLINE
  5
273
100
AcDbEntity
  8
0
100
AcDbSpline
 62
7
  6
BYLAYER
 70
0
 71
3
 72
12
 73
8
 74
0
 42
0.0000001
 43
0.0000001
 44
0.0000000001
 40
0.0
 40
0.0
 40
0.0
 40
0.0
 40
0.1134104906
 40
0.2281018475
 40
0.4657407236
 40
0.7213280958
 40
1.0
 40
1.0
 40
1.0
 40
1.0
 10
8.1702173431
 20
23.2586575016
 30
0.0
 10
8.1765625472
 20
23.2623211039
 30
0.0
 10
8.1888517205
 20
23.2705469657
 30
0.0
 10
8.2115192307
 20
23.2904423153
 30
0.0
 10
8.2357821922
 20
23.3218626243
 30
0.0
 10
8.2568436347
 20
23.3674278576
 30
0.0
 10
8.2652331167
 20
23.4011176558
 30
0.0
 10
8.2682489462
 20
23.4188669228
 30
0.0
  0
SPLINE
  5
274
100
AcDbEntity
  8
0
100
AcDbSpline
 62
7
  6
BYLAYER
 70
0
 71
3
 72
15
 73
11
 74
0
 42
0.0000001
 43
0.0000001
 44
0.0000000001
 40
0.0
 40
0.0
 40
0.0
 40
0.0
 40
0.1080091065
 40
0.218049939
 40
0.3319952826
 40
0.4513434598
 40
0.5772494633
 40
0.7105068335
 40
0.8514924986
 40
1.0
 40
1.0
 40
1.0
 40
1.0
 10
8.1702173431
 20
20.4008990416
 30
0.0
 10
8.1784147103
 20
20.4056320483
 30
0.0
 10
8.1941755657
 20
20.416629069
 30
0.0
 10
8.2149990861
 20
20.4371268135
 30
0.0
 10
8.2329068754
 20
20.4614530844
 30
0.0
 10
8.2477433272
 20
20.4893304778
 30
0.0
 10
8.2593759664
 20
20.520486937
 30
0.0
 10
8.2677272866
 20
20.5546205223
 30
0.0
 10
8.2727174684
 20
20.5913904119
 30
0.0
 10
8.2737729209
 20
20.6167779087
 30
0.0
 10
8.2737729209
 20
20.6297927122
 30
0.0
  0
SPLINE
  5
275
100
AcDbEntity
  8
0
100
AcDbSpline
 62
7
  6
BYLAYER
 70
0
 71
3
 72
11
 73
7
 74
0
 42
0.0000001
 43
0.0000001
 44
0.0000000001
 40
0.0
 40
0.0
 40
0.0
 40
0.0
 40
0.2382406496
 40
0.4837780008
 40
0.7375145352
 40
1.0
 40
1.0
 40
1.0
 40
1.0
 10
33.2873887671
 20
35.1198748555
 30
0.0
 10
33.3126643972
 20
35.0118121052
 30
0.0
 10
33.3582528823
 20
34.7909833097
 30
0.0
 10
33.4086825905
 20
34.450958735
 30
0.0
 10
33.4398853153
 20
34.0972778994
 30
0.0
 10
33.4466901335
 20
33.85673992
 30
0.0
 10
33.4466901335
 20
33.7344666406
 30
0.0
  0
SPLINE
  5
276
100
AcDbEntity
  8
0
100
AcDbSpline
 62
7
  6
BYLAYER
 70
0
 71
3
 72
11
 73
7
 74
0
 42
0.0000001
 43
0.0000001
 44
0.0000000001
 40
0.0
 40
0.0
 40
0.0
 40
0.0
 40
0.2540639031
 40
0.5054301219
 40
0.7540248486
 40
1.0
 40
1.0
 40
1.0
 40
1.0
 10
32.0324699999
 20
37.3793949612
 30
0.0
 10
32.1357287171
 20
37.2509414489
 30
0.0
 10
32.3334602155
 20
36.9891029657
 30
0.0
 10
32.6043725856
 20
36.5815223367
 30
0.0
 10
32.8493284092
 20
36.1639569486
 30
0.0
 10
32.9977695559
 20
35.8793882645
 30
0.0
 10
33.0685101424
 20
35.7363624331
 30
0.0
  0
SPLINE
  5
277
100
AcDbEntity
  8
0
100
AcDbSpline
 62
7
  6
BYLAYER
 70
0
 71
3
 72
11
 73
7
 74
0
 42
0.0000001
 43
0.0000001
 44
0.0000000001
 40
0.0
 40
0.0
 40
0.0
 40
0.0
 40
0.2400091685
 40
0.4872767974
 40
0.7409421827
 40
1.0
 40
1.0
 40
1.0
 40
1.0
 10
33.4466901335
 20
33.7344666406
 30
0.0
 10
33.4466901335
 20
33.6081043985
 30
0.0
 10
33.4391964544
 20
33.3515128816
 30
0.0
 10
33.4074586418
 20
32.9625606064
 30
0.0
 10
33.3567146691
 20
32.5655450683
 30
0.0
 10
33.312091138
 20
32.2992496741
 30
0.0
 10
33.2873887671
 20
32.1651141501
 30
0.0
  0
SPLINE
  5
278
100
AcDbEntity
  8
0
100
AcDbSpline
 62
7
  6
BYLAYER
 70
0
 71
3
 72
10
 73
6
 74
0
 42
0.0000001
 43
0.0000001
 44
0.0000000001
 40
0.0
 40
0.0
 40
0.0
 40
0.0
 40
0.2574210413
 40
0.6343596211
 40
1.0
 40
1.0
 40
1.0
 40
1.0
 10
33.0685103318
 20
31.7201486947
 30
0.0
 10
33.0883307803
 20
31.7578067238
 30
0.0
 10
33.1366141578
 20
31.8509032677
 30
0.0
 10
33.2101514174
 20
31.9989752541
 30
0.0
 10
33.2623684635
 20
32.1100897266
 30
0.0
 10
33.2873887682
 20
32.1651141507
 30
0.0
  0
SPLINE
  5
279
100
AcDbEntity
  8
0
100
AcDbSpline
 62
7
  6
BYLAYER
 70
0
 71
3
 72
11
 73
7
 74
0
 42
0.0000001
 43
0.0000001
 44
0.0000000001
 40
0.0
 40
0.0
 40
0.0
 40
0.0
 40
0.2260254036
 40
0.4696668294
 40
0.7285597843
 40
1.0
 40
1.0
 40
1.0
 40
1.0
 10
29.2040560177
 20
30.0895246231
 30
0.0
 10
29.3123320197
 20
30.0991968096
 30
0.0
 10
29.5369072839
 20
30.1240851976
 30
0.0
 10
29.8837381236
 20
30.1743099518
 30
0.0
 10
30.2506243652
 20
30.2374428819
 30
0.0
 10
30.5010584269
 20
30.2859058704
 30
0.0
 10
30.6290297812
 20
30.3117223492
 30
0.0
  0
SPLINE
  5
27A
100
AcDbEntity
  8
0
100
AcDbSpline
 62
7
  6
BYLAYER
 70
0
 71
3
 72
11
 73
7
 74
0
 42
0.0000001
 43
0.0000001
 44
0.0000000001
 40
0.0
 40
0.0
 40
0.0
 40
0.0
 40
0.2146270183
 40
0.4510208667
 40
0.712225535
 40
1.0
 40
1.0
 40
1.0
 40
1.0
 10
28.1680158751
 20
30.0918764145
 30
0.0
 10
28.2417418848
 20
30.0830970369
 30
0.0
 10
28.3972575427
 20
30.0693198848
 30
0.0
 10
28.6436381083
 20
30.0615268113
 30
0.0
 10
28.9153767474
 20
30.0674546675
 30
0.0
 10
29.1048997647
 20
30.0806666101
 30
0.0
 10
29.2040560177
 20
30.0895246231
 30
0.0
  0
SPLINE
  5
27B
100
AcDbEntity
  8
0
100
AcDbSpline
 62
7
  6
BYLAYER
 70
0
 71
3
 72
11
 73
7
 74
0
 42
0.0000001
 43
0.0000001
 44
0.0000000001
 40
0.0
 40
0.0
 40
0.0
 40
0.0
 40
0.2703282154
 40
0.5284969806
 40
0.7723445916
 40
1.0
 40
1.0
 40
1.0
 40
1.0
 10
27.9366985437
 20
38.8214043216
 30
0.0
 10
28.050107149
 20
38.8434643103
 30
0.0
 10
28.2721712016
 20
38.8848384039
 30
0.0
 10
28.5978578535
 20
38.9387376667
 30
0.0
 10
28.9067398638
 20
38.9819292235
 30
0.0
 10
29.107120487
 20
39.0037011761
 30
0.0
 10
29.2040310991
 20
39.0123580786
 30
0.0
  0
SPLINE
  5
27C
100
AcDbEntity
  8
0
100
AcDbSpline
 62
7
  6
BYLAYER
 70
0
 71
3
 72
11
 73
7
 74
0
 42
0.0000001
 43
0.0000001
 44
0.0000000001
 40
0.0
 40
0.0
 40
0.0
 40
0.0
 40
0.2595957961
 40
0.5136102645
 40
0.7607776201
 40
1.0
 40
1.0
 40
1.0
 40
1.0
 10
25.1558648284
 20
37.1203722899
 30
0.0
 10
25.1260769054
 20
36.9704555099
 30
0.0
 10
25.0719857649
 20
36.6728454969
 30
0.0
 10
25.0098453781
 20
36.2290870592
 30
0.0
 10
24.9706921633
 20
35.7947105486
 30
0.0
 10
24.9613969835
 20
35.5082678995
 30
0.0
 10
24.9613969835
 20
35.3674160613
 30
0.0
  0
SPLINE
  5
27D
100
AcDbEntity
  8
0
100
AcDbSpline
 62
7
  6
BYLAYER
 70
0
 71
3
 72
11
 73
7
 74
0
 42
0.0000001
 43
0.0000001
 44
0.0000000001
 40
0.0
 40
0.0
 40
0.0
 40
0.0
 40
0.251694617
 40
0.5025854198
 40
0.7522000199
 40
1.0
 40
1.0
 40
1.0
 40
1.0
 10
30.6074962364
 20
38.7978781707
 30
0.0
 10
30.7378664454
 20
38.6903889296
 30
0.0
 10
30.9941958689
 20
38.4708315063
 30
0.0
 10
31.3627494417
 20
38.1253459219
 30
0.0
 10
31.7110239241
 20
37.762978578
 30
0.0
 10
31.9282455665
 20
37.509051722
 30
0.0
 10
32.0324699999
 20
37.3793949612
 30
0.0
  0
SPLINE
  5
27E
100
AcDbEntity
  8
0
100
AcDbSpline
 62
7
  6
BYLAYER
 70
0
 71
3
 72
11
 73
7
 74
0
 42
0.0000001
 43
0.0000001
 44
0.0000000001
 40
0.0
 40
0.0
 40
0.0
 40
0.0
 40
0.2838182685
 40
0.5441134718
 40
0.7821132734
 40
1.0
 40
1.0
 40
1.0
 40
1.0
 10
29.2040310991
 20
39.0123580786
 30
0.0
 10
29.2935525119
 20
39.020355397
 30
0.0
 10
29.4654723604
 20
39.0326514974
 30
0.0
 10
29.7131245178
 20
39.0398510488
 30
0.0
 10
29.9399702832
 20
39.0357817168
 30
0.0
 10
30.0840762189
 20
39.0259318691
 30
0.0
 10
30.1527624512
 20
39.0193685159
 30
0.0
  0
SPLINE
  5
27F
100
AcDbEntity
  8
0
100
AcDbSpline
 62
7
  6
BYLAYER
 70
0
 71
3
 72
11
 73
7
 74
0
 42
0.0000001
 43
0.0000001
 44
0.0000000001
 40
0.0
 40
0.0
 40
0.0
 40
0.0
 40
0.2400091685
 40
0.4872767974
 40
0.7409421828
 40
1.0
 40
1.0
 40
1.0
 40
1.0
 10
30.6182747847
 20
32.1014900251
 30
0.0
 10
30.6182747847
 20
32.2278522672
 30
0.0
 10
30.6257684637
 20
32.4844437841
 30
0.0
 10
30.6575062763
 20
32.8733960592
 30
0.0
 10
30.7082502491
 20
33.2704115974
 30
0.0
 10
30.7528737801
 20
33.5367069916
 30
0.0
 10
30.7775761511
 20
33.6708425156
 30
0.0
  0
SPLINE
  5
280
100
AcDbEntity
  8
0
100
AcDbSpline
 62
7
  6
BYLAYER
 70
0
 71
3
 72
11
 73
7
 74
0
 42
0.0000001
 43
0.0000001
 44
0.0000000001
 40
0.0
 40
0.0
 40
0.0
 40
0.0
 40
0.2516946164
 40
0.5025854196
 40
0.7522000205
 40
1.0
 40
1.0
 40
1.0
 40
1.0
 10
30.6290297845
 20
34.3279361989
 30
0.0
 10
30.4986595911
 20
34.4354254271
 30
0.0
 10
30.2423302057
 20
34.6549828338
 30
0.0
 10
29.8737766614
 20
35.0004683613
 30
0.0
 10
29.5255021955
 20
35.362835641
 30
0.0
 10
29.3082805915
 20
35.6167624786
 30
0.0
 10
29.2040561668
 20
35.7464192209
 30
0.0
  0
SPLINE
  5
281
100
AcDbEntity
  8
0
100
AcDbSpline
 62
7
  6
BYLAYER
 70
0
 71
3
 72
17
 73
13
 74
0
 42
0.0000001
 43
0.0000001
 44
0.0000000001
 40
0.0
 40
0.0
 40
0.0
 40
0.0
 40
0.0545804003
 40
0.1108722145
 40
0.168752772
 40
0.2281136925
 40
0.3507563955
 40
0.477663778
 40
0.6075021905
 40
0.7388320789
 40
0.8701618746
 40
1.0
 40
1.0
 40
1.0
 40
1.0
 10
30.6182747847
 20
32.1014900251
 30
0.0
 10
30.6182747847
 20
32.1738703212
 30
0.0
 10
30.614037613
 20
32.3209274401
 30
0.0
 10
30.5957410423
 20
32.544057635
 30
0.0
 10
30.5654442529
 20
32.7722776619
 30
0.0
 10
30.5086367523
 20
33.0853802509
 30
0.0
 10
30.4079582692
 20
33.483058658
 30
0.0
 10
30.2441751647
 20
33.9593259992
 30
0.0
 10
30.0388700598
 20
34.4317985293
 30
0.0
 10
29.795516855
 20
34.8924727444
 30
0.0
 10
29.5182546407
 20
35.3335316719
 30
0.0
 10
29.3119318746
 20
35.6122210699
 30
0.0
 10
29.2040553592
 20
35.7464188452
 30
0.0
  0
SPLINE
  5
282
100
AcDbEntity
  8
0
100
AcDbSpline
 62
7
  6
BYLAYER
 70
0
 71
3
 72
23
 73
19
 74
0
 42
0.0000001
 43
0.0000001
 44
0.0000000001
 40
0.0
 40
0.0
 40
0.0
 40
0.0
 40
0.0583031266
 40
0.115294756
 40
0.1713530566
 40
0.2269333302
 40
0.2825161451
 40
0.3385720072
 40
0.3955510609
 40
0.4538676353
 40
0.5138886011
 40
0.575920851
 40
0.6402120602
 40
0.706941772
 40
0.7762362964
 40
0.8481770744
 40
0.9227900099
 40
1.0
 40
1.0
 40
1.0
 40
1.0
 10
29.2040553095
 20
30.08952419
 30
0.0
 10
29.2567416411
 20
30.0942301248
 30
0.0
 10
29.360556122
 20
30.1087034833
 30
0.0
 10
29.5116972792
 20
30.1463159993
 30
0.0
 10
29.6555047591
 20
30.1994584228
 30
0.0
 10
29.7912833825
 20
30.2678679265
 30
0.0
 10
29.9184096971
 20
30.3512593807
 30
0.0
 10
30.0363262632
 20
30.4492175386
 30
0.0
 10
30.144479819
 20
30.5613098474
 30
0.0
 10
30.2424311984
 20
30.6869850368
 30
0.0
 10
30.3297498624
 20
30.8256877318
 30
0.0
 10
30.406112574
 20
30.9767822588
 30
0.0
 10
30.4711871096
 20
31.1396185096
 30
0.0
 10
30.5247537209
 20
31.3134775225
 30
0.0
 10
30.5665783899
 20
31.4976316765
 30
0.0
 10
30.5965191691
 20
31.6913112044
 30
0.0
 10
30.6144317321
 20
31.8936592687
 30
0.0
 10
30.6182747847
 20
32.031440508
 30
0.0
 10
30.6182747847
 20
32.1014900251
 30
0.0
  0
SPLINE
  5
283
100
AcDbEntity
  8
0
100
AcDbSpline
 62
7
  6
BYLAYER
 70
0
 71
3
 72
15
 73
11
 74
0
 42
0.0000001
 43
0.0000001
 44
0.0000000001
 40
0.0
 40
0.0
 40
0.0
 40
0.0
 40
0.1440573557
 40
0.2827183665
 40
0.4157930104
 40
0.5432059424
 40
0.6650191802
 40
0.7814604995
 40
0.8929472334
 40
1.0
 40
1.0
 40
1.0
 40
1.0
 10
27.4971978952
 20
30.6549236187
 30
0.0
 10
27.5694059072
 20
30.6045635256
 30
0.0
 10
27.7141456503
 20
30.5099702531
 30
0.0
 10
27.9357293983
 20
30.3852207345
 30
0.0
 10
28.1564922259
 20
30.2809438379
 30
0.0
 10
28.375107124
 20
30.1978182258
 30
0.0
 10
28.5902530072
 20
30.1363454862
 30
0.0
 10
28.8006733268
 20
30.0969518807
 30
0.0
 10
29.0050401337
 20
30.0799496617
 30
0.0
 10
29.1388938665
 20
30.0837024734
 30
0.0
 10
29.2040553095
 20
30.08952419
 30
0.0
  0
SPLINE
  5
284
100
AcDbEntity
  8
0
100
AcDbSpline
 62
7
  6
BYLAYER
 70
0
 71
3
 72
9
 73
5
 74
0
 42
0.0000001
 43
0.0000001
 44
0.0000000001
 40
0.0
 40
0.0
 40
0.0
 40
0.0
 40
0.2453056789
 40
1.0
 40
1.0
 40
1.0
 40
1.0
 10
24.9613969835
 20
35.3674160613
 30
0.0
 10
24.9613969835
 20
35.3390415018
 30
0.0
 10
24.9627064792
 20
35.2233735803
 30
0.0
 10
24.9691301319
 20
35.1077751344
 30
0.0
 10
24.9765743694
 20
35.0207974709
 30
0.0
  0
SPLINE
  5
285
100
AcDbEntity
  8
0
100
AcDbSpline
 62
7
  6
BYLAYER
 70
0
 71
3
 72
23
 73
19
 74
0
 42
0.0000001
 43
0.0000001
 44
0.0000000001
 40
0.0
 40
0.0
 40
0.0
 40
0.0
 40
0.0583031317
 40
0.1152947578
 40
0.171353058
 40
0.2269333309
 40
0.2825161454
 40
0.3385720079
 40
0.3955510617
 40
0.4538676359
 40
0.5138886016
 40
0.5759208516
 40
0.6402120608
 40
0.7069417725
 40
0.7762362968
 40
0.8481770748
 40
0.9227900101
 40
1.0
 40
1.0
 40
1.0
 40
1.0
 10
26.3756164338
 20
37.3793818942
 30
0.0
 10
26.3229300923
 20
37.3746760228
 30
0.0
 10
26.2191156008
 20
37.3602026831
 30
0.0
 10
26.0679744696
 20
37.3225900649
 30
0.0
 10
25.9241670014
 20
37.2694476345
 30
0.0
 10
25.7883883683
 20
37.2010381548
 30
0.0
 10
25.6612620547
 20
37.1176467009
 30
0.0
 10
25.543345495
 20
37.0196885369
 30
0.0
 10
25.4351919412
 20
36.9075962276
 30
0.0
 10
25.3372405623
 20
36.7819210394
 30
0.0
 10
25.2499218999
 20
36.643218345
 30
0.0
 10
25.1735591901
 20
36.4921238185
 30
0.0
 10
25.1084846558
 20
36.3292875686
 30
0.0
 10
25.0549180455
 20
36.1554285569
 30
0.0
 10
25.0130933772
 20
35.9712744044
 30
0.0
 10
24.9831525986
 20
35.7775948782
 30
0.0
 10
24.9652400359
 20
35.5752468157
 30
0.0
 10
24.9613969835
 20
35.4374655777
 30
0.0
 10
24.9613969835
 20
35.3674160613
 30
0.0
  0
SPLINE
  5
286
100
AcDbEntity
  8
0
100
AcDbSpline
 62
7
  6
BYLAYER
 70
0
 71
3
 72
21
 73
17
 74
0
 42
0.0000001
 43
0.0000001
 44
0.0000000001
 40
0.0
 40
0.0
 40
0.0
 40
0.0
 40
0.149075768
 40
0.2931416342
 40
0.3628741554
 40
0.4308625424
 40
0.4969733797
 40
0.561101571
 40
0.6231652507
 40
0.6831138902
 40
0.7409259282
 40
0.7966173383
 40
0.8502427715
 40
0.9019121697
 40
0.9517747258
 40
1.0
 40
1.0
 40
1.0
 40
1.0
 10
29.2040553592
 20
35.7464188452
 30
0.0
 10
29.098615472
 20
35.8775879069
 30
0.0
 10
28.8811380965
 20
36.1275673593
 30
0.0
 10
28.587091321
 20
36.4135809196
 30
0.0
 10
28.3443332851
 20
36.6193223753
 30
0.0
 10
28.1618541713
 20
36.7596596858
 30
0.0
 10
27.9777669491
 20
36.887074059
 30
0.0
 10
27.792866184
 20
37.0010415687
 30
0.0
 10
27.6079202107
 20
37.1010558548
 30
0.0
 10
27.4237215542
 20
37.1867097101
 30
0.0
 10
27.241035028
 20
37.2576063842
 30
0.0
 10
27.0606445646
 20
37.3134640933
 30
0.0
 10
26.8832948964
 20
37.3540073428
 30
0.0
 10
26.7097217828
 20
37.3790630417
 30
0.0
 10
26.540701593
 20
37.3884692624
 30
0.0
 10
26.4298427349
 20
37.3842266989
 30
0.0
 10
26.3756164338
 20
37.3793818942
 30
0.0
  0
SPLINE
  5
287
100
AcDbEntity
  8
0
100
AcDbSpline
 62
7
  6
BYLAYER
 70
0
 71
3
 72
11
 73
7
 74
0
 42
0.0000001
 43
0.0000001
 44
0.0000000001
 40
0.0
 40
0.0
 40
0.0
 40
0.0
 40
0.2703282122
 40
0.5284969815
 40
0.772344596
 40
1.0
 40
1.0
 40
1.0
 40
1.0
 10
27.6429496806
 20
37.5703360868
 30
0.0
 10
27.5295410892
 20
37.5482761006
 30
0.0
 10
27.3074770606
 20
37.5069020112
 30
0.0
 10
26.9817904438
 20
37.4530027481
 30
0.0
 10
26.672908467
 20
37.4098111882
 30
0.0
 10
26.4725278658
 20
37.3880392418
 30
0.0
 10
26.3756172664
 20
37.3793823385
 30
0.0
  0
SPLINE
  5
288
100
AcDbEntity
  8
0
100
AcDbSpline
 62
7
  6
BYLAYER
 70
0
 71
3
 72
11
 73
7
 74
0
 42
0.0000001
 43
0.0000001
 44
0.0000000001
 40
0.0
 40
0.0
 40
0.0
 40
0.0
 40
0.2838182595
 40
0.5441134673
 40
0.7821132765
 40
1.0
 40
1.0
 40
1.0
 40
1.0
 10
26.3756172664
 20
37.3793823385
 30
0.0
 10
26.2860958418
 20
37.3713850173
 30
0.0
 10
26.114175966
 20
37.3590889189
 30
0.0
 10
25.8665237671
 20
37.3518893583
 30
0.0
 10
25.6396779611
 20
37.3559586811
 30
0.0
 10
25.495572
 20
37.3658085294
 30
0.0
 10
25.4268857573
 20
37.3723718833
 30
0.0
  0
SPLINE
  5
289
100
AcDbEntity
  8
0
100
AcDbSpline
 62
7
  6
BYLAYER
 70
0
 71
3
 72
10
 73
6
 74
0
 42
0.0000001
 43
0.0000001
 44
0.0000000001
 40
0.0
 40
0.0
 40
0.0
 40
0.0
 40
0.259172928
 40
0.636485642
 40
1.0
 40
1.0
 40
1.0
 40
1.0
 10
30.7775761499
 20
30.7160818095
 30
0.0
 10
30.7634633621
 20
30.6816372928
 30
0.0
 10
30.7295820287
 20
30.5967274501
 30
0.0
 10
30.6793194747
 20
30.4621648078
 30
0.0
 10
30.6450810947
 20
30.3614031155
 30
0.0
 10
30.6290295952
 20
30.3117222418
 30
0.0
  0
SPLINE
  5
28A
100
AcDbEntity
  8
0
100
AcDbSpline
 62
7
  6
BYLAYER
 70
0
 71
3
 72
11
 73
7
 74
0
 42
0.0000001
 43
0.0000001
 44
0.0000000001
 40
0.0
 40
0.0
 40
0.0
 40
0.0
 40
0.2382406496
 40
0.4837780008
 40
0.7375145352
 40
1.0
 40
1.0
 40
1.0
 40
1.0
 10
30.7775761511
 20
30.7160818102
 30
0.0
 10
30.7523005209
 20
30.8241445605
 30
0.0
 10
30.7067120359
 20
31.044973356
 30
0.0
 10
30.6562823277
 20
31.3849979307
 30
0.0
 10
30.6250796029
 20
31.7386787663
 30
0.0
 10
30.6182747847
 20
31.9792167457
 30
0.0
 10
30.6182747847
 20
32.1014900251
 30
0.0
  0
SPLINE
  5
28B
100
AcDbEntity
  8
0
100
AcDbSpline
 62
7
  6
BYLAYER
 70
0
 71
3
 72
10
 73
6
 74
0
 42
0.0000001
 43
0.0000001
 44
0.0000000001
 40
0.0
 40
0.0
 40
0.0
 40
0.0
 40
0.2448804722
 40
0.6186525351
 40
1.0
 40
1.0
 40
1.0
 40
1.0
 10
27.6429494092
 20
37.5703359301
 30
0.0
 10
27.6852522246
 20
37.5540218566
 30
0.0
 10
27.7925348959
 20
37.5138689696
 30
0.0
 10
27.9673510136
 20
37.452813409
 30
0.0
 10
28.1005263321
 20
37.4101991898
 30
0.0
 10
28.1680156857
 20
37.3894518252
 30
0.0
  0
SPLINE
  5
28C
100
AcDbEntity
  8
0
100
AcDbSpline
 62
7
  6
BYLAYER
 70
0
 71
3
 72
11
 73
7
 74
0
 42
0.0000001
 43
0.0000001
 44
0.0000000001
 40
0.0
 40
0.0
 40
0.0
 40
0.0
 40
0.2540639021
 40
0.5054301221
 40
0.75402485
 40
1.0
 40
1.0
 40
1.0
 40
1.0
 10
29.2040561668
 20
35.7464192209
 30
0.0
 10
29.1007974337
 20
35.8748727453
 30
0.0
 10
28.9030659251
 20
36.136711271
 30
0.0
 10
28.6321534947
 20
36.5442919316
 30
0.0
 10
28.3871976198
 20
36.9618573599
 30
0.0
 10
28.2387564666
 20
37.2464260846
 30
0.0
 10
28.1680158717
 20
37.3894519326
 30
0.0
  0
SPLINE
  5
28D
100
AcDbEntity
  8
0
100
AcDbSpline
 62
7
  6
BYLAYER
 70
0
 71
3
 72
11
 73
7
 74
0
 42
0.0000001
 43
0.0000001
 44
0.0000000001
 40
0.0
 40
0.0
 40
0.0
 40
0.0
 40
0.2251589714
 40
0.4654837211
 40
0.7233986457
 40
1.0
 40
1.0
 40
1.0
 40
1.0
 10
6.2522513006
 20
24.5538789886
 30
0.0
 10
6.3263468279
 20
24.563227847
 30
0.0
 10
6.4817131496
 20
24.5673298548
 30
0.0
 10
6.7200826845
 20
24.5325231267
 30
0.0
 10
6.9668726051
 20
24.4579356769
 30
0.0
 10
7.1290511766
 20
24.3850948249
 30
0.0
 10
7.2105788039
 20
24.3430168242
 30
0.0
  0
SPLINE
  5
28E
100
AcDbEntity
  8
0
100
AcDbSpline
 62
7
  6
BYLAYER
 70
0
 71
3
 72
18
 73
14
 74
0
 42
0.0000001
 43
0.0000001
 44
0.0000000001
 40
0.0
 40
0.0
 40
0.0
 40
0.0
 40
0.1533774302
 40
0.3005441219
 40
0.4398214222
 40
0.5700204316
 40
0.6904941699
 40
0.7471377573
 40
0.8014687703
 40
0.8536527082
 40
0.9039228663
 40
0.9525817564
 40
1.0
 40
1.0
 40
1.0
 40
1.0
 10
6.1212507127
 20
20.1770808526
 30
0.0
 10
6.2163048742
 20
20.0622407043
 30
0.0
 10
6.4124503356
 20
19.845136847
 30
0.0
 10
6.7280330372
 20
19.5558030269
 30
0.0
 10
7.053889249
 20
19.313970123
 30
0.0
 10
7.38331581
 20
19.1246591709
 30
0.0
 10
7.6611501335
 20
19.0117003374
 30
0.0
 10
7.8785466773
 20
18.9529457846
 30
0.0
 10
8.0348797995
 20
18.9250328887
 30
0.0
 10
8.1869992246
 20
18.9125378991
 30
0.0
 10
8.3341252235
 20
18.9155559301
 30
0.0
 10
8.4754402337
 20
18.9341395053
 30
0.0
 10
8.5662328371
 20
18.9570846777
 30
0.0
 10
8.6101342837
 20
18.971113043
 30
0.0
  0
SPLINE
  5
28F
100
AcDbEntity
  8
0
100
AcDbSpline
 62
7
  6
BYLAYER
 70
0
 71
3
 72
15
 73
11
 74
0
 42
0.0000001
 43
0.0000001
 44
0.0000000001
 40
0.0
 40
0.0
 40
0.0
 40
0.0
 40
0.1293604148
 40
0.2605107911
 40
0.3918434601
 40
0.5218321222
 40
0.6489511083
 40
0.7718024616
 40
0.8891496194
 40
1.0
 40
1.0
 40
1.0
 40
1.0
 10
8.2470839267
 20
23.4430712457
 30
0.0
 10
8.3324101283
 20
23.3399839797
 30
0.0
 10
8.4957701382
 20
23.1252263042
 30
0.0
 10
8.7154910289
 20
22.7841396352
 30
0.0
 10
8.9086567056
 20
22.4265735468
 30
0.0
 10
9.0718573224
 20
22.0589266121
 30
0.0
 10
9.2022005231
 20
21.6876464625
 30
0.0
 10
9.2973886263
 20
21.3192668278
 30
0.0
 10
9.3557325132
 20
20.9603101826
 30
0.0
 10
9.3697926613
 20
20.7241091857
 30
0.0
 10
9.3697927846
 20
20.6094381286
 30
0.0
  0
SPLINE
  5
290
100
AcDbEntity
  8
0
100
AcDbSpline
 62
7
  6
BYLAYER
 70
0
 71
3
 72
25
 73
21
 74
0
 42
0.0000001
 43
0.0000001
 44
0.0000000001
 40
0.0
 40
0.0
 40
0.0
 40
0.0
 40
0.0738273823
 40
0.1486575165
 40
0.223774275
 40
0.2985341979
 40
0.3722679267
 40
0.4443411656
 40
0.5141698798
 40
0.5812327765
 40
0.6451039998
 40
0.705475318
 40
0.7621852199
 40
0.8152579958
 40
0.8649385876
 40
0.9117240229
 40
0.9342841202
 40
0.956427787
 40
0.9782864821
 40
1.0
 40
1.0
 40
1.0
 40
1.0
 10
9.4433422668
 20
24.2637683723
 30
0.0
 10
9.5268962455
 20
24.162822226
 30
0.0
 10
9.6879408374
 20
23.953493634
 30
0.0
 10
9.9083638034
 20
23.622741875
 30
0.0
 10
10.1070089312
 20
23.2765399106
 30
0.0
 10
10.281216962
 20
22.9195860906
 30
0.0
 10
10.4286821675
 20
22.5565881436
 30
0.0
 10
10.5474398414
 20
22.1923845323
 30
0.0
 10
10.6359107758
 20
21.8318099944
 30
0.0
 10
10.6928991884
 20
21.4796326941
 30
0.0
 10
10.7176470376
 20
21.1404983436
 30
0.0
 10
10.7097809257
 20
20.8188446655
 30
0.0
 10
10.6692975254
 20
20.5188660975
 30
0.0
 10
10.5965591212
 20
20.2444540338
 30
0.0
 10
10.4923087502
 20
19.999280386
 30
0.0
 10
10.3784783227
 20
19.8199128628
 30
0.0
 10
10.2732664298
 20
19.6959451745
 30
0.0
 10
10.1884804746
 20
19.6133938021
 30
0.0
 10
10.0972133777
 20
19.5404702142
 30
0.0
 10
10.0321372964
 20
19.4983957008
 30
0.0
 10
9.9987591543
 20
19.4791276717
 30
0.0
  0
SPLINE
  5
291
100
AcDbEntity
  8
0
100
AcDbSpline
 62
7
  6
BYLAYER
 70
0
 71
3
 72
14
 73
10
 74
0
 42
0.0000001
 43
0.0000001
 44
0.0000000001
 40
0.0
 40
0.0
 40
0.0
 40
0.0
 40
0.1152913517
 40
0.2316288081
 40
0.3500151304
 40
0.4713605813
 40
0.5964654397
 40
0.7259888324
 40
1.0
 40
1.0
 40
1.0
 40
1.0
 10
7.5819221712
 20
26.6862708882
 30
0.0
 10
7.5367166768
 20
26.660168423
 30
0.0
 10
7.448900183
 20
26.6023191728
 30
0.0
 10
7.3273449782
 20
26.5001177768
 30
0.0
 10
7.2162842702
 20
26.3827906028
 30
0.0
 10
7.116208849
 20
26.2509877386
 30
0.0
 10
7.0275909496
 20
26.1052994838
 30
0.0
 10
6.9232611531
 20
25.8895783237
 30
0.0
 10
6.8664744142
 20
25.7147331205
 30
0.0
 10
6.836881156
 20
25.5942505498
 30
0.0
  0
SPLINE
  5
292
100
AcDbEntity
  8
0
100
AcDbSpline
 62
7
  6
BYLAYER
 70
0
 71
3
 72
15
 73
11
 74
0
 42
0.0000001
 43
0.0000001
 44
0.0000000001
 40
0.0
 40
0.0
 40
0.0
 40
0.0
 40
0.1080126481
 40
0.2180612316
 40
0.3319997515
 40
0.4513577497
 40
0.5772771414
 40
0.7105015873
 40
0.8513945534
 40
1.0
 40
1.0
 40
1.0
 40
1.0
 10
9.0314850375
 20
27.5231714037
 30
0.0
 10
9.0970661225
 20
27.5610391012
 30
0.0
 10
9.2363168382
 20
27.6262317885
 30
0.0
 10
9.4616174526
 20
27.6885476905
 30
0.0
 10
9.7018006163
 20
27.7153238575
 30
0.0
 10
9.9542990626
 20
27.7065383839
 30
0.0
 10
10.2166872855
 20
27.6625241193
 30
0.0
 10
10.4864973981
 20
27.5838468022
 30
0.0
 10
10.761225884
 20
27.4714228553
 30
0.0
 10
10.9413167288
 20
27.3771266506
 30
0.0
 10
11.0315473711
 20
27.3250332145
 30
0.0
  0
SPLINE
  5
293
100
AcDbEntity
  8
0
100
AcDbSpline
 62
7
  6
BYLAYER
 70
0
 71
3
 72
18
 73
14
 74
0
 42
0.0000001
 43
0.0000001
 44
0.0000000001
 40
0.0
 40
0.0
 40
0.0
 40
0.0
 40
0.1374467244
 40
0.2766443962
 40
0.4146256048
 40
0.5484931622
 40
0.613082555
 40
0.6757018562
 40
0.7361033219
 40
0.7940897088
 40
0.8495185623
 40
0.9023168727
 40
1.0
 40
1.0
 40
1.0
 40
1.0
 10
20.7884994431
 20
30.5050110337
 30
0.0
 10
20.8825195516
 20
30.3914201817
 30
0.0
 10
21.0592752222
 20
30.152188914
 30
0.0
 10
21.2856129058
 20
29.7683969906
 30
0.0
 10
21.4696954595
 20
29.3668199789
 30
0.0
 10
21.5844413526
 20
29.0237347779
 30
0.0
 10
21.649497488
 20
28.7511583239
 30
0.0
 10
21.6840487749
 20
28.5527339798
 30
0.0
 10
21.7046332881
 20
28.3594865072
 30
0.0
 10
21.7111118521
 20
28.172965675
 30
0.0
 10
21.7033807485
 20
27.9945799171
 30
0.0
 10
21.675006698
 20
27.775394259
 30
0.0
 10
21.6320514404
 20
27.6181597924
 30
0.0
 10
21.5923846858
 20
27.5211619101
 30
0.0
  0
SPLINE
  5
294
100
AcDbEntity
  8
0
100
AcDbSpline
 62
7
  6
BYLAYER
 70
0
 71
3
 72
14
 73
10
 74
0
 42
0.0000001
 43
0.0000001
 44
0.0000000001
 40
0.0
 40
0.0
 40
0.0
 40
0.0
 40
0.2120167601
 40
0.3283579271
 40
0.4514153061
 40
0.580788558
 40
0.7158835456
 40
0.8559751394
 40
1.0
 40
1.0
 40
1.0
 40
1.0
 10
19.3102298273
 20
31.4739951713
 30
0.0
 10
19.4365890714
 20
31.456772924
 30
0.0
 10
19.6288089737
 20
31.4009647396
 30
0.0
 10
19.8745245191
 20
31.2850841012
 30
0.0
 10
20.0653742184
 20
31.1712872024
 30
0.0
 10
20.2546136005
 20
31.0347700578
 30
0.0
 10
20.4402161915
 20
30.8770169736
 30
0.0
 10
20.6199662044
 20
30.699891733
 30
0.0
 10
20.733261752
 20
30.5717467192
 30
0.0
 10
20.7884994431
 20
30.5050110337
 30
0.0
  0
SPLINE
  5
295
100
AcDbEntity
  8
0
100
AcDbSpline
 62
7
  6
BYLAYER
 70
0
 71
3
 72
12
 73
8
 74
0
 42
0.0000001
 43
0.0000001
 44
0.0000000001
 40
0.0
 40
0.0
 40
0.0
 40
0.0
 40
0.2502746002
 40
0.4999657386
 40
0.7497725914
 40
0.8747660315
 40
1.0
 40
1.0
 40
1.0
 40
1.0
 10
21.2448407454
 20
26.6711577673
 30
0.0
 10
21.2058810087
 20
26.5758736458
 30
0.0
 10
21.1142012854
 20
26.3907762373
 30
0.0
 10
20.9350874799
 20
26.1381696556
 30
0.0
 10
20.7526510065
 20
25.9553694938
 30
0.0
 10
20.589476357
 20
25.8298329918
 30
0.0
 10
20.5025627045
 20
25.7743978759
 30
0.0
 10
20.4579532847
 20
25.7486427691
 30
0.0
  0
SPLINE
  5
296
100
AcDbEntity
  8
0
100
AcDbSpline
 62
7
  6
BYLAYER
 70
0
 71
3
 72
11
 73
7
 74
0
 42
0.0000001
 43
0.0000001
 44
0.0000000001
 40
0.0
 40
0.0
 40
0.0
 40
0.0
 40
0.2325810675
 40
0.4780121557
 40
0.7345771936
 40
1.0
 40
1.0
 40
1.0
 40
1.0
 10
7.2131694517
 20
24.3448455664
 30
0.0
 10
7.3057267004
 20
24.2914078326
 30
0.0
 10
7.4899500632
 20
24.1709488324
 30
0.0
 10
7.7538651095
 20
23.9597974104
 30
0.0
 10
8.009368691
 20
23.7161599738
 30
0.0
 10
8.169314728
 20
23.5370284818
 30
0.0
 10
8.2470839267
 20
23.4430712457
 30
0.0
  0
SPLINE
  5
297
100
AcDbEntity
  8
0
100
AcDbSpline
 62
7
  6
BYLAYER
 70
0
 71
3
 72
12
 73
8
 74
0
 42
0.0000001
 43
0.0000001
 44
0.0000000001
 40
0.0
 40
0.0
 40
0.0
 40
0.0
 40
0.2502746002
 40
0.4999657386
 40
0.7497725914
 40
0.8747660315
 40
1.0
 40
1.0
 40
1.0
 40
1.0
 10
18.4003341271
 20
31.598017162
 30
0.0
 10
18.2983358608
 20
31.6119196282
 30
0.0
 10
18.0921970092
 20
31.6250724288
 30
0.0
 10
17.7838762406
 20
31.5962602077
 30
0.0
 10
17.5343480756
 20
31.529666958
 30
0.0
 10
17.3440425451
 20
31.451122801
 30
0.0
 10
17.2525772544
 20
31.4035714008
 30
0.0
 10
17.2079678346
 20
31.377816294
 30
0.0
  0
SPLINE
  5
298
100
AcDbEntity
  8
0
100
AcDbSpline
 62
7
  6
BYLAYER
 70
0
 71
3
 72
16
 73
12
 74
0
 42
0.0000001
 43
0.0000001
 44
0.0000000001
 40
0.0
 40
0.0
 40
0.0
 40
0.0
 40
0.1468621199
 40
0.2864086259
 40
0.4187904272
 40
0.482450586
 40
0.5445126744
 40
0.6642161082
 40
0.779053197
 40
0.8904277321
 40
1.0
 40
1.0
 40
1.0
 40
1.0
 10
9.3669337548
 20
20.6084706039
 30
0.0
 10
9.3637110282
 20
20.5399280443
 30
0.0
 10
9.3519622088
 20
20.4064225
 30
0.0
 10
9.3169113743
 20
20.2136279668
 30
0.0
 10
9.2731343332
 20
20.062711044
 30
0.0
 10
9.2296388234
 20
19.9501646321
 30
0.0
 10
9.1819424656
 20
19.8458229311
 30
0.0
 10
9.1125772837
 20
19.7253543855
 30
0.0
 10
9.0130278386
 20
19.5973194734
 30
0.0
 10
8.8989290843
 20
19.4887808963
 30
0.0
 10
8.8135100838
 20
19.4299045575
 30
0.0
 10
8.769171916
 20
19.4043097761
 30
0.0
  0
SPLINE
  5
299
100
AcDbEntity
  8
0
100
AcDbSpline
 62
7
  6
BYLAYER
 70
0
 71
3
 72
15
 73
11
 74
0
 42
0.0000001
 43
0.0000001
 44
0.0000000001
 40
0.0
 40
0.0
 40
0.0
 40
0.0
 40
0.1486045066
 40
0.2895000015
 40
0.422722313
 40
0.5486420145
 40
0.6680010153
 40
0.7819380776
 40
0.8919871966
 40
1.0
 40
1.0
 40
1.0
 40
1.0
 10
13.8599122192
 20
22.4261317117
 30
0.0
 10
13.8599157606
 20
22.3219436045
 30
0.0
 10
13.8515167895
 20
22.1188320118
 30
0.0
 10
13.8115355322
 20
21.8246956765
 30
0.0
 10
13.7447459868
 20
21.5516984725
 30
0.0
 10
13.6516754416
 20
21.3024564474
 30
0.0
 10
13.5330421946
 20
21.0793874846
 30
0.0
 10
13.3897421795
 20
20.8847870625
 30
0.0
 10
13.2231431315
 20
20.7208096166
 30
0.0
 10
13.0970460385
 20
20.6328295485
 30
0.0
 10
13.0314648467
 20
20.5949617892
 30
0.0
  0
SPLINE
  5
29A
100
AcDbEntity
  8
0
100
AcDbSpline
 62
7
  6
BYLAYER
 70
0
 71
3
 72
23
 73
19
 74
0
 42
0.0000001
 43
0.0000001
 44
0.0000000001
 40
0.0
 40
0.0
 40
0.0
 40
0.0
 40
0.0474885727
 40
0.095580778
 40
0.1448439179
 40
0.1957755151
 40
0.2487882986
 40
0.3041948809
 40
0.3622157325
 40
0.4229751584
 40
0.4865204219
 40
0.5528220629
 40
0.6217919096
 40
0.6932762561
 40
0.7670825993
 40
0.8429953429
 40
0.9207571627
 40
1.0
 40
1.0
 40
1.0
 40
1.0
 10
6.5487791676
 20
25.4547039566
 30
0.0
 10
6.5950345505
 20
25.4814114526
 30
0.0
 10
6.692036589
 20
25.5286960433
 30
0.0
 10
6.8473520983
 20
25.5794163058
 30
0.0
 10
7.0118260966
 20
25.6097894788
 30
0.0
 10
7.1842745368
 20
25.6197263286
 30
0.0
 10
7.363563265
 20
25.6091889263
 30
0.0
 10
7.5485377706
 20
25.5783742481
 30
0.0
 10
7.7380169531
 20
25.5274816504
 30
0.0
 10
7.9308256775
 20
25.4569292184
 30
0.0
 10
8.1257349092
 20
25.3671442052
 30
0.0
 10
8.3215414452
 20
25.2587565826
 30
0.0
 10
8.5169784775
 20
25.1324261567
 30
0.0
 10
8.710832439
 20
24.9890136578
 30
0.0
 10
8.9018528098
 20
24.829395649
 30
0.0
 10
9.0888598943
 20
24.6545947217
 30
0.0
 10
9.2705841386
 20
24.4657478125
 30
0.0
 10
9.3865126384
 20
24.3324273646
 30
0.0
 10
9.4433422668
 20
24.2637683723
 30
0.0
  0
SPLINE
  5
29B
100
AcDbEntity
  8
0
100
AcDbSpline
 62
7
  6
BYLAYER
 70
0
 71
3
 72
24
 73
20
 74
0
 42
0.0000001
 43
0.0000001
 44
0.0000000001
 40
0.0
 40
0.0
 40
0.0
 40
0.0
 40
0.0217128456
 40
0.0438158159
 40
0.0895444169
 40
0.1378832463
 40
0.1892756932
 40
0.24396344
 40
0.3020051359
 40
0.3633059117
 40
0.4276465885
 40
0.4947031297
 40
0.5640688188
 40
0.6352748114
 40
0.7078072381
 40
0.7811128287
 40
0.8546229671
 40
0.9277934074
 40
1.0
 40
1.0
 40
1.0
 40
1.0
 10
5.4145135481
 20
24.5061245032
 30
0.0
 10
5.3891431857
 20
24.4830564285
 30
0.0
 10
5.3400487481
 20
24.4341333086
 30
0.0
 10
5.2489805911
 20
24.3257556483
 30
0.0
 10
5.1494725679
 20
24.1705625555
 30
0.0
 10
5.0561891333
 20
23.9598015417
 30
0.0
 10
4.9883555588
 20
23.7248673819
 30
0.0
 10
4.9466250392
 20
23.4685109494
 30
0.0
 10
4.9313288932
 20
23.1936456961
 30
0.0
 10
4.9425575041
 20
22.9033971888
 30
0.0
 10
4.9801650139
 20
22.6010764197
 30
0.0
 10
5.0436896682
 20
22.2901513783
 30
0.0
 10
5.132376142
 20
21.9742004501
 30
0.0
 10
5.2452165327
 20
21.6568763975
 30
0.0
 10
5.3808961577
 20
21.3418538962
 30
0.0
 10
5.5378215849
 20
21.0327808679
 30
0.0
 10
5.7142118252
 20
20.7332146256
 30
0.0
 10
5.9079972751
 20
20.4467049684
 30
0.0
 10
6.0485414693
 20
20.264924879
 30
0.0
 10
6.1212507127
 20
20.1770808526
 30
0.0
  0
SPLINE
  5
29C
100
AcDbEntity
  8
0
100
AcDbSpline
 62
7
  6
BYLAYER
 70
0
 71
3
 72
14
 73
10
 74
0
 42
0.0000001
 43
0.0000001
 44
0.0000000001
 40
0.0
 40
0.0
 40
0.0
 40
0.0
 40
0.2738837148
 40
0.4033812956
 40
0.5284803049
 40
0.6498457561
 40
0.7682663692
 40
0.8846535659
 40
1.0
 40
1.0
 40
1.0
 40
1.0
 10
10.268890133
 20
19.6573399323
 30
0.0
 10
10.3875677696
 20
19.6231298035
 30
0.0
 10
10.5666724591
 20
19.5854465187
 30
0.0
 10
10.8046582814
 20
19.5684165427
 30
0.0
 10
10.9744408222
 20
19.5725970265
 30
0.0
 10
11.1379629046
 20
19.5934683984
 30
0.0
 10
11.2944744255
 20
19.6310253973
 30
0.0
 10
11.443192184
 20
19.685073639
 30
0.0
 10
11.5368558073
 20
19.7320508035
 30
0.0
 10
11.5819019804
 20
19.7580612738
 30
0.0
  0
SPLINE
  5
29D
100
AcDbEntity
  8
0
100
AcDbSpline
 62
7
  6
BYLAYER
 70
0
 71
3
 72
11
 73
7
 74
0
 42
0.0000001
 43
0.0000001
 44
0.0000000001
 40
0.0
 40
0.0
 40
0.0
 40
0.0
 40
0.2224605835
 40
0.4617902292
 40
0.7206799047
 40
1.0
 40
1.0
 40
1.0
 40
1.0
 10
6.0909997683
 20
24.6290955138
 30
0.0
 10
6.1775542586
 20
24.6400163575
 30
0.0
 10
6.3600855713
 20
24.6428339731
 30
0.0
 10
6.6398413992
 20
24.5943181633
 30
0.0
 10
6.929255305
 20
24.4949145427
 30
0.0
 10
7.1183058814
 20
24.3996148502
 30
0.0
 10
7.2131694517
 20
24.3448455664
 30
0.0
  0
SPLINE
  5
29E
100
AcDbEntity
  8
0
100
AcDbSpline
 62
7
  6
BYLAYER
 70
0
 71
3
 72
19
 73
15
 74
0
 42
0.0000001
 43
0.0000001
 44
0.0000000001
 40
0.0
 40
0.0
 40
0.0
 40
0.0
 40
0.1517034289
 40
0.2931030748
 40
0.4244283292
 40
0.5468740649
 40
0.6054340833
 40
0.6626096199
 40
0.7187843289
 40
0.7743849204
 40
0.829868424
 40
0.8856958769
 40
0.9422849319
 40
1.0
 40
1.0
 40
1.0
 40
1.0
 10
5.0564295594
 20
23.0996824668
 30
0.0
 10
5.0564295594
 20
23.2023658976
 30
0.0
 10
5.0670234012
 20
23.4010057283
 30
0.0
 10
5.1183987495
 20
23.6845326679
 30
0.0
 10
5.2042215574
 20
23.9389884309
 30
0.0
 10
5.3052582686
 20
24.1261713145
 30
0.0
 10
5.4020165509
 20
24.255425327
 30
0.0
 10
5.4810159098
 20
24.3411530263
 30
0.0
 10
5.567183515
 20
24.4166769816
 30
0.0
 10
5.6601778237
 20
24.4816501504
 30
0.0
 10
5.7595899328
 20
24.5358132509
 30
0.0
 10
5.8650085588
 20
24.5788845827
 30
0.0
 10
5.9758975307
 20
24.6107091912
 30
0.0
 10
6.0522414872
 20
24.6242052634
 30
0.0
 10
6.0909997683
 20
24.6290955138
 30
0.0
  0
SPLINE
  5
29F
100
AcDbEntity
  8
0
100
AcDbSpline
 62
7
  6
BYLAYER
 70
0
 71
3
 72
24
 73
20
 74
0
 42
0.0000001
 43
0.0000001
 44
0.0000000001
 40
0.0
 40
0.0
 40
0.0
 40
0.0
 40
0.0738332233
 40
0.1486655354
 40
0.2237864171
 40
0.2985508114
 40
0.3722890972
 40
0.4443664231
 40
0.5141977312
 40
0.5812634946
 40
0.6451373255
 40
0.7055112391
 40
0.7622245534
 40
0.815300072
 40
0.8649828906
 40
0.9117714915
 40
0.9564283643
 40
0.9782868583
 40
1.0
 40
1.0
 40
1.0
 40
1.0
 10
6.3360610603
 20
20.4053857943
 30
0.0
 10
6.2658251902
 20
20.4902416029
 30
0.0
 10
6.1304527319
 20
20.6661990202
 30
0.0
 10
5.9451704052
 20
20.9442247876
 30
0.0
 10
5.7781946677
 20
21.2352352292
 30
0.0
 10
5.6317547954
 20
21.5352848977
 30
0.0
 10
5.5077995677
 20
21.840417723
 30
0.0
 10
5.4079758203
 20
22.1465612691
 30
0.0
 10
5.3336087264
 20
22.4496516108
 30
0.0
 10
5.2857039412
 20
22.7456817019
 30
0.0
 10
5.2649054291
 20
23.0307497783
 30
0.0
 10
5.271519595
 20
23.3011237077
 30
0.0
 10
5.3055448044
 20
23.5532836048
 30
0.0
 10
5.3666805023
 20
23.7839408681
 30
0.0
 10
5.4543556515
 20
23.9900545047
 30
0.0
 10
5.5676657013
 20
24.1687239948
 30
0.0
 10
5.683446807
 20
24.2934350273
 30
0.0
 10
5.7864314233
 20
24.3756973065
 30
0.0
 10
5.841132332
 20
24.4110649594
 30
0.0
 10
5.8691862592
 20
24.4272622577
 30
0.0
  0
SPLINE
  5
2A0
100
AcDbEntity
  8
0
100
AcDbSpline
 62
7
  6
BYLAYER
 70
0
 71
3
 72
11
 73
7
 74
0
 42
0.0000001
 43
0.0000001
 44
0.0000000001
 40
0.0
 40
0.0
 40
0.0
 40
0.0
 40
0.2654050281
 40
0.5219944752
 40
0.767417044
 40
1.0
 40
1.0
 40
1.0
 40
1.0
 10
12.6635738177
 20
26.0579382399
 30
0.0
 10
12.5807104535
 20
26.1580500168
 30
0.0
 10
12.4102699365
 20
26.3489268103
 30
0.0
 10
12.1380183612
 20
26.608546341
 30
0.0
 10
11.8567889714
 20
26.8335481819
 30
0.0
 10
11.66048829
 20
26.9619047669
 30
0.0
 10
11.5618616685
 20
27.0188486512
 30
0.0
  0
SPLINE
  5
2A1
100
AcDbEntity
  8
0
100
AcDbSpline
 62
7
  6
BYLAYER
 70
0
 71
3
 72
23
 73
19
 74
0
 42
0.0000001
 43
0.0000001
 44
0.0000000001
 40
0.0
 40
0.0
 40
0.0
 40
0.0
 40
0.0792439901
 40
0.1570046871
 40
0.2329162452
 40
0.3067227449
 40
0.3782077475
 40
0.4471775712
 40
0.5134793925
 40
0.5770246889
 40
0.6377844502
 40
0.6958051321
 40
0.7512119591
 40
0.8042245292
 40
0.8551563411
 40
0.9044192606
 40
0.9525115794
 40
1.0
 40
1.0
 40
1.0
 40
1.0
 10
10.9379379191
 20
25.3054750386
 30
0.0
 10
10.8720474866
 20
25.3850808856
 30
0.0
 10
10.7376381593
 20
25.5396560474
 30
0.0
 10
10.5269436539
 20
25.7586074789
 30
0.0
 10
10.3101259569
 20
25.961273707
 30
0.0
 10
10.0886529278
 20
26.1463374143
 30
0.0
 10
9.8638951498
 20
26.3126155205
 30
0.0
 10
9.6372995804
 20
26.45908491
 30
0.0
 10
9.4102780993
 20
26.5847538082
 30
0.0
 10
9.1842946584
 20
26.6888505853
 30
0.0
 10
8.9607490821
 20
26.7706542102
 30
0.0
 10
8.7410614652
 20
26.829656384
 30
0.0
 10
8.5265989429
 20
26.8653884316
 30
0.0
 10
8.3187273146
 20
26.8775999764
 30
0.0
 10
8.1187866673
 20
26.8660857653
 30
0.0
 10
7.9280933914
 20
26.830862796
 30
0.0
 10
7.74801535
 20
26.7720640984
 30
0.0
 10
7.6355508702
 20
26.7172370632
 30
0.0
 10
7.5819221712
 20
26.6862708882
 30
0.0
  0
SPLINE
  5
2A2
100
AcDbEntity
  8
0
100
AcDbSpline
 62
7
  6
BYLAYER
 70
0
 71
3
 72
19
 73
15
 74
0
 42
0.0000001
 43
0.0000001
 44
0.0000000001
 40
0.0
 40
0.0
 40
0.0
 40
0.0
 40
0.097678853
 40
0.1504738514
 40
0.2059005902
 40
0.2638829302
 40
0.324281711
 40
0.3868963158
 40
0.4514828489
 40
0.5853451742
 40
0.7233206033
 40
0.8625092182
 40
0.9316792038
 40
1.0
 40
1.0
 40
1.0
 40
1.0
 10
21.2448377166
 20
26.6711608517
 30
0.0
 10
21.2942675809
 20
26.7920653171
 30
0.0
 10
21.3478134502
 20
26.9880390584
 30
0.0
 10
21.3831941522
 20
27.2612342494
 30
0.0
 10
21.3928119036
 20
27.4835747483
 30
0.0
 10
21.3847566807
 20
27.7160564607
 30
0.0
 10
21.3590805704
 20
27.956916696
 30
0.0
 10
21.3160340679
 20
28.2042365747
 30
0.0
 10
21.2349301134
 20
28.5439737534
 30
0.0
 10
21.0919150152
 20
28.9716137377
 30
0.0
 10
20.8624873671
 20
29.4721029049
 30
0.0
 10
20.6267750728
 20
29.8718201517
 30
0.0
 10
20.4144668901
 20
30.1749843116
 30
0.0
 10
20.3011186596
 20
30.3198833434
 30
0.0
 10
20.2428652222
 20
30.3902625175
 30
0.0
  0
SPLINE
  5
2A3
100
AcDbEntity
  8
0
100
AcDbSpline
 62
7
  6
BYLAYER
 70
0
 71
3
 72
23
 73
19
 74
0
 42
0.0000001
 43
0.0000001
 44
0.0000000001
 40
0.0
 40
0.0
 40
0.0
 40
0.0
 40
0.0474886009
 40
0.0955807579
 40
0.1448438263
 40
0.1957754657
 40
0.2487882042
 40
0.3041949038
 40
0.362215777
 40
0.422975105
 40
0.4865206402
 40
0.5528228794
 40
0.6217929723
 40
0.6932759215
 40
0.7670821791
 40
0.8429977065
 40
0.9207611212
 40
1.0
 40
1.0
 40
1.0
 40
1.0
 10
7.4265930297
 20
25.7305670313
 30
0.0
 10
7.470169427
 20
25.7557220709
 30
0.0
 10
7.5615417672
 20
25.8002781572
 30
0.0
 10
7.7078578399
 20
25.8480468284
 30
0.0
 10
7.8627950223
 20
25.8766679562
 30
0.0
 10
8.0252471808
 20
25.8860219377
 30
0.0
 10
8.1941426362
 20
25.8761007209
 30
0.0
 10
8.3683936399
 20
25.8470680335
 30
0.0
 10
8.5468892412
 20
25.7991284938
 30
0.0
 10
8.7285204498
 20
25.7326643242
 30
0.0
 10
8.9121317448
 20
25.6480846615
 30
0.0
 10
9.0965876108
 20
25.5459783796
 30
0.0
 10
9.2806942163
 20
25.4269713228
 30
0.0
 10
9.4633104796
 20
25.2918748688
 30
0.0
 10
9.6432576454
 20
25.1415082156
 30
0.0
 10
9.8194265749
 20
24.9768368581
 30
0.0
 10
9.9906151967
 20
24.7989360006
 30
0.0
 10
10.0998226861
 20
24.6733470557
 30
0.0
 10
10.1533551956
 20
24.6086714936
 30
0.0
  0
SPLINE
  5
2A4
100
AcDbEntity
  8
0
100
AcDbSpline
 62
7
  6
BYLAYER
 70
0
 71
3
 72
18
 73
14
 74
0
 42
0.0000001
 43
0.0000001
 44
0.0000000001
 40
0.0
 40
0.0
 40
0.0
 40
0.0
 40
0.154699712
 40
0.3028167667
 40
0.4425651232
 40
0.572696686
 40
0.6926078429
 40
0.7488382891
 40
0.8027091667
 40
0.8544343626
 40
0.9043007915
 40
0.9526775665
 40
1.0
 40
1.0
 40
1.0
 40
1.0
 10
9.3019214994
 20
24.1821195415
 30
0.0
 10
9.1963343996
 20
24.3096851103
 30
0.0
 10
8.9782746005
 20
24.5502792594
 30
0.0
 10
8.6267789831
 20
24.8690664828
 30
0.0
 10
8.2639823718
 20
25.1326647839
 30
0.0
 10
7.8978683176
 20
25.3351790094
 30
0.0
 10
7.5897735888
 20
25.451639021
 30
0.0
 10
7.3497765347
 20
25.5079513762
 30
0.0
 10
7.1778885298
 20
25.5315783627
 30
0.0
 10
7.0112688652
 20
25.5373843743
 30
0.0
 10
6.8508434854
 20
25.5252184924
 30
0.0
 10
6.6975833845
 20
25.4951563171
 30
0.0
 10
6.5999874107
 20
25.462968817
 30
0.0
 10
6.5530132177
 20
25.4440116405
 30
0.0
  0
SPLINE
  5
2A5
100
AcDbEntity
  8
0
100
AcDbSpline
 62
7
  6
BYLAYER
 70
0
 71
3
 72
15
 73
11
 74
0
 42
0.0000001
 43
0.0000001
 44
0.0000000001
 40
0.0
 40
0.0
 40
0.0
 40
0.0
 40
0.1053463412
 40
0.2131602411
 40
0.3256333211
 40
0.4444961833
 40
0.5709371856
 40
0.7056094919
 40
0.8487013986
 40
1.0
 40
1.0
 40
1.0
 40
1.0
 10
17.2079693914
 20
31.3778135973
 30
0.0
 10
17.2675544808
 20
31.4122098616
 30
0.0
 10
17.395122545
 20
31.4703732598
 30
0.0
 10
17.6027630163
 20
31.5212367587
 30
0.0
 10
17.8248070383
 20
31.5358984953
 30
0.0
 10
18.0583365776
 20
31.5144614636
 30
0.0
 10
18.3005922764
 20
31.4574994836
 30
0.0
 10
18.5487980661
 20
31.3659087837
 30
0.0
 10
18.8000947061
 20
31.2408782788
 30
0.0
 10
18.9634612864
 20
31.1389166754
 30
0.0
 10
19.0450061902
 20
31.083112786
 30
0.0
  0
SPLINE
  5
2A6
100
AcDbEntity
  8
0
100
AcDbSpline
 62
7
  6
BYLAYER
 70
0
 71
3
 72
11
 73
7
 74
0
 42
0.0000001
 43
0.0000001
 44
0.0000000001
 40
0.0
 40
0.0
 40
0.0
 40
0.0
 40
0.2369686266
 40
0.4835180478
 40
0.7384429193
 40
1.0
 40
1.0
 40
1.0
 40
1.0
 10
19.0450061902
 20
31.083112786
 30
0.0
 10
19.124436481
 20
31.0287559965
 30
0.0
 10
19.2819981711
 20
30.9111360211
 30
0.0
 10
19.5086161394
 20
30.7142941239
 30
0.0
 10
19.7282253792
 20
30.4952967966
 30
0.0
 10
19.8669930936
 20
30.3377566145
 30
0.0
 10
19.9347315573
 20
30.2559180596
 30
0.0
  0
SPLINE
  5
2A7
100
AcDbEntity
  8
0
100
AcDbSpline
 62
7
  6
BYLAYER
 70
0
 71
3
 72
21
 73
17
 74
0
 42
0.0000001
 43
0.0000001
 44
0.0000000001
 40
0.0
 40
0.0
 40
0.0
 40
0.0
 40
0.0474937594
 40
0.0955911404
 40
0.1448595599
 40
0.1957967317
 40
0.2488152288
 40
0.3042279469
 40
0.3622551225
 40
0.4230210505
 40
0.4865734884
 40
0.5528829295
 40
0.6218605143
 40
0.6933512284
 40
0.8430310187
 40
1.0
 40
1.0
 40
1.0
 40
1.0
 10
8.769171916
 20
19.4043097761
 30
0.0
 10
8.7302883615
 20
19.3818637408
 30
0.0
 10
8.6487561195
 20
19.3421060022
 30
0.0
 10
8.5181971624
 20
19.2994816495
 30
0.0
 10
8.3799455226
 20
19.273942797
 30
0.0
 10
8.2349882122
 20
19.2655961674
 30
0.0
 10
8.0842814972
 20
19.2744489454
 30
0.0
 10
7.9287959898
 20
19.3003550356
 30
0.0
 10
7.7695229774
 20
19.3431318559
 30
0.0
 10
7.60745211
 20
19.402438345
 30
0.0
 10
7.4436141109
 20
19.4779094313
 30
0.0
 10
7.2790236299
 20
19.5690196413
 30
0.0
 10
7.1147402998
 20
19.6752105963
 30
0.0
 10
6.8941180596
 20
19.838437161
 30
0.0
 10
6.6263462907
 20
20.0764500196
 30
0.0
 10
6.4306761892
 20
20.2910760656
 30
0.0
 10
6.3360610603
 20
20.4053857943
 30
0.0
  0
SPLINE
  5
2A8
100
AcDbEntity
  8
0
100
AcDbSpline
 62
7
  6
BYLAYER
 70
0
 71
3
 72
11
 73
7
 74
0
 42
0.0000001
 43
0.0000001
 44
0.0000000001
 40
0.0
 40
0.0
 40
0.0
 40
0.0
 40
0.2325827042
 40
0.4780092111
 40
0.7345850463
 40
1.0
 40
1.0
 40
1.0
 40
1.0
 10
11.0315473711
 20
27.3250332145
 30
0.0
 10
11.1529354878
 20
27.2549514337
 30
0.0
 10
11.3945362318
 20
27.0969694765
 30
0.0
 10
11.7406600417
 20
26.8200487482
 30
0.0
 10
12.0757426876
 20
26.500520738
 30
0.0
 10
12.2855113246
 20
26.2655946178
 30
0.0
 10
12.3875007854
 20
26.142375554
 30
0.0
  0
SPLINE
  5
2A9
100
AcDbEntity
  8
0
100
AcDbSpline
 62
7
  6
BYLAYER
 70
0
 71
3
 72
29
 73
25
 74
0
 42
0.0000001
 43
0.0000001
 44
0.0000000001
 40
0.0
 40
0.0
 40
0.0
 40
0.0
 40
0.0679251643
 40
0.1311586964
 40
0.1898550908
 40
0.2176797984
 40
0.24460505
 40
0.2707635645
 40
0.2963119154
 40
0.3214304603
 40
0.3463147883
 40
0.3711707917
 40
0.3962049391
 40
0.4216171696
 40
0.44759174
 40
0.4742925169
 40
0.5018596875
 40
0.5599671317
 40
0.6225612192
 40
0.689844958
 40
0.7617033424
 40
0.8377508524
 40
0.9174395596
 40
1.0
 40
1.0
 40
1.0
 40
1.0
 10
9.3697927846
 20
20.6094381286
 30
0.0
 10
9.3697928963
 20
20.5055962444
 30
0.0
 10
9.35897801
 20
20.3048135424
 30
0.0
 10
9.3064475712
 20
20.0185127054
 30
0.0
 10
9.2319407933
 20
19.8008636929
 30
0.0
 10
9.1546515164
 20
19.6453706713
 30
0.0
 10
9.089498762
 20
19.5400054232
 30
0.0
 10
9.0164256104
 20
19.4442972712
 30
0.0
 10
8.9356884542
 20
19.3586954704
 30
0.0
 10
8.8476586249
 20
19.2835638515
 30
0.0
 10
8.7526995342
 20
19.2192613347
 30
0.0
 10
8.6512329575
 20
19.1660925144
 30
0.0
 10
8.5437301272
 20
19.1242599796
 30
0.0
 10
8.4306584946
 20
19.0939824281
 30
0.0
 10
8.3125351792
 20
19.0753352105
 30
0.0
 10
8.1898621739
 20
19.068389814
 30
0.0
 10
8.0179724508
 20
19.0748623703
 30
0.0
 10
7.7935158726
 20
19.1137709258
 30
0.0
 10
7.5201566513
 20
19.2053141289
 30
0.0
 10
7.2422097858
 20
19.3407191032
 30
0.0
 10
6.9641425206
 20
19.5176575823
 30
0.0
 10
6.6903235197
 20
19.733186089
 30
0.0
 10
6.4252813833
 20
19.9837568715
 30
0.0
 10
6.2596227147
 20
20.1687949572
 30
0.0
 10
6.1791445156
 20
20.2660250854
 30
0.0
  0
SPLINE
  5
2AA
100
AcDbEntity
  8
0
100
AcDbSpline
 62
7
  6
BYLAYER
 70
0
 71
3
 72
26
 73
22
 74
0
 42
0.0000001
 43
0.0000001
 44
0.0000000001
 40
0.0
 40
0.0
 40
0.0
 40
0.0
 40
0.0223123656
 40
0.0444534928
 40
0.0665912029
 40
0.0888941138
 40
0.1115238791
 40
0.1346313256
 40
0.182747017
 40
0.2341374492
 40
0.2893116984
 40
0.3484742811
 40
0.4115716907
 40
0.4783404706
 40
0.5483502902
 40
0.6210409834
 40
0.6957592152
 40
0.7717854316
 40
0.8483469816
 40
0.924691224
 40
1.0
 40
1.0
 40
1.0
 40
1.0
 10
8.6101342837
 20
18.971113043
 30
0.0
 10
8.6470048512
 20
18.9828947457
 30
0.0
 10
8.719305785
 20
19.0102026379
 30
0.0
 10
8.8226086108
 20
19.0623813127
 30
0.0
 10
8.9197109184
 20
19.1253476314
 30
0.0
 10
9.0101886358
 20
19.198844481
 30
0.0
 10
9.0937162688
 20
19.282544121
 30
0.0
 10
9.1966996818
 20
19.4089556248
 30
0.0
 10
9.3063022363
 20
19.5927684303
 30
0.0
 10
9.4030665617
 20
19.8442043414
 30
0.0
 10
9.4660456725
 20
20.1256535121
 30
0.0
 10
9.4945532335
 20
20.4328656544
 30
0.0
 10
9.4883577906
 20
20.7613297827
 30
0.0
 10
9.4476269587
 20
21.1061792176
 30
0.0
 10
9.3730213539
 20
21.4622702706
 30
0.0
 10
9.2656884675
 20
21.8242596577
 30
0.0
 10
9.1272455185
 20
22.1866925378
 30
0.0
 10
8.9597837246
 20
22.5440722589
 30
0.0
 10
8.7658468624
 20
22.8910397253
 30
0.0
 10
8.5483721126
 20
23.2222471051
 30
0.0
 10
8.3882798595
 20
23.4313736046
 30
0.0
 10
8.3049777296
 20
23.5320154785
 30
0.0
  0
SPLINE
  5
2AB
100
AcDbEntity
  8
0
100
AcDbSpline
 62
7
  6
BYLAYER
 70
0
 71
3
 72
25
 73
21
 74
0
 42
0.0000001
 43
0.0000001
 44
0.0000000001
 40
0.0
 40
0.0
 40
0.0
 40
0.0
 40
0.073827647
 40
0.1486579623
 40
0.2237745475
 40
0.2985344572
 40
0.3722690326
 40
0.4443425931
 40
0.514170125
 40
0.5812321434
 40
0.6451028714
 40
0.7054738883
 40
0.7621837651
 40
0.8152566447
 40
0.8649374768
 40
0.9117232674
 40
0.9342835251
 40
0.956427388
 40
0.9782862794
 40
1.0
 40
1.0
 40
1.0
 40
1.0
 10
10.1533551956
 20
24.6086714936
 30
0.0
 10
10.2320658014
 20
24.513576892
 30
0.0
 10
10.3837749209
 20
24.316382482
 30
0.0
 10
10.5914202717
 20
24.0048042305
 30
0.0
 10
10.7785497248
 20
23.6786716652
 30
0.0
 10
10.9426597558
 20
23.3424097785
 30
0.0
 10
11.0815760173
 20
23.0004527483
 30
0.0
 10
11.1934500754
 20
22.6573624501
 30
0.0
 10
11.27679099
 20
22.3176932115
 30
0.0
 10
11.3304754538
 20
21.9859360708
 30
0.0
 10
11.3537888794
 20
21.6664642868
 30
0.0
 10
11.3463795062
 20
21.3634583818
 30
0.0
 10
11.3082443904
 20
21.0808698638
 30
0.0
 10
11.2397230033
 20
20.8223648726
 30
0.0
 10
11.1415161846
 20
20.5914028226
 30
0.0
 10
11.0342852894
 20
20.4224312245
 30
0.0
 10
10.9351713127
 20
20.3056494759
 30
0.0
 10
10.8553001482
 20
20.2278826483
 30
0.0
 10
10.76932332
 20
20.1591854605
 30
0.0
 10
10.7080188847
 20
20.1195500781
 30
0.0
 10
10.6765753661
 20
20.1013988999
 30
0.0
  0
SPLINE
  5
2AC
100
AcDbEntity
  8
0
100
AcDbSpline
 62
7
  6
BYLAYER
 70
0
 71
3
 72
9
 73
5
 74
0
 42
0.0000001
 43
0.0000001
 44
0.0000000001
 40
0.0
 40
0.0
 40
0.0
 40
0.0
 40
0.5105048541
 40
1.0
 40
1.0
 40
1.0
 40
1.0
 10
8.3049777296
 20
23.5320154785
 30
0.0
 10
8.2087850348
 20
23.6482311512
 30
0.0
 10
8.0102651011
 20
23.8677464689
 30
0.0
 10
7.7916676879
 20
24.0674506047
 30
0.0
 10
7.6797616724
 20
24.1591098431
 30
0.0
  0
SPLINE
  5
2AD
100
AcDbEntity
  8
0
100
AcDbSpline
 62
7
  6
BYLAYER
 70
0
 71
3
 72
19
 73
15
 74
0
 42
0.0000001
 43
0.0000001
 44
0.0000000001
 40
0.0
 40
0.0
 40
0.0
 40
0.0
 40
0.1565336394
 40
0.3032565377
 40
0.4394706738
 40
0.5652402792
 40
0.624537432
 40
0.6816838751
 40
0.7369703955
 40
0.7907612202
 40
0.843477178
 40
0.8955893705
 40
0.94759562
 40
1.0
 40
1.0
 40
1.0
 40
1.0
 10
7.6797616724
 20
24.1591098431
 30
0.0
 10
7.5790008482
 20
24.2416403519
 30
0.0
 10
7.3758117171
 20
24.3921731429
 30
0.0
 10
7.0586757508
 20
24.5759429176
 30
0.0
 10
6.7439467179
 20
24.7075011521
 30
0.0
 10
6.4832535109
 20
24.7725646827
 30
0.0
 10
6.2826314212
 20
24.7943521526
 30
0.0
 10
6.1395077383
 20
24.7960462212
 30
0.0
 10
6.0015221259
 20
24.7833140468
 30
0.0
 10
5.8693577648
 20
24.7562348948
 30
0.0
 10
5.7437028924
 20
24.7148743727
 30
0.0
 10
5.6252155403
 20
24.6594329821
 30
0.0
 10
5.514532334
 20
24.5902186838
 30
0.0
 10
5.446775151
 20
24.535458458
 30
0.0
 10
5.4145135481
 20
24.5061245032
 30
0.0
  0
SPLINE
  5
2AE
100
AcDbEntity
  8
0
100
AcDbSpline
 62
7
  6
BYLAYER
 70
0
 71
3
 72
23
 73
19
 74
0
 42
0.0000001
 43
0.0000001
 44
0.0000000001
 40
0.0
 40
0.0
 40
0.0
 40
0.0
 40
0.0435632871
 40
0.0888293715
 40
0.1365722152
 40
0.1873428224
 40
0.241465182
 40
0.2990552771
 40
0.3600555237
 40
0.4242631646
 40
0.4913559154
 40
0.5609195029
 40
0.6324665011
 40
0.7054561075
 40
0.7793057627
 40
0.8534114867
 40
0.9271948514
 40
1.0
 40
1.0
 40
1.0
 40
1.0
 10
9.9896671083
 20
19.4866148973
 30
0.0
 10
10.0488438813
 20
19.5326963031
 30
0.0
 10
10.1606709351
 20
19.638558456
 30
0.0
 10
10.3002157715
 20
19.8291779649
 30
0.0
 10
10.4124175285
 20
20.0509533096
 30
0.0
 10
10.4961079208
 20
20.3009135255
 30
0.0
 10
10.5505464523
 20
20.5759914162
 30
0.0
 10
10.575273084
 20
20.8728721752
 30
0.0
 10
10.5700875595
 20
21.1880156055
 30
0.0
 10
10.53509273
 20
21.5176437519
 30
0.0
 10
10.4707619812
 20
21.8577885967
 30
0.0
 10
10.3778835578
 20
22.204333933
 30
0.0
 10
10.2575786689
 20
22.5530691995
 30
0.0
 10
10.1113273519
 20
22.8997486245
 30
0.0
 10
9.9409238262
 20
23.2401383607
 30
0.0
 10
9.7484176822
 20
23.5701207814
 30
0.0
 10
9.5361794598
 20
23.8855878868
 30
0.0
 10
9.3818463838
 20
24.0855579032
 30
0.0
 10
9.3019214994
 20
24.1821195415
 30
0.0
  0
SPLINE
  5
2AF
100
AcDbEntity
  8
0
100
AcDbSpline
 62
7
  6
BYLAYER
 70
0
 71
3
 72
15
 73
11
 74
0
 42
0.0000001
 43
0.0000001
 44
0.0000000001
 40
0.0
 40
0.0
 40
0.0
 40
0.0
 40
0.1293649896
 40
0.2605098395
 40
0.3918448496
 40
0.5218335123
 40
0.6489535213
 40
0.7718039541
 40
0.8891502231
 40
1.0
 40
1.0
 40
1.0
 40
1.0
 10
12.3875007854
 20
26.142375554
 30
0.0
 10
12.4994080971
 20
26.0071741904
 30
0.0
 10
12.7136529699
 20
25.725527395
 30
0.0
 10
13.0018079972
 20
25.2781953866
 30
0.0
 10
13.2551422824
 20
24.8092616463
 30
0.0
 10
13.4691732519
 20
24.3270947035
 30
0.0
 10
13.6401140154
 20
23.8401687785
 30
0.0
 10
13.7649526694
 20
23.3570492403
 30
0.0
 10
13.8414761963
 20
22.8862896423
 30
0.0
 10
13.8599071074
 20
22.576519351
 30
0.0
 10
13.8599122192
 20
22.4261317117
 30
0.0
  0
SPLINE
  5
2B0
100
AcDbEntity
  8
0
100
AcDbSpline
 62
7
  6
BYLAYER
 70
0
 71
3
 72
15
 73
11
 74
0
 42
0.0000001
 43
0.0000001
 44
0.0000000001
 40
0.0
 40
0.0
 40
0.0
 40
0.0
 40
0.143972452
 40
0.2839987866
 40
0.4190370937
 40
0.5483609691
 40
0.6713668425
 40
0.787661346
 40
0.897133271
 40
1.0
 40
1.0
 40
1.0
 40
1.0
 10
20.2428652222
 20
30.3902625175
 30
0.0
 10
20.1740132827
 20
30.4734463235
 30
0.0
 10
20.0328042507
 20
30.6331688758
 30
0.0
 10
19.8087577483
 20
30.8539354186
 30
0.0
 10
19.5774323361
 20
31.0505551862
 30
0.0
 10
19.3415385875
 20
31.2207265856
 30
0.0
 10
19.1037472824
 20
31.3625257375
 30
0.0
 10
18.8667148658
 20
31.4742849194
 30
0.0
 10
18.6331592664
 20
31.5546419863
 30
0.0
 10
18.476780558
 20
31.5875984582
 30
0.0
 10
18.4003348793
 20
31.5980144536
 30
0.0
  0
SPLINE
  5
2B1
100
AcDbEntity
  8
0
100
AcDbSpline
 62
7
  6
BYLAYER
 70
0
 71
3
 72
15
 73
11
 74
0
 42
0.0000001
 43
0.0000001
 44
0.0000000001
 40
0.0
 40
0.0
 40
0.0
 40
0.0
 40
0.1108496012
 40
0.2281954306
 40
0.3510456484
 40
0.4781660933
 40
0.6081555129
 40
0.739487979
 40
0.8706388228
 40
1.0
 40
1.0
 40
1.0
 40
1.0
 10
13.8599049207
 20
23.0384919579
 30
0.0
 10
13.8599045152
 20
23.1606816328
 30
0.0
 10
13.8449228079
 20
23.4123690201
 30
0.0
 10
13.7827536601
 20
23.794860482
 30
0.0
 10
13.6813245515
 20
24.1873954383
 30
0.0
 10
13.5424338246
 20
24.5830231758
 30
0.0
 10
13.368531277
 20
24.9747806689
 30
0.0
 10
13.1626981661
 20
25.3557948193
 30
0.0
 10
12.9285687117
 20
25.7192490166
 30
0.0
 10
12.7544957631
 20
25.9480904487
 30
0.0
 10
12.6635738177
 20
26.0579382399
 30
0.0
  0
SPLINE
  5
2B2
100
AcDbEntity
  8
0
100
AcDbSpline
 62
7
  6
BYLAYER
 70
0
 71
3
 72
15
 73
11
 74
0
 42
0.0000001
 43
0.0000001
 44
0.0000000001
 40
0.0
 40
0.0
 40
0.0
 40
0.0
 40
0.1293672771
 40
0.2605099173
 40
0.3918460899
 40
0.52183356
 40
0.6489544628
 40
0.7718007184
 40
0.8891544134
 40
1.0
 40
1.0
 40
1.0
 40
1.0
 10
6.1791445156
 20
20.2660250854
 30
0.0
 10
6.0938131057
 20
20.3691186438
 30
0.0
 10
5.9304497294
 20
20.5838755016
 30
0.0
 10
5.7107313022
 20
20.9249708285
 30
0.0
 10
5.5175639357
 20
21.2825331921
 30
0.0
 10
5.3543638876
 20
21.6501890298
 30
0.0
 10
5.2240281699
 20
22.0214699842
 30
0.0
 10
5.1288305283
 20
22.3898538974
 30
0.0
 10
5.0704925111
 20
22.7488110875
 30
0.0
 10
5.0564295594
 20
22.9850154527
 30
0.0
 10
5.0564295594
 20
23.0996824668
 30
0.0
  0
SPLINE
  5
2B3
100
AcDbEntity
  8
0
100
AcDbSpline
 62
7
  6
BYLAYER
 70
0
 71
3
 72
26
 73
22
 74
0
 42
0.0000001
 43
0.0000001
 44
0.0000000001
 40
0.0
 40
0.0
 40
0.0
 40
0.0
 40
0.0217128966
 40
0.0435706277
 40
0.065713688
 40
0.0882730974
 40
0.1113671676
 40
0.135100465
 40
0.1847785149
 40
0.2378493969
 40
0.2945573809
 40
0.354925199
 40
0.4187929267
 40
0.485852492
 40
0.5556769151
 40
0.6277472459
 40
0.7014781715
 40
0.7762355628
 40
0.85134946
 40
0.9261725819
 40
1.0
 40
1.0
 40
1.0
 40
1.0
 10
11.5819019804
 20
19.7580612738
 30
0.0
 10
11.620599322
 20
19.7804058146
 30
0.0
 10
11.6960460146
 20
19.8291927944
 30
0.0
 10
11.8018805311
 20
19.9137251377
 30
0.0
 10
11.9001680902
 20
20.0094477093
 30
0.0
 10
11.9905755513
 20
20.1159809712
 30
0.0
 10
12.0728166307
 20
20.2329538196
 30
0.0
 10
12.1726831933
 20
20.4048703044
 30
0.0
 10
12.2750436851
 20
20.6454369328
 30
0.0
 10
12.3593352959
 20
20.9635543016
 30
0.0
 10
12.4062704703
 20
21.3113707813
 30
0.0
 10
12.4153950963
 20
21.6842961213
 30
0.0
 10
12.386707981
 20
22.077493621
 30
0.0
 10
12.3206260014
 20
22.4858089325
 30
0.0
 10
12.2180522091
 20
22.9038638202
 30
0.0
 10
12.0803656757
 20
23.3261290691
 30
0.0
 10
11.9093931964
 20
23.747000589
 30
0.0
 10
11.7074047565
 20
24.1608601561
 30
0.0
 10
11.4770959907
 20
24.5622502384
 30
0.0
 10
11.2215371749
 20
24.9457336698
 30
0.0
 10
11.0348164481
 20
25.188430772
 30
0.0
 10
10.9379379191
 20
25.3054750386
 30
0.0
  0
SPLINE
  5
2B4
100
AcDbEntity
  8
0
100
AcDbSpline
 62
7
  6
BYLAYER
 70
0
 71
3
 72
15
 73
11
 74
0
 42
0.0000001
 43
0.0000001
 44
0.0000000001
 40
0.0
 40
0.0
 40
0.0
 40
0.0
 40
0.1278001289
 40
0.2573535416
 40
0.3873010791
 40
0.516396228
 40
0.6433563783
 40
0.7669797196
 40
0.8861747202
 40
1.0
 40
1.0
 40
1.0
 40
1.0
 10
19.9347315573
 20
30.2559180596
 30
0.0
 10
20.0178197282
 20
30.1555346814
 30
0.0
 10
20.1775854353
 20
29.9470231548
 30
0.0
 10
20.3949158976
 20
29.6169258559
 30
0.0
 10
20.5891026095
 20
29.2711665504
 30
0.0
 10
20.7572697476
 20
28.9149528305
 30
0.0
 10
20.896919216
 20
28.5535107439
 30
0.0
 10
21.0059911138
 20
28.1921889533
 30
0.0
 10
21.0828748556
 20
27.8363608647
 30
0.0
 10
21.1126541046
 20
27.6002345044
 30
0.0
 10
21.1214501542
 20
27.4845083911
 30
0.0
  0
SPLINE
  5
2B5
100
AcDbEntity
  8
0
100
AcDbSpline
 62
7
  6
BYLAYER
 70
0
 71
3
 72
17
 73
13
 74
0
 42
0.0000001
 43
0.0000001
 44
0.0000000001
 40
0.0
 40
0.0
 40
0.0
 40
0.0
 40
0.1512359795
 40
0.2942769893
 40
0.4289082853
 40
0.5553135112
 40
0.6741542715
 40
0.7866165968
 40
0.8410282652
 40
0.8945353335
 40
0.9474247176
 40
1.0
 40
1.0
 40
1.0
 40
1.0
 10
21.1214501542
 20
27.4845083911
 30
0.0
 10
21.1289283353
 20
27.3861209476
 30
0.0
 10
21.1353883941
 20
27.1939226158
 30
0.0
 10
21.1178642504
 20
26.9141718958
 30
0.0
 10
21.072987875
 20
26.6537952085
 30
0.0
 10
21.0011160542
 20
26.4158581242
 30
0.0
 10
20.9029501755
 20
26.203221999
 30
0.0
 10
20.7987084266
 20
26.0475374639
 30
0.0
 10
20.7035816075
 20
25.9394987517
 30
0.0
 10
20.627324913
 20
25.8672183354
 30
0.0
 10
20.5456502201
 20
25.8030578905
 30
0.0
 10
20.4876590905
 20
25.7657944256
 30
0.0
 10
20.4579517278
 20
25.7486454658
 30
0.0
  0
SPLINE
  5
2B6
100
AcDbEntity
  8
0
100
AcDbSpline
 62
7
  6
BYLAYER
 70
0
 71
3
 72
11
 73
7
 74
0
 42
0.0000001
 43
0.0000001
 44
0.0000000001
 40
0.0
 40
0.0
 40
0.0
 40
0.0
 40
0.2224420291
 40
0.4618007538
 40
0.720675398
 40
1.0
 40
1.0
 40
1.0
 40
1.0
 10
35.6381575206
 20
41.0708996891
 30
0.0
 10
35.7090977676
 20
41.0798504362
 30
0.0
 10
35.8587161782
 20
41.0821506771
 30
0.0
 10
36.0880251126
 20
41.0423993311
 30
0.0
 10
36.3252508353
 20
40.9609076089
 30
0.0
 10
36.4802130009
 20
40.8828068187
 30
0.0
 10
36.5579687335
 20
40.8379091801
 30
0.0
  0
SPLINE
  5
2B7
100
AcDbEntity
  8
0
100
AcDbSpline
 62
7
  6
BYLAYER
 70
0
 71
3
 72
15
 73
11
 74
0
 42
0.0000001
 43
0.0000001
 44
0.0000000001
 40
0.0
 40
0.0
 40
0.0
 40
0.0
 40
0.1293401514
 40
0.2605193122
 40
0.3918469512
 40
0.5218332695
 40
0.6489544617
 40
0.771802679
 40
0.8891497382
 40
1.0
 40
1.0
 40
1.0
 40
1.0
 10
37.4790590929
 20
40.0762320326
 30
0.0
 10
37.5433932567
 20
39.9985063993
 30
0.0
 10
37.6665774151
 20
39.8365462635
 30
0.0
 10
37.8322832375
 20
39.5793406169
 30
0.0
 10
37.9779588318
 20
39.3096866835
 30
0.0
 10
38.1010148086
 20
39.0324438481
 30
0.0
 10
38.1993067462
 20
38.7524658291
 30
0.0
 10
38.271092597
 20
38.4746737438
 30
0.0
 10
38.3150872939
 20
38.203987709
 30
0.0
 10
38.325688568
 20
38.0258693233
 30
0.0
 10
38.3256879353
 20
37.9393963022
 30
0.0
  0
SPLINE
  5
2B8
100
AcDbEntity
  8
0
100
AcDbSpline
 62
7
  6
BYLAYER
 70
0
 71
3
 72
9
 73
5
 74
0
 42
0.0000001
 43
0.0000001
 44
0.0000000001
 40
0.0
 40
0.0
 40
0.0
 40
0.0
 40
0.4850247003
 40
1.0
 40
1.0
 40
1.0
 40
1.0
 10
36.6993858767
 20
40.7562578778
 30
0.0
 10
36.7794277411
 20
40.7100402157
 30
0.0
 10
36.9384937061
 20
40.6042151805
 30
0.0
 10
37.0851658009
 20
40.4820017536
 30
0.0
 10
37.1575174805
 20
40.4157022403
 30
0.0
  0
SPLINE
  5
2B9
100
AcDbEntity
  8
0
100
AcDbSpline
 62
7
  6
BYLAYER
 70
0
 71
3
 72
9
 73
5
 74
0
 42
0.0000001
 43
0.0000001
 44
0.0000000001
 40
0.0
 40
0.0
 40
0.0
 40
0.0
 40
0.2452595224
 40
1.0
 40
1.0
 40
1.0
 40
1.0
 10
37.1575174805
 20
40.4157022403
 30
0.0
 10
37.1814570253
 20
40.3937652214
 30
0.0
 10
37.2776560845
 20
40.3027899172
 30
0.0
 10
37.3682730777
 20
40.2059491712
 30
0.0
 10
37.4334730468
 20
40.1302301877
 30
0.0
  0
SPLINE
  5
2BA
100
AcDbEntity
  8
0
100
AcDbSpline
 62
7
  6
BYLAYER
 70
0
 71
3
 72
15
 73
11
 74
0
 42
0.0000001
 43
0.0000001
 44
0.0000000001
 40
0.0
 40
0.0
 40
0.0
 40
0.0
 40
0.1486040989
 40
0.2895002429
 40
0.422721321
 40
0.5486433892
 40
0.6679996805
 40
0.781939048
 40
0.8919871057
 40
1.0
 40
1.0
 40
1.0
 40
1.0
 10
38.3256955064
 20
37.776096974
 30
0.0
 10
38.3256988176
 20
37.7109796372
 30
0.0
 10
38.3204469108
 20
37.5840351175
 30
0.0
 10
38.2954622832
 20
37.4001995588
 30
0.0
 10
38.253710879
 20
37.229578494
 30
0.0
 10
38.1955572279
 20
37.0737960498
 30
0.0
 10
38.1213899084
 20
36.9343899172
 30
0.0
 10
38.0318508676
 20
36.812747296
 30
0.0
 10
37.9277055593
 20
36.7102824493
 30
0.0
 10
37.848908113
 20
36.6552777032
 30
0.0
 10
37.8079177578
 20
36.6316140041
 30
0.0
  0
SPLINE
  5
2BB
100
AcDbEntity
  8
0
100
AcDbSpline
 62
7
  6
BYLAYER
 70
0
 71
3
 72
11
 73
7
 74
0
 42
0.0000001
 43
0.0000001
 44
0.0000000001
 40
0.0
 40
0.0
 40
0.0
 40
0.0
 40
0.2644528889
 40
0.5204846026
 40
0.7661123403
 40
1.0
 40
1.0
 40
1.0
 40
1.0
 10
20.8160298781
 20
30.5370753817
 30
0.0
 10
20.7616542942
 20
30.6001937625
 30
0.0
 10
20.6502974057
 20
30.7207725404
 30
0.0
 10
20.4737113663
 20
30.8856314577
 30
0.0
 10
20.2920700138
 20
31.0299122823
 30
0.0
 10
20.1658238096
 20
31.1133316668
 30
0.0
 10
20.1024068892
 20
31.1508451363
 30
0.0
  0
SPLINE
  5
2BC
100
AcDbEntity
  8
0
100
AcDbSpline
 62
7
  6
BYLAYER
 70
0
 71
3
 72
17
 73
13
 74
0
 42
0.0000001
 43
0.0000001
 44
0.0000000001
 40
0.0
 40
0.0
 40
0.0
 40
0.0
 40
0.1570274606
 40
0.3067858387
 40
0.4472364023
 40
0.577067081
 40
0.6957938793
 40
0.8041185875
 40
0.8550779632
 40
0.9043677096
 40
0.952485714
 40
1.0
 40
1.0
 40
1.0
 40
1.0
 10
21.071340978
 20
30.6683086953
 30
0.0
 10
20.9897810586
 20
30.766845709
 30
0.0
 10
20.8210789005
 20
30.9518853266
 30
0.0
 10
20.548246407
 20
31.194386189
 30
0.0
 10
20.2669284382
 20
31.3907174555
 30
0.0
 10
19.9839732172
 20
31.5359105683
 30
0.0
 10
19.706129446
 20
31.6261220889
 30
0.0
 10
19.4793761966
 20
31.6534852953
 30
0.0
 10
19.3093773791
 20
31.6436852088
 30
0.0
 10
19.1901865199
 20
31.6216798919
 30
0.0
 10
19.0776426607
 20
31.5849195729
 30
0.0
 10
19.0073503196
 20
31.5506580893
 30
0.0
 10
18.9738305336
 20
31.5313071438
 30
0.0
  0
SPLINE
  5
2BD
100
AcDbEntity
  8
0
100
AcDbSpline
 62
7
  6
BYLAYER
 70
0
 71
3
 72
15
 73
11
 74
0
 42
0.0000001
 43
0.0000001
 44
0.0000000001
 40
0.0
 40
0.0
 40
0.0
 40
0.0
 40
0.1116375492
 40
0.2294776109
 40
0.3525369116
 40
0.4796208356
 40
0.6093697546
 40
0.7403298977
 40
0.8710820527
 40
1.0
 40
1.0
 40
1.0
 40
1.0
 10
21.7082968811
 20
28.3901899048
 30
0.0
 10
21.7065758894
 20
28.4756045481
 30
0.0
 10
21.6930430117
 20
28.6510739608
 30
0.0
 10
21.6461030394
 20
28.9171062987
 30
0.0
 10
21.5726933267
 20
29.1893349388
 30
0.0
 10
21.4740778394
 20
29.4631419814
 30
0.0
 10
21.3519395223
 20
29.7339245841
 30
0.0
 10
21.2082998733
 20
29.9971411895
 30
0.0
 10
21.0456091088
 20
30.2482477494
 30
0.0
 10
20.9250243205
 20
30.4064949487
 30
0.0
 10
20.8621189183
 20
30.4824944166
 30
0.0
  0
SPLINE
  5
2BE
100
AcDbEntity
  8
0
100
AcDbSpline
 62
7
  6
BYLAYER
 70
0
 71
3
 72
15
 73
11
 74
0
 42
0.0000001
 43
0.0000001
 44
0.0000000001
 40
0.0
 40
0.0
 40
0.0
 40
0.0
 40
0.1285684082
 40
0.2586301762
 40
0.3888415678
 40
0.517979228
 40
0.6447811339
 40
0.7680667073
 40
0.8867743299
 40
1.0
 40
1.0
 40
1.0
 40
1.0
 10
37.4416296795
 20
40.0543813935
 30
0.0
 10
37.5043103677
 20
39.9764088965
 30
0.0
 10
37.6246405822
 20
39.8148397211
 30
0.0
 10
37.7878498263
 20
39.5597831839
 30
0.0
 10
37.9330218957
 20
39.2935236127
 30
0.0
 10
38.0580275693
 20
39.0200060592
 30
0.0
 10
38.161049061
 20
38.7432025695
 30
0.0
 10
38.2405818491
 20
38.4671628564
 30
0.0
 10
38.2954371364
 20
38.1959443078
 30
0.0
 10
38.3155507058
 20
38.0162809284
 30
0.0
 10
38.3209441587
 20
37.9283419214
 30
0.0
  0
SPLINE
  5
2BF
100
AcDbEntity
  8
0
100
AcDbSpline
 62
7
  6
BYLAYER
 70
0
 71
3
 72
11
 73
7
 74
0
 42
0.0000001
 43
0.0000001
 44
0.0000000001
 40
0.0
 40
0.0
 40
0.0
 40
0.0
 40
0.2362676712
 40
0.482643734
 40
0.7378495252
 40
1.0
 40
1.0
 40
1.0
 40
1.0
 10
36.6940866786
 20
40.7532539497
 30
0.0
 10
36.7576408755
 20
40.7108932664
 30
0.0
 10
36.883763604
 20
40.618698101
 30
0.0
 10
37.06502593
 20
40.4633394372
 30
0.0
 10
37.2406218502
 20
40.2895108976
 30
0.0
 10
37.3514043015
 20
40.16403168
 30
0.0
 10
37.4054396176
 20
40.0987486497
 30
0.0
  0
SPLINE
  5
2C0
100
AcDbEntity
  8
0
100
AcDbSpline
 62
7
  6
BYLAYER
 70
0
 71
3
 72
23
 73
19
 74
0
 42
0.0000001
 43
0.0000001
 44
0.0000000001
 40
0.0
 40
0.0
 40
0.0
 40
0.0
 40
0.0435230654
 40
0.0881815425
 40
0.1349722497
 40
0.1846583319
 40
0.2377362553
 40
0.2944529327
 40
0.3548297187
 40
0.4187066795
 40
0.4857768097
 40
0.5556105204
 40
0.6276919633
 40
0.7014357886
 40
0.77619961
 40
0.8513251412
 40
0.9261732982
 40
1.0
 40
1.0
 40
1.0
 40
1.0
 10
21.4738191182
 20
27.2011740497
 30
0.0
 10
21.5222944317
 20
27.2291588092
 30
0.0
 10
21.6149788614
 20
27.2960611559
 30
0.0
 10
21.7337214169
 20
27.4240446443
 30
0.0
 10
21.8314492994
 20
27.5780895394
 30
0.0
 10
21.9070085497
 20
27.7557708791
 30
0.0
 10
21.9597215342
 20
27.9546136621
 30
0.0
 10
21.9890460574
 20
28.1719927218
 30
0.0
 10
21.9947487655
 20
28.4050725571
 30
0.0
 10
21.976824958
 20
28.6508215611
 30
0.0
 10
21.935514063
 20
28.9060162347
 30
0.0
 10
21.871414023
 20
29.1673020363
 30
0.0
 10
21.7853612287
 20
29.431220579
 30
0.0
 10
21.6784901853
 20
29.6942562827
 30
0.0
 10
21.5522647427
 20
29.9529233197
 30
0.0
 10
21.4083130426
 20
30.2038023104
 30
0.0
 10
21.2485750877
 20
30.4434740375
 30
0.0
 10
21.1318804694
 20
30.5951676138
 30
0.0
 10
21.071340978
 20
30.6683086953
 30
0.0
  0
ENDSEC
  0
SECTION
  2
OBJECTS
  0
DICTIONARY
  5
C
100
AcDbDictionary
280
0
281
1
  3
ACAD_GROUP
350
D
  3
ACAD_MLINESTYLE
350
17
  3
ACAD_LAYOUT
350
1A
  3
ACAD_PLOTSETTINGS
350
19
  3
ACAD_PLOTSTYLENAME
350
E
  0
DICTIONARY
  5
D
102
{ACAD_REACTORS
330
C
102
}
100
AcDbDictionary
280
0
281
1
  0
ACDBDICTIONARYWDFLT
  5
E
102
{ACAD_REACTORS
330
C
102
}
100
AcDbDictionary
281
1
  3
Normal
350
F
100
AcDbDictionaryWithDefault
340
F
  0
DICTIONARY
  5
17
102
{ACAD_REACTORS
330
C
102
}
100
AcDbDictionary
280
0
281
1
  3
Standard
350
18
  0
DICTIONARY
  5
19
102
{ACAD_REACTORS
330
C
102
}
100
AcDbDictionary
281
1
  0
DICTIONARY
  5
1A
102
{ACAD_REACTORS
330
C
102
}
100
AcDbDictionary
281
1
  3
Model
350
2C1
  3
Layout1
350
2C2
  0
ACDBPLACEHOLDER
  5
F
102
{ACAD_REACTORS
330
E
102
}
  0
MLINESTYLE
  5
18
102
{ACAD_REACTORS
330
17
102
}
100
AcDbMlineStyle
  2
STANDARD
 70
0
  3

 62
256
 51
90.0
 52
90.0
 71
2
 49
0.5
 62
256
  6
BYLAYER
 49
-0.5
 62
256
  6
BYLAYER
  0
LAYOUT
  5
2C1
102
{ACAD_REACTORS
330
1A
102
}
100
AcDbPlotSettings
  1

  2
none_device
  4

  6

 40
0.0
 41
0.0
 42
0.0
 43
0.0
 44
210.0
 45
297.0
 46
0.0
 47
0.0
 48
0.0
 49
0.0
140
0.0
141
0.0
142
1.0
143
1.0
 70
1024
 72
1
 73
0
 74
0
  7

 75
0
147
1.0
148
0.0
149
0.0
100
AcDbLayout
  1
Model
 70
0
 71
0
 10
0.0
 20
0.0
 11
210.0
 21
297.0
 12
0.0
 22
0.0
 32
0.0
 14
0.0
 24
0.0
 34
0.0
 15
0.0
 25
0.0
 35
0.0
146
0.0
 13
0.0
 23
0.0
 33
0.0
 16
1.0
 26
0.0
 36
0.0
 17
0.0
 27
1.0
 37
0.0
 76
0
330
210
345
0
346
0
  0
LAYOUT
  5
2C2
102
{ACAD_REACTORS
330
1A
102
}
100
AcDbPlotSettings
  1

  2
none_device
  4

  6

 40
0.0
 41
0.0
 42
0.0
 43
0.0
 44
210.0
 45
297.0
 46
0.0
 47
0.0
 48
0.0
 49
0.0
140
0.0
141
0.0
142
1.0
143
1.0
 70
0
 72
1
 73
0
 74
0
  7

 75
0
147
1.0
148
0.0
149
0.0
100
AcDbLayout
  1
Layout1
 70
0
 71
1
 10
0.0
 20
0.0
 11
210.0
 21
297.0
 12
0.0
 22
0.0
 32
0.0
 14
0.0
 24
0.0
 34
0.0
 15
0.0
 25
0.0
 35
0.0
146
0.0
 13
0.0
 23
0.0
 33
0.0
 16
1.0
 26
0.0
 36
0.0
 17
0.0
 27
1.0
 37
0.0
 76
0
330
211
345
0
346
0
  0
ENDSEC
  0
EOF
