999
DXF file: C:\Users\sesa63760\Dev\_Creo\CAD\MCADID0005029_3D-CAD\drw0001_7.dxf
999
Pro/ENGINEER 2019471 by Parametric Technology Corporation
  0
SECTION
  2
HEADER
  9
$ACADVER
  1
AC1024
  9
$DWGCODEPAGE
  3
ANSI_1252
  9
$EXTMAX
 10
33.1265487462
 20
46.8504046553
 30
0.0
  9
$EXTMIN
 10
0.0
 20
0.0
 30
0.0
  9
$LIMMIN
 10
0.0
 20
0.0
  9
$LIMMAX
 10
33.1265487462
 20
46.8504046553
  9
$VIEWCTR
 10
16.5632743731
 20
23.4252023277
  9
$VIEWSIZE
 40
46.8504046553
  9
$CLAYER
  8
0
  9
$LTSCALE
 40
3.0539523035
  9
$CELTYPE
  6
BYLAYER
  9
$DIMSCALE
 40
1.0
  9
$DIMASZ
 40
0.3943636755
  9
$DIMEXO
 40
1.0
  9
$DIMDLI
 40
2.1100034097
  9
$DIMEXE
 40
1.0
  9
$DIMCEN
 40
0.4997376497
  9
$DIMLFAC
 40
1.0
  9
$DIMBLK
  1
_FILLED
  9
$DIMALT
 70
0
  9
$DIMALTF
 40
0.0393700787
  9
$DIMTXT
 40
0.5521091458
  9
$DIMTOL
 70
1
  9
$DIMLIM
 70
0
  9
$DIMTFAC
 40
1.0
  9
$DIMTP
 40
0.01
  9
$DIMTM
 40
0.01
  9
$DIMGAP
 40
0.625
  9
$DIMDSEP
 70
46
  9
$AUNITS
 70
0
  9
$PDMODE
 70
3
  9
$PDSIZE
 40
0.3125
  9
$HANDSEED
  5
2A3
  9
$TILEMODE
 70
1
  9
$MEASUREMENT
 70
1
  9
$INSUNITS
 70
4
  0
ENDSEC
  0
SECTION
  2
CLASSES
  0
CLASS
  1
ACDBDICTIONARYWDFLT
  2
AcDbDictionaryWithDefault
  3
AutoCAD 2000
 90
0
 91
1
280
0
281
0
  0
CLASS
  1
ACDBPLACEHOLDER
  2
AcDbPlaceHolder
  3
AutoCAD 2000
 90
0
 91
1
280
0
281
0
  0
CLASS
  1
LAYOUT
  2
AcDbLayout
  3
AutoCAD 2000
 90
0
 91
0
280
0
281
0
  0
ENDSEC
  0
SECTION
  2
TABLES
  0
TABLE
  2
VPORT
  5
8
100
AcDbSymbolTable
 70
2
  0
VPORT
  5
1F4
100
AcDbSymbolTableRecord
100
AcDbViewportTableRecord
  2
*ACTIVE
 70
0
 10
0.0
 20
0.0
 11
1.0
 21
1.0
 12
16.5632743731
 22
23.4252023277
 13
0.0
 23
0.0
 14
1.0
 24
1.0
 15
0.0
 25
0.0
 16
0.0
 26
0.0
 36
1.0
 17
0.0
 27
0.0
 37
0.0
 40
46.8504046553
 41
0.7070707071
 42
50.0
 43
0.0
 44
0.0
 50
0.0
 51
0.0
 71
0
 72
100
 73
1
 74
1
 75
0
 76
0
 77
0
 78
0
  0
ENDTAB
  0
TABLE
  2
LTYPE
  5
5
100
AcDbSymbolTable
 70
6
  0
LTYPE
  5
14
100
AcDbSymbolTableRecord
100
AcDbLinetypeTableRecord
  2
BYBLOCK
 70
0
  3

 72
65
 73
0
 40
0.0
  0
LTYPE
  5
15
100
AcDbSymbolTableRecord
100
AcDbLinetypeTableRecord
  2
BYLAYER
 70
0
  3

 72
65
 73
0
 40
0.0
  0
LTYPE
  5
16
100
AcDbSymbolTableRecord
100
AcDbLinetypeTableRecord
  2
CONTINUOUS
 70
64
  3
Solid line
 72
65
 73
0
 40
0.0
  0
LTYPE
  5
1F5
100
AcDbSymbolTableRecord
100
AcDbLinetypeTableRecord
  2
CENTER
 70
64
  3
____ _ ____ _ ____ _ ____ _ ____ _ ____ _ ____
 72
65
 73
4
 40
0.6
 49
0.375
 74
0
 49
-0.075
 74
0
 49
0.075
 74
0
 49
-0.075
 74
0
  0
LTYPE
  5
1F6
100
AcDbSymbolTableRecord
100
AcDbLinetypeTableRecord
  2
HIDDEN
 70
64
  3
- - - - - - - - - - - - - - - - - - - -
 72
65
 73
2
 40
0.2
 49
0.1
 74
0
 49
-0.1
 74
0
  0
LTYPE
  5
1F7
100
AcDbSymbolTableRecord
100
AcDbLinetypeTableRecord
  2
PHANTOM
 70
64
  3
_____ _ _ _____ _ _ _____ _ _ _____
 72
65
 73
6
 40
0.8
 49
0.45
 74
0
 49
-0.05
 74
0
 49
0.1
 74
0
 49
-0.05
 74
0
 49
0.1
 74
0
 49
-0.05
 74
0
  0
LTYPE
  5
1F8
100
AcDbSymbolTableRecord
100
AcDbLinetypeTableRecord
  2
DOT
 70
64
  3
. . . . . . . . . . . . . . . . . . . .
 72
65
 73
2
 40
0.2
 49
0.1
 74
0
 49
-0.1
 74
0
  0
LTYPE
  5
1F9
100
AcDbSymbolTableRecord
100
AcDbLinetypeTableRecord
  2
DASHED
 70
64
  3
- - - - - - - - - - - - - - - - - - - -
 72
65
 73
2
 40
0.2
 49
0.1
 74
0
 49
-0.1
 74
0
  0
ENDTAB
  0
TABLE
  2
LAYER
  5
2
100
AcDbSymbolTable
 70
36
  0
LAYER
  5
10
100
AcDbSymbolTableRecord
100
AcDbLayerTableRecord
  2
0
 70
0
 62
7
  6
CONTINUOUS
370
-3
390
F
  0
LAYER
  5
1FA
100
AcDbSymbolTableRecord
100
AcDbLayerTableRecord
  2
DEFAULT_1
 70
0
 62
7
  6
CENTER
370
-3
390
F
  0
LAYER
  5
1FB
100
AcDbSymbolTableRecord
100
AcDbLayerTableRecord
  2
DEFAULT_2
 70
0
 62
7
  6
HIDDEN
370
-3
390
F
  0
LAYER
  5
1FC
100
AcDbSymbolTableRecord
100
AcDbLayerTableRecord
  2
DEFAULT_3
 70
0
 62
7
  6
PHANTOM
370
-3
390
F
  0
LAYER
  5
1FD
100
AcDbSymbolTableRecord
100
AcDbLayerTableRecord
  2
00_COMPONENTS
 70
0
 62
7
  6
CONTINUOUS
370
-3
390
F
  0
LAYER
  5
1FE
100
AcDbSymbolTableRecord
100
AcDbLayerTableRecord
  2
01_1_DEFAULT_DATUMS
 70
0
 62
7
  6
CONTINUOUS
370
-3
390
F
  0
LAYER
  5
1FF
100
AcDbSymbolTableRecord
100
AcDbLayerTableRecord
  2
01_PLANES
 70
0
 62
7
  6
CONTINUOUS
370
-3
390
F
  0
LAYER
  5
200
100
AcDbSymbolTableRecord
100
AcDbLayerTableRecord
  2
02_COORD_SYS
 70
0
 62
7
  6
CONTINUOUS
370
-3
390
F
  0
LAYER
  5
201
100
AcDbSymbolTableRecord
100
AcDbLayerTableRecord
  2
03_AXES
 70
0
 62
7
  6
CONTINUOUS
370
-3
390
F
  0
LAYER
  5
202
100
AcDbSymbolTableRecord
100
AcDbLayerTableRecord
  2
04_POINTS
 70
0
 62
7
  6
CONTINUOUS
370
-3
390
F
  0
LAYER
  5
203
100
AcDbSymbolTableRecord
100
AcDbLayerTableRecord
  2
05_CURVES
 70
0
 62
7
  6
CONTINUOUS
370
-3
390
F
  0
LAYER
  5
204
100
AcDbSymbolTableRecord
100
AcDbLayerTableRecord
  2
06_SURFS
 70
0
 62
7
  6
CONTINUOUS
370
-3
390
F
  0
LAYER
  5
205
100
AcDbSymbolTableRecord
100
AcDbLayerTableRecord
  2
07_COSMETICS
 70
0
 62
7
  6
CONTINUOUS
370
-3
390
F
  0
LAYER
  5
206
100
AcDbSymbolTableRecord
100
AcDbLayerTableRecord
  2
10_NOTES
 70
0
 62
7
  6
CONTINUOUS
370
-3
390
F
  0
LAYER
  5
207
100
AcDbSymbolTableRecord
100
AcDbLayerTableRecord
  2
11_NOTES_PUB
 70
0
 62
7
  6
CONTINUOUS
370
-3
390
F
  0
LAYER
  5
208
100
AcDbSymbolTableRecord
100
AcDbLayerTableRecord
  2
13_REF_GTOL
 70
0
 62
7
  6
CONTINUOUS
370
-3
390
F
  0
LAYER
  5
209
100
AcDbSymbolTableRecord
100
AcDbLayerTableRecord
  2
16_MISC
 70
0
 62
7
  6
CONTINUOUS
370
-3
390
F
  0
LAYER
  5
20A
100
AcDbSymbolTableRecord
100
AcDbLayerTableRecord
  2
17_NO_PRINT
 70
0
 62
7
  6
CONTINUOUS
370
-3
390
F
  0
LAYER
  5
20B
100
AcDbSymbolTableRecord
100
AcDbLayerTableRecord
  2
18_DATUM_CAMS_JOINTS
 70
0
 62
7
  6
CONTINUOUS
370
-3
390
F
  0
LAYER
  5
20C
100
AcDbSymbolTableRecord
100
AcDbLayerTableRecord
  2
19_DATUM_FUNCTIONAL
 70
0
 62
7
  6
CONTINUOUS
370
-3
390
F
  0
LAYER
  5
20D
100
AcDbSymbolTableRecord
100
AcDbLayerTableRecord
  2
20_DATUM_KINEMATIC_SCHEME
 70
0
 62
7
  6
CONTINUOUS
370
-3
390
F
  0
LAYER
  5
20E
100
AcDbSymbolTableRecord
100
AcDbLayerTableRecord
  2
NONE
 70
0
 62
7
  6
CONTINUOUS
370
-3
390
F
  0
ENDTAB
  0
TABLE
  2
STYLE
  5
3
100
AcDbSymbolTable
 70
1
  0
STYLE
  5
11
100
AcDbSymbolTableRecord
100
AcDbTextStyleTableRecord
  2
STANDARD
 70
0
 40
0.0
 41
1.0
 50
0.0
 71
0
 42
0.2
  3
ARIAL.TTF
  4

  0
STYLE
  5
20F
100
AcDbSymbolTableRecord
100
AcDbTextStyleTableRecord
  2
TEXTSTYLE_1
 70
0
 40
0.0
 41
0.8
 50
0.0
 71
0
 42
0.2
  3
gdt
  4

  0
ENDTAB
  0
TABLE
  2
VIEW
  5
6
100
AcDbSymbolTable
 70
0
  0
ENDTAB
  0
TABLE
  2
UCS
  5
7
100
AcDbSymbolTable
 70
0
  0
ENDTAB
  0
TABLE
  2
APPID
  5
9
100
AcDbSymbolTable
 70
1
  0
APPID
  5
210
100
AcDbSymbolTableRecord
100
AcDbRegAppTableRecord
  2
ACAD
 70
0
  0
ENDTAB
  0
TABLE
  2
BLOCK_RECORD
  5
1
100
AcDbSymbolTable
 70
0
  0
BLOCK_RECORD
  5
211
100
AcDbSymbolTableRecord
100
AcDbBlockTableRecord
  2
*Model_Space
  0
BLOCK_RECORD
  5
212
100
AcDbSymbolTableRecord
100
AcDbBlockTableRecord
  2
*Paper_Space
  0
BLOCK_RECORD
  5
213
100
AcDbSymbolTableRecord
100
AcDbBlockTableRecord
  2
_FILLED
  0
ENDTAB
  0
TABLE
  2
DIMSTYLE
  5
A
100
AcDbSymbolTable
 70
1
100
AcDbDimStyleTable
 71
0
  0
DIMSTYLE
105
214
100
AcDbSymbolTableRecord
100
AcDbDimStyleTableRecord
  2
STANDARD
 70
0
  3

  4

 40
1.0
 41
0.3943636755
 42
1.0
 43
0.38
 44
1.0
 45
0.0
 46
0.0
 47
0.01
 48
0.01
140
0.5521091458
141
0.09
142
0.0
143
25.4
144
1.0
145
0.0
146
1.0
147
0.625
 71
1
 72
0
 73
0
 74
0
 75
0
 76
0
 77
1
 78
8
 79
2
170
0
171
1
172
0
173
0
174
0
175
0
176
0
177
0
178
0
270
2
179
2
271
2
272
2
273
2
274
2
275
0
280
0
281
0
282
0
283
1
284
8
285
0
286
0
287
3
288
0
340
11
278
46
341
213
342
213
343
213
344
213
  0
ENDTAB
  0
ENDSEC
  0
SECTION
  2
BLOCKS
  0
BLOCK
  5
20
100
AcDbEntity
  8
0
100
AcDbBlockBegin
  2
*Model_Space
 70
0
 10
0.0
 20
0.0
 30
0.0
  3
*Model_Space
  1

  0
ENDBLK
  5
21
100
AcDbEntity
  8
0
100
AcDbBlockEnd
  0
BLOCK
  5
1C
100
AcDbEntity
  8
0
100
AcDbBlockBegin
  2
*Paper_Space
 70
0
 10
0.0
 20
0.0
 30
0.0
  3
*Paper_Space
  1

  0
ENDBLK
  5
1D
100
AcDbEntity
  8
0
100
AcDbBlockEnd
  0
BLOCK
  5
215
100
AcDbEntity
  8
0
100
AcDbBlockBegin
  2
_FILLED
 70
64
 10
0.0
 20
0.0
  3
_FILLED
  1

  0
SOLID
  5
216
100
AcDbEntity
  8
0
  6
BYBLOCK
 62
0
100
AcDbTrace
 10
0.0
 20
0.0
 11
-1.0
 21
0.25
 12
-1.0
 22
-0.25
 13
-1.0
 23
-0.25
  0
ENDBLK
  5
217
100
AcDbEntity
  8
0
  6
BYBLOCK
 62
0
100
AcDbBlockEnd
  0
ENDSEC
  0
SECTION
  2
ENTITIES
  0
LINE
  5
218
100
AcDbEntity
  8
0
100
AcDbLine
 62
7
  6
BYLAYER
 10
3.5174150596
 20
30.2895003146
 11
4.3206188096
 21
31.3604386479
  0
LINE
  5
219
100
AcDbEntity
  8
0
100
AcDbLine
 62
7
  6
BYLAYER
 10
4.1699572616
 20
20.1718612189
 11
3.5772378046
 21
30.1830853521
  0
LINE
  5
21A
100
AcDbEntity
  8
0
100
AcDbLine
 62
7
  6
BYLAYER
 10
3.8281209453
 20
14.1642598958
 11
3.81345231
 21
16.5223945197
  0
LINE
  5
21B
100
AcDbEntity
  8
0
100
AcDbLine
 62
7
  6
BYLAYER
 10
3.5174150596
 20
16.1585061213
 11
3.5174150596
 21
30.2895003146
  0
LINE
  5
21C
100
AcDbEntity
  8
0
100
AcDbLine
 62
7
  6
BYLAYER
 10
3.9548117738
 20
20.3585061213
 11
3.9548117738
 21
15.5585061213
  0
LINE
  5
21D
100
AcDbEntity
  8
0
100
AcDbLine
 62
7
  6
BYLAYER
 10
4.2755365403
 20
15.2934925828
 11
4.2755365403
 21
14.3882388873
  0
LINE
  5
21E
100
AcDbEntity
  8
0
100
AcDbLine
 62
7
  6
BYLAYER
 10
4.3206188096
 20
31.3604386479
 11
4.3206188096
 21
36.7604386479
  0
LINE
  5
21F
100
AcDbEntity
  8
0
100
AcDbLine
 62
7
  6
BYLAYER
 10
3.805236632
 20
16.7411165543
 11
3.7145546945
 21
12.9623690427
  0
LINE
  5
220
100
AcDbEntity
  8
0
100
AcDbLine
 62
7
  6
BYLAYER
 10
14.8206188096
 20
10.3193437533
 11
18.4206188096
 21
10.3193437533
  0
LINE
  5
221
100
AcDbEntity
  8
0
100
AcDbLine
 62
7
  6
BYLAYER
 10
18.4206188096
 20
10.9545669596
 11
14.8206188096
 21
10.9545669596
  0
LINE
  5
222
100
AcDbEntity
  8
0
100
AcDbLine
 62
7
  6
BYLAYER
 10
5.5603270258
 20
35.0085061213
 11
5.5603270258
 21
31.8969717783
  0
LINE
  5
223
100
AcDbEntity
  8
0
100
AcDbLine
 62
7
  6
BYLAYER
 10
6.1657245982
 20
20.2458735273
 11
5.5773870764
 21
30.1830853521
  0
LINE
  5
224
100
AcDbEntity
  8
0
100
AcDbLine
 62
7
  6
BYLAYER
 10
5.7147039664
 20
12.9623690427
 11
5.7174034353
 21
13.0748568411
  0
LINE
  5
225
100
AcDbEntity
  8
0
100
AcDbLine
 62
7
  6
BYLAYER
 10
29.688433385
 20
12.9623690427
 11
27.5265336529
 21
12.9623690427
  0
LINE
  5
226
100
AcDbEntity
  8
0
100
AcDbLine
 62
7
  6
BYLAYER
 10
3.5528042342
 20
12.9623690427
 11
5.7147039664
 21
12.9623690427
  0
LINE
  5
227
100
AcDbEntity
  8
0
100
AcDbLine
 62
7
  6
BYLAYER
 10
3.8498969547
 20
13.071673695
 11
5.8500462265
 21
13.071673695
  0
LINE
  5
228
100
AcDbEntity
  8
0
100
AcDbLine
 62
7
  6
BYLAYER
 10
27.3911913927
 20
13.071673695
 11
29.3913406646
 21
13.071673695
  0
LINE
  5
229
100
AcDbEntity
  8
0
100
AcDbLine
 62
7
  6
BYLAYER
 10
14.8206188096
 20
13.7950976711
 11
18.4206188096
 21
13.7950976711
  0
LINE
  5
22A
100
AcDbEntity
  8
0
100
AcDbLine
 62
7
  6
BYLAYER
 10
6.1657245982
 20
13.8318489829
 11
27.0755130211
 21
13.8318489829
  0
LINE
  5
22B
100
AcDbEntity
  8
0
100
AcDbLine
 62
7
  6
BYLAYER
 10
4.2719790839
 20
14.0883689435
 11
28.9692585354
 21
14.0883689435
  0
LINE
  5
22C
100
AcDbEntity
  8
0
100
AcDbLine
 62
7
  6
BYLAYER
 10
28.9657010789
 20
14.3882388873
 11
4.2755365403
 21
14.3882388873
  0
LINE
  5
22D
100
AcDbEntity
  8
0
100
AcDbLine
 62
7
  6
BYLAYER
 10
3.8506164035
 20
13.0725407367
 11
4.2719790839
 21
14.0883689435
  0
LINE
  5
22E
100
AcDbEntity
  8
0
100
AcDbLine
 62
7
  6
BYLAYER
 10
4.2755365403
 20
15.2934925828
 11
28.9657010789
 21
15.2934925828
  0
LINE
  5
22F
100
AcDbEntity
  8
0
100
AcDbLine
 62
7
  6
BYLAYER
 10
3.9548117738
 20
15.5585061213
 11
4.049382977
 21
15.5585061213
  0
LINE
  5
230
100
AcDbEntity
  8
0
100
AcDbLine
 62
7
  6
BYLAYER
 10
29.1918546423
 20
15.5585061213
 11
29.2864258454
 21
15.5585061213
  0
LINE
  5
231
100
AcDbEntity
  8
0
100
AcDbLine
 62
7
  6
BYLAYER
 10
28.968315373
 20
15.5808933893
 11
4.2729222463
 21
15.5808933893
  0
LINE
  5
232
100
AcDbEntity
  8
0
100
AcDbLine
 62
7
  6
BYLAYER
 10
4.2710565278
 20
15.6866149063
 11
28.9701810915
 21
15.6866149063
  0
LINE
  5
233
100
AcDbEntity
  8
0
100
AcDbLine
 62
7
  6
BYLAYER
 10
28.9740701558
 20
15.8443758536
 11
4.2671674635
 21
15.8443758536
  0
LINE
  5
234
100
AcDbEntity
  8
0
100
AcDbLine
 62
7
  6
BYLAYER
 10
28.9859154418
 20
15.9860326029
 11
4.2553221775
 21
15.9860326029
  0
LINE
  5
235
100
AcDbEntity
  8
0
100
AcDbLine
 62
7
  6
BYLAYER
 10
28.9977607277
 20
16.1276893523
 11
4.2434768915
 21
16.1276893523
  0
LINE
  5
236
100
AcDbEntity
  8
0
100
AcDbLine
 62
7
  6
BYLAYER
 10
5.9045007375
 20
24.6580293745
 11
7.310548051
 21
25.5719601282
  0
LINE
  5
237
100
AcDbEntity
  8
0
100
AcDbLine
 62
7
  6
BYLAYER
 10
29.0096060137
 20
16.2693461017
 11
4.2316316056
 21
16.2693461017
  0
LINE
  5
238
100
AcDbEntity
  8
0
100
AcDbLine
 62
7
  6
BYLAYER
 10
29.0214512996
 20
16.411002851
 11
4.2197863196
 21
16.411002851
  0
LINE
  5
239
100
AcDbEntity
  8
0
100
AcDbLine
 62
7
  6
BYLAYER
 10
29.0332965856
 20
16.5526596004
 11
4.2079410337
 21
16.5526596004
  0
LINE
  5
23A
100
AcDbEntity
  8
0
100
AcDbLine
 62
7
  6
BYLAYER
 10
5.8507656754
 20
13.0725407367
 11
6.1657245982
 21
13.8318489829
  0
LINE
  5
23B
100
AcDbEntity
  8
0
100
AcDbLine
 62
7
  6
BYLAYER
 10
4.1793067256
 20
19.4460109575
 11
29.0619308937
 21
19.4460109575
  0
LINE
  5
23C
100
AcDbEntity
  8
0
100
AcDbLine
 62
7
  6
BYLAYER
 10
29.0712803577
 20
20.1718612189
 11
4.1699572616
 21
20.1718612189
  0
LINE
  5
23D
100
AcDbEntity
  8
0
100
AcDbLine
 62
7
  6
BYLAYER
 10
6.1657245982
 20
20.2458735273
 11
27.0755130211
 21
20.2458735273
  0
LINE
  5
23E
100
AcDbEntity
  8
0
100
AcDbLine
 62
7
  6
BYLAYER
 10
29.2864258454
 20
20.3585061213
 11
29.1918546423
 21
20.3585061213
  0
LINE
  5
23F
100
AcDbEntity
  8
0
100
AcDbLine
 62
7
  6
BYLAYER
 10
4.049382977
 20
20.3585061213
 11
3.9548117738
 21
20.3585061213
  0
LINE
  5
240
100
AcDbEntity
  8
0
100
AcDbLine
 62
7
  6
BYLAYER
 10
14.8206188096
 20
10.3193437533
 11
14.8206188096
 21
13.8318489829
  0
LINE
  5
241
100
AcDbEntity
  8
0
100
AcDbLine
 62
7
  6
BYLAYER
 10
7.310548051
 20
27.0450521145
 11
5.7012441193
 21
28.09109967
  0
LINE
  5
242
100
AcDbEntity
  8
0
100
AcDbLine
 62
7
  6
BYLAYER
 10
18.4206188096
 20
10.3193437533
 11
18.4206188096
 21
13.8318489829
  0
LINE
  5
243
100
AcDbEntity
  8
0
100
AcDbLine
 62
7
  6
BYLAYER
 10
27.5399934999
 20
28.09109967
 11
25.9306895683
 21
27.0450521145
  0
LINE
  5
244
100
AcDbEntity
  8
0
100
AcDbLine
 62
7
  6
BYLAYER
 10
26.2590803481
 20
25.3585061213
 11
6.9821572712
 21
25.3585061213
  0
LINE
  5
245
100
AcDbEntity
  8
0
100
AcDbLine
 62
7
  6
BYLAYER
 10
25.9306895683
 20
25.5719601282
 11
7.310548051
 21
25.5719601282
  0
LINE
  5
246
100
AcDbEntity
  8
0
100
AcDbLine
 62
7
  6
BYLAYER
 10
7.310548051
 20
27.0450521145
 11
25.9306895683
 21
27.0450521145
  0
LINE
  5
247
100
AcDbEntity
  8
0
100
AcDbLine
 62
7
  6
BYLAYER
 10
26.2590803481
 20
27.2585061213
 11
6.9821572712
 21
27.2585061213
  0
LINE
  5
248
100
AcDbEntity
  8
0
100
AcDbLine
 62
7
  6
BYLAYER
 10
27.3904719439
 20
13.0725407367
 11
27.0755130211
 21
13.8318489829
  0
LINE
  5
249
100
AcDbEntity
  8
0
100
AcDbLine
 62
7
  6
BYLAYER
 10
3.5772378046
 20
30.1830853521
 11
5.5773870764
 21
30.1830853521
  0
LINE
  5
24A
100
AcDbEntity
  8
0
100
AcDbLine
 62
7
  6
BYLAYER
 10
27.6638505429
 20
30.1830853521
 11
29.6639998147
 21
30.1830853521
  0
LINE
  5
24B
100
AcDbEntity
  8
0
100
AcDbLine
 62
7
  6
BYLAYER
 10
25.9306895683
 20
25.5719601282
 11
27.3367368817
 21
24.6580293745
  0
LINE
  5
24C
100
AcDbEntity
  8
0
100
AcDbLine
 62
7
  6
BYLAYER
 10
28.9206188096
 20
31.8969717783
 11
27.6809105935
 21
31.8969717783
  0
LINE
  5
24D
100
AcDbEntity
  8
0
100
AcDbLine
 62
7
  6
BYLAYER
 10
5.5603270258
 20
31.8969717783
 11
4.3206188096
 21
31.8969717783
  0
LINE
  5
24E
100
AcDbEntity
  8
0
100
AcDbLine
 62
7
  6
BYLAYER
 10
28.9692585354
 20
14.0883689435
 11
29.3906212157
 21
13.0725407367
  0
LINE
  5
24F
100
AcDbEntity
  8
0
100
AcDbLine
 62
7
  6
BYLAYER
 10
27.5265336529
 20
12.9623690427
 11
27.523834184
 21
13.0748568411
  0
LINE
  5
250
100
AcDbEntity
  8
0
100
AcDbLine
 62
7
  6
BYLAYER
 10
27.6809105935
 20
35.0085061213
 11
27.6809105935
 21
31.8969717783
  0
LINE
  5
251
100
AcDbEntity
  8
0
100
AcDbLine
 62
7
  6
BYLAYER
 10
27.0755130211
 20
20.2458735273
 11
27.6638505429
 21
30.1830853521
  0
LINE
  5
252
100
AcDbEntity
  8
0
100
AcDbLine
 62
7
  6
BYLAYER
 10
28.9206188096
 20
36.7604386479
 11
28.9206188096
 21
31.3604386479
  0
LINE
  5
253
100
AcDbEntity
  8
0
100
AcDbLine
 62
7
  6
BYLAYER
 10
28.9657010789
 20
15.2934925828
 11
28.9657010789
 21
14.3882388873
  0
LINE
  5
254
100
AcDbEntity
  8
0
100
AcDbLine
 62
7
  6
BYLAYER
 10
4.3206188096
 20
35.0085061213
 11
5.5603270258
 21
35.0085061213
  0
LINE
  5
255
100
AcDbEntity
  8
0
100
AcDbLine
 62
7
  6
BYLAYER
 10
27.6809105935
 20
35.0085061213
 11
28.9206188096
 21
35.0085061213
  0
LINE
  5
256
100
AcDbEntity
  8
0
100
AcDbLine
 62
7
  6
BYLAYER
 10
29.4360009873
 20
16.7411165543
 11
29.5266829247
 21
12.9623690427
  0
LINE
  5
257
100
AcDbEntity
  8
0
100
AcDbLine
 62
7
  6
BYLAYER
 10
29.2864258454
 20
20.3585061213
 11
29.2864258454
 21
15.5585061213
  0
LINE
  5
258
100
AcDbEntity
  8
0
100
AcDbLine
 62
7
  6
BYLAYER
 10
29.7238225596
 20
16.1585061213
 11
29.7238225596
 21
30.2895003146
  0
LINE
  5
259
100
AcDbEntity
  8
0
100
AcDbLine
 62
7
  6
BYLAYER
 10
29.413116674
 20
14.1642598958
 11
29.4277853093
 21
16.5223945197
  0
LINE
  5
25A
100
AcDbEntity
  8
0
100
AcDbLine
 62
7
  6
BYLAYER
 10
29.6639998147
 20
30.1830853521
 11
29.0712803577
 21
20.1718612189
  0
LINE
  5
25B
100
AcDbEntity
  8
0
100
AcDbLine
 62
7
  6
BYLAYER
 10
28.9206188096
 20
36.7604386479
 11
27.7022919406
 21
36.7604386479
  0
LINE
  5
25C
100
AcDbEntity
  8
0
100
AcDbLine
 62
7
  6
BYLAYER
 10
5.5389456786
 20
36.7604386479
 11
4.3206188096
 21
36.7604386479
  0
LINE
  5
25D
100
AcDbEntity
  8
0
100
AcDbLine
 62
7
  6
BYLAYER
 10
29.7238225596
 20
30.2895003146
 11
28.9206188096
 21
31.3604386479
  0
ARC
  5
25E
100
AcDbEntity
  8
0
100
AcDbCircle
 62
7
  6
BYLAYER
 10
-7.5038954053
 20
16.2887645191
 40
11.7162062342
100
AcDbArc
 50
0.519035001
 51
0.9337847645
  0
ARC
  5
25F
100
AcDbEntity
  8
0
100
AcDbCircle
 62
7
  6
BYLAYER
 10
-7.4920114608
 20
16.1471081143
 40
11.7161675741
100
AcDbArc
 50
0.5190350261
 51
0.9337859213
  0
ARC
  5
260
100
AcDbEntity
  8
0
100
AcDbCircle
 62
7
  6
BYLAYER
 10
-7.4801661118
 20
16.005451366
 40
11.716167511
100
AcDbArc
 50
0.5190350262
 51
0.9337859213
  0
ARC
  5
261
100
AcDbEntity
  8
0
100
AcDbCircle
 62
7
  6
BYLAYER
 10
-7.4564755398
 20
15.7221378672
 40
11.716167511
100
AcDbArc
 50
0.5190350262
 51
0.9337859213
  0
ARC
  5
262
100
AcDbEntity
  8
0
100
AcDbCircle
 62
7
  6
BYLAYER
 10
-7.4683207933
 20
15.8637946171
 40
11.7161674785
100
AcDbArc
 50
0.5190350263
 51
0.9337859212
  0
SPLINE
  5
263
100
AcDbEntity
  8
0
100
AcDbSpline
 62
7
  6
BYLAYER
 70
0
 71
3
 72
18
 73
14
 74
0
 42
0.0000001
 43
0.0000001
 44
0.0000000001
 40
0.0
 40
0.0
 40
0.0
 40
0.0
 40
0.0047521496
 40
0.0171113293
 40
0.0373942234
 40
0.0656211732
 40
0.1017748802
 40
0.1458249775
 40
0.2573338342
 40
0.3994756406
 40
0.5715040045
 40
0.7721912958
 40
1.0
 40
1.0
 40
1.0
 40
1.0
 10
4.2671674634
 20
15.8443761107
 30
0.0
 10
4.2670455777
 20
15.8443761107
 30
0.0
 10
4.2669114
 20
15.843784114
 30
0.0
 10
4.2667384625
 20
15.8429927143
 30
0.0
 10
4.2665628476
 20
15.8413561625
 30
0.0
 10
4.2663775715
 20
15.8392296218
 30
0.0
 10
4.2661930082
 20
15.8364402172
 30
0.0
 10
4.2659247339
 20
15.8315371134
 30
0.0
 10
4.2656092387
 20
15.8239033565
 30
0.0
 10
4.2652570446
 20
15.8129928495
 30
0.0
 10
4.2649146684
 20
15.7997911811
 30
0.0
 10
4.2645839888
 20
15.7843923577
 30
0.0
 10
4.2643856688
 20
15.7734037644
 30
0.0
 10
4.264287793
 20
15.7675616215
 30
0.0
  0
SPLINE
  5
264
100
AcDbEntity
  8
0
100
AcDbSpline
 62
7
  6
BYLAYER
 70
0
 71
3
 72
18
 73
14
 74
0
 42
0.0000001
 43
0.0000001
 44
0.0000000001
 40
0.0
 40
0.0
 40
0.0
 40
0.0
 40
0.0047521496
 40
0.0171113293
 40
0.0373942235
 40
0.0656211734
 40
0.1017748805
 40
0.1458249781
 40
0.2573338352
 40
0.399475642
 40
0.571504006
 40
0.772191297
 40
1.0
 40
1.0
 40
1.0
 40
1.0
 10
4.2553221775
 20
15.9860328601
 30
0.0
 10
4.2552002917
 20
15.9860328601
 30
0.0
 10
4.2550661141
 20
15.9854408634
 30
0.0
 10
4.2548931766
 20
15.9846494637
 30
0.0
 10
4.2547175616
 20
15.9830129118
 30
0.0
 10
4.2545322855
 20
15.980886371
 30
0.0
 10
4.2543477222
 20
15.9780969664
 30
0.0
 10
4.254079448
 20
15.9731938625
 30
0.0
 10
4.2537639528
 20
15.9655601055
 30
0.0
 10
4.2534117586
 20
15.9546495982
 30
0.0
 10
4.2530693824
 20
15.9414479296
 30
0.0
 10
4.2527387028
 20
15.926049106
 30
0.0
 10
4.2525403828
 20
15.9150605125
 30
0.0
 10
4.252442507
 20
15.9092183696
 30
0.0
  0
SPLINE
  5
265
100
AcDbEntity
  8
0
100
AcDbSpline
 62
7
  6
BYLAYER
 70
0
 71
3
 72
18
 73
14
 74
0
 42
0.0000001
 43
0.0000001
 44
0.0000000001
 40
0.0
 40
0.0
 40
0.0
 40
0.0
 40
0.0047521496
 40
0.0171113293
 40
0.0373942234
 40
0.0656211732
 40
0.1017748802
 40
0.1458249775
 40
0.2573338342
 40
0.3994756406
 40
0.5715040045
 40
0.7721912958
 40
1.0
 40
1.0
 40
1.0
 40
1.0
 10
4.2434768915
 20
16.1276896094
 30
0.0
 10
4.2433550058
 20
16.1276896094
 30
0.0
 10
4.2432208281
 20
16.1270976127
 30
0.0
 10
4.2430478906
 20
16.1263062131
 30
0.0
 10
4.2428722757
 20
16.1246696612
 30
0.0
 10
4.2426869996
 20
16.1225431205
 30
0.0
 10
4.2425024362
 20
16.1197537159
 30
0.0
 10
4.242234162
 20
16.1148506122
 30
0.0
 10
4.2419186668
 20
16.1072168553
 30
0.0
 10
4.2415664727
 20
16.0963063482
 30
0.0
 10
4.2412240965
 20
16.0831046798
 30
0.0
 10
4.2408934169
 20
16.0677058564
 30
0.0
 10
4.2406950969
 20
16.0567172631
 30
0.0
 10
4.240597221
 20
16.0508751202
 30
0.0
  0
SPLINE
  5
266
100
AcDbEntity
  8
0
100
AcDbSpline
 62
7
  6
BYLAYER
 70
0
 71
3
 72
18
 73
14
 74
0
 42
0.0000001
 43
0.0000001
 44
0.0000000001
 40
0.0
 40
0.0
 40
0.0
 40
0.0
 40
0.2278087046
 40
0.4284959964
 40
0.6005243605
 40
0.742666167
 40
0.8541750235
 40
0.8982251208
 40
0.9343788277
 40
0.9626057772
 40
0.9828886712
 40
0.9952478506
 40
1.0
 40
1.0
 40
1.0
 40
1.0
 10
28.9769498263
 20
15.7675616215
 30
0.0
 10
28.9768519504
 20
15.7734037644
 30
0.0
 10
28.9766536305
 20
15.7843923577
 30
0.0
 10
28.9763229509
 20
15.7997911811
 30
0.0
 10
28.9759805747
 20
15.8129928496
 30
0.0
 10
28.9756283805
 20
15.8239033566
 30
0.0
 10
28.9753128853
 20
15.8315371135
 30
0.0
 10
28.9750446111
 20
15.8364402172
 30
0.0
 10
28.9748600478
 20
15.8392296218
 30
0.0
 10
28.9746747717
 20
15.8413561625
 30
0.0
 10
28.9744991567
 20
15.8429927144
 30
0.0
 10
28.9743262192
 20
15.843784114
 30
0.0
 10
28.9741920415
 20
15.8443761107
 30
0.0
 10
28.9740701558
 20
15.8443761107
 30
0.0
  0
SPLINE
  5
267
100
AcDbEntity
  8
0
100
AcDbSpline
 62
7
  6
BYLAYER
 70
0
 71
3
 72
18
 73
14
 74
0
 42
0.0000001
 43
0.0000001
 44
0.0000000001
 40
0.0
 40
0.0
 40
0.0
 40
0.0
 40
0.0047521496
 40
0.0171113293
 40
0.0373942236
 40
0.0656211736
 40
0.1017748808
 40
0.1458249786
 40
0.2573338362
 40
0.3994756434
 40
0.5715040075
 40
0.7721912981
 40
1.0
 40
1.0
 40
1.0
 40
1.0
 10
4.2316316056
 20
16.2693463588
 30
0.0
 10
4.2315097198
 20
16.2693463588
 30
0.0
 10
4.2313755422
 20
16.2687543621
 30
0.0
 10
4.2312026047
 20
16.2679629624
 30
0.0
 10
4.2310269897
 20
16.2663264105
 30
0.0
 10
4.2308417136
 20
16.2641998697
 30
0.0
 10
4.2306571503
 20
16.2614104649
 30
0.0
 10
4.230388876
 20
16.256507361
 30
0.0
 10
4.2300733808
 20
16.2488736038
 30
0.0
 10
4.2297211867
 20
16.2379630963
 30
0.0
 10
4.2293788105
 20
16.2247614275
 30
0.0
 10
4.2290481309
 20
16.2093626036
 30
0.0
 10
4.2288498109
 20
16.19837401
 30
0.0
 10
4.228751935
 20
16.192531867
 30
0.0
  0
SPLINE
  5
268
100
AcDbEntity
  8
0
100
AcDbSpline
 62
7
  6
BYLAYER
 70
0
 71
3
 72
18
 73
14
 74
0
 42
0.0000001
 43
0.0000001
 44
0.0000000001
 40
0.0
 40
0.0
 40
0.0
 40
0.0
 40
0.2278087035
 40
0.4284959948
 40
0.6005243591
 40
0.7426661659
 40
0.854175023
 40
0.8982251205
 40
0.9343788275
 40
0.9626057772
 40
0.9828886712
 40
0.9952478506
 40
1.0
 40
1.0
 40
1.0
 40
1.0
 10
28.9887951123
 20
15.9092183696
 30
0.0
 10
28.9886972364
 20
15.9150605125
 30
0.0
 10
28.9884989164
 20
15.926049106
 30
0.0
 10
28.9881682368
 20
15.9414479296
 30
0.0
 10
28.9878258607
 20
15.9546495983
 30
0.0
 10
28.9874736665
 20
15.9655601056
 30
0.0
 10
28.9871581713
 20
15.9731938626
 30
0.0
 10
28.9868898971
 20
15.9780969664
 30
0.0
 10
28.9867053337
 20
15.9808863711
 30
0.0
 10
28.9865200576
 20
15.9830129118
 30
0.0
 10
28.9863444427
 20
15.9846494637
 30
0.0
 10
28.9861715052
 20
15.9854408634
 30
0.0
 10
28.9860373275
 20
15.9860328601
 30
0.0
 10
28.9859154418
 20
15.9860328601
 30
0.0
  0
SPLINE
  5
269
100
AcDbEntity
  8
0
100
AcDbSpline
 62
7
  6
BYLAYER
 70
0
 71
3
 72
18
 73
14
 74
0
 42
0.0000001
 43
0.0000001
 44
0.0000000001
 40
0.0
 40
0.0
 40
0.0
 40
0.0
 40
0.2278087046
 40
0.4284959964
 40
0.6005243605
 40
0.742666167
 40
0.8541750235
 40
0.8982251208
 40
0.9343788277
 40
0.9626057772
 40
0.9828886712
 40
0.9952478506
 40
1.0
 40
1.0
 40
1.0
 40
1.0
 10
29.0006403982
 20
16.0508751202
 30
0.0
 10
29.0005425223
 20
16.0567172631
 30
0.0
 10
29.0003442024
 20
16.0677058564
 30
0.0
 10
29.0000135228
 20
16.0831046799
 30
0.0
 10
28.9996711466
 20
16.0963063483
 30
0.0
 10
28.9993189524
 20
16.1072168553
 30
0.0
 10
28.9990034572
 20
16.1148506122
 30
0.0
 10
28.998735183
 20
16.119753716
 30
0.0
 10
28.9985506197
 20
16.1225431206
 30
0.0
 10
28.9983653436
 20
16.1246696613
 30
0.0
 10
28.9981897286
 20
16.1263062131
 30
0.0
 10
28.9980167911
 20
16.1270976128
 30
0.0
 10
28.9978826135
 20
16.1276896094
 30
0.0
 10
28.9977607277
 20
16.1276896094
 30
0.0
  0
SPLINE
  5
26A
100
AcDbEntity
  8
0
100
AcDbSpline
 62
7
  6
BYLAYER
 70
0
 71
3
 72
18
 73
14
 74
0
 42
0.0000001
 43
0.0000001
 44
0.0000000001
 40
0.0
 40
0.0
 40
0.0
 40
0.0
 40
0.2278087035
 40
0.4284959948
 40
0.6005243591
 40
0.7426661659
 40
0.854175023
 40
0.8982251205
 40
0.9343788275
 40
0.9626057772
 40
0.9828886712
 40
0.9952478506
 40
1.0
 40
1.0
 40
1.0
 40
1.0
 10
29.0124856842
 20
16.1925318683
 30
0.0
 10
29.0123878083
 20
16.1983740113
 30
0.0
 10
29.0121894883
 20
16.2093626047
 30
0.0
 10
29.0118588088
 20
16.2247614284
 30
0.0
 10
29.0115164326
 20
16.237963097
 30
0.0
 10
29.0111642384
 20
16.2488736043
 30
0.0
 10
29.0108487432
 20
16.2565073614
 30
0.0
 10
29.010580469
 20
16.2614104652
 30
0.0
 10
29.0103959056
 20
16.2641998698
 30
0.0
 10
29.0102106295
 20
16.2663264106
 30
0.0
 10
29.0100350146
 20
16.2679629624
 30
0.0
 10
29.0098620771
 20
16.2687543621
 30
0.0
 10
29.0097278994
 20
16.2693463588
 30
0.0
 10
29.0096060137
 20
16.2693463588
 30
0.0
  0
SPLINE
  5
26B
100
AcDbEntity
  8
0
100
AcDbSpline
 62
7
  6
BYLAYER
 70
0
 71
3
 72
18
 73
14
 74
0
 42
0.0000001
 43
0.0000001
 44
0.0000000001
 40
0.0
 40
0.0
 40
0.0
 40
0.0
 40
0.0047521496
 40
0.0171113293
 40
0.0373942236
 40
0.0656211736
 40
0.1017748808
 40
0.1458249786
 40
0.2573338362
 40
0.3994756434
 40
0.5715040075
 40
0.7721912981
 40
1.0
 40
1.0
 40
1.0
 40
1.0
 10
4.2197863196
 20
16.4110031082
 30
0.0
 10
4.2196644339
 20
16.4110031082
 30
0.0
 10
4.2195302562
 20
16.4104111115
 30
0.0
 10
4.2193573187
 20
16.4096197117
 30
0.0
 10
4.2191817038
 20
16.4079831598
 30
0.0
 10
4.2189964277
 20
16.405856619
 30
0.0
 10
4.2188118643
 20
16.4030672143
 30
0.0
 10
4.2185435901
 20
16.3981641104
 30
0.0
 10
4.2182280949
 20
16.3905303532
 30
0.0
 10
4.2178759007
 20
16.3796198457
 30
0.0
 10
4.2175335245
 20
16.3664181768
 30
0.0
 10
4.2172028449
 20
16.351019353
 30
0.0
 10
4.2170045249
 20
16.3400307594
 30
0.0
 10
4.2169066491
 20
16.3341886164
 30
0.0
  0
SPLINE
  5
26C
100
AcDbEntity
  8
0
100
AcDbSpline
 62
7
  6
BYLAYER
 70
0
 71
3
 72
18
 73
14
 74
0
 42
0.0000001
 43
0.0000001
 44
0.0000000001
 40
0.0
 40
0.0
 40
0.0
 40
0.0
 40
0.2278087035
 40
0.4284959948
 40
0.6005243591
 40
0.7426661659
 40
0.854175023
 40
0.8982251205
 40
0.9343788275
 40
0.9626057772
 40
0.9828886712
 40
0.9952478506
 40
1.0
 40
1.0
 40
1.0
 40
1.0
 10
29.0243309702
 20
16.3341886177
 30
0.0
 10
29.0242330943
 20
16.3400307606
 30
0.0
 10
29.0240347743
 20
16.3510193541
 30
0.0
 10
29.0237040947
 20
16.3664181777
 30
0.0
 10
29.0233617185
 20
16.3796198464
 30
0.0
 10
29.0230095244
 20
16.3905303537
 30
0.0
 10
29.0226940292
 20
16.3981641107
 30
0.0
 10
29.0224257549
 20
16.4030672146
 30
0.0
 10
29.0222411916
 20
16.4058566192
 30
0.0
 10
29.0220559155
 20
16.4079831599
 30
0.0
 10
29.0218803005
 20
16.4096197118
 30
0.0
 10
29.0217073631
 20
16.4104111115
 30
0.0
 10
29.0215731854
 20
16.4110031082
 30
0.0
 10
29.0214512996
 20
16.4110031082
 30
0.0
  0
SPLINE
  5
26D
100
AcDbEntity
  8
0
100
AcDbSpline
 62
7
  6
BYLAYER
 70
0
 71
3
 72
18
 73
14
 74
0
 42
0.0000001
 43
0.0000001
 44
0.0000000001
 40
0.0
 40
0.0
 40
0.0
 40
0.0
 40
0.2290660553
 40
0.4301485444
 40
0.6020388524
 40
0.743775133
 40
0.8547793032
 40
0.8985905598
 40
0.934537759
 40
0.9626015415
 40
0.9827777817
 40
0.9951095784
 40
1.0
 40
1.0
 40
1.0
 40
1.0
 10
29.0358842256
 20
16.4919893927
 30
0.0
 10
29.0357933634
 20
16.4966310316
 30
0.0
 10
29.0356104166
 20
16.5053470829
 30
0.0
 10
29.0353082477
 20
16.5175448486
 30
0.0
 10
29.0349981686
 20
16.5279725055
 30
0.0
 10
29.0346818207
 20
16.5365714851
 30
0.0
 10
29.034399391
 20
16.5425784584
 30
0.0
 10
29.0341610684
 20
16.5464326683
 30
0.0
 10
29.033995804
 20
16.5486217679
 30
0.0
 10
29.0338346161
 20
16.5502945395
 30
0.0
 10
29.0336713781
 20
16.5515712672
 30
0.0
 10
29.033530937
 20
16.5522081753
 30
0.0
 10
29.0333957008
 20
16.5526599549
 30
0.0
 10
29.0332965856
 20
16.5526599549
 30
0.0
  0
SPLINE
  5
26E
100
AcDbEntity
  8
0
100
AcDbSpline
 62
7
  6
BYLAYER
 70
0
 71
3
 72
23
 73
19
 74
0
 42
0.0000001
 43
0.0000001
 44
0.0000000001
 40
0.0
 40
0.0
 40
0.0
 40
0.0
 40
0.2149911327
 40
0.411160727
 40
0.583973149
 40
0.6603889355
 40
0.729726249
 40
0.7917002042
 40
0.8460261336
 40
0.8924208789
 40
0.9306645516
 40
0.9606329818
 40
0.972478672
 40
0.9822140126
 40
0.9898271179
 40
0.9953097075
 40
0.9986663901
 40
1.0
 40
1.0
 40
1.0
 40
1.0
 10
29.4277853093
 20
16.5223945197
 30
0.0
 10
29.4279071494
 20
16.5419815697
 30
0.0
 10
29.4281786209
 20
16.5794406885
 30
0.0
 10
29.428693356
 20
16.6326429233
 30
0.0
 10
29.4292069567
 20
16.6732191056
 30
0.0
 10
29.4296672324
 20
16.70223938
 30
0.0
 10
29.4300141762
 20
16.7211618147
 30
0.0
 10
29.4303752467
 20
16.7380711066
 30
0.0
 10
29.4307485473
 20
16.7528890438
 30
0.0
 10
29.4311317402
 20
16.7655446894
 30
0.0
 10
29.4315230685
 20
16.7759774222
 30
0.0
 10
29.4318723215
 20
16.783267007
 30
0.0
 10
29.4321663407
 20
16.7879487282
 30
0.0
 10
29.4323700217
 20
16.7906129928
 30
0.0
 10
29.4325684765
 20
16.792652187
 30
0.0
 10
29.4327692341
 20
16.7942107437
 30
0.0
 10
29.432941765
 20
16.7949895946
 30
0.0
 10
29.433107809
 20
16.7955423649
 30
0.0
 10
29.4332293116
 20
16.7955423649
 30
0.0
  0
SPLINE
  5
26F
100
AcDbEntity
  8
0
100
AcDbSpline
 62
7
  6
BYLAYER
 70
0
 71
3
 72
18
 73
14
 74
0
 42
0.0000001
 43
0.0000001
 44
0.0000000001
 40
0.0
 40
0.0
 40
0.0
 40
0.0
 40
0.0048904218
 40
0.0172222188
 40
0.0373984592
 40
0.0654622419
 40
0.1014094412
 40
0.1452206979
 40
0.2562248682
 40
0.3979611487
 40
0.5698514565
 40
0.7709339452
 40
1.0
 40
1.0
 40
1.0
 40
1.0
 10
4.2079410337
 20
16.5526599549
 30
0.0
 10
4.2078419185
 20
16.5526599549
 30
0.0
 10
4.2077066822
 20
16.5522081753
 30
0.0
 10
4.2075662411
 20
16.5515712672
 30
0.0
 10
4.2074030031
 20
16.5502945394
 30
0.0
 10
4.2072418152
 20
16.5486217678
 30
0.0
 10
4.2070765509
 20
16.5464326682
 30
0.0
 10
4.2068382283
 20
16.5425784583
 30
0.0
 10
4.2065557986
 20
16.536571485
 30
0.0
 10
4.2062394507
 20
16.5279725055
 30
0.0
 10
4.2059293716
 20
16.5175448485
 30
0.0
 10
4.2056272026
 20
16.5053470828
 30
0.0
 10
4.2054442559
 20
16.4966310316
 30
0.0
 10
4.2053533936
 20
16.4919893927
 30
0.0
  0
SPLINE
  5
270
100
AcDbEntity
  8
0
100
AcDbSpline
 62
7
  6
BYLAYER
 70
0
 71
3
 72
26
 73
22
 74
0
 42
0.0000001
 43
0.0000001
 44
0.0000000001
 40
0.0
 40
0.0
 40
0.0
 40
0.0
 40
0.0004695368
 40
0.0013679889
 40
0.0047025238
 40
0.0101550902
 40
0.0177372733
 40
0.0274475684
 40
0.0392808068
 40
0.0532298385
 40
0.0692784659
 40
0.1075819551
 40
0.1540039937
 40
0.2083508797
 40
0.2703597666
 40
0.3397146976
 40
0.4160973901
 40
0.4991601894
 40
0.5885173392
 40
0.7845020296
 40
1.0
 40
1.0
 40
1.0
 40
1.0
 10
3.8498969547
 20
13.0716728212
 30
0.0
 10
3.8497258332
 20
13.0716728212
 30
0.0
 10
3.8493238841
 20
13.0721000401
 30
0.0
 10
3.8487553288
 20
13.0736590174
 30
0.0
 10
3.8480240355
 20
13.0771813263
 30
0.0
 10
3.8472588133
 20
13.0830644236
 30
0.0
 10
3.8464470747
 20
13.0913300402
 30
0.0
 10
3.8456390072
 20
13.1019086707
 30
0.0
 10
3.8448257138
 20
13.1148206068
 30
0.0
 10
3.8440165243
 20
13.1300437474
 30
0.0
 10
3.842875135
 20
13.1549102031
 30
0.0
 10
3.8415082541
 20
13.1916120414
 30
0.0
 10
3.8399746438
 20
13.242273707
 30
0.0
 10
3.8384818165
 20
13.3015790607
 30
0.0
 10
3.8370370247
 20
13.3692455494
 30
0.0
 10
3.8356487414
 20
13.4449455909
 30
0.0
 10
3.8343252895
 20
13.5283208797
 30
0.0
 10
3.8330735912
 20
13.6189877742
 30
0.0
 10
3.8314576838
 20
13.7532422254
 30
0.0
 10
3.8296940686
 20
13.9357637353
 30
0.0
 10
3.8286094748
 20
14.0857237374
 30
0.0
 10
3.8281209453
 20
14.1642598958
 30
0.0
  0
SPLINE
  5
271
100
AcDbEntity
  8
0
100
AcDbSpline
 62
7
  6
BYLAYER
 70
0
 71
3
 72
21
 73
17
 74
0
 42
0.0000001
 43
0.0000001
 44
0.0000000001
 40
0.0
 40
0.0
 40
0.0
 40
0.0
 40
0.0013789136
 40
0.0046616265
 40
0.0099911076
 40
0.0173840763
 40
0.0383511904
 40
0.0675135515
 40
0.1047997592
 40
0.1501276194
 40
0.2033468859
 40
0.264263763
 40
0.4084097974
 40
0.5809205603
 40
0.779191671
 40
1.0
 40
1.0
 40
1.0
 40
1.0
 10
28.9740701558
 20
15.8443761107
 30
0.0
 10
28.9739975771
 20
15.8443761107
 30
0.0
 10
28.9738723375
 20
15.8440822006
 30
0.0
 10
28.9737657817
 20
15.8436279044
 30
0.0
 10
28.9736254904
 20
15.8427642054
 30
0.0
 10
28.9734267474
 20
15.8410211351
 30
0.0
 10
28.9731880648
 20
15.8379880964
 30
0.0
 10
28.972923164
 20
15.8334013481
 30
0.0
 10
28.972657497
 20
15.8275212704
 30
0.0
 10
28.972395007
 20
15.8203774463
 30
0.0
 10
28.9721368057
 20
15.8119877235
 30
0.0
 10
28.9717796744
 20
15.7983979205
 30
0.0
 10
28.9713649199
 20
15.7785285734
 30
0.0
 10
28.9709220117
 20
15.7514291118
 30
0.0
 10
28.9705176563
 20
15.7202935229
 30
0.0
 10
28.9702891507
 20
15.6982365776
 30
0.0
 10
28.9701810915
 20
15.6866149063
 30
0.0
  0
SPLINE
  5
272
100
AcDbEntity
  8
0
100
AcDbSpline
 62
7
  6
BYLAYER
 70
0
 71
3
 72
17
 73
13
 74
0
 42
0.0000001
 43
0.0000001
 44
0.0000000001
 40
0.0
 40
0.0
 40
0.0
 40
0.0
 40
0.0051596354
 40
0.0175138213
 40
0.0376064316
 40
0.0655156774
 40
0.1448160108
 40
0.2552813993
 40
0.3965645716
 40
0.5682642407
 40
0.7696972928
 40
1.0
 40
1.0
 40
1.0
 40
1.0
 10
29.4332293117
 20
16.7955423649
 30
0.0
 10
29.4333231971
 20
16.7955423649
 30
0.0
 10
29.4334828728
 20
16.7951580669
 30
0.0
 10
29.4336199005
 20
16.7945680454
 30
0.0
 10
29.4337992842
 20
16.7934406631
 30
0.0
 10
29.4340539497
 20
16.7911636503
 30
0.0
 10
29.4343587632
 20
16.7871948245
 30
0.0
 10
29.4346966265
 20
16.7811895008
 30
0.0
 10
29.4350352949
 20
16.7734881368
 30
0.0
 10
29.4353700868
 20
16.764134959
 30
0.0
 10
29.4356992712
 20
16.7531592164
 30
0.0
 10
29.4359004503
 20
16.7453059661
 30
0.0
 10
29.4360009873
 20
16.7411165543
 30
0.0
  0
SPLINE
  5
273
100
AcDbEntity
  8
0
100
AcDbSpline
 62
7
  6
BYLAYER
 70
0
 71
3
 72
20
 73
16
 74
0
 42
0.0000001
 43
0.0000001
 44
0.0000000001
 40
0.0
 40
0.0
 40
0.0
 40
0.0
 40
0.001404859
 40
0.0046747003
 40
0.0173004944
 40
0.0381025869
 40
0.0670373685
 40
0.1040403696
 40
0.1490408373
 40
0.2019277946
 40
0.2625266846
 40
0.4061358835
 40
0.5784098634
 40
0.7773374372
 40
1.0
 40
1.0
 40
1.0
 40
1.0
 10
29.0096060137
 20
16.2693463588
 30
0.0
 10
29.0095404343
 20
16.2693463588
 30
0.0
 10
29.0094199919
 20
16.2690935726
 30
0.0
 10
29.0092477217
 20
16.2683801732
 30
0.0
 10
29.0090181422
 20
16.2666049388
 30
0.0
 10
29.0087811659
 20
16.263747099
 30
0.0
 10
29.0085287572
 20
16.2596865249
 30
0.0
 10
29.0082799353
 20
16.2545211942
 30
0.0
 10
29.0080316272
 20
16.2482266394
 30
0.0
 10
29.0077875077
 20
16.2408333334
 30
0.0
 10
29.0074483435
 20
16.2288364205
 30
0.0
 10
29.0070522007
 20
16.2112666683
 30
0.0
 10
29.006624575
 20
16.1872387737
 30
0.0
 10
29.0062293125
 20
16.1595197799
 30
0.0
 10
29.0060020957
 20
16.1398410788
 30
0.0
 10
29.0058932804
 20
16.1294476778
 30
0.0
  0
LINE
  5
274
100
AcDbEntity
  8
0
100
AcDbLine
 62
7
  6
BYLAYER
 10
29.0058932804
 20
16.1294476778
 11
29.0057169494
 21
16.1115851541
  0
SPLINE
  5
275
100
AcDbEntity
  8
0
100
AcDbSpline
 62
7
  6
BYLAYER
 70
0
 71
3
 72
20
 73
16
 74
0
 42
0.0000001
 43
0.0000001
 44
0.0000000001
 40
0.0
 40
0.0
 40
0.0
 40
0.0
 40
0.0014048589
 40
0.0046747007
 40
0.0173004966
 40
0.0381025913
 40
0.0670373746
 40
0.1040403763
 40
0.1490408427
 40
0.2019277968
 40
0.2625266832
 40
0.4061358795
 40
0.5784098725
 40
0.777337464
 40
1.0
 40
1.0
 40
1.0
 40
1.0
 10
29.0332965856
 20
16.5526599549
 30
0.0
 10
29.0332310062
 20
16.5526599549
 30
0.0
 10
29.0331105638
 20
16.5524071684
 30
0.0
 10
29.0329382935
 20
16.5516937685
 30
0.0
 10
29.032708714
 20
16.5499185324
 30
0.0
 10
29.0324717377
 20
16.5470606903
 30
0.0
 10
29.0322193289
 20
16.543000113
 30
0.0
 10
29.031970507
 20
16.5378347784
 30
0.0
 10
29.0317221988
 20
16.5315402192
 30
0.0
 10
29.0314780792
 20
16.5241469082
 30
0.0
 10
29.031138915
 20
16.512149987
 30
0.0
 10
29.0307427722
 20
16.4945802215
 30
0.0
 10
29.0303151466
 20
16.4705523081
 30
0.0
 10
29.0299198843
 20
16.4428332937
 30
0.0
 10
29.0296926675
 20
16.4231545787
 30
0.0
 10
29.0295838522
 20
16.4127611713
 30
0.0
  0
LINE
  5
276
100
AcDbEntity
  8
0
100
AcDbLine
 62
7
  6
BYLAYER
 10
29.0295838522
 20
16.4127611713
 11
29.0294075213
 21
16.3948986531
  0
SPLINE
  5
277
100
AcDbEntity
  8
0
100
AcDbSpline
 62
7
  6
BYLAYER
 70
0
 71
3
 72
18
 73
14
 74
0
 42
0.0000001
 43
0.0000001
 44
0.0000000001
 40
0.0
 40
0.0
 40
0.0
 40
0.0
 40
0.2284538948
 40
0.4290900161
 40
0.6009078139
 40
0.7429088414
 40
0.8541972562
 40
0.8981641466
 40
0.9342829538
 40
0.9625111534
 40
0.9828171354
 40
0.9952084934
 40
1.0
 40
1.0
 40
1.0
 40
1.0
 10
4.2107548787
 20
16.4797023274
 30
0.0
 10
4.2106584169
 20
16.4852672579
 30
0.0
 10
4.2104634657
 20
16.4957193333
 30
0.0
 10
4.2101389982
 20
16.5103553193
 30
0.0
 10
4.2098038185
 20
16.5228850885
 30
0.0
 10
4.209459954
 20
16.5332344379
 30
0.0
 10
4.2091513064
 20
16.5404742148
 30
0.0
 10
4.2088894733
 20
16.5451230129
 30
0.0
 10
4.208709262
 20
16.5477691256
 30
0.0
 10
4.2085294462
 20
16.5497891294
 30
0.0
 10
4.2083569826
 20
16.5513430588
 30
0.0
 10
4.2081914058
 20
16.5520988493
 30
0.0
 10
4.208057768
 20
16.5526599549
 30
0.0
 10
4.2079410337
 20
16.5526599549
 30
0.0
  0
SPLINE
  5
278
100
AcDbEntity
  8
0
100
AcDbSpline
 62
7
  6
BYLAYER
 70
0
 71
3
 72
20
 73
16
 74
0
 42
0.0000001
 43
0.0000001
 44
0.0000000001
 40
0.0
 40
0.0
 40
0.0
 40
0.0
 40
0.001404859
 40
0.0046747003
 40
0.0173004944
 40
0.0381025869
 40
0.0670373685
 40
0.1040403696
 40
0.1490408373
 40
0.2019277946
 40
0.2625266846
 40
0.4061358835
 40
0.5784098634
 40
0.7773374372
 40
1.0
 40
1.0
 40
1.0
 40
1.0
 10
29.0214512996
 20
16.4110031082
 30
0.0
 10
29.0213857203
 20
16.4110031081
 30
0.0
 10
29.0212652779
 20
16.410750322
 30
0.0
 10
29.0210930076
 20
16.4100369226
 30
0.0
 10
29.0208634281
 20
16.4082616882
 30
0.0
 10
29.0206264519
 20
16.4054038484
 30
0.0
 10
29.0203740431
 20
16.4013432743
 30
0.0
 10
29.0201252213
 20
16.3961779435
 30
0.0
 10
29.0198769131
 20
16.3898833887
 30
0.0
 10
29.0196327936
 20
16.3824900828
 30
0.0
 10
29.0192936294
 20
16.3704931699
 30
0.0
 10
29.0188974867
 20
16.3529234177
 30
0.0
 10
29.0184698609
 20
16.3288955231
 30
0.0
 10
29.0180745985
 20
16.3011765292
 30
0.0
 10
29.0178473816
 20
16.2814978282
 30
0.0
 10
29.0177385664
 20
16.2711044271
 30
0.0
  0
LINE
  5
279
100
AcDbEntity
  8
0
100
AcDbLine
 62
7
  6
BYLAYER
 10
29.0177385664
 20
16.2711044271
 11
29.0175622353
 21
16.2532419035
  0
SPLINE
  5
27A
100
AcDbEntity
  8
0
100
AcDbSpline
 62
7
  6
BYLAYER
 70
0
 71
3
 72
20
 73
16
 74
0
 42
0.0000001
 43
0.0000001
 44
0.0000000001
 40
0.0
 40
0.0
 40
0.0
 40
0.0
 40
0.001404859
 40
0.0046747003
 40
0.0173004944
 40
0.0381025869
 40
0.0670373685
 40
0.1040403696
 40
0.1490408373
 40
0.2019277945
 40
0.2625266846
 40
0.4061358834
 40
0.5784098633
 40
0.7773374371
 40
1.0
 40
1.0
 40
1.0
 40
1.0
 10
28.9977607277
 20
16.1276896094
 30
0.0
 10
28.9976951484
 20
16.1276896094
 30
0.0
 10
28.9975747059
 20
16.1274368233
 30
0.0
 10
28.9974024357
 20
16.1267234239
 30
0.0
 10
28.9971728562
 20
16.1249481894
 30
0.0
 10
28.99693588
 20
16.1220903496
 30
0.0
 10
28.9966834712
 20
16.1180297756
 30
0.0
 10
28.9964346494
 20
16.1128644448
 30
0.0
 10
28.9961863412
 20
16.10656989
 30
0.0
 10
28.9959422217
 20
16.099176584
 30
0.0
 10
28.9956030575
 20
16.0871796712
 30
0.0
 10
28.9952069148
 20
16.0696099189
 30
0.0
 10
28.994779289
 20
16.0455820244
 30
0.0
 10
28.9943840265
 20
16.0178630305
 30
0.0
 10
28.9941568097
 20
15.9981843294
 30
0.0
 10
28.9940479944
 20
15.9877909284
 30
0.0
  0
LINE
  5
27B
100
AcDbEntity
  8
0
100
AcDbLine
 62
7
  6
BYLAYER
 10
28.9940479944
 20
15.9877909284
 11
28.9938716634
 21
15.969928405
  0
SPLINE
  5
27C
100
AcDbEntity
  8
0
100
AcDbSpline
 62
7
  6
BYLAYER
 70
0
 71
3
 72
18
 73
14
 74
0
 42
0.0000001
 43
0.0000001
 44
0.0000000001
 40
0.0
 40
0.0
 40
0.0
 40
0.0
 40
0.2284538818
 40
0.4290900057
 40
0.6009078135
 40
0.7429088499
 40
0.8541972663
 40
0.8981641553
 40
0.9342829603
 40
0.9625111573
 40
0.9828171369
 40
0.9952084933
 40
1.0
 40
1.0
 40
1.0
 40
1.0
 10
4.2226001644
 20
16.3380455291
 30
0.0
 10
4.2225037026
 20
16.3436104556
 30
0.0
 10
4.2223087513
 20
16.3540625238
 30
0.0
 10
4.2219842838
 20
16.3686985001
 30
0.0
 10
4.2216491042
 20
16.3812282615
 30
0.0
 10
4.2213052397
 20
16.3915776046
 30
0.0
 10
4.2209965922
 20
16.3988173769
 30
0.0
 10
4.2207347591
 20
16.4034661718
 30
0.0
 10
4.2205545478
 20
16.4061122827
 30
0.0
 10
4.2203747321
 20
16.408132285
 30
0.0
 10
4.2202022685
 20
16.4096862131
 30
0.0
 10
4.2200366918
 20
16.4104420031
 30
0.0
 10
4.2199030539
 20
16.4110031082
 30
0.0
 10
4.2197863196
 20
16.4110031082
 30
0.0
  0
SPLINE
  5
27D
100
AcDbEntity
  8
0
100
AcDbSpline
 62
7
  6
BYLAYER
 70
0
 71
3
 72
20
 73
16
 74
0
 42
0.0000001
 43
0.0000001
 44
0.0000000001
 40
0.0
 40
0.0
 40
0.0
 40
0.0
 40
0.001404859
 40
0.0046747003
 40
0.0173004944
 40
0.0381025869
 40
0.0670373685
 40
0.1040403696
 40
0.1490408373
 40
0.2019277946
 40
0.2625266846
 40
0.4061358835
 40
0.5784098634
 40
0.7773374372
 40
1.0
 40
1.0
 40
1.0
 40
1.0
 10
28.9859154417
 20
15.9860328601
 30
0.0
 10
28.9858498624
 20
15.98603286
 30
0.0
 10
28.98572942
 20
15.9857800739
 30
0.0
 10
28.9855571497
 20
15.9850666745
 30
0.0
 10
28.9853275703
 20
15.9832914401
 30
0.0
 10
28.985090594
 20
15.9804336003
 30
0.0
 10
28.9848381853
 20
15.9763730262
 30
0.0
 10
28.9845893634
 20
15.9712076954
 30
0.0
 10
28.9843410552
 20
15.9649131406
 30
0.0
 10
28.9840969357
 20
15.9575198347
 30
0.0
 10
28.9837577716
 20
15.9455229218
 30
0.0
 10
28.9833616288
 20
15.9279531695
 30
0.0
 10
28.9829340031
 20
15.903925275
 30
0.0
 10
28.9825387406
 20
15.8762062811
 30
0.0
 10
28.9823115238
 20
15.8565275801
 30
0.0
 10
28.9822027085
 20
15.846134179
 30
0.0
  0
LINE
  5
27E
100
AcDbEntity
  8
0
100
AcDbLine
 62
7
  6
BYLAYER
 10
28.9822027085
 20
15.846134179
 11
28.9820263775
 21
15.8282716554
  0
SPLINE
  5
27F
100
AcDbEntity
  8
0
100
AcDbSpline
 62
7
  6
BYLAYER
 70
0
 71
3
 72
18
 73
14
 74
0
 42
0.0000001
 43
0.0000001
 44
0.0000000001
 40
0.0
 40
0.0
 40
0.0
 40
0.0
 40
0.2284538819
 40
0.4290900058
 40
0.6009078136
 40
0.7429088499
 40
0.8541972663
 40
0.8981641553
 40
0.9342829602
 40
0.9625111573
 40
0.9828171369
 40
0.9952084933
 40
1.0
 40
1.0
 40
1.0
 40
1.0
 10
4.2344454503
 20
16.1963887798
 30
0.0
 10
4.2343489885
 20
16.2019537063
 30
0.0
 10
4.2341540373
 20
16.2124057745
 30
0.0
 10
4.2338295698
 20
16.2270417508
 30
0.0
 10
4.2334943901
 20
16.2395715122
 30
0.0
 10
4.2331505257
 20
16.2499208552
 30
0.0
 10
4.2328418782
 20
16.2571606275
 30
0.0
 10
4.2325800451
 20
16.2618094225
 30
0.0
 10
4.2323998338
 20
16.2644555333
 30
0.0
 10
4.2322200181
 20
16.2664755356
 30
0.0
 10
4.2320475544
 20
16.2680294638
 30
0.0
 10
4.2318819778
 20
16.2687852537
 30
0.0
 10
4.2317483398
 20
16.2693463588
 30
0.0
 10
4.2316316056
 20
16.2693463588
 30
0.0
  0
SPLINE
  5
280
100
AcDbEntity
  8
0
100
AcDbSpline
 62
7
  6
BYLAYER
 70
0
 71
3
 72
18
 73
14
 74
0
 42
0.0000001
 43
0.0000001
 44
0.0000000001
 40
0.0
 40
0.0
 40
0.0
 40
0.0
 40
0.2284538819
 40
0.4290900058
 40
0.6009078136
 40
0.7429088499
 40
0.8541972663
 40
0.8981641553
 40
0.9342829602
 40
0.9625111573
 40
0.9828171369
 40
0.9952084933
 40
1.0
 40
1.0
 40
1.0
 40
1.0
 10
4.2462907363
 20
16.0547320304
 30
0.0
 10
4.2461942745
 20
16.0602969569
 30
0.0
 10
4.2459993232
 20
16.0707490251
 30
0.0
 10
4.2456748558
 20
16.0853850014
 30
0.0
 10
4.2453396761
 20
16.0979147628
 30
0.0
 10
4.2449958116
 20
16.1082641058
 30
0.0
 10
4.2446871641
 20
16.1155038782
 30
0.0
 10
4.244425331
 20
16.1201526731
 30
0.0
 10
4.2442451197
 20
16.122798784
 30
0.0
 10
4.244065304
 20
16.1248187863
 30
0.0
 10
4.2438928404
 20
16.1263727144
 30
0.0
 10
4.2437272637
 20
16.1271285044
 30
0.0
 10
4.2435936258
 20
16.1276896094
 30
0.0
 10
4.2434768915
 20
16.1276896094
 30
0.0
  0
SPLINE
  5
281
100
AcDbEntity
  8
0
100
AcDbSpline
 62
7
  6
BYLAYER
 70
0
 71
3
 72
18
 73
14
 74
0
 42
0.0000001
 43
0.0000001
 44
0.0000000001
 40
0.0
 40
0.0
 40
0.0
 40
0.0
 40
0.2284538819
 40
0.4290900058
 40
0.6009078136
 40
0.7429088499
 40
0.8541972663
 40
0.8981641553
 40
0.9342829602
 40
0.9625111573
 40
0.9828171369
 40
0.9952084933
 40
1.0
 40
1.0
 40
1.0
 40
1.0
 10
4.2581360222
 20
15.913075281
 30
0.0
 10
4.2580395605
 20
15.9186402075
 30
0.0
 10
4.2578446092
 20
15.9290922757
 30
0.0
 10
4.2575201417
 20
15.943728252
 30
0.0
 10
4.257184962
 20
15.9562580134
 30
0.0
 10
4.2568410976
 20
15.9666073565
 30
0.0
 10
4.2565324501
 20
15.9738471288
 30
0.0
 10
4.256270617
 20
15.9784959237
 30
0.0
 10
4.2560904057
 20
15.9811420346
 30
0.0
 10
4.25591059
 20
15.9831620369
 30
0.0
 10
4.2557381263
 20
15.984715965
 30
0.0
 10
4.2555725497
 20
15.985471755
 30
0.0
 10
4.2554389117
 20
15.9860328601
 30
0.0
 10
4.2553221775
 20
15.9860328601
 30
0.0
  0
SPLINE
  5
282
100
AcDbEntity
  8
0
100
AcDbSpline
 62
7
  6
BYLAYER
 70
0
 71
3
 72
21
 73
17
 74
0
 42
0.0000001
 43
0.0000001
 44
0.0000000001
 40
0.0
 40
0.0
 40
0.0
 40
0.0
 40
0.22080833
 40
0.4190794414
 40
0.5915902048
 40
0.7357362394
 40
0.7966531164
 40
0.8498723829
 40
0.8952002429
 40
0.9324864503
 40
0.9616488111
 40
0.9826159247
 40
0.9900088932
 40
0.995338374
 40
0.9986210867
 40
1.0
 40
1.0
 40
1.0
 40
1.0
 10
4.2710565278
 20
15.6866149063
 30
0.0
 10
4.2709484686
 20
15.6982365777
 30
0.0
 10
4.270719963
 20
15.7202935231
 30
0.0
 10
4.2703156076
 20
15.7514291121
 30
0.0
 10
4.2698726994
 20
15.7785285738
 30
0.0
 10
4.2694579449
 20
15.7983979209
 30
0.0
 10
4.2691008135
 20
15.8119877239
 30
0.0
 10
4.2688426122
 20
15.8203774467
 30
0.0
 10
4.2685801223
 20
15.8275212707
 30
0.0
 10
4.2683144553
 20
15.8334013484
 30
0.0
 10
4.2680495545
 20
15.8379880967
 30
0.0
 10
4.2678108719
 20
15.8410211353
 30
0.0
 10
4.2676121289
 20
15.8427642055
 30
0.0
 10
4.2674718375
 20
15.8436279045
 30
0.0
 10
4.2673652817
 20
15.8440822007
 30
0.0
 10
4.2672400421
 20
15.8443761107
 30
0.0
 10
4.2671674635
 20
15.8443761107
 30
0.0
  0
ELLIPSE
  5
283
100
AcDbEntity
  8
0
100
AcDbEllipse
 62
7
  6
BYLAYER
 10
27.3911913927
 20
15.071673695
 30
0.0
 11
0.0
 21
2.0
 31
0.0
 40
0.0122179127
 41
-3.171039288
 42
-3.1415926536
  0
ELLIPSE
  5
284
100
AcDbEntity
  8
0
100
AcDbEllipse
 62
7
  6
BYLAYER
 10
28.9791095792
 20
16.0099509452
 30
0.0
 11
0.0
 21
0.3
 31
0.0
 40
0.0122179127
 41
-3.7716997446
 42
-3.1415926536
  0
ELLIPSE
  5
285
100
AcDbEntity
  8
0
100
AcDbEllipse
 62
7
  6
BYLAYER
 10
28.9909548652
 20
16.1516076945
 30
0.0
 11
0.0
 21
0.3
 31
0.0
 40
0.0122179127
 41
-3.5616709564
 42
-3.1415926536
  0
ELLIPSE
  5
286
100
AcDbEntity
  8
0
100
AcDbEllipse
 62
7
  6
BYLAYER
 10
29.0028001511
 20
16.2932644439
 30
0.0
 11
-0.0
 21
0.3
 31
0.0
 40
0.0122179127
 41
-3.5616709564
 42
-3.1415926536
  0
ELLIPSE
  5
287
100
AcDbEntity
  8
0
100
AcDbEllipse
 62
7
  6
BYLAYER
 10
29.0146454371
 20
16.4349211933
 30
0.0
 11
0.0
 21
0.3
 31
0.0
 40
0.0122179127
 41
-3.5616709564
 42
-3.1415926536
  0
ELLIPSE
  5
288
100
AcDbEntity
  8
0
100
AcDbEllipse
 62
7
  6
BYLAYER
 10
29.0264907231
 20
16.5765779426
 30
0.0
 11
0.0
 21
0.3
 31
0.0
 40
0.0122179127
 41
-3.5616709564
 42
-3.1415926536
  0
ELLIPSE
  5
289
100
AcDbEntity
  8
0
100
AcDbEllipse
 62
7
  6
BYLAYER
 10
29.6866029105
 20
16.0086871958
 30
0.0
 11
0.0
 21
3.05
 31
0.0
 40
0.0122179127
 41
-3.0924519192
 42
-1.5216555924
  0
ELLIPSE
  5
28A
100
AcDbEntity
  8
0
100
AcDbEllipse
 62
7
  6
BYLAYER
 10
3.8080083076
 20
16.2955410699
 30
0.0
 11
0.0
 21
0.5
 31
0.0
 40
0.0122179127
 41
-1.0998756948
 42
-0.0
  0
ELLIPSE
  5
28B
100
AcDbEntity
  8
0
100
AcDbEllipse
 62
7
  6
BYLAYER
 10
4.0358962847
 20
17.9585061213
 30
0.0
 11
0.0
 21
2.6416804628
 31
0.0
 40
0.0122179127
 41
-2.7105069249
 42
-0.4310857287
  0
ELLIPSE
  5
28C
100
AcDbEntity
  8
0
100
AcDbEllipse
 62
7
  6
BYLAYER
 10
5.5817083729
 20
31.8969717783
 30
0.0
 11
-0.0
 21
1.75
 31
0.0
 40
0.0122179127
 41
-4.7123889804
 42
-3.3451003803
  0
ELLIPSE
  5
28D
100
AcDbEntity
  8
0
100
AcDbEllipse
 62
7
  6
BYLAYER
 10
3.5546347088
 20
16.0086871958
 30
0.0
 11
-0.0
 21
3.05
 31
0.0
 40
0.0122179127
 41
1.5216555924
 42
3.0924519192
  0
ELLIPSE
  5
28E
100
AcDbEntity
  8
0
100
AcDbEllipse
 62
7
  6
BYLAYER
 10
5.5389456786
 20
35.010437582
 30
0.0
 11
-0.0
 21
1.7500010659
 31
0.0
 40
0.0122179127
 41
-1.5719000182
 42
0.0
  0
ELLIPSE
  5
28F
100
AcDbEntity
  8
0
100
AcDbEllipse
 62
7
  6
BYLAYER
 10
29.2053413345
 20
17.9585061213
 30
0.0
 11
0.0
 21
2.6416804628
 31
0.0
 40
0.0122179127
 41
0.4310857287
 42
2.7105069249
  0
ELLIPSE
  5
290
100
AcDbEntity
  8
0
100
AcDbEllipse
 62
7
  6
BYLAYER
 10
27.6595292463
 20
31.8969717783
 30
0.0
 11
-0.0
 21
1.75
 31
0.0
 40
0.0122179127
 41
-2.9380849268
 42
-1.5707963268
  0
ELLIPSE
  5
291
100
AcDbEntity
  8
0
100
AcDbEllipse
 62
7
  6
BYLAYER
 10
27.7022919406
 20
35.010437582
 30
0.0
 11
-0.0
 21
1.7500010659
 31
0.0
 40
0.0122179127
 41
-0.0
 42
1.5719000182
  0
ELLIPSE
  5
292
100
AcDbEntity
  8
0
100
AcDbEllipse
 62
7
  6
BYLAYER
 10
3.5528470064
 20
15.6585061213
 30
0.0
 11
0.0
 21
1.1
 31
0.0
 40
0.0122179127
 41
0.0
 42
6.2831853072
  0
ELLIPSE
  5
293
100
AcDbEntity
  8
0
100
AcDbEllipse
 62
7
  6
BYLAYER
 10
28.9672642933
 20
15.8682941958
 30
0.0
 11
0.0
 21
0.3
 31
0.0
 40
0.0122179127
 41
-2.8507503892
 42
-2.2213129895
  0
ELLIPSE
  5
294
100
AcDbEntity
  8
0
100
AcDbEllipse
 62
7
  6
BYLAYER
 10
29.3913406646
 20
15.071673695
 30
0.0
 11
-0.0
 21
2.0
 31
0.0
 40
0.0122179127
 41
-3.171039288
 42
-2.0417169588
  0
ELLIPSE
  5
295
100
AcDbEntity
  8
0
100
AcDbEllipse
 62
7
  6
BYLAYER
 10
29.6883906129
 20
15.6585061213
 30
0.0
 11
-0.0
 21
1.1
 31
0.0
 40
0.0122179127
 41
0.0
 42
6.2831853072
  0
ELLIPSE
  5
296
100
AcDbEntity
  8
0
100
AcDbEllipse
 62
7
  6
BYLAYER
 10
4.2718711665
 20
14.3882388873
 30
0.0
 11
0.0
 21
0.3
 31
0.0
 40
0.0122179127
 41
-3.1121460192
 42
-1.5707963268
  0
ELLIPSE
  5
297
100
AcDbEntity
  8
0
100
AcDbEllipse
 62
7
  6
BYLAYER
 10
28.9693664527
 20
14.3882388873
 30
0.0
 11
0.0
 21
0.3
 31
0.0
 40
0.0122179127
 41
-4.7123889804
 42
-3.171039288
  0
ELLIPSE
  5
298
100
AcDbEntity
  8
0
100
AcDbEllipse
 62
7
  6
BYLAYER
 10
4.2502193835
 20
20.967091422
 30
0.0
 11
0.0
 21
6.0
 31
0.0
 40
0.0122179127
 41
-4.4560783808
 42
-3.8849699156
  0
ELLIPSE
  5
299
100
AcDbEntity
  8
0
100
AcDbEllipse
 62
7
  6
BYLAYER
 10
3.5815591011
 20
31.8969717783
 30
0.0
 11
0.0
 21
1.75
 31
0.0
 40
0.0122179127
 41
-3.6417728573
 42
-3.3451003803
  0
ELLIPSE
  5
29A
100
AcDbEntity
  8
0
100
AcDbEllipse
 62
7
  6
BYLAYER
 10
4.2718711665
 20
15.2934925828
 30
0.0
 11
0.0
 21
0.3
 31
0.0
 40
0.0122179127
 41
-1.5707963268
 42
-0.2908422644
  0
ELLIPSE
  5
29B
100
AcDbEntity
  8
0
100
AcDbEllipse
 62
7
  6
BYLAYER
 10
28.9693664527
 20
15.2934925828
 30
0.0
 11
0.0
 21
0.3
 31
0.0
 40
0.0122179127
 41
0.2908422644
 42
1.5707963268
  0
ELLIPSE
  5
29C
100
AcDbEntity
  8
0
100
AcDbEllipse
 62
7
  6
BYLAYER
 10
4.1674879492
 20
19.1924975468
 30
0.0
 11
0.0
 21
1.0
 31
0.0
 40
0.0122179127
 41
-1.3144857272
 42
-0.2035077267
  0
ELLIPSE
  5
29D
100
AcDbEntity
  8
0
100
AcDbEllipse
 62
7
  6
BYLAYER
 10
29.07374967
 20
19.1924975468
 30
0.0
 11
0.0
 21
1.0
 31
0.0
 40
0.0122179127
 41
0.2035077267
 42
1.3144857272
  0
ELLIPSE
  5
29E
100
AcDbEntity
  8
0
100
AcDbEllipse
 62
7
  6
BYLAYER
 10
28.9910182357
 20
20.967091422
 30
0.0
 11
0.0
 21
6.0
 31
0.0
 40
0.0122179127
 41
-2.3982153916
 42
-1.8271069264
  0
ELLIPSE
  5
29F
100
AcDbEntity
  8
0
100
AcDbEllipse
 62
7
  6
BYLAYER
 10
29.6596785181
 20
31.8969717783
 30
0.0
 11
-0.0
 21
1.75
 31
0.0
 40
0.0122179127
 41
-2.9380849268
 42
-2.6414124499
  0
ELLIPSE
  5
2A0
100
AcDbEntity
  8
0
100
AcDbEllipse
 62
7
  6
BYLAYER
 10
4.273973326
 20
15.8682941958
 30
0.0
 11
0.0
 21
0.3
 31
0.0
 40
0.0122179127
 41
-4.0618723177
 42
-3.432434918
  0
ENDSEC
  0
SECTION
  2
OBJECTS
  0
DICTIONARY
  5
C
100
AcDbDictionary
280
0
281
1
  3
ACAD_GROUP
350
D
  3
ACAD_MLINESTYLE
350
17
  3
ACAD_LAYOUT
350
1A
  3
ACAD_PLOTSETTINGS
350
19
  3
ACAD_PLOTSTYLENAME
350
E
  0
DICTIONARY
  5
D
102
{ACAD_REACTORS
330
C
102
}
100
AcDbDictionary
280
0
281
1
  0
ACDBDICTIONARYWDFLT
  5
E
102
{ACAD_REACTORS
330
C
102
}
100
AcDbDictionary
281
1
  3
Normal
350
F
100
AcDbDictionaryWithDefault
340
F
  0
DICTIONARY
  5
17
102
{ACAD_REACTORS
330
C
102
}
100
AcDbDictionary
280
0
281
1
  3
Standard
350
18
  0
DICTIONARY
  5
19
102
{ACAD_REACTORS
330
C
102
}
100
AcDbDictionary
281
1
  0
DICTIONARY
  5
1A
102
{ACAD_REACTORS
330
C
102
}
100
AcDbDictionary
281
1
  3
Model
350
2A1
  3
Layout1
350
2A2
  0
ACDBPLACEHOLDER
  5
F
102
{ACAD_REACTORS
330
E
102
}
  0
MLINESTYLE
  5
18
102
{ACAD_REACTORS
330
17
102
}
100
AcDbMlineStyle
  2
STANDARD
 70
0
  3

 62
256
 51
90.0
 52
90.0
 71
2
 49
0.5
 62
256
  6
BYLAYER
 49
-0.5
 62
256
  6
BYLAYER
  0
LAYOUT
  5
2A1
102
{ACAD_REACTORS
330
1A
102
}
100
AcDbPlotSettings
  1

  2
none_device
  4

  6

 40
0.0
 41
0.0
 42
0.0
 43
0.0
 44
210.0
 45
297.0
 46
0.0
 47
0.0
 48
0.0
 49
0.0
140
0.0
141
0.0
142
1.0
143
1.0
 70
1024
 72
1
 73
0
 74
0
  7

 75
0
147
1.0
148
0.0
149
0.0
100
AcDbLayout
  1
Model
 70
0
 71
0
 10
0.0
 20
0.0
 11
210.0
 21
297.0
 12
0.0
 22
0.0
 32
0.0
 14
0.0
 24
0.0
 34
0.0
 15
0.0
 25
0.0
 35
0.0
146
0.0
 13
0.0
 23
0.0
 33
0.0
 16
1.0
 26
0.0
 36
0.0
 17
0.0
 27
1.0
 37
0.0
 76
0
330
211
345
0
346
0
  0
LAYOUT
  5
2A2
102
{ACAD_REACTORS
330
1A
102
}
100
AcDbPlotSettings
  1

  2
none_device
  4

  6

 40
0.0
 41
0.0
 42
0.0
 43
0.0
 44
210.0
 45
297.0
 46
0.0
 47
0.0
 48
0.0
 49
0.0
140
0.0
141
0.0
142
1.0
143
1.0
 70
0
 72
1
 73
0
 74
0
  7

 75
0
147
1.0
148
0.0
149
0.0
100
AcDbLayout
  1
Layout1
 70
0
 71
1
 10
0.0
 20
0.0
 11
210.0
 21
297.0
 12
0.0
 22
0.0
 32
0.0
 14
0.0
 24
0.0
 34
0.0
 15
0.0
 25
0.0
 35
0.0
146
0.0
 13
0.0
 23
0.0
 33
0.0
 16
1.0
 26
0.0
 36
0.0
 17
0.0
 27
1.0
 37
0.0
 76
0
330
212
345
0
346
0
  0
ENDSEC
  0
EOF
