999
DXF file: C:\Users\sesa63760\Dev\_Creo\CAD\MCADID0004813_3D-CAD\drw0001_7.dxf
999
Pro/ENGINEER 2019471 by Parametric Technology Corporation
  0
SECTION
  2
HEADER
  9
$ACADVER
  1
AC1024
  9
$DWGCODEPAGE
  3
ANSI_1252
  9
$EXTMAX
 10
67.512792795
 20
95.4823783815
 30
0.0
  9
$EXTMIN
 10
0.0
 20
0.0
 30
0.0
  9
$LIMMIN
 10
0.0
 20
0.0
  9
$LIMMAX
 10
67.512792795
 20
95.4823783815
  9
$VIEWCTR
 10
33.7563963975
 20
47.7411891908
  9
$VIEWSIZE
 40
95.4823783815
  9
$CLAYER
  8
0
  9
$LTSCALE
 40
6.2240365167
  9
$CELTYPE
  6
BYLAYER
  9
$DIMSCALE
 40
1.0
  9
$DIMASZ
 40
0.8037237238
  9
$DIMEXO
 40
1.0
  9
$DIMDLI
 40
4.3002434116
  9
$DIMEXE
 40
1.0
  9
$DIMCEN
 40
1.0184787027
  9
$DIMLFAC
 40
1.0
  9
$DIMBLK
  1
_FILLED
  9
$DIMALT
 70
0
  9
$DIMALTF
 40
0.0393700787
  9
$DIMTXT
 40
1.1252132133
  9
$DIMTOL
 70
1
  9
$DIMLIM
 70
0
  9
$DIMTFAC
 40
1.0
  9
$DIMTP
 40
0.01
  9
$DIMTM
 40
0.01
  9
$DIMGAP
 40
0.625
  9
$DIMDSEP
 70
46
  9
$AUNITS
 70
0
  9
$PDMODE
 70
3
  9
$PDSIZE
 40
0.3125
  9
$HANDSEED
  5
304
  9
$TILEMODE
 70
1
  9
$MEASUREMENT
 70
1
  9
$INSUNITS
 70
4
  0
ENDSEC
  0
SECTION
  2
CLASSES
  0
CLASS
  1
ACDBDICTIONARYWDFLT
  2
AcDbDictionaryWithDefault
  3
AutoCAD 2000
 90
0
 91
1
280
0
281
0
  0
CLASS
  1
ACDBPLACEHOLDER
  2
AcDbPlaceHolder
  3
AutoCAD 2000
 90
0
 91
1
280
0
281
0
  0
CLASS
  1
LAYOUT
  2
AcDbLayout
  3
AutoCAD 2000
 90
0
 91
0
280
0
281
0
  0
ENDSEC
  0
SECTION
  2
TABLES
  0
TABLE
  2
VPORT
  5
8
100
AcDbSymbolTable
 70
2
  0
VPORT
  5
1F4
100
AcDbSymbolTableRecord
100
AcDbViewportTableRecord
  2
*ACTIVE
 70
0
 10
0.0
 20
0.0
 11
1.0
 21
1.0
 12
33.7563963975
 22
47.7411891908
 13
0.0
 23
0.0
 14
1.0
 24
1.0
 15
0.0
 25
0.0
 16
0.0
 26
0.0
 36
1.0
 17
0.0
 27
0.0
 37
0.0
 40
95.4823783815
 41
0.7070707071
 42
50.0
 43
0.0
 44
0.0
 50
0.0
 51
0.0
 71
0
 72
100
 73
1
 74
1
 75
0
 76
0
 77
0
 78
0
  0
ENDTAB
  0
TABLE
  2
LTYPE
  5
5
100
AcDbSymbolTable
 70
6
  0
LTYPE
  5
14
100
AcDbSymbolTableRecord
100
AcDbLinetypeTableRecord
  2
BYBLOCK
 70
0
  3

 72
65
 73
0
 40
0.0
  0
LTYPE
  5
15
100
AcDbSymbolTableRecord
100
AcDbLinetypeTableRecord
  2
BYLAYER
 70
0
  3

 72
65
 73
0
 40
0.0
  0
LTYPE
  5
16
100
AcDbSymbolTableRecord
100
AcDbLinetypeTableRecord
  2
CONTINUOUS
 70
64
  3
Solid line
 72
65
 73
0
 40
0.0
  0
LTYPE
  5
1F5
100
AcDbSymbolTableRecord
100
AcDbLinetypeTableRecord
  2
CENTER
 70
64
  3
____ _ ____ _ ____ _ ____ _ ____ _ ____ _ ____
 72
65
 73
4
 40
0.6
 49
0.375
 74
0
 49
-0.075
 74
0
 49
0.075
 74
0
 49
-0.075
 74
0
  0
LTYPE
  5
1F6
100
AcDbSymbolTableRecord
100
AcDbLinetypeTableRecord
  2
HIDDEN
 70
64
  3
- - - - - - - - - - - - - - - - - - - -
 72
65
 73
2
 40
0.2
 49
0.1
 74
0
 49
-0.1
 74
0
  0
LTYPE
  5
1F7
100
AcDbSymbolTableRecord
100
AcDbLinetypeTableRecord
  2
PHANTOM
 70
64
  3
_____ _ _ _____ _ _ _____ _ _ _____
 72
65
 73
6
 40
0.8
 49
0.45
 74
0
 49
-0.05
 74
0
 49
0.1
 74
0
 49
-0.05
 74
0
 49
0.1
 74
0
 49
-0.05
 74
0
  0
LTYPE
  5
1F8
100
AcDbSymbolTableRecord
100
AcDbLinetypeTableRecord
  2
DOT
 70
64
  3
. . . . . . . . . . . . . . . . . . . .
 72
65
 73
2
 40
0.2
 49
0.1
 74
0
 49
-0.1
 74
0
  0
LTYPE
  5
1F9
100
AcDbSymbolTableRecord
100
AcDbLinetypeTableRecord
  2
DASHED
 70
64
  3
- - - - - - - - - - - - - - - - - - - -
 72
65
 73
2
 40
0.2
 49
0.1
 74
0
 49
-0.1
 74
0
  0
ENDTAB
  0
TABLE
  2
LAYER
  5
2
100
AcDbSymbolTable
 70
36
  0
LAYER
  5
10
100
AcDbSymbolTableRecord
100
AcDbLayerTableRecord
  2
0
 70
0
 62
7
  6
CONTINUOUS
370
-3
390
F
  0
LAYER
  5
1FA
100
AcDbSymbolTableRecord
100
AcDbLayerTableRecord
  2
DEFAULT_1
 70
0
 62
7
  6
CENTER
370
-3
390
F
  0
LAYER
  5
1FB
100
AcDbSymbolTableRecord
100
AcDbLayerTableRecord
  2
DEFAULT_2
 70
0
 62
7
  6
HIDDEN
370
-3
390
F
  0
LAYER
  5
1FC
100
AcDbSymbolTableRecord
100
AcDbLayerTableRecord
  2
DEFAULT_3
 70
0
 62
7
  6
PHANTOM
370
-3
390
F
  0
LAYER
  5
1FD
100
AcDbSymbolTableRecord
100
AcDbLayerTableRecord
  2
00_COMPONENTS
 70
0
 62
7
  6
CONTINUOUS
370
-3
390
F
  0
LAYER
  5
1FE
100
AcDbSymbolTableRecord
100
AcDbLayerTableRecord
  2
01_1_DEFAULT_DATUMS
 70
0
 62
7
  6
CONTINUOUS
370
-3
390
F
  0
LAYER
  5
1FF
100
AcDbSymbolTableRecord
100
AcDbLayerTableRecord
  2
01_PLANES
 70
0
 62
7
  6
CONTINUOUS
370
-3
390
F
  0
LAYER
  5
200
100
AcDbSymbolTableRecord
100
AcDbLayerTableRecord
  2
02_COORD_SYS
 70
0
 62
7
  6
CONTINUOUS
370
-3
390
F
  0
LAYER
  5
201
100
AcDbSymbolTableRecord
100
AcDbLayerTableRecord
  2
03_AXES
 70
0
 62
7
  6
CONTINUOUS
370
-3
390
F
  0
LAYER
  5
202
100
AcDbSymbolTableRecord
100
AcDbLayerTableRecord
  2
04_POINTS
 70
0
 62
7
  6
CONTINUOUS
370
-3
390
F
  0
LAYER
  5
203
100
AcDbSymbolTableRecord
100
AcDbLayerTableRecord
  2
05_CURVES
 70
0
 62
7
  6
CONTINUOUS
370
-3
390
F
  0
LAYER
  5
204
100
AcDbSymbolTableRecord
100
AcDbLayerTableRecord
  2
06_SURFS
 70
0
 62
7
  6
CONTINUOUS
370
-3
390
F
  0
LAYER
  5
205
100
AcDbSymbolTableRecord
100
AcDbLayerTableRecord
  2
07_COSMETICS
 70
0
 62
7
  6
CONTINUOUS
370
-3
390
F
  0
LAYER
  5
206
100
AcDbSymbolTableRecord
100
AcDbLayerTableRecord
  2
10_NOTES
 70
0
 62
7
  6
CONTINUOUS
370
-3
390
F
  0
LAYER
  5
207
100
AcDbSymbolTableRecord
100
AcDbLayerTableRecord
  2
11_NOTES_PUB
 70
0
 62
7
  6
CONTINUOUS
370
-3
390
F
  0
LAYER
  5
208
100
AcDbSymbolTableRecord
100
AcDbLayerTableRecord
  2
13_REF_GTOL
 70
0
 62
7
  6
CONTINUOUS
370
-3
390
F
  0
LAYER
  5
209
100
AcDbSymbolTableRecord
100
AcDbLayerTableRecord
  2
16_MISC
 70
0
 62
7
  6
CONTINUOUS
370
-3
390
F
  0
LAYER
  5
20A
100
AcDbSymbolTableRecord
100
AcDbLayerTableRecord
  2
17_NO_PRINT
 70
0
 62
7
  6
CONTINUOUS
370
-3
390
F
  0
LAYER
  5
20B
100
AcDbSymbolTableRecord
100
AcDbLayerTableRecord
  2
18_DATUM_CAMS_JOINTS
 70
0
 62
7
  6
CONTINUOUS
370
-3
390
F
  0
LAYER
  5
20C
100
AcDbSymbolTableRecord
100
AcDbLayerTableRecord
  2
19_DATUM_FUNCTIONAL
 70
0
 62
7
  6
CONTINUOUS
370
-3
390
F
  0
LAYER
  5
20D
100
AcDbSymbolTableRecord
100
AcDbLayerTableRecord
  2
20_DATUM_KINEMATIC_SCHEME
 70
0
 62
7
  6
CONTINUOUS
370
-3
390
F
  0
ENDTAB
  0
TABLE
  2
STYLE
  5
3
100
AcDbSymbolTable
 70
1
  0
STYLE
  5
11
100
AcDbSymbolTableRecord
100
AcDbTextStyleTableRecord
  2
STANDARD
 70
0
 40
0.0
 41
1.0
 50
0.0
 71
0
 42
0.2
  3
ARIAL.TTF
  4

  0
STYLE
  5
20E
100
AcDbSymbolTableRecord
100
AcDbTextStyleTableRecord
  2
TEXTSTYLE_1
 70
0
 40
0.0
 41
0.8
 50
0.0
 71
0
 42
0.2
  3
gdt
  4

  0
ENDTAB
  0
TABLE
  2
VIEW
  5
6
100
AcDbSymbolTable
 70
0
  0
ENDTAB
  0
TABLE
  2
UCS
  5
7
100
AcDbSymbolTable
 70
0
  0
ENDTAB
  0
TABLE
  2
APPID
  5
9
100
AcDbSymbolTable
 70
1
  0
APPID
  5
20F
100
AcDbSymbolTableRecord
100
AcDbRegAppTableRecord
  2
ACAD
 70
0
  0
ENDTAB
  0
TABLE
  2
BLOCK_RECORD
  5
1
100
AcDbSymbolTable
 70
0
  0
BLOCK_RECORD
  5
210
100
AcDbSymbolTableRecord
100
AcDbBlockTableRecord
  2
*Model_Space
  0
BLOCK_RECORD
  5
211
100
AcDbSymbolTableRecord
100
AcDbBlockTableRecord
  2
*Paper_Space
  0
BLOCK_RECORD
  5
212
100
AcDbSymbolTableRecord
100
AcDbBlockTableRecord
  2
_FILLED
  0
ENDTAB
  0
TABLE
  2
DIMSTYLE
  5
A
100
AcDbSymbolTable
 70
1
100
AcDbDimStyleTable
 71
0
  0
DIMSTYLE
105
213
100
AcDbSymbolTableRecord
100
AcDbDimStyleTableRecord
  2
STANDARD
 70
0
  3

  4

 40
1.0
 41
0.8037237238
 42
1.0
 43
0.38
 44
1.0
 45
0.0
 46
0.0
 47
0.01
 48
0.01
140
1.1252132133
141
0.09
142
0.0
143
25.4
144
1.0
145
0.0
146
1.0
147
0.625
 71
1
 72
0
 73
0
 74
0
 75
0
 76
0
 77
1
 78
8
 79
2
170
0
171
1
172
0
173
0
174
0
175
0
176
0
177
0
178
0
270
2
179
2
271
2
272
2
273
2
274
2
275
0
280
0
281
0
282
0
283
1
284
8
285
0
286
0
287
3
288
0
340
11
278
46
341
212
342
212
343
212
344
212
  0
ENDTAB
  0
ENDSEC
  0
SECTION
  2
BLOCKS
  0
BLOCK
  5
20
100
AcDbEntity
  8
0
100
AcDbBlockBegin
  2
*Model_Space
 70
0
 10
0.0
 20
0.0
 30
0.0
  3
*Model_Space
  1

  0
ENDBLK
  5
21
100
AcDbEntity
  8
0
100
AcDbBlockEnd
  0
BLOCK
  5
1C
100
AcDbEntity
  8
0
100
AcDbBlockBegin
  2
*Paper_Space
 70
0
 10
0.0
 20
0.0
 30
0.0
  3
*Paper_Space
  1

  0
ENDBLK
  5
1D
100
AcDbEntity
  8
0
100
AcDbBlockEnd
  0
BLOCK
  5
214
100
AcDbEntity
  8
0
100
AcDbBlockBegin
  2
_FILLED
 70
64
 10
0.0
 20
0.0
  3
_FILLED
  1

  0
SOLID
  5
215
100
AcDbEntity
  8
0
  6
BYBLOCK
 62
0
100
AcDbTrace
 10
0.0
 20
0.0
 11
-1.0
 21
0.25
 12
-1.0
 22
-0.25
 13
-1.0
 23
-0.25
  0
ENDBLK
  5
216
100
AcDbEntity
  8
0
  6
BYBLOCK
 62
0
100
AcDbBlockEnd
  0
ENDSEC
  0
SECTION
  2
ENTITIES
  0
LINE
  5
217
100
AcDbEntity
  8
0
100
AcDbLine
 62
7
  6
BYLAYER
 10
7.1685860159
 20
41.9894443776
 11
7.1685860159
 21
42.2394443776
  0
LINE
  5
218
100
AcDbEntity
  8
0
100
AcDbLine
 62
7
  6
BYLAYER
 10
8.1685860159
 20
51.0894443776
 11
8.1685860159
 21
42.2394443776
  0
LINE
  5
219
100
AcDbEntity
  8
0
100
AcDbLine
 62
7
  6
BYLAYER
 10
8.1685860159
 20
52.2394443776
 11
8.1685860159
 21
53.2394443776
  0
LWPOLYLINE
  5
21A
100
AcDbEntity
  8
0
100
AcDbPolyline
 62
7
  6
BYLAYER
 90
16
 70
0
 10
10.9725126102
 20
50.3228428672
 10
11.0289649912
 20
48.9896562165
 10
11.4578206586
 20
47.9218210236
 10
12.2308415943
 20
47.1240943231
 10
13.3542542293
 20
46.5991874268
 10
14.3933030589
 20
46.40047103
 10
15.3358064713
 20
46.35039535
 10
16.1860624869
 20
46.3738752076
 10
16.9592873114
 20
46.4351194076
 10
17.6719012989
 20
46.5164860527
 10
18.3329426905
 20
46.6082490671
 10
18.9497302876
 20
46.7047331361
 10
19.528639657
 20
46.8025779013
 10
20.0745376413
 20
46.8996506206
 10
20.5909999633
 20
46.994513621
 10
21.9926458365
 20
47.2579697688
  0
LINE
  5
21B
100
AcDbEntity
  8
0
100
AcDbLine
 62
7
  6
BYLAYER
 10
9.7685860159
 20
42.2394443776
 11
9.7685860159
 21
51.0894443776
  0
LINE
  5
21C
100
AcDbEntity
  8
0
100
AcDbLine
 62
7
  6
BYLAYER
 10
10.3185860159
 20
58.2394443776
 11
10.3185860159
 21
53.2394443776
  0
LWPOLYLINE
  5
21D
100
AcDbEntity
  8
0
100
AcDbPolyline
 62
7
  6
BYLAYER
 90
37
 70
0
 10
10.9790559829
 20
51.676049824
 10
10.9171599886
 20
50.6893552042
 10
11.0428172393
 20
49.8088955874
 10
11.3291007423
 20
49.059370202
 10
11.7293753767
 20
48.4515974436
 10
12.1942282322
 20
47.9766659074
 10
12.6855152667
 20
47.6129542627
 10
13.1796145568
 20
47.335910328
 10
13.6641495418
 20
47.1245714941
 10
14.133273567
 20
46.9625503878
 10
14.5847782578
 20
46.8377215779
 10
15.018439082
 20
46.741467974
 10
15.4347357917
 20
46.6673543917
 10
15.8344770027
 20
46.6107131053
 10
16.2188018614
 20
46.5680429867
 10
16.5886779792
 20
46.5366562086
 10
16.9449838415
 20
46.514490215
 10
17.2887049887
 20
46.4999384513
 10
17.620730905
 20
46.4917182469
 10
17.9417039637
 20
46.4887940169
 10
18.2522753135
 20
46.4903273162
 10
18.5531244769
 20
46.4956360497
 10
18.8448605633
 20
46.5041546956
 10
19.1279123288
 20
46.5154049177
 10
19.4027019227
 20
46.5289822983
 10
19.6696581834
 20
46.5445491675
 10
19.9292161555
 20
46.5618210282
 10
20.1817282246
 20
46.5805511228
 10
20.427455757
 20
46.6005207416
 10
20.666662715
 20
46.6215402244
 10
20.8996157072
 20
46.6434467913
 10
21.126583951
 20
46.6661009159
 10
21.3478231762
 20
46.6893809935
 10
21.5635156598
 20
46.7131739885
 10
21.7738260799
 20
46.7373783986
 10
21.9789232051
 20
46.761905085
 10
22.3741642713
 20
46.8116245447
  0
LINE
  5
21E
100
AcDbEntity
  8
0
100
AcDbLine
 62
7
  6
BYLAYER
 10
13.9185860159
 20
44.2894443776
 11
13.9185860159
 21
41.9894443776
  0
LWPOLYLINE
  5
21F
100
AcDbEntity
  8
0
100
AcDbPolyline
 62
7
  6
BYLAYER
 90
6
 70
0
 10
15.0841679105
 20
51.7060388866
 10
15.0093807632
 20
50.5672895198
 10
15.2354392892
 20
49.5963542022
 10
15.7298407016
 20
48.8135546142
 10
16.442469487
 20
48.2304534249
 10
17.1983697911
 20
47.8797499806
  0
LINE
  5
220
100
AcDbEntity
  8
0
100
AcDbLine
 62
7
  6
BYLAYER
 10
15.0841759811
 20
51.7015446688
 11
15.0802991704
 21
51.6732640605
  0
LINE
  5
221
100
AcDbEntity
  8
0
100
AcDbLine
 62
7
  6
BYLAYER
 10
17.8185860159
 20
42.9894443776
 11
17.8185860159
 21
41.9894443776
  0
LINE
  5
222
100
AcDbEntity
  8
0
100
AcDbLine
 62
7
  6
BYLAYER
 10
18.2185860159
 20
47.5407185358
 11
18.2185860159
 21
45.3408940504
  0
LWPOLYLINE
  5
223
100
AcDbEntity
  8
0
100
AcDbPolyline
 62
7
  6
BYLAYER
 90
7
 70
0
 10
15.718451893
 20
48.7464318896
 10
15.7452629124
 20
48.7129877545
 10
15.7875213795
 20
48.6618466259
 10
15.8390505929
 20
48.6033647053
 10
15.8884347303
 20
48.5516638792
 10
15.9242195039
 20
48.5163098379
 10
15.9387418851
 20
48.5021721595
  0
LINE
  5
224
100
AcDbEntity
  8
0
100
AcDbLine
 62
7
  6
BYLAYER
 10
21.2185860166
 20
47.5405759264
 11
21.2185860166
 21
45.3407514409
  0
LWPOLYLINE
  5
225
100
AcDbEntity
  8
0
100
AcDbPolyline
 62
7
  6
BYLAYER
 90
5
 70
0
 10
22.9558174952
 20
51.7181584901
 10
22.8337169529
 20
50.8938113863
 10
22.9000490528
 20
50.1637297956
 10
23.1935439449
 20
49.5892004922
 10
23.6679468056
 20
49.2264953444
  0
LWPOLYLINE
  5
226
100
AcDbEntity
  8
0
100
AcDbPolyline
 62
7
  6
BYLAYER
 90
9
 70
0
 10
22.9943726363
 20
51.998343141
 10
22.8219698512
 20
51.6327155408
 10
22.7259216991
 20
51.2618175272
 10
22.6980602791
 20
50.8997858959
 10
22.7272224795
 20
50.556860042
 10
22.8015955805
 20
50.239045238
 10
22.910625019
 20
49.9486184211
 10
23.0455860584
 20
49.6861410368
 10
23.1997872631
 20
49.4508562295
  0
LWPOLYLINE
  5
227
100
AcDbEntity
  8
0
100
AcDbPolyline
 62
7
  6
BYLAYER
 90
22
 70
0
 10
24.5243466983
 20
50.5863938036
 10
24.5247921518
 20
50.5939105892
 10
24.5246487846
 20
50.6002183389
 10
24.5239494357
 20
50.606248808
 10
24.522693815
 20
50.6119945091
 10
24.5207001818
 20
50.618276221
 10
24.5175412327
 20
50.6260508758
 10
24.5129455312
 20
50.6355683759
 10
24.5072484707
 20
50.6459554537
 10
24.5010716648
 20
50.6561080693
 10
24.4945830641
 20
50.6658384656
 10
24.4877694319
 20
50.6752045773
 10
24.4806860361
 20
50.6841463873
 10
24.4737276661
 20
50.6922763672
 10
24.4668525752
 20
50.6997859017
 10
24.4599291151
 20
50.7068972473
 10
24.4528133675
 20
50.7137862154
 10
24.4455305903
 20
50.7204366997
 10
24.4382629621
 20
50.7267091059
 10
24.4313647065
 20
50.7323541001
 10
24.4249098959
 20
50.7373809752
 10
24.4187660302
 20
50.7419460003
  0
LWPOLYLINE
  5
228
100
AcDbEntity
  8
0
100
AcDbPolyline
 62
7
  6
BYLAYER
 90
3
 70
0
 10
24.5244653079
 20
50.5877079293
 10
24.5228065478
 20
50.575254943
 10
24.5213401618
 20
50.567554274
  0
LINE
  5
229
100
AcDbEntity
  8
0
100
AcDbLine
 62
7
  6
BYLAYER
 10
24.5213401618
 20
50.567554274
 11
24.5231428764
 21
50.5772538762
  0
LWPOLYLINE
  5
22A
100
AcDbEntity
  8
0
100
AcDbPolyline
 62
7
  6
BYLAYER
 90
3
 70
0
 10
24.5162254995
 20
50.5422435995
 10
24.5230454736
 20
50.5766613292
 10
24.5244653079
 20
50.5877079293
  0
LWPOLYLINE
  5
22B
100
AcDbEntity
  8
0
100
AcDbPolyline
 62
7
  6
BYLAYER
 90
41
 70
0
 10
23.8832862966
 20
50.5838801085
 10
23.8748180046
 20
50.57699214
 10
23.8670711933
 20
50.5707521422
 10
23.8599241704
 20
50.5650669202
 10
23.8531875439
 20
50.5597907543
 10
23.8473340816
 20
50.5552904026
 10
23.8421571968
 20
50.5513951082
 10
23.8351974513
 20
50.5463307539
 10
23.8309925183
 20
50.5432996519
 10
23.8381730667
 20
50.5473401058
 10
23.8461777496
 20
50.551529008
 10
23.8541002303
 20
50.5554405114
 10
23.8616991334
 20
50.5590146058
 10
23.8696632191
 20
50.5626003688
 10
23.8783202687
 20
50.5663343976
 10
23.8872340922
 20
50.5700198258
 10
23.896340851
 20
50.5736340639
 10
23.9056084239
 20
50.5771691571
 10
23.9150290881
 20
50.5806266289
 10
23.9245470819
 20
50.5839900458
 10
23.9342274523
 20
50.5872847518
 10
23.9441657835
 20
50.5905423435
 10
23.9543091349
 20
50.5937437624
 10
23.964648584
 20
50.5968856508
 10
23.975204587
 20
50.5999734673
 10
23.9859982106
 20
50.6030119073
 10
23.9970512494
 20
50.6060049554
 10
24.0083862884
 20
50.608955905
 10
24.0200108643
 20
50.6118634696
 10
24.0318845977
 20
50.6147148182
 10
24.0439591346
 20
50.617496885
 10
24.0561877771
 20
50.6201987025
 10
24.0685257406
 20
50.6228112407
 10
24.0809461037
 20
50.6253303595
 10
24.093434207
 20
50.6277548676
 10
24.1059725895
 20
50.6300832171
 10
24.1185448516
 20
50.6323142602
 10
24.1311356503
 20
50.6344471756
 10
24.1437306224
 20
50.6364813902
 10
24.1563162725
 20
50.6384165026
 10
24.1688798344
 20
50.6402522126
  0
LWPOLYLINE
  5
22C
100
AcDbEntity
  8
0
100
AcDbPolyline
 62
7
  6
BYLAYER
 90
37
 70
0
 10
16.6465606614
 20
47.9492061902
 10
16.7102939934
 20
47.9093761718
 10
16.8070543309
 20
47.8511599147
 10
16.91692504
 20
47.7900562572
 10
17.0382403427
 20
47.7287438115
 10
17.1695217563
 20
47.6687830649
 10
17.3093857039
 20
47.6109294287
 10
17.4560426809
 20
47.5555493947
 10
17.6093037286
 20
47.502095425
 10
17.7695853922
 20
47.4499210732
 10
17.9357851905
 20
47.3996397495
 10
18.107125662
 20
47.3518913735
 10
18.283403092
 20
47.3071386153
 10
18.4643807542
 20
47.2659017177
 10
18.6504650986
 20
47.2286125739
 10
18.842440337
 20
47.1956483229
 10
19.0408290074
 20
47.1671440528
 10
19.2460383632
 20
47.1431692199
 10
19.4584387746
 20
47.1238223152
 10
19.6777431263
 20
47.1092586736
 10
19.9027891884
 20
47.0996120401
 10
20.1325253115
 20
47.0947932141
 10
20.3661227181
 20
47.0945107046
 10
20.6025512212
 20
47.0984001571
 10
20.8399149504
 20
47.106010124
 10
21.0759246849
 20
47.1167877711
 10
21.3079673003
 20
47.1304583738
 10
21.5336479054
 20
47.1470340961
 10
21.7511685107
 20
47.1664408907
 10
21.960830908
 20
47.1886965764
 10
22.1635980747
 20
47.2138774075
 10
22.3603341149
 20
47.2419162712
 10
22.5519144476
 20
47.272221254
 10
22.7392837093
 20
47.3042080541
 10
22.9230652814
 20
47.3373836288
 10
23.1033141673
 20
47.3712547335
 10
23.4502215265
 20
47.4387080738
  0
LWPOLYLINE
  5
22D
100
AcDbEntity
  8
0
100
AcDbPolyline
 62
7
  6
BYLAYER
 90
14
 70
0
 10
24.0814806485
 20
50.7313207393
 10
24.0702417415
 20
50.7246455437
 10
24.0586797078
 20
50.7174821128
 10
24.0467459073
 20
50.7097881734
 10
24.0343903259
 20
50.7015182338
 10
24.0215616902
 20
50.6926243791
 10
24.0082124201
 20
50.6830608917
 10
23.9944943648
 20
50.67293276
 10
23.9808515649
 20
50.6625881311
 10
23.9677625024
 20
50.6524380093
 10
23.9554800884
 20
50.6427397108
 10
23.9438719629
 20
50.6334433113
 10
23.932804756
 20
50.6244836229
 10
23.8832862966
 20
50.5838801085
  0
LINE
  5
22E
100
AcDbEntity
  8
0
100
AcDbLine
 62
7
  6
BYLAYER
 10
24.093459144
 20
50.7381081861
 11
24.0819702012
 21
50.7316039945
  0
LINE
  5
22F
100
AcDbEntity
  8
0
100
AcDbLine
 62
7
  6
BYLAYER
 10
24.1045219259
 20
50.7440645835
 11
24.092443749
 21
50.7375462806
  0
LWPOLYLINE
  5
230
100
AcDbEntity
  8
0
100
AcDbPolyline
 62
7
  6
BYLAYER
 90
13
 70
0
 10
26.3869797093
 20
50.604648775
 10
26.1447292794
 20
50.4789186239
 10
25.9173102425
 20
50.3701594197
 10
25.7039756038
 20
50.2812497975
 10
25.5019131724
 20
50.2149046146
 10
25.3149841718
 20
50.1762503211
 10
25.1469188531
 20
50.1729472374
 10
24.9848984965
 20
50.2218773646
 10
24.8077266084
 20
50.3432092869
 10
24.6476487139
 20
50.5205968032
 10
24.5381419946
 20
50.7214260383
 10
24.4980055703
 20
50.9197375163
 10
24.5428541138
 20
51.0806386715
  0
LINE
  5
231
100
AcDbEntity
  8
0
100
AcDbLine
 62
7
  6
BYLAYER
 10
24.1151979616
 20
50.7495192449
 11
24.1031716146
 21
50.743353827
  0
LINE
  5
232
100
AcDbEntity
  8
0
100
AcDbLine
 62
7
  6
BYLAYER
 10
24.1255257611
 20
50.7545143603
 11
24.1136785504
 21
50.748758819
  0
LINE
  5
233
100
AcDbEntity
  8
0
100
AcDbLine
 62
7
  6
BYLAYER
 10
24.135542897
 20
50.7590881576
 11
24.123969883
 21
50.7537719276
  0
LINE
  5
234
100
AcDbEntity
  8
0
100
AcDbLine
 62
7
  6
BYLAYER
 10
24.1452860728
 20
50.7632749267
 11
24.1340507785
 21
50.7584040322
  0
LINE
  5
235
100
AcDbEntity
  8
0
100
AcDbLine
 62
7
  6
BYLAYER
 10
24.154786902
 20
50.7671034073
 11
24.1439261003
 21
50.7626660439
  0
LINE
  5
236
100
AcDbEntity
  8
0
100
AcDbLine
 62
7
  6
BYLAYER
 10
24.16405949
 20
50.7705928989
 11
24.1536003861
 21
50.7665688206
  0
LINE
  5
237
100
AcDbEntity
  8
0
100
AcDbLine
 62
7
  6
BYLAYER
 10
26.1365782888
 20
51.3447681077
 11
25.5352884389
 21
51.1192899009
  0
LINE
  5
238
100
AcDbEntity
  8
0
100
AcDbLine
 62
7
  6
BYLAYER
 10
25.548508819
 20
51.1238906099
 11
25.4321507815
 21
51.0808867592
  0
LINE
  5
239
100
AcDbEntity
  8
0
100
AcDbLine
 62
7
  6
BYLAYER
 10
26.2740514443
 20
51.3951819662
 11
26.1316355798
 21
51.3426149184
  0
LINE
  5
23A
100
AcDbEntity
  8
0
100
AcDbLine
 62
7
  6
BYLAYER
 10
25.432560722
 20
51.0813610218
 11
25.3339278192
 21
51.045484134
  0
LINE
  5
23B
100
AcDbEntity
  8
0
100
AcDbLine
 62
7
  6
BYLAYER
 10
26.3925863919
 20
51.4385841179
 11
26.262581506
 21
51.3913054214
  0
LINE
  5
23C
100
AcDbEntity
  8
0
100
AcDbLine
 62
7
  6
BYLAYER
 10
25.348275723
 20
51.0503291366
 11
25.2628172579
 21
51.0200412439
  0
LINE
  5
23D
100
AcDbEntity
  8
0
100
AcDbLine
 62
7
  6
BYLAYER
 10
26.4974313052
 20
51.4756816942
 11
26.3841991987
 21
51.4352208419
  0
LINE
  5
23E
100
AcDbEntity
  8
0
100
AcDbLine
 62
7
  6
BYLAYER
 10
25.2674543957
 20
51.0213396594
 11
25.1898687307
 21
50.9940294349
  0
LINE
  5
23F
100
AcDbEntity
  8
0
100
AcDbLine
 62
7
  6
BYLAYER
 10
26.5958349277
 20
51.5105430462
 11
26.4929153501
 21
51.4744367437
  0
LINE
  5
240
100
AcDbEntity
  8
0
100
AcDbLine
 62
7
  6
BYLAYER
 10
24.1731124052
 20
50.7737595624
 11
24.1630778416
 21
50.770123113
  0
LINE
  5
241
100
AcDbEntity
  8
0
100
AcDbLine
 62
7
  6
BYLAYER
 10
26.6659755564
 20
51.5347137043
 11
26.57474126
 21
51.5028368209
  0
LINE
  5
242
100
AcDbEntity
  8
0
100
AcDbLine
 62
7
  6
BYLAYER
 10
25.1943359547
 20
50.9959500517
 11
25.1285606335
 21
50.9732607191
  0
LINE
  5
243
100
AcDbEntity
  8
0
100
AcDbLine
 62
7
  6
BYLAYER
 10
26.7374106015
 20
51.5589302722
 11
26.6535954514
 21
51.5300957192
  0
LINE
  5
244
100
AcDbEntity
  8
0
100
AcDbLine
 62
7
  6
BYLAYER
 10
25.1400139795
 20
50.9767988144
 11
25.0861436737
 21
50.9588986245
  0
LINE
  5
245
100
AcDbEntity
  8
0
100
AcDbLine
 62
7
  6
BYLAYER
 10
25.0916281424
 20
50.9603503027
 11
25.0446851102
 21
50.9446826756
  0
LINE
  5
246
100
AcDbEntity
  8
0
100
AcDbLine
 62
7
  6
BYLAYER
 10
26.8102021965
 20
51.583157983
 11
26.7374106015
 21
51.5589302722
  0
LINE
  5
247
100
AcDbEntity
  8
0
100
AcDbLine
 62
7
  6
BYLAYER
 10
25.0446851102
 20
50.9446826756
 11
24.9991694815
 21
50.9297974735
  0
LINE
  5
248
100
AcDbEntity
  8
0
100
AcDbLine
 62
7
  6
BYLAYER
 10
26.8844030397
 20
51.6073541738
 11
26.8102021965
 21
51.583157983
  0
LINE
  5
249
100
AcDbEntity
  8
0
100
AcDbLine
 62
7
  6
BYLAYER
 10
25.0045581415
 20
50.9319680588
 11
24.9550511449
 21
50.9156880148
  0
LINE
  5
24A
100
AcDbEntity
  8
0
100
AcDbLine
 62
7
  6
BYLAYER
 10
26.9600639543
 20
51.6314705569
 11
26.8844030397
 21
51.6073541738
  0
LINE
  5
24B
100
AcDbEntity
  8
0
100
AcDbLine
 62
7
  6
BYLAYER
 10
24.9653027912
 20
50.9193802205
 11
24.9335131348
 21
50.9089220162
  0
LINE
  5
24C
100
AcDbEntity
  8
0
100
AcDbLine
 62
7
  6
BYLAYER
 10
27.0372378022
 20
51.6554540564
 11
26.9600639543
 21
51.6314705569
  0
LINE
  5
24D
100
AcDbEntity
  8
0
100
AcDbLine
 62
7
  6
BYLAYER
 10
8.3685860159
 20
40.7894443776
 11
32.1685860159
 21
40.7894443776
  0
LINE
  5
24E
100
AcDbEntity
  8
0
100
AcDbLine
 62
7
  6
BYLAYER
 10
13.9185860159
 20
41.9894443776
 11
30.4185860159
 21
41.9894443776
  0
LINE
  5
24F
100
AcDbEntity
  8
0
100
AcDbLine
 62
7
  6
BYLAYER
 10
9.7685860159
 20
42.2394443776
 11
7.1685860159
 21
42.2394443776
  0
LINE
  5
250
100
AcDbEntity
  8
0
100
AcDbLine
 62
7
  6
BYLAYER
 10
29.4380734209
 20
43.1873667918
 11
26.0170095512
 21
46.6084306614
  0
LINE
  5
251
100
AcDbEntity
  8
0
100
AcDbLine
 62
7
  6
BYLAYER
 10
26.6083786655
 20
47.3412211319
 11
26.6790893436
 21
47.2705104538
  0
LWPOLYLINE
  5
252
100
AcDbEntity
  8
0
100
AcDbPolyline
 62
7
  6
BYLAYER
 90
4
 70
0
 10
27.1915632014
 20
47.9329857199
 10
27.1564803929
 20
47.8923830411
 10
27.1156327829
 20
47.8490889335
 10
27.0735626242
 20
47.8064050906
  0
LWPOLYLINE
  5
253
100
AcDbEntity
  8
0
100
AcDbPolyline
 62
7
  6
BYLAYER
 90
6
 70
0
 10
26.9174636343
 20
47.5673367147
 10
26.9761350703
 20
47.6326515333
 10
27.0345036442
 20
47.7067315242
 10
27.0893254645
 20
47.7834369712
 10
27.1342801401
 20
47.8498286857
 10
27.1915828528
 20
47.9330034005
  0
LINE
  5
254
100
AcDbEntity
  8
0
100
AcDbLine
 62
7
  6
BYLAYER
 10
30.5028808416
 20
51.235723308
 11
26.6083786655
 21
47.3412211319
  0
LINE
  5
255
100
AcDbEntity
  8
0
100
AcDbLine
 62
7
  6
BYLAYER
 10
31.249599732
 20
51.8410208422
 11
26.0170095512
 21
46.6084306614
  0
LINE
  5
256
100
AcDbEntity
  8
0
100
AcDbLine
 62
7
  6
BYLAYER
 10
27.0730101757
 20
47.8058525424
 11
27.0285924213
 21
47.7618447581
  0
LWPOLYLINE
  5
257
100
AcDbEntity
  8
0
100
AcDbPolyline
 62
7
  6
BYLAYER
 90
15
 70
0
 10
27.1164445822
 20
48.6900125346
 10
27.2613057211
 20
48.7609871662
 10
27.3300099861
 20
48.7941634806
 10
27.394763826
 20
48.8247009459
 10
27.4548705102
 20
48.852318288
 10
27.5067178385
 20
48.875506263
 10
27.5480314956
 20
48.8934249956
 10
27.5856251085
 20
48.9091190768
 10
27.6227996756
 20
48.9238928118
 10
27.6605447329
 20
48.9379791309
 10
27.6995941931
 20
48.9514396553
 10
27.7421043439
 20
48.9648228376
 10
27.7879004305
 20
48.9780107587
 10
27.8360136856
 20
48.9907765523
 10
27.8855457094
 20
49.0030639338
  0
LINE
  5
258
100
AcDbEntity
  8
0
100
AcDbLine
 62
7
  6
BYLAYER
 10
24.9460413409
 20
50.9133001021
 11
24.9082391219
 21
50.9015630432
  0
LINE
  5
259
100
AcDbEntity
  8
0
100
AcDbLine
 62
7
  6
BYLAYER
 10
24.9123251389
 20
50.9023483845
 11
24.8710365525
 21
50.8897865288
  0
LINE
  5
25A
100
AcDbEntity
  8
0
100
AcDbLine
 62
7
  6
BYLAYER
 10
24.8896891057
 20
50.8959030939
 11
24.8509589925
 21
50.8838033272
  0
LINE
  5
25B
100
AcDbEntity
  8
0
100
AcDbLine
 62
7
  6
BYLAYER
 10
24.8532702937
 20
50.8849941112
 11
24.8120012035
 21
50.872445084
  0
LINE
  5
25C
100
AcDbEntity
  8
0
100
AcDbLine
 62
7
  6
BYLAYER
 10
24.8177412193
 20
50.8746284249
 11
24.7931483057
 21
50.8670748403
  0
LINE
  5
25D
100
AcDbEntity
  8
0
100
AcDbLine
 62
7
  6
BYLAYER
 10
17.8185860159
 20
42.9894443776
 11
13.9185860159
 21
42.9894443776
  0
LINE
  5
25E
100
AcDbEntity
  8
0
100
AcDbLine
 62
7
  6
BYLAYER
 10
30.4185860159
 20
44.0394443776
 11
13.9185860159
 21
44.0394443776
  0
LINE
  5
25F
100
AcDbEntity
  8
0
100
AcDbLine
 62
7
  6
BYLAYER
 10
30.4185860159
 20
44.2894443776
 11
13.9185860159
 21
44.2894443776
  0
LINE
  5
260
100
AcDbEntity
  8
0
100
AcDbLine
 62
7
  6
BYLAYER
 10
26.9585201909
 20
47.6913626573
 11
27.029230869
 21
47.6206519792
  0
LINE
  5
261
100
AcDbEntity
  8
0
100
AcDbLine
 62
7
  6
BYLAYER
 10
27.5699466924
 20
48.3027891588
 11
27.6406573705
 21
48.2320784807
  0
LINE
  5
262
100
AcDbEntity
  8
0
100
AcDbLine
 62
7
  6
BYLAYER
 10
30.4185860159
 20
41.9894443776
 11
30.4185860159
 21
44.2894443776
  0
LWPOLYLINE
  5
263
100
AcDbEntity
  8
0
100
AcDbPolyline
 62
7
  6
BYLAYER
 90
7
 70
0
 10
26.7663792207
 20
48.5333583779
 10
26.7491794531
 20
48.5258607738
 10
26.8004399976
 20
48.5467334074
 10
26.8846455834
 20
48.5822020591
 10
26.9668751211
 20
48.6189578386
 10
27.0428487405
 20
48.6545052065
 10
27.1164445822
 20
48.6900125346
  0
LINE
  5
264
100
AcDbEntity
  8
0
100
AcDbLine
 62
7
  6
BYLAYER
 10
25.6849729499
 20
48.0886946575
 11
25.7549190258
 21
48.1159313338
  0
LINE
  5
265
100
AcDbEntity
  8
0
100
AcDbLine
 62
7
  6
BYLAYER
 10
21.2185860166
 20
45.3407514409
 11
18.2185860159
 21
45.3407514409
  0
LWPOLYLINE
  5
266
100
AcDbEntity
  8
0
100
AcDbPolyline
 62
7
  6
BYLAYER
 90
3
 70
0
 10
28.2489739009
 20
48.9818163673
 10
27.4656596755
 20
49.4889697997
 10
26.4917079159
 20
49.6729773678
  0
LINE
  5
267
100
AcDbEntity
  8
0
100
AcDbLine
 62
7
  6
BYLAYER
 10
24.4129613562
 20
50.7460717262
 11
24.4076039616
 21
50.7497357258
  0
LWPOLYLINE
  5
268
100
AcDbEntity
  8
0
100
AcDbPolyline
 62
7
  6
BYLAYER
 90
3
 70
0
 10
24.4076039616
 20
50.7497357258
 10
24.4098693982
 20
50.7481698525
 10
24.4187660302
 20
50.7419460003
  0
LWPOLYLINE
  5
269
100
AcDbEntity
  8
0
100
AcDbPolyline
 62
7
  6
BYLAYER
 90
37
 70
0
 10
24.4133036291
 20
50.7457073448
 10
24.4163987091
 20
50.7434002577
 10
24.4201559888
 20
50.7404867504
 10
24.4241841522
 20
50.7372219996
 10
24.4283492126
 20
50.7336865858
 10
24.4326102887
 20
50.7298935818
 10
24.436948878
 20
50.7258385686
 10
24.4413550681
 20
50.7215088306
 10
24.4458154224
 20
50.7168940057
 10
24.4503089533
 20
50.7119918977
 10
24.4548092904
 20
50.7068084076
 10
24.45928994
 20
50.7013523698
 10
24.4637249648
 20
50.6956351201
 10
24.4680895677
 20
50.689670012
 10
24.4723597307
 20
50.6834731126
 10
24.4765120323
 20
50.6770638557
 10
24.4805237024
 20
50.6704655183
 10
24.4843728475
 20
50.6637055359
 10
24.4880388056
 20
50.656815649
 10
24.4915025962
 20
50.6498318646
 10
24.4947474295
 20
50.6427942159
 10
24.4977592364
 20
50.6357463124
 10
24.5005271769
 20
50.6287346827
 10
24.5030439042
 20
50.6218084434
 10
24.5053173057
 20
50.6149827001
 10
24.5073634413
 20
50.6082445996
 10
24.5091887282
 20
50.6016044553
 10
24.5108041784
 20
50.5950504307
 10
24.5122152549
 20
50.588583788
 10
24.5134224085
 20
50.5822261882
 10
24.5144166965
 20
50.576068552
 10
24.5152171363
 20
50.5700388406
 10
24.515833102
 20
50.5640566176
 10
24.5162552146
 20
50.558146867
 10
24.5164642963
 20
50.5526835116
 10
24.5164741204
 20
50.5474571523
 10
24.5162275077
 20
50.5422681686
  0
LINE
  5
26A
100
AcDbEntity
  8
0
100
AcDbLine
 62
7
  6
BYLAYER
 10
28.8603975013
 20
49.5932399677
 11
28.7284381898
 21
49.7159813711
  0
LINE
  5
26B
100
AcDbEntity
  8
0
100
AcDbLine
 62
7
  6
BYLAYER
 10
28.2319558415
 20
48.9647983079
 11
28.3026665196
 21
48.8940876298
  0
LINE
  5
26C
100
AcDbEntity
  8
0
100
AcDbLine
 62
7
  6
BYLAYER
 10
28.2666677361
 20
48.9995102025
 11
28.3373784142
 21
48.9287995244
  0
LINE
  5
26D
100
AcDbEntity
  8
0
100
AcDbLine
 62
7
  6
BYLAYER
 10
28.8585201909
 20
49.5913626573
 11
28.929230869
 21
49.5206519792
  0
LINE
  5
26E
100
AcDbEntity
  8
0
100
AcDbLine
 62
7
  6
BYLAYER
 10
28.8780942376
 20
49.610936704
 11
28.9488049157
 21
49.5402260259
  0
LINE
  5
26F
100
AcDbEntity
  8
0
100
AcDbLine
 62
7
  6
BYLAYER
 10
34.0185860159
 20
58.2394443776
 11
34.0185860159
 21
53.2394443776
  0
LINE
  5
270
100
AcDbEntity
  8
0
100
AcDbLine
 62
7
  6
BYLAYER
 10
34.6706636016
 20
48.4199569726
 11
29.4380734209
 21
43.1873667918
  0
LINE
  5
271
100
AcDbEntity
  8
0
100
AcDbLine
 62
7
  6
BYLAYER
 10
26.6487599217
 20
47.3937967386
 11
26.6519412092
 21
47.3947879577
  0
LWPOLYLINE
  5
272
100
AcDbEntity
  8
0
100
AcDbPolyline
 62
7
  6
BYLAYER
 90
28
 70
0
 10
26.6621038755
 20
47.3977824872
 10
26.6665610949
 20
47.3991250558
 10
26.6716733913
 20
47.4007156058
 10
26.6772078868
 20
47.4025101433
 10
26.6830933433
 20
47.4045098618
 10
26.6892915468
 20
47.4067236564
 10
26.6957752407
 20
47.409161838
 10
26.7025457384
 20
47.4118441243
 10
26.7096237565
 20
47.4147986954
 10
26.7170125078
 20
47.4180476396
 10
26.7247517947
 20
47.4216306074
 10
26.7328979521
 20
47.4256000903
 10
26.7414744198
 20
47.4299974804
 10
26.7505245847
 20
47.4348778921
 10
26.7600843943
 20
47.4402981591
 10
26.7701278265
 20
47.4462830794
 10
26.7806037651
 20
47.4528400505
 10
26.7914595657
 20
47.4599707576
 10
26.8026407011
 20
47.4676702741
 10
26.814107387
 20
47.4759386585
 10
26.8258638952
 20
47.4848056954
 10
26.8379233585
 20
47.4943098643
 10
26.8502998728
 20
47.5044933288
 10
26.8630080438
 20
47.5154018525
 10
26.8760624937
 20
47.5270845816
 10
26.8894772996
 20
47.5395936402
 10
26.9032653776
 20
47.5529835033
 10
26.9174387218
 20
47.5673110273
  0
LINE
  5
273
100
AcDbEntity
  8
0
100
AcDbLine
 62
7
  6
BYLAYER
 10
26.6519412092
 20
47.3947879577
 11
26.6621038755
 21
47.3977824872
  0
LWPOLYLINE
  5
274
100
AcDbEntity
  8
0
100
AcDbPolyline
 62
7
  6
BYLAYER
 90
11
 70
0
 10
21.2185860171
 20
45.3407366986
 10
22.1229777186
 20
45.4569657498
 10
22.8687666058
 20
45.7123056243
 10
23.4887989071
 20
46.0180183532
 10
24.0163045201
 20
46.3326134552
 10
24.4757206938
 20
46.638197654
 10
24.8837986552
 20
46.9272522187
 10
25.2525067035
 20
47.1964330571
 10
25.589974055
 20
47.4446707542
 10
25.9022363418
 20
47.6715844843
 10
26.1937928408
 20
47.8768253025
  0
LINE
  5
275
100
AcDbEntity
  8
0
100
AcDbLine
 62
7
  6
BYLAYER
 10
21.2185860152
 20
47.5407185358
 11
18.2185860159
 21
47.5407185358
  0
LWPOLYLINE
  5
276
100
AcDbEntity
  8
0
100
AcDbPolyline
 62
7
  6
BYLAYER
 90
14
 70
0
 10
19.5012252103
 20
47.5155014805
 10
20.1136935499
 20
47.5138197995
 10
20.6827958228
 20
47.5343896362
 10
21.2138972956
 20
47.5695365377
 10
21.7112780319
 20
47.6143301543
 10
22.1788609587
 20
47.6654860521
 10
22.6195533854
 20
47.7207140957
 10
23.0357168466
 20
47.7783715271
 10
23.4294924227
 20
47.8372723653
 10
23.802373254
 20
47.8964925322
 10
24.1557570578
 20
47.9553385104
 10
24.4909098291
 20
48.0132833391
 10
24.8087289051
 20
48.0698822769
 10
25.3958012409
 20
48.1777563018
  0
LWPOLYLINE
  5
277
100
AcDbEntity
  8
0
100
AcDbPolyline
 62
7
  6
BYLAYER
 90
8
 70
0
 10
17.162726214
 20
48.3060432853
 10
15.8629723444
 20
48.4229737456
 10
14.7880531677
 20
48.6457961699
 10
13.9239412123
 20
48.9763273226
 10
13.281881038
 20
49.419366605
 10
12.8959660806
 20
49.9509296338
 10
12.7251847396
 20
50.6095885741
 10
12.7581167529
 20
51.4028435672
  0
LWPOLYLINE
  5
278
100
AcDbEntity
  8
0
100
AcDbPolyline
 62
7
  6
BYLAYER
 90
4
 70
0
 10
29.5223853778
 20
50.2552278442
 10
28.9165070678
 20
50.6761071314
 10
28.1544406076
 20
50.8397715057
 10
27.3451574672
 20
50.7162064168
  0
LWPOLYLINE
  5
279
100
AcDbEntity
  8
0
100
AcDbPolyline
 62
7
  6
BYLAYER
 90
9
 70
0
 10
30.1489629297
 20
50.8818053961
 10
29.5955782156
 20
51.2807525703
 10
29.0134146887
 20
51.4572683399
 10
28.4717095492
 20
51.4609239009
 10
27.9998833091
 20
51.3627692589
 10
27.595157657
 20
51.2179291654
 10
27.243059522
 20
51.0576946764
 10
26.9304702168
 20
50.8974626727
 10
26.3869797093
 20
50.604648775
  0
LWPOLYLINE
  5
27A
100
AcDbEntity
  8
0
100
AcDbPolyline
 62
7
  6
BYLAYER
 90
63
 70
0
 10
30.5029658366
 20
51.2358083031
 10
30.4427377388
 20
51.2933728561
 10
30.3813226268
 20
51.3481455278
 10
30.3188469019
 20
51.4001350758
 10
30.2554304115
 20
51.4493473496
 10
30.1911874361
 20
51.4957851445
 10
30.1262332767
 20
51.5394632674
 10
30.0606912715
 20
51.5804357791
 10
29.9946826302
 20
51.6187592745
 10
29.9283253515
 20
51.6544856098
 10
29.8617347324
 20
51.6876622599
 10
29.7950168242
 20
51.7183441807
 10
29.7282489761
 20
51.746619685
 10
29.6615229881
 20
51.7725717723
 10
29.5949336013
 20
51.7962804045
 10
29.5285740142
 20
51.8178246042
 10
29.4625324206
 20
51.8372845835
 10
29.3968706733
 20
51.8547532631
 10
29.3316382296
 20
51.8703278719
 10
29.266883044
 20
51.8841043878
 10
29.2026526962
 20
51.8961771745
 10
29.1389906267
 20
51.9066391504
 10
29.0759128161
 20
51.9155758771
 10
29.0134259261
 20
51.9230630042
 10
28.9515686054
 20
51.9291716124
 10
28.8903775918
 20
51.9339741378
 10
28.8298643936
 20
51.9375450911
 10
28.7700394043
 20
51.939957761
 10
28.7109115966
 20
51.9412840834
 10
28.6524885281
 20
51.9415944901
 10
28.5947763556
 20
51.9409577731
 10
28.5377798594
 20
51.9394409614
 10
28.4815023061
 20
51.9371092053
 10
28.4259315616
 20
51.9340217141
 10
28.3710511622
 20
51.9302242999
 10
28.316855709
 20
51.9257595288
 10
28.2633388381
 20
51.9206686596
 10
28.2104945691
 20
51.9149917444
 10
28.1583215978
 20
51.9087681976
 10
28.1068097254
 20
51.9020352171
 10
28.0559466208
 20
51.8948282861
 10
28.0057198652
 20
51.8871814121
 10
27.956116953
 20
51.8791271569
 10
27.9071253173
 20
51.8706966723
 10
27.8587323563
 20
51.8619197381
 10
27.8109247936
 20
51.8528246453
 10
27.7636819321
 20
51.8434349086
 10
27.7169912321
 20
51.8337710188
 10
27.6708438555
 20
51.8238529087
 10
27.6252307894
 20
51.8136995809
 10
27.5801429224
 20
51.8033291498
 10
27.5355710619
 20
51.7927588722
 10
27.4915059457
 20
51.7820051773
 10
27.4479370635
 20
51.7710833932
 10
27.4048525844
 20
51.7600077174
 10
27.3622422317
 20
51.7487919719
 10
27.3200959393
 20
51.7374493155
 10
27.278403834
 20
51.7259922723
 10
27.2371562337
 20
51.7144327629
 10
27.1963436292
 20
51.7027821296
 10
27.15595483
 20
51.6910504203
 10
27.1159790157
 20
51.679246117
 10
27.0372378022
 20
51.6554540564
  0
LINE
  5
27B
100
AcDbEntity
  8
0
100
AcDbLine
 62
7
  6
BYLAYER
 10
29.5401033867
 20
50.2729458531
 11
29.6108140648
 21
50.202235175
  0
LINE
  5
27C
100
AcDbEntity
  8
0
100
AcDbLine
 62
7
  6
BYLAYER
 10
30.1666677361
 20
50.8995102025
 11
30.2373784142
 21
50.8287995244
  0
LINE
  5
27D
100
AcDbEntity
  8
0
100
AcDbLine
 62
7
  6
BYLAYER
 10
30.4915714738
 20
51.2244139402
 11
30.5622821519
 21
51.1537032621
  0
LINE
  5
27E
100
AcDbEntity
  8
0
100
AcDbLine
 62
7
  6
BYLAYER
 10
35.4685860159
 20
52.2394443776
 11
35.4685860159
 21
53.2394443776
  0
LWPOLYLINE
  5
27F
100
AcDbEntity
  8
0
100
AcDbPolyline
 62
7
  6
BYLAYER
 90
7
 70
0
 10
24.9181737873
 20
47.8330786897
 10
25.0727540425
 20
47.8735431093
 10
25.1807529511
 20
47.9040620661
 10
25.2887563413
 20
47.9385909503
 10
25.3944935055
 20
47.9759420792
 10
25.4971060089
 20
48.0147066669
 10
25.6849729499
 20
48.0886946575
  0
LINE
  5
280
100
AcDbEntity
  8
0
100
AcDbLine
 62
7
  6
BYLAYER
 10
24.915679222
 20
47.832506446
 11
24.9181737873
 21
47.8330786897
  0
LWPOLYLINE
  5
281
100
AcDbEntity
  8
0
100
AcDbPolyline
 62
7
  6
BYLAYER
 90
7
 70
0
 10
23.4502215265
 20
47.4387080738
 10
23.61505546
 20
47.4721129431
 10
23.7756558817
 20
47.5077578032
 10
23.932158528
 20
47.5473803375
 10
24.0790262806
 20
47.5898283863
 10
24.2066009721
 20
47.6286350493
 10
24.2924908579
 20
47.6537321439
  0
LINE
  5
282
100
AcDbEntity
  8
0
100
AcDbLine
 62
7
  6
BYLAYER
 10
25.3958012409
 20
48.1777563018
 11
26.3878939922
 21
48.3649718411
  0
LWPOLYLINE
  5
283
100
AcDbEntity
  8
0
100
AcDbPolyline
 62
7
  6
BYLAYER
 90
17
 70
0
 10
21.9926458365
 20
47.2579697688
 10
22.4177713041
 20
47.3372125027
 10
22.8246215651
 20
47.411718327
 10
23.2144934408
 20
47.4813249337
 10
23.5885578228
 20
47.5459173579
 10
23.9477290626
 20
47.6053891087
 10
24.2927637838
 20
47.659644624
 10
24.6242955242
 20
47.7085976842
 10
24.9428345023
 20
47.7521670845
 10
25.2491382972
 20
47.7903199679
 10
25.5439344863
 20
47.8229950058
 10
25.8265776187
 20
47.8500109089
 10
26.0898735496
 20
47.8691169376
 10
26.3473521389
 20
47.8759222693
 10
26.5944329177
 20
47.8611734948
 10
26.8082581679
 20
47.8131538486
 10
26.9762140561
 20
47.7090565225
  0
LWPOLYLINE
  5
284
100
AcDbEntity
  8
0
100
AcDbPolyline
 62
7
  6
BYLAYER
 90
9
 70
0
 10
26.3878939922
 20
48.3649718411
 10
26.598093193
 20
48.4035968766
 10
26.7932242641
 20
48.4356860055
 10
26.9726547897
 20
48.4583663433
 10
27.1328038454
 20
48.4689115976
 10
27.2741071666
 20
48.4648664033
 10
27.389214456
 20
48.4441816279
 10
27.4841553033
 20
48.4033665825
 10
27.5876435754
 20
48.3204860418
  0
LINE
  5
285
100
AcDbEntity
  8
0
100
AcDbLine
 62
7
  6
BYLAYER
 10
25.1725309167
 20
47.2393843121
 11
25.943252919
 21
47.3739766691
  0
LWPOLYLINE
  5
286
100
AcDbEntity
  8
0
100
AcDbPolyline
 62
7
  6
BYLAYER
 90
13
 70
0
 10
25.943252919
 20
47.3739766691
 10
26.0355531916
 20
47.3896483547
 10
26.1223942637
 20
47.4033344337
 10
26.2037114485
 20
47.4146306876
 10
26.2780264377
 20
47.4230315441
 10
26.3455415052
 20
47.4283140546
 10
26.4062853733
 20
47.4303679207
 10
26.4587070326
 20
47.4290209091
 10
26.5014776381
 20
47.4247597555
 10
26.532639232
 20
47.4185130652
 10
26.5556769077
 20
47.410885844
 10
26.5804339321
 20
47.3974376959
 10
26.626085423
 20
47.3589278894
  0
LINE
  5
287
100
AcDbEntity
  8
0
100
AcDbLine
 62
7
  6
BYLAYER
 10
24.6550717905
 20
47.152022969
 11
25.1725309167
 21
47.2393843121
  0
LINE
  5
288
100
AcDbEntity
  8
0
100
AcDbLine
 62
7
  6
BYLAYER
 10
24.2310765441
 20
47.0828069066
 11
24.6550717905
 21
47.152022969
  0
LINE
  5
289
100
AcDbEntity
  8
0
100
AcDbLine
 62
7
  6
BYLAYER
 10
23.7741410505
 20
47.0109423162
 11
24.2310765441
 21
47.0828069066
  0
LINE
  5
28A
100
AcDbEntity
  8
0
100
AcDbLine
 62
7
  6
BYLAYER
 10
23.4498394186
 20
46.9618255948
 11
23.7741410505
 21
47.0109423162
  0
LINE
  5
28B
100
AcDbEntity
  8
0
100
AcDbLine
 62
7
  6
BYLAYER
 10
23.1088826641
 20
46.9120129133
 11
23.4498394186
 21
46.9618255948
  0
LINE
  5
28C
100
AcDbEntity
  8
0
100
AcDbLine
 62
7
  6
BYLAYER
 10
22.7505464816
 20
46.8618147939
 11
23.1088826641
 21
46.9120129133
  0
LINE
  5
28D
100
AcDbEntity
  8
0
100
AcDbLine
 62
7
  6
BYLAYER
 10
22.3741642713
 20
46.8116245447
 11
22.7505464816
 21
46.8618147939
  0
LWPOLYLINE
  5
28E
100
AcDbEntity
  8
0
100
AcDbPolyline
 62
7
  6
BYLAYER
 90
6
 70
0
 10
28.7029690492
 20
49.6751119548
 10
28.7440195243
 20
49.6759971115
 10
28.7750052228
 20
49.6729760244
 10
28.7995447298
 20
49.6661518806
 10
28.8314780718
 20
49.6478133321
 10
28.876225009
 20
49.6090674754
  0
LWPOLYLINE
  5
28F
100
AcDbEntity
  8
0
100
AcDbPolyline
 62
7
  6
BYLAYER
 90
9
 70
0
 10
24.2856710311
 20
50.788315183
 10
24.2799413733
 20
50.7887755335
 10
24.2739801792
 20
50.7891022426
 10
24.2677624182
 20
50.7892798493
 10
24.2611592389
 20
50.7892893876
 10
24.2542063287
 20
50.7891042603
 10
24.2469735456
 20
50.7887040908
 10
24.2395087924
 20
50.7880744326
 10
24.2318269165
 20
50.7872023398
  0
LWPOLYLINE
  5
290
100
AcDbEntity
  8
0
100
AcDbPolyline
 62
7
  6
BYLAYER
 90
9
 70
0
 10
28.3557870674
 20
50.6554382286
 10
27.4799196189
 20
50.7634192759
 10
26.4785134753
 20
50.5414353225
 10
25.3398270548
 20
49.9499910047
 10
24.1641367544
 20
49.127146544
 10
23.246470978
 20
48.4632454913
 10
22.4780023046
 20
47.9733560404
 10
21.8049908642
 20
47.6570321034
 10
21.2185860155
 20
47.5407332773
  0
LINE
  5
291
100
AcDbEntity
  8
0
100
AcDbLine
 62
7
  6
BYLAYER
 10
34.6706636016
 20
48.4199569726
 11
31.249599732
 21
51.8410208422
  0
LINE
  5
292
100
AcDbEntity
  8
0
100
AcDbLine
 62
7
  6
BYLAYER
 10
37.1685860159
 20
45.7894443776
 11
37.1685860159
 21
51.0894443776
  0
LWPOLYLINE
  5
293
100
AcDbEntity
  8
0
100
AcDbPolyline
 62
7
  6
BYLAYER
 90
3
 70
0
 10
27.6908449881
 20
50.0158821633
 10
27.996764476
 20
50.0899438455
 10
28.2832948376
 20
50.1404054666
  0
LWPOLYLINE
  5
294
100
AcDbEntity
  8
0
100
AcDbPolyline
 62
7
  6
BYLAYER
 90
19
 70
0
 10
27.8855457094
 20
49.0030639338
 10
27.9886865718
 20
49.0275328229
 10
28.0408785509
 20
49.0403446429
 10
28.0919746442
 20
49.0534719177
 10
28.1418547016
 20
49.0666892075
 10
28.1837296571
 20
49.077059798
 10
28.1979669358
 20
49.0799174974
 10
28.2004925447
 20
49.0802857206
 10
28.1997161446
 20
49.080241011
 10
28.1982382765
 20
49.0802643141
 10
28.196289566
 20
49.0804749144
 10
28.1952215691
 20
49.0807005064
 10
28.1960439449
 20
49.0803675256
 10
28.2001714868
 20
49.0779930624
 10
28.2107550894
 20
49.0687589239
 10
28.2268591318
 20
49.0469933919
 10
28.2383471422
 20
49.0230481564
 10
28.2453847228
 20
49.0014589428
 10
28.2497946819
 20
48.9826371483
  0
LWPOLYLINE
  5
295
100
AcDbEntity
  8
0
100
AcDbPolyline
 62
7
  6
BYLAYER
 90
10
 70
0
 10
23.6629725451
 20
49.3277249058
 10
22.1439029948
 20
49.0213090438
 10
20.8546742882
 20
48.8954731371
 10
19.7329706352
 20
48.9046562501
 10
18.7755910744
 20
49.031945226
 10
17.9779184973
 20
49.2728535759
 10
17.3593029644
 20
49.6316617024
 10
16.9726427809
 20
50.0931586416
 10
16.8096238934
 20
50.6753848247
 10
16.8533126687
 20
51.3746226708
  0
LWPOLYLINE
  5
296
100
AcDbEntity
  8
0
100
AcDbPolyline
 62
7
  6
BYLAYER
 90
6
 70
0
 10
25.985162714
 20
49.2012525351
 10
25.1598244194
 20
49.0638353292
 10
24.1669529933
 20
48.8958056171
 10
22.9392098686
 20
48.7060655622
 10
21.4389572523
 20
48.5105219844
 10
19.5771342242
 20
48.342202699
  0
LWPOLYLINE
  5
297
100
AcDbEntity
  8
0
100
AcDbPolyline
 62
7
  6
BYLAYER
 90
14
 70
0
 10
24.6604630082
 20
49.5304637188
 10
23.2873133202
 20
49.3204692429
 10
21.6482919439
 20
49.0247065047
 10
20.0904380583
 20
48.7323641163
 10
18.7572357479
 20
48.4972024319
 10
17.569628681
 20
48.3183212888
 10
16.5134318941
 20
48.2016090868
 10
15.5665839398
 20
48.1514857549
 10
14.7225471498
 20
48.1769089135
 10
13.9836852575
 20
48.2934802104
 10
13.3729759119
 20
48.5281963831
 10
12.9656390709
 20
48.9047110098
 10
12.7718657141
 20
49.4683522554
 10
12.76465943
 20
50.1560459828
  0
LWPOLYLINE
  5
298
100
AcDbEntity
  8
0
100
AcDbPolyline
 62
7
  6
BYLAYER
 90
11
 70
0
 10
23.2737204041
 20
49.6346731254
 10
22.0067082664
 20
49.4576163296
 10
20.8999799993
 20
49.3510167661
 10
19.9288242543
 20
49.3114836383
 10
19.07468096
 20
49.3385631125
 10
18.3297337047
 20
49.4362426939
 10
17.6983040454
 20
49.614027157
 10
17.2045528528
 20
49.8881466724
 10
16.9084505086
 20
50.2622734659
 10
16.8004082836
 20
50.7742296075
 10
16.8530041463
 20
51.3728500031
  0
LINE
  5
299
100
AcDbEntity
  8
0
100
AcDbLine
 62
7
  6
BYLAYER
 10
24.1688798344
 20
50.6402522126
 11
24.1800993095
 21
50.6418111779
  0
LWPOLYLINE
  5
29A
100
AcDbEntity
  8
0
100
AcDbPolyline
 62
7
  6
BYLAYER
 90
24
 70
0
 10
24.1613844175
 20
50.639168472
 10
24.2224420895
 20
50.6470205457
 10
24.2900800802
 20
50.6530934305
 10
24.3561588997
 20
50.6559682525
 10
24.4140936023
 20
50.6549129977
 10
24.4594912022
 20
50.6498082654
 10
24.490752951
 20
50.6412854694
 10
24.5091564194
 20
50.6308145953
 10
24.5172975473
 20
50.6218991608
 10
24.5197595492
 20
50.6174115949
 10
24.5150931235
 20
50.6358614527
 10
24.5091720129
 20
50.6756793741
 10
24.505858428
 20
50.7195616947
 10
24.5046641149
 20
50.7679136421
 10
24.5054386191
 20
50.8194362019
 10
24.5080767175
 20
50.8735605144
 10
24.5124282591
 20
50.9296546889
 10
24.5182914253
 20
50.9870074159
 10
24.5255278571
 20
51.0454079401
 10
24.5341105064
 20
51.1052191776
 10
24.5440895418
 20
51.1670694631
 10
24.5553485958
 20
51.2304498264
 10
24.5678001609
 20
51.2950899252
 10
24.5813920045
 20
51.3609018503
  0
LWPOLYLINE
  5
29B
100
AcDbEntity
  8
0
100
AcDbPolyline
 62
7
  6
BYLAYER
 90
3
 70
0
 10
24.2024220769
 20
50.6446885759
 10
24.2135087992
 20
50.646006438
 10
24.2245346962
 20
50.6472432197
  0
LINE
  5
29C
100
AcDbEntity
  8
0
100
AcDbLine
 62
7
  6
BYLAYER
 10
8.1685860159
 20
51.0894443776
 11
37.1685860159
 21
51.0894443776
  0
LINE
  5
29D
100
AcDbEntity
  8
0
100
AcDbLine
 62
7
  6
BYLAYER
 10
24.800306217
 20
50.8696486859
 11
24.7660933471
 21
50.8600964625
  0
LINE
  5
29E
100
AcDbEntity
  8
0
100
AcDbLine
 62
7
  6
BYLAYER
 10
24.7747166886
 20
50.8619092428
 11
24.7493167759
 21
50.8555251158
  0
LINE
  5
29F
100
AcDbEntity
  8
0
100
AcDbLine
 62
7
  6
BYLAYER
 10
24.7566873877
 20
50.8569411959
 11
24.7327624205
 21
50.8510914896
  0
LINE
  5
2A0
100
AcDbEntity
  8
0
100
AcDbLine
 62
7
  6
BYLAYER
 10
24.7390413922
 20
50.8521638884
 11
24.7164405092
 21
50.8467987392
  0
LINE
  5
2A1
100
AcDbEntity
  8
0
100
AcDbLine
 62
7
  6
BYLAYER
 10
24.7217610192
 20
50.847571176
 11
24.7003540058
 21
50.8426480231
  0
LINE
  5
2A2
100
AcDbEntity
  8
0
100
AcDbLine
 62
7
  6
BYLAYER
 10
24.7048297915
 20
50.8431575375
 11
24.6845010291
 21
50.8386392894
  0
LINE
  5
2A3
100
AcDbEntity
  8
0
100
AcDbLine
 62
7
  6
BYLAYER
 10
24.688232361
 20
50.8389180468
 11
24.6688816866
 21
50.8347730826
  0
LINE
  5
2A4
100
AcDbEntity
  8
0
100
AcDbLine
 62
7
  6
BYLAYER
 10
24.6719544569
 20
50.8348483536
 11
24.6534979106
 21
50.8310504619
  0
LINE
  5
2A5
100
AcDbEntity
  8
0
100
AcDbLine
 62
7
  6
BYLAYER
 10
24.6559839986
 20
50.8309449491
 11
24.6383534184
 21
50.8274729492
  0
LINE
  5
2A6
100
AcDbEntity
  8
0
100
AcDbLine
 62
7
  6
BYLAYER
 10
24.6403197714
 20
50.827207174
 11
24.6234529982
 21
50.8240423196
  0
LWPOLYLINE
  5
2A7
100
AcDbEntity
  8
0
100
AcDbPolyline
 62
7
  6
BYLAYER
 90
30
 70
0
 10
24.6249616711
 20
50.8236346767
 10
24.6099012094
 20
50.8202250887
 10
24.5951247504
 20
50.8169739063
 10
24.5806369656
 20
50.8138803639
 10
24.5664450217
 20
50.8109442018
 10
24.55255773
 20
50.8081654173
 10
24.5389854112
 20
50.8055441779
 10
24.5257398878
 20
50.803080759
 10
24.5128322517
 20
50.800775088
 10
24.5002662507
 20
50.7986256523
 10
24.48804691
 20
50.7966311496
 10
24.4761828195
 20
50.7947907852
 10
24.4646596979
 20
50.7930998407
 10
24.453468569
 20
50.7915531347
 10
24.4426218873
 20
50.790148277
 10
24.4321201811
 20
50.7888812668
 10
24.4219605618
 20
50.7877479439
 10
24.4121452118
 20
50.7867450021
 10
24.4026814815
 20
50.7858697958
 10
24.3935820774
 20
50.7851201373
 10
24.3848654648
 20
50.7844940819
 10
24.3765569873
 20
50.7839897019
 10
24.3686513013
 20
50.7836029704
 10
24.3610564799
 20
50.7833250417
 10
24.3537873499
 20
50.7831509555
 10
24.3468880555
 20
50.7830756099
 10
24.3404120676
 20
50.783092219
 10
24.3344234859
 20
50.7831916453
 10
24.3289987148
 20
50.7833615268
 10
24.3242293265
 20
50.7835850592
  0
LWPOLYLINE
  5
2A8
100
AcDbEntity
  8
0
100
AcDbPolyline
 62
7
  6
BYLAYER
 90
7
 70
0
 10
24.2239346387
 20
50.7860755023
 10
24.215836783
 20
50.7846822231
 10
24.2075371584
 20
50.7830113354
 10
24.1990387336
 20
50.7810521069
 10
24.1903434289
 20
50.7787940732
 10
24.1814517458
 20
50.7762267934
 10
24.1723623259
 20
50.7733395244
  0
LWPOLYLINE
  5
2A9
100
AcDbEntity
  8
0
100
AcDbPolyline
 62
7
  6
BYLAYER
 90
8
 70
0
 10
24.2309111174
 20
50.7880599507
 10
24.2232240658
 20
50.7867749807
 10
24.215348647
 20
50.7852556834
 10
24.2072844814
 20
50.7834912693
 10
24.1990327095
 20
50.7814713261
 10
24.1905914665
 20
50.7791847436
 10
24.1819538176
 20
50.7766186968
 10
24.1731124052
 20
50.7737595624
  0
LWPOLYLINE
  5
2AA
100
AcDbEntity
  8
0
100
AcDbPolyline
 62
7
  6
BYLAYER
 90
41
 70
0
 10
24.5007807512
 20
50.7997621219
 10
24.4886511105
 20
50.7978215107
 10
24.4768785195
 20
50.7960366373
 10
24.4654466024
 20
50.7944019454
 10
24.4543724088
 20
50.7929155764
 10
24.4436736301
 20
50.7915753066
 10
24.4333511892
 20
50.7903766329
 10
24.4234086558
 20
50.78931553
 10
24.4138543215
 20
50.7883885388
 10
24.4047013781
 20
50.7875925719
 10
24.3959683022
 20
50.7869247072
 10
24.3876794778
 20
50.7863819488
 10
24.3798613367
 20
50.7859606979
 10
24.3724094606
 20
50.7856504905
 10
24.3652867387
 20
50.7854437179
 10
24.3585411453
 20
50.7853352078
 10
24.3522270997
 20
50.785317917
 10
24.346406362
 20
50.7853824594
 10
24.3411498248
 20
50.7855164738
 10
24.3365403762
 20
50.7857036908
 10
24.3326784784
 20
50.7859223952
 10
24.3297352182
 20
50.7861391777
 10
24.3275961154
 20
50.7863358657
 10
24.3257190005
 20
50.7865426262
 10
24.3239578151
 20
50.7867695423
 10
24.3220551231
 20
50.7870506246
 10
24.3174119385
 20
50.7878046127
 10
24.3096293307
 20
50.7889847633
 10
24.3043155983
 20
50.7896684693
 10
24.3010469468
 20
50.7900348375
 10
24.296015865
 20
50.7905164312
 10
24.2906313011
 20
50.7909207778
 10
24.285059019
 20
50.7912186352
 10
24.2791644263
 20
50.7914016149
 10
24.272941829
 20
50.7914496205
 10
24.2664523318
 20
50.791343569
 10
24.2597420277
 20
50.7910693354
 10
24.2528276213
 20
50.7906150163
 10
24.2457152519
 20
50.7899692925
 10
24.2384088261
 20
50.7891211863
 10
24.2239346387
 20
50.7860755023
  0
LINE
  5
2AB
100
AcDbEntity
  8
0
100
AcDbLine
 62
7
  6
BYLAYER
 10
8.1685860159
 20
52.2394443776
 11
35.4685860159
 21
52.2394443776
  0
LINE
  5
2AC
100
AcDbEntity
  8
0
100
AcDbLine
 62
7
  6
BYLAYER
 10
8.1685860159
 20
53.2394443776
 11
35.4685860159
 21
53.2394443776
  0
LINE
  5
2AD
100
AcDbEntity
  8
0
100
AcDbLine
 62
7
  6
BYLAYER
 10
34.0185860159
 20
58.2394443776
 11
10.3185860159
 21
58.2394443776
  0
LINE
  5
2AE
100
AcDbEntity
  8
0
100
AcDbLine
 62
7
  6
BYLAYER
 10
48.3758211816
 20
46.6619058619
 11
52.118289947
 21
40.2780255732
  0
LINE
  5
2AF
100
AcDbEntity
  8
0
100
AcDbLine
 62
7
  6
BYLAYER
 10
60.5779457715
 20
48.7376813977
 11
54.1940654829
 21
52.4801501631
  0
ARC
  5
2B0
100
AcDbEntity
  8
0
100
AcDbCircle
 62
7
  6
BYLAYER
 10
2.9411301002
 20
23.5322373185
 40
36.2471325899
100
AcDbArc
 50
45.0003508439
 51
45.1584208721
  0
ARC
  5
2B1
100
AcDbEntity
  8
0
100
AcDbCircle
 62
7
  6
BYLAYER
 10
40.1322751173
 20
60.7236962275
 40
23.7
100
AcDbArc
 50
300.3804226091
 51
329.6195773909
  0
ARC
  5
2B2
100
AcDbEntity
  8
0
100
AcDbCircle
 62
7
  6
BYLAYER
 10
13.8322630717
 20
34.4237230707
 40
21.895128528
100
AcDbArc
 50
44.999928041
 51
45.2616117202
  0
ARC
  5
2B3
100
AcDbEntity
  8
0
100
AcDbCircle
 62
7
  6
BYLAYER
 10
42.660970229
 20
56.4102636
 40
18.7
100
AcDbArc
 50
225.0
 51
300.3804226091
  0
ARC
  5
2B4
100
AcDbEntity
  8
0
100
AcDbCircle
 62
7
  6
BYLAYER
 10
40.1322751173
 20
60.7236962275
 40
16.3
100
AcDbArc
 50
300.3804226091
 51
329.6195773909
  0
ARC
  5
2B5
100
AcDbEntity
  8
0
100
AcDbCircle
 62
7
  6
BYLAYER
 10
42.660970229
 20
56.4102636
 40
11.3
100
AcDbArc
 50
225.0
 51
300.3804226091
  0
ARC
  5
2B6
100
AcDbEntity
  8
0
100
AcDbCircle
 62
7
  6
BYLAYER
 10
35.617311017
 20
56.2097909294
 40
9.3865199766
100
AcDbArc
 50
224.3941538111
 51
225.0045700174
  0
ARC
  5
2B7
100
AcDbEntity
  8
0
100
AcDbCircle
 62
7
  6
BYLAYER
 10
32.3724655105
 20
52.9649340635
 40
5.779818054
100
AcDbArc
 50
224.0159861142
 51
225.0073421595
  0
ARC
  5
2B8
100
AcDbEntity
  8
0
100
AcDbCircle
 62
7
  6
BYLAYER
 10
32.1685860159
 20
45.7894443776
 40
5.0
100
AcDbArc
 50
270.0
 51
360.0
  0
ARC
  5
2B9
100
AcDbEntity
  8
0
100
AcDbCircle
 62
7
  6
BYLAYER
 10
24.5491631496
 20
45.1441698367
 40
4.8516254684
100
AcDbArc
 50
44.9700580882
 51
46.1510971512
  0
ARC
  5
2BA
100
AcDbEntity
  8
0
100
AcDbCircle
 62
7
  6
BYLAYER
 10
27.2326505181
 20
47.824510907
 40
3.080328411
100
AcDbArc
 50
44.9942223561
 51
46.8546004765
  0
ARC
  5
2BB
100
AcDbEntity
  8
0
100
AcDbCircle
 62
7
  6
BYLAYER
 10
26.9917808688
 20
47.583849892
 40
2.9105327358
100
AcDbArc
 50
44.9909811367
 51
46.9599300864
  0
ARC
  5
2BC
100
AcDbEntity
  8
0
100
AcDbCircle
 62
7
  6
BYLAYER
 10
25.7349290783
 20
46.4693573252
 40
2.7155385099
100
AcDbArc
 50
44.976341081
 51
50.7370339199
  0
ARC
  5
2BD
100
AcDbEntity
  8
0
100
AcDbCircle
 62
7
  6
BYLAYER
 10
27.7026778364
 20
48.2946165223
 40
2.2999621403
100
AcDbArc
 50
44.9908828142
 51
47.4828215674
  0
ARC
  5
2BE
100
AcDbEntity
  8
0
100
AcDbCircle
 62
7
  6
BYLAYER
 10
27.2426584845
 20
47.8363406185
 40
1.3647888504
100
AcDbArc
 50
44.932880698
 51
49.1346106816
  0
ARC
  5
2BF
100
AcDbEntity
  8
0
100
AcDbCircle
 62
7
  6
BYLAYER
 10
8.3685860159
 20
41.9894443776
 40
1.2
100
AcDbArc
 50
180.0
 51
270.0
  0
SPLINE
  5
2C0
100
AcDbEntity
  8
0
100
AcDbSpline
 62
7
  6
BYLAYER
 70
0
 71
3
 72
10
 73
6
 74
0
 42
0.0000001
 43
0.0000001
 44
0.0000000001
 40
0.0
 40
0.0
 40
0.0
 40
0.0
 40
0.34944967
 40
0.6825603512
 40
1.0
 40
1.0
 40
1.0
 40
1.0
 10
27.8573047425
 20
48.4487258527
 30
0.0
 10
27.8490455223
 20
48.4569850729
 30
0.0
 10
27.8326130989
 20
48.4728221516
 30
0.0
 10
27.8075642766
 20
48.4949686903
 30
0.0
 10
27.7905717407
 20
48.508556423
 30
0.0
 10
27.7820933005
 20
48.5149357669
 30
0.0
  0
SPLINE
  5
2C1
100
AcDbEntity
  8
0
100
AcDbSpline
 62
7
  6
BYLAYER
 70
0
 71
3
 72
35
 73
31
 74
0
 42
0.0000001
 43
0.0000001
 44
0.0000000001
 40
0.0
 40
0.0
 40
0.0
 40
0.0
 40
0.016922894
 40
0.035862604
 40
0.0571345848
 40
0.0807965885
 40
0.106811461
 40
0.1350432887
 40
0.1653111433
 40
0.1974039235
 40
0.2310980792
 40
0.2661879771
 40
0.3024619565
 40
0.33969804
 40
0.4162380419
 40
0.4944444024
 40
0.5731553449
 40
0.6517831677
 40
0.6910891844
 40
0.7305271516
 40
0.7702947982
 40
0.8106913072
 40
0.8520809594
 40
0.87323678
 40
0.8947579577
 40
0.9166958881
 40
0.939050885
 40
0.961817457
 40
0.9849632513
 40
1.0
 40
1.0
 40
1.0
 40
1.0
 10
21.2185860155
 20
47.5405927237
 30
0.0
 10
21.2630956667
 20
47.5406122631
 30
0.0
 10
21.3572144722
 20
47.5460200711
 30
0.0
 10
21.5056390892
 20
47.569638177
 30
0.0
 10
21.6685013105
 20
47.6104778573
 30
0.0
 10
21.8454617726
 20
47.6692643252
 30
0.0
 10
22.0350258609
 20
47.7465487051
 30
0.0
 10
22.2357157162
 20
47.8415265754
 30
0.0
 10
22.4457690029
 20
47.9533607226
 30
0.0
 10
22.6636991176
 20
48.0804747871
 30
0.0
 10
22.8880771255
 20
48.2213563792
 30
0.0
 10
23.1179361833
 20
48.3739611803
 30
0.0
 10
23.3524140879
 20
48.5363103601
 30
0.0
 10
23.6730873874
 20
48.7653039201
 30
0.0
 10
24.0788885582
 20
49.0644660331
 30
0.0
 10
24.5726839226
 20
49.4278051197
 30
0.0
 10
25.0782902753
 20
49.7842354268
 30
0.0
 10
25.5134242648
 20
50.0629441951
 30
0.0
 10
25.8734569399
 20
50.2660692381
 30
0.0
 10
26.1516287419
 20
50.4059243574
 30
0.0
 10
26.4401175947
 20
50.530662478
 30
0.0
 10
26.741881209
 20
50.6356837992
 30
0.0
 10
27.0043397927
 20
50.7023165224
 30
0.0
 10
27.2220116247
 20
50.7397023812
 30
0.0
 10
27.3907061927
 20
50.7588615219
 30
0.0
 10
27.5634110294
 20
50.7678970974
 30
0.0
 10
27.7396297539
 20
50.7656030346
 30
0.0
 10
27.9184347556
 20
50.7507595641
 30
0.0
 10
28.0767074453
 20
50.7259329809
 30
0.0
 10
28.1746483264
 20
50.7042719842
 30
0.0
 10
28.2129802877
 20
50.6947865033
 30
0.0
  0
SPLINE
  5
2C2
100
AcDbEntity
  8
0
100
AcDbSpline
 62
7
  6
BYLAYER
 70
0
 71
3
 72
34
 73
30
 74
0
 42
0.0000001
 43
0.0000001
 44
0.0000000001
 40
0.0
 40
0.0
 40
0.0
 40
0.0
 40
0.0787099796
 40
0.1525172045
 40
0.2179270028
 40
0.2748590424
 40
0.3249475343
 40
0.3690345689
 40
0.4079871534
 40
0.4424676777
 40
0.4729569286
 40
0.4999238217
 40
0.5238107062
 40
0.5446503633
 40
0.5630148126
 40
0.5795756947
 40
0.595525817
 40
0.6116910773
 40
0.6293152585
 40
0.6491307647
 40
0.6717784732
 40
0.697455613
 40
0.7265985485
 40
0.7596658367
 40
0.7971285525
 40
0.8393781878
 40
0.886795208
 40
0.9400622554
 40
1.0
 40
1.0
 40
1.0
 40
1.0
 10
28.5870073014
 20
49.3198497678
 30
0.0
 10
28.5497201469
 20
49.3571565735
 30
0.0
 10
28.4724237087
 20
49.4246035191
 30
0.0
 10
28.3501724437
 20
49.505252761
 30
0.0
 10
28.2315252722
 20
49.5627050591
 30
0.0
 10
28.1216957376
 20
49.5995335673
 30
0.0
 10
28.0223074586
 20
49.6201032046
 30
0.0
 10
27.9332324996
 20
49.6278920158
 30
0.0
 10
27.8543291763
 20
49.625513014
 30
0.0
 10
27.7853096568
 20
49.6149535604
 30
0.0
 10
27.7259398385
 20
49.5978159935
 30
0.0
 10
27.6760193944
 20
49.5754324869
 30
0.0
 10
27.6356318753
 20
49.5489885295
 30
0.0
 10
27.6048376683
 20
49.5196320013
 30
0.0
 10
27.5835281173
 20
49.4885637872
 30
0.0
 10
27.5711097751
 20
49.4564633354
 30
0.0
 10
27.5670832154
 20
49.4237562205
 30
0.0
 10
27.5711774738
 20
49.390368192
 30
0.0
 10
27.5834851175
 20
49.3563379457
 30
0.0
 10
27.6043231728
 20
49.3216431602
 30
0.0
 10
27.6337668131
 20
49.2865503409
 30
0.0
 10
27.6717568504
 20
49.2510366683
 30
0.0
 10
27.7181603816
 20
49.2146890054
 30
0.0
 10
27.7729905337
 20
49.1765129709
 30
0.0
 10
27.8361608653
 20
49.1350228353
 30
0.0
 10
27.9072689021
 20
49.0880992747
 30
0.0
 10
27.9857515333
 20
49.0331492634
 30
0.0
 10
28.0711079442
 20
48.9675100044
 30
0.0
 10
28.129194924
 20
48.9186857676
 30
0.0
 10
28.159615943
 20
48.8924584094
 30
0.0
  0
SPLINE
  5
2C3
100
AcDbEntity
  8
0
100
AcDbSpline
 62
7
  6
BYLAYER
 70
0
 71
3
 72
42
 73
38
 74
0
 42
0.0000001
 43
0.0000001
 44
0.0000000001
 40
0.0
 40
0.0
 40
0.0
 40
0.0
 40
0.0705331234
 40
0.1358972309
 40
0.1962563295
 40
0.2511375968
 40
0.2994304561
 40
0.3411800506
 40
0.3774065814
 40
0.4090600678
 40
0.4368897378
 40
0.4614480911
 40
0.4831765882
 40
0.5024434321
 40
0.5195355376
 40
0.5347072835
 40
0.5482491194
 40
0.5601241208
 40
0.5708132523
 40
0.580887744
 40
0.5912862627
 40
0.6026294659
 40
0.61555016
 40
0.6302778522
 40
0.6469963926
 40
0.6658094469
 40
0.6868964532
 40
0.7104831493
 40
0.7369080567
 40
0.7664544545
 40
0.7995329394
 40
0.8366669473
 40
0.8738065275
 40
0.9068165888
 40
0.9365063481
 40
0.9662998691
 40
1.0
 40
1.0
 40
1.0
 40
1.0
 10
29.243784929
 20
49.9766273954
 30
0.0
 10
29.1948170642
 20
50.0212671548
 30
0.0
 10
29.095969713
 20
50.1025244364
 30
0.0
 10
28.9413097779
 20
50.2035504047
 30
0.0
 10
28.7893378322
 20
50.2798590236
 30
0.0
 10
28.6444554882
 20
50.3320899481
 30
0.0
 10
28.5113919953
 20
50.3624396392
 30
0.0
 10
28.3931452755
 20
50.3748582572
 30
0.0
 10
28.2899373299
 20
50.3736206685
 30
0.0
 10
28.2005404202
 20
50.3624038699
 30
0.0
 10
28.1236051272
 20
50.3439858094
 30
0.0
 10
28.0579411331
 20
50.320405832
 30
0.0
 10
28.0025632672
 20
50.2931560127
 30
0.0
 10
27.9566951906
 20
50.2633357999
 30
0.0
 10
27.9197991314
 20
50.2317523403
 30
0.0
 10
27.8915804717
 20
50.1990108249
 30
0.0
 10
27.8721751382
 20
50.1658912458
 30
0.0
 10
27.8616903826
 20
50.133302897
 30
0.0
 10
27.8597987011
 20
50.1023543038
 30
0.0
 10
27.8657068316
 20
50.0733554974
 30
0.0
 10
27.8788437139
 20
50.0461979664
 30
0.0
 10
27.8992618507
 20
50.020544451
 30
0.0
 10
27.9271320603
 20
49.9965069808
 30
0.0
 10
27.9625570279
 20
49.9743068087
 30
0.0
 10
28.0053847672
 20
49.9542152906
 30
0.0
 10
28.0555502036
 20
49.9363422087
 30
0.0
 10
28.1131503709
 20
49.9206923496
 30
0.0
 10
28.1785921694
 20
49.9071667171
 30
0.0
 10
28.2524378845
 20
49.8955136686
 30
0.0
 10
28.3354652282
 20
49.8852082118
 30
0.0
 10
28.4286294155
 20
49.8750585311
 30
0.0
 10
28.528765091
 20
49.8629948251
 30
0.0
 10
28.628124603
 20
49.8454700481
 30
0.0
 10
28.7184340661
 20
49.8190953852
 30
0.0
 10
28.7973946204
 20
49.7818731939
 30
0.0
 10
28.8695319025
 20
49.7316876621
 30
0.0
 10
28.9134178461
 20
49.6910289881
 30
0.0
 10
28.9355015114
 20
49.6683439778
 30
0.0
  0
SPLINE
  5
2C4
100
AcDbEntity
  8
0
100
AcDbSpline
 62
7
  6
BYLAYER
 70
0
 71
3
 72
23
 73
19
 74
0
 42
0.0000001
 43
0.0000001
 44
0.0000000001
 40
0.0
 40
0.0
 40
0.0
 40
0.0
 40
0.0323078733
 40
0.0642308662
 40
0.1270173625
 40
0.188537914
 40
0.2490791001
 40
0.3088638818
 40
0.3680909724
 40
0.4268917637
 40
0.4853368841
 40
0.6010947486
 40
0.7146618754
 40
0.8247412735
 40
0.877853984
 40
0.9293190205
 40
0.9652247429
 40
1.0
 40
1.0
 40
1.0
 40
1.0
 10
21.2185860171
 20
45.340877253
 30
0.0
 10
21.2796601352
 20
45.340873811
 30
0.0
 10
21.4010489301
 20
45.3442087629
 30
0.0
 10
21.6404227016
 20
45.3633862898
 30
0.0
 10
21.9326438172
 20
45.4087992395
 30
0.0
 10
22.2721507647
 20
45.4926958174
 30
0.0
 10
22.5986871598
 20
45.6007680574
 30
0.0
 10
22.9133678788
 20
45.7282816623
 30
0.0
 10
23.2173284125
 20
45.8719150479
 30
0.0
 10
23.5119430981
 20
46.0284333267
 30
0.0
 10
23.8924545082
 20
46.2502211562
 30
0.0
 10
24.3490580714
 20
46.5461752138
 30
0.0
 10
24.8726389671
 20
46.9168193471
 30
0.0
 10
25.2938728358
 20
47.2268708661
 30
0.0
 10
25.6205333193
 20
47.4674132944
 30
0.0
 10
25.8351030869
 20
47.6237711123
 30
0.0
 10
26.0228990484
 20
47.7580118351
 30
0.0
 10
26.1323775551
 20
47.834546338
 30
0.0
 10
26.1864911435
 20
47.871843248
 30
0.0
  0
SPLINE
  5
2C5
100
AcDbEntity
  8
0
100
AcDbSpline
 62
7
  6
BYLAYER
 70
0
 71
3
 72
56
 73
52
 74
0
 42
0.0000001
 43
0.0000001
 44
0.0000000001
 40
0.0
 40
0.0
 40
0.0
 40
0.0
 40
0.0142884323
 40
0.026934753
 40
0.0390329052
 40
0.051811127
 40
0.0661194751
 40
0.0823761286
 40
0.1005493549
 40
0.1208366244
 40
0.1435619115
 40
0.1688963741
 40
0.1967246775
 40
0.2267836241
 40
0.2594739344
 40
0.2928416379
 40
0.3234800474
 40
0.3506259628
 40
0.3751160492
 40
0.3972324815
 40
0.4172486069
 40
0.4353614351
 40
0.4517663631
 40
0.4666229967
 40
0.4800410366
 40
0.4921138444
 40
0.5029432361
 40
0.5125923062
 40
0.5210991341
 40
0.5287032737
 40
0.5358808266
 40
0.5430566406
 40
0.5507790242
 40
0.5594506066
 40
0.5693509539
 40
0.5804619161
 40
0.592881883
 40
0.6067363059
 40
0.6221666554
 40
0.6393161196
 40
0.6583527565
 40
0.6794886572
 40
0.7029773782
 40
0.7291384099
 40
0.7583793221
 40
0.791249367
 40
0.8284570299
 40
0.8707185114
 40
0.9151555977
 40
0.9587205391
 40
1.0
 40
1.0
 40
1.0
 40
1.0
 10
27.8745985775
 20
48.6074410439
 30
0.0
 10
27.8544857315
 20
48.6220903675
 30
0.0
 10
27.8149330545
 20
48.6476200739
 30
0.0
 10
27.7522980315
 20
48.6749946615
 30
0.0
 10
27.6879539271
 20
48.6886661516
 30
0.0
 10
27.6194774677
 20
48.6904856191
 30
0.0
 10
27.5442285959
 20
48.683229596
 30
0.0
 10
27.4606675343
 20
48.6680044391
 30
0.0
 10
27.3678989125
 20
48.6461352287
 30
0.0
 10
27.2651185601
 20
48.61799229
 30
0.0
 10
27.1508579842
 20
48.5846681136
 30
0.0
 10
27.0238981375
 20
48.5479789776
 30
0.0
 10
26.8839692653
 20
48.5101923168
 30
0.0
 10
26.7303018622
 20
48.4744066809
 30
0.0
 10
26.5656728761
 20
48.4438356906
 30
0.0
 10
26.3988357935
 20
48.4206330836
 30
0.0
 10
26.2408523909
 20
48.4048772705
 30
0.0
 10
26.0978783283
 20
48.3952607726
 30
0.0
 10
25.9695122889
 20
48.3905018845
 30
0.0
 10
25.8534757466
 20
48.3898001588
 30
0.0
 10
25.748580884
 20
48.3927423295
 30
0.0
 10
25.6537991843
 20
48.3990866922
 30
0.0
 10
25.5683145045
 20
48.4086170177
 30
0.0
 10
25.4914969386
 20
48.4212398782
 30
0.0
 10
25.4229598161
 20
48.4369669729
 30
0.0
 10
25.3625256382
 20
48.4558951104
 30
0.0
 10
25.3102675317
 20
48.4781608576
 30
0.0
 10
25.2665869942
 20
48.5038055829
 30
0.0
 10
25.2319411818
 20
48.5326953797
 30
0.0
 10
25.2064487428
 20
48.5646482633
 30
0.0
 10
25.189962608
 20
48.5995571767
 30
0.0
 10
25.1823317168
 20
48.6376065365
 30
0.0
 10
25.1836793154
 20
48.6789513174
 30
0.0
 10
25.1943412965
 20
48.7237447026
 30
0.0
 10
25.2145158627
 20
48.771541543
 30
0.0
 10
25.2440887377
 20
48.8218412124
 30
0.0
 10
25.2827843266
 20
48.8743127709
 30
0.0
 10
25.3307013485
 20
48.9289822572
 30
0.0
 10
25.3882010224
 20
48.9859185401
 30
0.0
 10
25.4558776684
 20
49.0451518563
 30
0.0
 10
25.5346107164
 20
49.1065972959
 30
0.0
 10
25.6256174044
 20
49.1700012215
 30
0.0
 10
25.7305046128
 20
49.2348791265
 30
0.0
 10
25.8513129571
 20
49.3004608676
 30
0.0
 10
25.9907746933
 20
49.3653700271
 30
0.0
 10
26.1524253189
 20
49.427332113
 30
0.0
 10
26.3404753311
 20
49.4821856248
 30
0.0
 10
26.5528820636
 20
49.5223777544
 30
0.0
 10
26.779600692
 20
49.5395793388
 30
0.0
 10
27.0050485626
 20
49.5300050083
 30
0.0
 10
27.1512720425
 20
49.5062040477
 30
0.0
 10
27.2214186589
 20
49.4904894429
 30
0.0
  0
SPLINE
  5
2C6
100
AcDbEntity
  8
0
100
AcDbSpline
 62
7
  6
BYLAYER
 70
0
 71
3
 72
49
 73
45
 74
0
 42
0.0000001
 43
0.0000001
 44
0.0000000001
 40
0.0
 40
0.0
 40
0.0
 40
0.0
 40
0.0483104795
 40
0.0962468644
 40
0.1410693195
 40
0.1806400034
 40
0.2148711067
 40
0.244934535
 40
0.2713892892
 40
0.2947432555
 40
0.3153745064
 40
0.3335475044
 40
0.3494945218
 40
0.3634295792
 40
0.3755245128
 40
0.3860276315
 40
0.395302889
 40
0.4039564093
 40
0.4126004522
 40
0.4219789028
 40
0.4327225621
 40
0.4453438914
 40
0.4600056329
 40
0.4768595554
 40
0.496044949
 40
0.5178071628
 40
0.5424762189
 40
0.5704492934
 40
0.6022351146
 40
0.6384067815
 40
0.6788906199
 40
0.7219534512
 40
0.7627645932
 40
0.7987554891
 40
0.82975086
 40
0.8567903815
 40
0.8807088502
 40
0.9019759212
 40
0.9210266946
 40
0.938177423
 40
0.954006305
 40
0.9691267351
 40
0.9842683773
 40
1.0
 40
1.0
 40
1.0
 40
1.0
 10
28.2129802877
 20
50.6947865033
 30
0.0
 10
28.144829477
 20
50.7109986968
 30
0.0
 10
28.0072546973
 20
50.7363083696
 30
0.0
 10
27.8027082709
 20
50.7502612078
 30
0.0
 10
27.6106126128
 20
50.7404829162
 30
0.0
 10
27.4406163592
 20
50.7120389937
 30
0.0
 10
27.295257283
 20
50.6716595877
 30
0.0
 10
27.1723303149
 20
50.6241462937
 30
0.0
 10
27.0685110716
 20
50.5724459091
 30
0.0
 10
26.981474469
 20
50.5187203613
 30
0.0
 10
26.9093874507
 20
50.4643894478
 30
0.0
 10
26.8509188471
 20
50.410470744
 30
0.0
 10
26.8051295622
 20
50.3577280223
 30
0.0
 10
26.7714051779
 20
50.3068086288
 30
0.0
 10
26.7493879305
 20
50.2583271772
 30
0.0
 10
26.7387326629
 20
50.212987738
 30
0.0
 10
26.7389108123
 20
50.1713251717
 30
0.0
 10
26.7493192834
 20
50.1337316752
 30
0.0
 10
26.7694880547
 20
50.1002126729
 30
0.0
 10
26.7993308389
 20
50.0705576026
 30
0.0
 10
26.8394440761
 20
50.0446400171
 30
0.0
 10
26.8903291391
 20
50.0228638365
 30
0.0
 10
26.9521487601
 20
50.0057318809
 30
0.0
 10
27.0247807035
 20
49.9936686687
 30
0.0
 10
27.1084071072
 20
49.9869609361
 30
0.0
 10
27.2036085636
 20
49.9858801386
 30
0.0
 10
27.3114372286
 20
49.9906915125
 30
0.0
 10
27.4333913913
 20
50.0018209589
 30
0.0
 10
27.5713607424
 20
50.0197634689
 30
0.0
 10
27.7266291373
 20
50.0447243012
 30
0.0
 10
27.8974608462
 20
50.0756059873
 30
0.0
 10
28.0748150448
 20
50.1082016735
 30
0.0
 10
28.2463672374
 20
50.1362797504
 30
0.0
 10
28.4015166603
 20
50.1557115208
 30
0.0
 10
28.5375442084
 20
50.1659413535
 30
0.0
 10
28.6564498825
 20
50.1676517175
 30
0.0
 10
28.761118499
 20
50.1622141455
 30
0.0
 10
28.8536529673
 20
50.1508159682
 30
0.0
 10
28.9353598676
 20
50.1339152473
 30
0.0
 10
29.007654005
 20
50.1119422408
 30
0.0
 10
29.0721587695
 20
50.0850847226
 30
0.0
 10
29.130778209
 20
50.0526640679
 30
0.0
 10
29.184914006
 20
50.0134368405
 30
0.0
 10
29.2178567145
 20
49.9829572065
 30
0.0
 10
29.2337764758
 20
49.96661915
 30
0.0
  0
SPLINE
  5
2C7
100
AcDbEntity
  8
0
100
AcDbSpline
 62
7
  6
BYLAYER
 70
0
 71
3
 72
15
 73
11
 74
0
 42
0.0000001
 43
0.0000001
 44
0.0000000001
 40
0.0
 40
0.0
 40
0.0
 40
0.0
 40
0.0993563198
 40
0.2018284841
 40
0.3108984123
 40
0.4309659871
 40
0.5642854254
 40
0.7073658455
 40
0.8545811383
 40
1.0
 40
1.0
 40
1.0
 40
1.0
 10
29.3385719003
 20
50.0714142295
 30
0.0
 10
29.3071963753
 20
50.1009319388
 30
0.0
 10
29.2420584679
 20
50.1594227172
 30
0.0
 10
29.1374667988
 20
50.244541891
 30
0.0
 10
29.0213085017
 20
50.3293893124
 30
0.0
 10
28.8892998058
 20
50.4148229284
 30
0.0
 10
28.7393052427
 20
50.4990461348
 30
0.0
 10
28.5731260422
 20
50.5776605124
 30
0.0
 10
28.3964595092
 20
50.6451286683
 30
0.0
 10
28.2743180635
 20
50.6801950423
 30
0.0
 10
28.2129802877
 20
50.6947865033
 30
0.0
  0
SPLINE
  5
2C8
100
AcDbEntity
  8
0
100
AcDbSpline
 62
7
  6
BYLAYER
 70
0
 71
3
 72
113
 73
109
 74
0
 42
0.0000001
 43
0.0000001
 44
0.0000000001
 40
0.0
 40
0.0
 40
0.0
 40
0.0
 40
0.0009616459
 40
0.0020607169
 40
0.0036496363
 40
0.0049668137
 40
0.0064928572
 40
0.0082524735
 40
0.0102028074
 40
0.0121906019
 40
0.0141091132
 40
0.0159836507
 40
0.0177361789
 40
0.0193017336
 40
0.0211418189
 40
0.0227374461
 40
0.0240127809
 40
0.0250244446
 40
0.025825951
 40
0.0264621583
 40
0.0272089175
 40
0.027896664
 40
0.0281466915
 40
0.0286188059
 40
0.0293429959
 40
0.0299315579
 40
0.0305619537
 40
0.0313282989
 40
0.0322563307
 40
0.0333755859
 40
0.0346230417
 40
0.0352246899
 40
0.0358957194
 40
0.0366394158
 40
0.037458992
 40
0.0383575368
 40
0.0393379684
 40
0.0404029924
 40
0.0415550637
 40
0.042796354
 40
0.044128731
 40
0.0455538596
 40
0.0470731652
 40
0.0486877139
 40
0.0503981898
 40
0.052204879
 40
0.0541076565
 40
0.056105977
 40
0.0581988682
 40
0.0603849272
 40
0.0626623117
 40
0.06502865
 40
0.0674810607
 40
0.0700162163
 40
0.0726303545
 40
0.0753192918
 40
0.0780784384
 40
0.0809028149
 40
0.0837870709
 40
0.0867255407
 40
0.0897125064
 40
0.0927420588
 40
0.0958079778
 40
0.0989037502
 40
0.1020225889
 40
0.1051574539
 40
0.108301072
 40
0.1114459582
 40
0.1145844364
 40
0.1177086609
 40
0.1208106371
 40
0.1238822424
 40
0.1260917903
 40
0.127808628
 40
0.1296157529
 40
0.1315909605
 40
0.1338142505
 40
0.1363682478
 40
0.1393387716
 40
0.1428155209
 40
0.1468928466
 40
0.1516708018
 40
0.1572561388
 40
0.1637630726
 40
0.1713140095
 40
0.1800400418
 40
0.1900810824
 40
0.2015854927
 40
0.2147090378
 40
0.2296134173
 40
0.2464671696
 40
0.2654423258
 40
0.2867089297
 40
0.310429498
 40
0.3367581656
 40
0.3658385027
 40
0.3977910715
 40
0.4327170277
 40
0.4707106751
 40
0.511851637
 40
0.5534395815
 40
0.5986870798
 40
0.6499330878
 40
0.7094453997
 40
0.7761970076
 40
0.8485853431
 40
0.9236451652
 40
1.0
 40
1.0
 40
1.0
 40
1.0
 10
24.4115904876
 20
50.6540820638
 30
0.0
 10
24.4104035843
 20
50.6558748981
 30
0.0
 10
24.4086480385
 20
50.6601756582
 30
0.0
 10
24.4050244264
 20
50.6674721105
 30
0.0
 10
24.4008866435
 20
50.6754228066
 30
0.0
 10
24.3958675989
 20
50.6839694447
 30
0.0
 10
24.3903555705
 20
50.6926626199
 30
0.0
 10
24.3837532994
 20
50.7023330306
 30
0.0
 10
24.3762050727
 20
50.7125990139
 30
0.0
 10
24.3680538759
 20
50.7228515546
 30
0.0
 10
24.3596045336
 20
50.7326381514
 30
0.0
 10
24.3510654291
 20
50.741634853
 30
0.0
 10
24.3427019363
 20
50.7496922867
 30
0.0
 10
24.3340868493
 20
50.7573641234
 30
0.0
 10
24.3254292955
 20
50.7644456816
 30
0.0
 10
24.3169676583
 20
50.7707336569
 30
0.0
 10
24.3097970642
 20
50.7756049724
 30
0.0
 10
24.3038792113
 20
50.7792452746
 30
0.0
 10
24.2992217284
 20
50.7819165865
 30
0.0
 10
24.294557724
 20
50.7842467287
 30
0.0
 10
24.2917222123
 20
50.7859461514
 30
0.0
 10
24.2844382116
 20
50.7882391471
 30
0.0
 10
24.288681534
 20
50.7878319559
 30
0.0
 10
24.2914290129
 20
50.7871335482
 30
0.0
 10
24.2955497784
 20
50.7865000187
 30
0.0
 10
24.299800403
 20
50.7858515283
 30
0.0
 10
24.3042151945
 20
50.7852792616
 30
0.0
 10
24.3093767692
 20
50.7847010998
 30
0.0
 10
24.315644073
 20
50.7841332856
 30
0.0
 10
24.3229933744
 20
50.7836283267
 30
0.0
 10
24.329623105
 20
50.783307788
 30
0.0
 10
24.3352544089
 20
50.7831117006
 30
0.0
 10
24.3397612944
 20
50.7829941274
 30
0.0
 10
24.3447562499
 20
50.7829092336
 30
0.0
 10
24.3502604808
 20
50.7828676155
 30
0.0
 10
24.3562941768
 20
50.782880885
 30
0.0
 10
24.362876197
 20
50.7829616865
 30
0.0
 10
24.3700237478
 20
50.7831236696
 30
0.0
 10
24.3777520983
 20
50.7833815049
 30
0.0
 10
24.3860743545
 20
50.7837506576
 30
0.0
 10
24.3950014857
 20
50.7842481005
 30
0.0
 10
24.4045426391
 20
50.784888061
 30
0.0
 10
24.414705138
 20
50.785682378
 30
0.0
 10
24.4254939321
 20
50.7866432574
 30
0.0
 10
24.4369112961
 20
50.7877824398
 30
0.0
 10
24.4489567145
 20
50.7891113403
 30
0.0
 10
24.4616268108
 20
50.7906409054
 30
0.0
 10
24.4749152983
 20
50.7923815398
 30
0.0
 10
24.4888129446
 20
50.7943430567
 30
0.0
 10
24.5033075739
 20
50.796534429
 30
0.0
 10
24.5183837507
 20
50.7989643148
 30
0.0
 10
24.5340232676
 20
50.8016370728
 30
0.0
 10
24.5502050056
 20
50.8045542898
 30
0.0
 10
24.5669048542
 20
50.8077166537
 30
0.0
 10
24.5840960055
 20
50.8111234559
 30
0.0
 10
24.6017490356
 20
50.8147727153
 30
0.0
 10
24.6198320292
 20
50.8186611168
 30
0.0
 10
24.6383106967
 20
50.8227840484
 30
0.0
 10
24.6571486226
 20
50.8271354802
 30
0.0
 10
24.6763078876
 20
50.8317086256
 30
0.0
 10
24.6957503701
 20
50.8364923367
 30
0.0
 10
24.7154372378
 20
50.8414736046
 30
0.0
 10
24.735328153
 20
50.8466385402
 30
0.0
 10
24.7553811545
 20
50.8519720832
 30
0.0
 10
24.7755527554
 20
50.8574581409
 30
0.0
 10
24.7957980686
 20
50.8630796338
 30
0.0
 10
24.8160709285
 20
50.8688185684
 30
0.0
 10
24.836324015
 20
50.8746561059
 30
0.0
 10
24.8565089771
 20
50.8805726332
 30
0.0
 10
24.8765765574
 20
50.8865478348
 30
0.0
 10
24.8964767127
 20
50.8925607655
 30
0.0
 10
24.9143983388
 20
50.8980506624
 30
0.0
 10
24.9293443779
 20
50.9026801747
 30
0.0
 10
24.9415812136
 20
50.9065007257
 30
0.0
 10
24.9533106539
 20
50.9101882693
 30
0.0
 10
24.966111985
 20
50.9142418746
 30
0.0
 10
24.9804951054
 20
50.9188317288
 30
0.0
 10
24.9969852496
 20
50.9241388439
 30
0.0
 10
25.016126104
 20
50.9303574712
 30
0.0
 10
25.0384835763
 20
50.9376979824
 30
0.0
 10
25.0646503448
 20
50.9463907166
 30
0.0
 10
25.0952517516
 20
50.9566878908
 30
0.0
 10
25.1309514561
 20
50.9688661537
 30
0.0
 10
25.1724560451
 20
50.9832299327
 30
0.0
 10
25.2205193003
 20
51.0001122683
 30
0.0
 10
25.2759453939
 20
51.0198745497
 30
0.0
 10
25.3395903975
 20
51.0429038129
 30
0.0
 10
25.412361272
 20
51.0696071548
 30
0.0
 10
25.4952126837
 20
51.1004020524
 30
0.0
 10
25.5891468745
 20
51.1357070305
 30
0.0
 10
25.6952172796
 20
51.1759082623
 30
0.0
 10
25.8145187577
 20
51.2213368425
 30
0.0
 10
25.9481670278
 20
51.2722329114
 30
0.0
 10
26.0972851717
 20
51.3287048433
 30
0.0
 10
26.2630086508
 20
51.3906560266
 30
0.0
 10
26.4464780133
 20
51.4576896223
 30
0.0
 10
26.6488173927
 20
51.529060234
 30
0.0
 10
26.8711720684
 20
51.6035319092
 30
0.0
 10
27.1147596058
 20
51.6791376629
 30
0.0
 10
27.3748452572
 20
51.7515353756
 30
0.0
 10
27.6533500457
 20
51.8175503549
 30
0.0
 10
27.957022047
 20
51.8741142775
 30
0.0
 10
28.3037808847
 20
51.9148754748
 30
0.0
 10
28.7013723247
 20
51.9245507461
 30
0.0
 10
29.1446202564
 20
51.876266338
 30
0.0
 10
29.6077478301
 20
51.7431946067
 30
0.0
 10
30.0542112065
 20
51.509401194
 30
0.0
 10
30.3165702574
 20
51.2908317666
 30
0.0
 10
30.4359616987
 20
51.1688038294
 30
0.0
  0
SPLINE
  5
2C9
100
AcDbEntity
  8
0
100
AcDbSpline
 62
7
  6
BYLAYER
 70
0
 71
3
 72
79
 73
75
 74
0
 42
0.0000001
 43
0.0000001
 44
0.0000000001
 40
0.0
 40
0.0
 40
0.0
 40
0.0
 40
0.0152800623
 40
0.0306236822
 40
0.045646653
 40
0.0599169315
 40
0.0734727081
 40
0.0864119743
 40
0.0987388562
 40
0.1104501829
 40
0.1215437656
 40
0.1320252322
 40
0.1419265702
 40
0.1513293752
 40
0.160145694
 40
0.1685026049
 40
0.178224564
 40
0.189107369
 40
0.2010606267
 40
0.2143545076
 40
0.2280063729
 40
0.2543920782
 40
0.2760667611
 40
0.2841222844
 40
0.2883511151
 40
0.2942215824
 40
0.3007651634
 40
0.3073809408
 40
0.3136740478
 40
0.3194318184
 40
0.3245623612
 40
0.3290497176
 40
0.3329219345
 40
0.3362287641
 40
0.3390262496
 40
0.3413668465
 40
0.3433162627
 40
0.346375056
 40
0.349016959
 40
0.3503172615
 40
0.3533627001
 40
0.3572167742
 40
0.3608159839
 40
0.3650266285
 40
0.3697394554
 40
0.3754588938
 40
0.3819067689
 40
0.3885805843
 40
0.3957574667
 40
0.4037432482
 40
0.4124101754
 40
0.4217626702
 40
0.4319037647
 40
0.4428760698
 40
0.4547477895
 40
0.4675921988
 40
0.4814885555
 40
0.496522907
 40
0.5127886436
 40
0.5303870555
 40
0.5494280188
 40
0.570030855
 40
0.5923252485
 40
0.6164521267
 40
0.6425646771
 40
0.6708294844
 40
0.701427779
 40
0.7345567852
 40
0.7704313993
 40
0.8092853778
 40
0.8513742279
 40
0.8969780048
 40
0.9463894248
 40
1.0
 40
1.0
 40
1.0
 40
1.0
 10
24.4115904876
 20
50.6540820638
 30
0.0
 10
24.4060823993
 20
50.654726966
 30
0.0
 10
24.3950245887
 20
50.6558725945
 30
0.0
 10
24.3786231343
 20
50.6581905352
 30
0.0
 10
24.3625132456
 20
50.6600538422
 30
0.0
 10
24.3469358317
 20
50.6601577967
 30
0.0
 10
24.3321653424
 20
50.6592796181
 30
0.0
 10
24.3181117243
 20
50.6582706309
 30
0.0
 10
24.3047297798
 20
50.6572470066
 30
0.0
 10
24.2920153423
 20
50.6563086313
 30
0.0
 10
24.2799569175
 20
50.6554824319
 30
0.0
 10
24.268579397
 20
50.6547038817
 30
0.0
 10
24.2577001253
 20
50.6543628018
 30
0.0
 10
24.2477601328
 20
50.6538034252
 30
0.0
 10
24.2372181963
 20
50.657559103
 30
0.0
 10
24.2309445776
 20
50.6478659369
 30
0.0
 10
24.2198165202
 20
50.647169338
 30
0.0
 10
24.2082382548
 20
50.6461029457
 30
0.0
 10
24.1952934359
 20
50.6436804683
 30
0.0
 10
24.1812131207
 20
50.6420244017
 30
0.0
 10
24.1624231709
 20
50.6393578009
 30
0.0
 10
24.1376849397
 20
50.6355639812
 30
0.0
 10
24.1247968596
 20
50.6335798486
 30
0.0
 10
24.1026487255
 20
50.6296039528
 30
0.0
 10
24.1120897358
 20
50.6315390072
 30
0.0
 10
24.1171620257
 20
50.6323965902
 30
0.0
 10
24.1242546541
 20
50.6336361809
 30
0.0
 10
24.1311416566
 20
50.6347633966
 30
0.0
 10
24.1378538874
 20
50.635823365
 30
0.0
 10
24.1440145918
 20
50.6367563408
 30
0.0
 10
24.1495374474
 20
50.6375640094
 30
0.0
 10
24.154384439
 20
50.6382523914
 30
0.0
 10
24.1585791832
 20
50.6388340326
 30
0.0
 10
24.1621644005
 20
50.639327009
 30
0.0
 10
24.1652075481
 20
50.6397361253
 30
0.0
 10
24.1677376404
 20
50.6401025782
 30
0.0
 10
24.1704426066
 20
50.6404238514
 30
0.0
 10
24.1728390254
 20
50.6411370946
 30
0.0
 10
24.1763638552
 20
50.6407652484
 30
0.0
 10
24.1760935609
 20
50.6439895323
 30
0.0
 10
24.172444113
 20
50.6442834714
 30
0.0
 10
24.1694277968
 20
50.6462554865
 30
0.0
 10
24.1655671231
 20
50.6486899351
 30
0.0
 10
24.1654010077
 20
50.6538569038
 30
0.0
 10
24.1683673434
 20
50.6585152896
 30
0.0
 10
24.1665042469
 20
50.664854191
 30
0.0
 10
24.1643834189
 20
50.6712000138
 30
0.0
 10
24.1630549269
 20
50.6785242783
 30
0.0
 10
24.1627125792
 20
50.6864353834
 30
0.0
 10
24.1621142495
 20
50.6950665169
 30
0.0
 10
24.1612426282
 20
50.7044648886
 30
0.0
 10
24.1607119121
 20
50.7146734653
 30
0.0
 10
24.1601859455
 20
50.725717858
 30
0.0
 10
24.1598097177
 20
50.7376841426
 30
0.0
 10
24.1595594757
 20
50.7506346374
 30
0.0
 10
24.1594677944
 20
50.7646486769
 30
0.0
 10
24.1595552416
 20
50.7798105631
 30
0.0
 10
24.1598512225
 20
50.7962118085
 30
0.0
 10
24.1603883368
 20
50.8139512358
 30
0.0
 10
24.1612046089
 20
50.8331356337
 30
0.0
 10
24.1623445105
 20
50.8538802293
 30
0.0
 10
24.16385104
 20
50.8763099517
 30
0.0
 10
24.1657717122
 20
50.9005601706
 30
0.0
 10
24.1681612476
 20
50.926777383
 30
0.0
 10
24.1710818682
 20
50.9551201187
 30
0.0
 10
24.17460449
 20
50.9857598841
 30
0.0
 10
24.1788097371
 20
51.0188822
 30
0.0
 10
24.18378965
 20
51.0546877237
 30
0.0
 10
24.1896476511
 20
51.0933934692
 30
0.0
 10
24.1964837186
 20
51.1352371625
 30
0.0
 10
24.204411042
 20
51.1804774249
 30
0.0
 10
24.2135554202
 20
51.229391318
 30
0.0
 10
24.2240620658
 20
51.2823012045
 30
0.0
 10
24.2317520735
 20
51.3188933799
 30
0.0
 10
24.2358545996
 20
51.337913267
 30
0.0
  0
SPLINE
  5
2CA
100
AcDbEntity
  8
0
100
AcDbSpline
 62
7
  6
BYLAYER
 70
0
 71
3
 72
15
 73
11
 74
0
 42
0.0000001
 43
0.0000001
 44
0.0000000001
 40
0.0
 40
0.0
 40
0.0
 40
0.0
 40
0.1907367824
 40
0.3671567023
 40
0.5268793507
 40
0.6624819695
 40
0.7744473616
 40
0.8668666341
 40
0.9440195447
 40
1.0
 40
1.0
 40
1.0
 40
1.0
 10
24.239064307
 20
49.1134398206
 30
0.0
 10
24.195845383
 20
49.1153647981
 30
0.0
 10
24.1127324017
 20
49.1213992116
 30
0.0
 10
23.9941714018
 20
49.1368223073
 30
0.0
 10
23.8889573067
 20
49.156703864
 30
0.0
 10
23.7993477963
 20
49.1791991967
 30
0.0
 10
23.7255683071
 20
49.2021506689
 30
0.0
 10
23.6666545997
 20
49.2264034855
 30
0.0
 10
23.6202516592
 20
49.249424304
 30
0.0
 10
23.5990992157
 20
49.2715451667
 30
0.0
 10
23.590965736
 20
49.2812952513
 30
0.0
  0
SPLINE
  5
2CB
100
AcDbEntity
  8
0
100
AcDbSpline
 62
7
  6
BYLAYER
 70
0
 71
3
 72
30
 73
26
 74
0
 42
0.0000001
 43
0.0000001
 44
0.0000000001
 40
0.0
 40
0.0
 40
0.0
 40
0.0
 40
0.1199557632
 40
0.2248843221
 40
0.3171418292
 40
0.3985094562
 40
0.4702268361
 40
0.5333027612
 40
0.5886009877
 40
0.6368486785
 40
0.6786333106
 40
0.7145067472
 40
0.7449681686
 40
0.7704017896
 40
0.7912003361
 40
0.8079093811
 40
0.821599747
 40
0.8339824365
 40
0.8469979434
 40
0.8620808978
 40
0.8805225095
 40
0.9033671825
 40
0.9312506948
 40
0.9639952137
 40
1.0
 40
1.0
 40
1.0
 40
1.0
 10
25.5166791843
 20
49.613292639
 30
0.0
 10
25.438057732
 20
49.6066777522
 30
0.0
 10
25.2906548345
 20
49.5943865573
 30
0.0
 10
25.0828400776
 20
49.5763403546
 30
0.0
 10
24.9004612512
 20
49.5588143959
 30
0.0
 10
24.7400647298
 20
49.5410383928
 30
0.0
 10
24.5990819164
 20
49.522558613
 30
0.0
 10
24.475546335
 20
49.5031794697
 30
0.0
 10
24.3678359631
 20
49.4828379373
 30
0.0
 10
24.274613386
 20
49.4615777678
 30
0.0
 10
24.1947683871
 20
49.4394728303
 30
0.0
 10
24.1273940182
 20
49.4165589395
 30
0.0
 10
24.0718061607
 20
49.3928473867
 30
0.0
 10
24.0275676264
 20
49.3683567113
 30
0.0
 10
23.9944952212
 20
49.3431121888
 30
0.0
 10
23.9725096983
 20
49.3170918682
 30
0.0
 10
23.9617835537
 20
49.2903883837
 30
0.0
 10
23.9622545113
 20
49.2640113555
 30
0.0
 10
23.9726470123
 20
49.2389688764
 30
0.0
 10
23.9920179241
 20
49.2148976714
 30
0.0
 10
24.0208634711
 20
49.191295678
 30
0.0
 10
24.060270954
 20
49.1682734138
 30
0.0
 10
24.1108523385
 20
49.1466298575
 30
0.0
 10
24.171595519
 20
49.1276228244
 30
0.0
 10
24.2157880761
 20
49.1178030212
 30
0.0
 10
24.239064307
 20
49.1134398206
 30
0.0
  0
SPLINE
  5
2CC
100
AcDbEntity
  8
0
100
AcDbSpline
 62
7
  6
BYLAYER
 70
0
 71
3
 72
13
 73
9
 74
0
 42
0.0000001
 43
0.0000001
 44
0.0000000001
 40
0.0
 40
0.0
 40
0.0
 40
0.0
 40
0.1320527125
 40
0.2776479709
 40
0.4349706148
 40
0.6052176264
 40
0.7912996102
 40
1.0
 40
1.0
 40
1.0
 40
1.0
 10
28.5727181925
 20
50.2051300142
 30
0.0
 10
28.4806752119
 20
50.1868743073
 30
0.0
 10
28.2864416681
 20
50.1522038655
 30
0.0
 10
27.9834485984
 20
50.0908170333
 30
0.0
 10
27.6570868507
 20
50.0094243032
 30
0.0
 10
27.3071571445
 20
49.905310058
 30
0.0
 10
26.9262096349
 20
49.7783149694
 30
0.0
 10
26.662210601
 20
49.6834161149
 30
0.0
 10
26.5223134494
 20
49.6342015343
 30
0.0
  0
SPLINE
  5
2CD
100
AcDbEntity
  8
0
100
AcDbSpline
 62
7
  6
BYLAYER
 70
0
 71
3
 72
22
 73
18
 74
0
 42
0.0000001
 43
0.0000001
 44
0.0000000001
 40
0.0
 40
0.0
 40
0.0
 40
0.0
 40
0.0827292144
 40
0.1617721812
 40
0.2376951164
 40
0.3111478592
 40
0.3828351528
 40
0.4534930493
 40
0.5238610394
 40
0.594468416
 40
0.6656832214
 40
0.737076063
 40
0.8081543744
 40
0.877708586
 40
0.9444544807
 40
0.972585042
 40
1.0
 40
1.0
 40
1.0
 40
1.0
 10
23.3013173598
 20
51.7409751594
 30
0.0
 10
23.2857958298
 20
51.6712822591
 30
0.0
 10
23.2573921963
 20
51.5345386163
 30
0.0
 10
23.2225114638
 20
51.332327014
 30
0.0
 10
23.1964062209
 20
51.1368529965
 30
0.0
 10
23.1797235098
 20
50.9467068259
 30
0.0
 10
23.1730969781
 20
50.7604661134
 30
0.0
 10
23.1778709494
 20
50.5768024118
 30
0.0
 10
23.1953216239
 20
50.3947995053
 30
0.0
 10
23.2276788999
 20
50.214303296
 30
0.0
 10
23.2767289728
 20
50.0366217645
 30
0.0
 10
23.3451368436
 20
49.8648422267
 30
0.0
 10
23.4346788573
 20
49.7046375105
 30
0.0
 10
23.5417290566
 20
49.5605294947
 30
0.0
 10
23.6417808338
 20
49.4591535864
 30
0.0
 10
23.7230830113
 20
49.3917561268
 30
0.0
 10
23.7617961841
 20
49.3634388864
 30
0.0
 10
23.7813270662
 20
49.3500616896
 30
0.0
  0
SPLINE
  5
2CE
100
AcDbEntity
  8
0
100
AcDbSpline
 62
7
  6
BYLAYER
 70
0
 71
3
 72
22
 73
18
 74
0
 42
0.0000001
 43
0.0000001
 44
0.0000000001
 40
0.0
 40
0.0
 40
0.0
 40
0.0
 40
0.0756908144
 40
0.0840411454
 40
0.1463723727
 40
0.1992602219
 40
0.2078562538
 40
0.225066243
 40
0.2691435753
 40
0.3460320813
 40
0.4629947182
 40
0.5304807224
 40
0.5932840302
 40
0.6685825867
 40
0.759154848
 40
0.868320235
 40
1.0
 40
1.0
 40
1.0
 40
1.0
 10
24.1541584872
 20
50.7207428668
 30
0.0
 10
24.1317217181
 20
50.7218600763
 30
0.0
 10
24.0693745762
 20
50.7447967811
 30
0.0
 10
24.1067308582
 20
50.7132702244
 30
0.0
 10
24.1324602757
 20
50.6878302385
 30
0.0
 10
24.1525909265
 20
50.6642767992
 30
0.0
 10
24.1631064239
 20
50.6337906866
 30
0.0
 10
24.1548178043
 20
50.6705159946
 30
0.0
 10
24.1553212077
 20
50.6985237725
 30
0.0
 10
24.1521878611
 20
50.7769376091
 30
0.0
 10
24.1573378468
 20
50.8513233228
 30
0.0
 10
24.1641523279
 20
50.9249221193
 30
0.0
 10
24.1714300374
 20
50.9854001942
 30
0.0
 10
24.1809475928
 20
51.0526392651
 30
0.0
 10
24.1942660431
 20
51.1331696297
 30
0.0
 10
24.2125064994
 20
51.2298386333
 30
0.0
 10
24.2273480569
 20
51.2997685068
 30
0.0
 10
24.2358545958
 20
51.3379132491
 30
0.0
  0
SPLINE
  5
2CF
100
AcDbEntity
  8
0
100
AcDbSpline
 62
7
  6
BYLAYER
 70
0
 71
3
 72
13
 73
9
 74
0
 42
0.0000001
 43
0.0000001
 44
0.0000000001
 40
0.0
 40
0.0
 40
0.0
 40
0.0
 40
0.1201721893
 40
0.3170566594
 40
0.5598641746
 40
0.7786129881
 40
0.9357122178
 40
1.0
 40
1.0
 40
1.0
 40
1.0
 10
24.0964758433
 20
50.7393029716
 30
0.0
 10
24.0988858688
 20
50.7389368843
 30
0.0
 10
24.1049897931
 20
50.7367829199
 30
0.0
 10
24.1158970234
 20
50.733551008
 30
0.0
 10
24.1284548475
 20
50.7296221065
 30
0.0
 10
24.1412947338
 20
50.7264476974
 30
0.0
 10
24.148355251
 20
50.7240573109
 30
0.0
 10
24.1543351395
 20
50.7220349128
 30
0.0
 10
24.1541584872
 20
50.7207428668
 30
0.0
  0
SPLINE
  5
2D0
100
AcDbEntity
  8
0
100
AcDbSpline
 62
7
  6
BYLAYER
 70
0
 71
3
 72
43
 73
39
 74
0
 42
0.0000001
 43
0.0000001
 44
0.0000000001
 40
0.0
 40
0.0
 40
0.0
 40
0.0
 40
0.000138701
 40
0.0003318469
 40
0.0012343561
 40
0.0026172319
 40
0.0067715373
 40
0.0127029834
 40
0.0202846744
 40
0.0293899908
 40
0.0399234403
 40
0.0517941971
 40
0.0648989513
 40
0.0791344309
 40
0.0944195097
 40
0.1278204994
 40
0.1644819907
 40
0.2038884329
 40
0.2455544758
 40
0.2890493094
 40
0.3339679671
 40
0.3799588064
 40
0.4739758574
 40
0.5216064558
 40
0.5695386519
 40
0.6178315524
 40
0.6667537135
 40
0.7167255215
 40
0.742272963
 40
0.76831147
 40
0.7949438476
 40
0.8222306799
 40
0.8502293963
 40
0.8789443244
 40
0.9083680543
 40
0.9384171806
 40
0.9689994743
 40
1.0
 40
1.0
 40
1.0
 40
1.0
 10
24.0964754565
 20
50.7393027545
 30
0.0
 10
24.0967813402
 20
50.7392515933
 30
0.0
 10
24.097510557
 20
50.7391157634
 30
0.0
 10
24.1002095008
 20
50.7385414999
 30
0.0
 10
24.1056301823
 20
50.73739658
 30
0.0
 10
24.1197924288
 20
50.7348064546
 30
0.0
 10
24.1452669566
 20
50.7316848076
 30
0.0
 10
24.1847577799
 20
50.7300087292
 30
0.0
 10
24.2353360039
 20
50.7309881506
 30
0.0
 10
24.2960275863
 20
50.7357341394
 30
0.0
 10
24.3659165769
 20
50.7446727816
 30
0.0
 10
24.4441418958
 20
50.7582551314
 30
0.0
 10
24.5299062789
 20
50.7764102866
 30
0.0
 10
24.6224588673
 20
50.7991029781
 30
0.0
 10
24.758157947
 20
50.8361326178
 30
0.0
 10
24.9405076428
 20
50.8923786717
 30
0.0
 10
25.1720587052
 20
50.9715634656
 30
0.0
 10
25.4194260263
 20
51.061413885
 30
0.0
 10
25.6801575298
 20
51.1591470077
 30
0.0
 10
25.9521952111
 20
51.2618118692
 30
0.0
 10
26.2337870135
 20
51.366555856
 30
0.0
 10
26.6229097856
 20
51.5060172414
 30
0.0
 10
27.0218767128
 20
51.6362243786
 30
0.0
 10
27.4311786256
 20
51.7464342983
 30
0.0
 10
27.7453014546
 20
51.8158167006
 30
0.0
 10
28.0657619584
 20
51.8679358721
 30
0.0
 10
28.3937556389
 20
51.8974354196
 30
0.0
 10
28.6723911712
 20
51.8986833487
 30
0.0
 10
28.8988706159
 20
51.8816424426
 30
0.0
 10
29.0722736415
 20
51.8584503047
 30
0.0
 10
29.2477481808
 20
51.8238557211
 30
0.0
 10
29.4247565482
 20
51.7763928679
 30
0.0
 10
29.6022892835
 20
51.7147226689
 30
0.0
 10
29.7790130525
 20
51.6377958632
 30
0.0
 10
29.9530666847
 20
51.5447959978
 30
0.0
 10
30.1224845099
 20
51.4356473279
 30
0.0
 10
30.2849129821
 20
51.3104771781
 30
0.0
 10
30.3867204453
 20
51.2175753048
 30
0.0
 10
30.4359622664
 20
51.1688032669
 30
0.0
  0
SPLINE
  5
2D1
100
AcDbEntity
  8
0
100
AcDbSpline
 62
7
  6
BYLAYER
 70
0
 71
3
 72
22
 73
18
 74
0
 42
0.0000001
 43
0.0000001
 44
0.0000000001
 40
0.0
 40
0.0
 40
0.0
 40
0.0
 40
0.0516367537
 40
0.101926285
 40
0.2205384116
 40
0.3303321444
 40
0.4309703738
 40
0.5221170847
 40
0.6036088332
 40
0.6758883166
 40
0.7396821768
 40
0.7964450835
 40
0.8479906696
 40
0.8970378527
 40
0.9465829434
 40
0.9725901964
 40
1.0
 40
1.0
 40
1.0
 40
1.0
 10
28.5726392353
 20
50.205124883
 30
0.0
 10
28.5858438187
 20
50.20598274
 30
0.0
 10
28.6119216959
 20
50.2074666157
 30
0.0
 10
28.6683934633
 20
50.209695562
 30
0.0
 10
28.7398359176
 20
50.2102787612
 30
0.0
 10
28.8241217745
 20
50.2069278379
 30
0.0
 10
28.9011174113
 20
50.1998801945
 30
0.0
 10
28.9704224186
 20
50.1895412604
 30
0.0
 10
29.03180567
 20
50.1762326079
 30
0.0
 10
29.0853867587
 20
50.1606602331
 30
0.0
 10
29.1317477325
 20
50.1434179744
 30
0.0
 10
29.1717794656
 20
50.124804495
 30
0.0
 10
29.2068971133
 20
50.104888768
 30
0.0
 10
29.2386024228
 20
50.083016818
 30
0.0
 10
29.2633628701
 20
50.062796636
 30
0.0
 10
29.2827015449
 20
50.0448385925
 30
0.0
 10
29.2923494993
 20
50.0351226175
 30
0.0
 10
29.2972061316
 20
50.0300482935
 30
0.0
  0
SPLINE
  5
2D2
100
AcDbEntity
  8
0
100
AcDbSpline
 62
7
  6
BYLAYER
 70
0
 71
3
 72
32
 73
28
 74
0
 42
0.0000001
 43
0.0000001
 44
0.0000000001
 40
0.0
 40
0.0
 40
0.0
 40
0.0
 40
0.0832216792
 40
0.157621034
 40
0.223067146
 40
0.2805073976
 40
0.3311174163
 40
0.3757547007
 40
0.4152547373
 40
0.4501054296
 40
0.4808104274
 40
0.5078467749
 40
0.5314352147
 40
0.5521159459
 40
0.5710156413
 40
0.5895118154
 40
0.6087335281
 40
0.6300413649
 40
0.6545074128
 40
0.6826007475
 40
0.7142949267
 40
0.7500170088
 40
0.7900875137
 40
0.8348124646
 40
0.8844468138
 40
0.9393740967
 40
1.0
 40
1.0
 40
1.0
 40
1.0
 10
28.9542205323
 20
49.6874903262
 30
0.0
 10
28.9209521314
 20
49.7165078105
 30
0.0
 10
28.8561189846
 20
49.7697249247
 30
0.0
 10
28.7541776724
 20
49.8303870646
 30
0.0
 10
28.6596981092
 20
49.8757701795
 30
0.0
 10
28.57238001
 20
49.9055334073
 30
0.0
 10
28.4931471026
 20
49.9230955016
 30
0.0
 10
28.4218778787
 20
49.9304413372
 30
0.0
 10
28.3585916862
 20
49.9290480309
 30
0.0
 10
28.3034001699
 20
49.9199712756
 30
0.0
 10
28.2565684685
 20
49.9044260682
 30
0.0
 10
28.2184661666
 20
49.8836347093
 30
0.0
 10
28.1893818736
 20
49.8590039363
 30
0.0
 10
28.1689784832
 20
49.8320795571
 30
0.0
 10
28.156104638
 20
49.8038261908
 30
0.0
 10
28.1496980081
 20
49.7742638351
 30
0.0
 10
28.1493225826
 20
49.7427628647
 30
0.0
 10
28.1553002554
 20
49.7086283401
 30
0.0
 10
28.1683797907
 20
49.6715288456
 30
0.0
 10
28.1890545637
 20
49.6317718748
 30
0.0
 10
28.2173497318
 20
49.5896495466
 30
0.0
 10
28.2530762755
 20
49.5451531326
 30
0.0
 10
28.295929843
 20
49.4976861938
 30
0.0
 10
28.3454795327
 20
49.4463972286
 30
0.0
 10
28.4013058494
 20
49.3902322781
 30
0.0
 10
28.4634390096
 20
49.3284458618
 30
0.0
 10
28.5064364297
 20
49.2847588111
 30
0.0
 10
28.5292222298
 20
49.2620647009
 30
0.0
  0
SPLINE
  5
2D3
100
AcDbEntity
  8
0
100
AcDbSpline
 62
7
  6
BYLAYER
 70
0
 71
3
 72
10
 73
6
 74
0
 42
0.0000001
 43
0.0000001
 44
0.0000000001
 40
0.0
 40
0.0
 40
0.0
 40
0.0
 40
0.3312543732
 40
0.6652301349
 40
1.0
 40
1.0
 40
1.0
 40
1.0
 10
28.9002846808
 20
50.5505997397
 30
0.0
 10
28.9623821232
 20
50.5132642647
 30
0.0
 10
29.0853498621
 20
50.43525647
 30
0.0
 10
29.260488706
 20
50.303768291
 30
0.0
 10
29.3700441277
 20
50.206686061
 30
0.0
 10
29.4240864592
 20
50.1572747123
 30
0.0
  0
SPLINE
  5
2D4
100
AcDbEntity
  8
0
100
AcDbSpline
 62
7
  6
BYLAYER
 70
0
 71
3
 72
19
 73
15
 74
0
 42
0.0000001
 43
0.0000001
 44
0.0000000001
 40
0.0
 40
0.0
 40
0.0
 40
0.0
 40
0.1465798383
 40
0.275039419
 40
0.3857885638
 40
0.4790615383
 40
0.5544304187
 40
0.6146685118
 40
0.6657621925
 40
0.7148293515
 40
0.7681997465
 40
0.8309024921
 40
0.9062072652
 40
1.0
 40
1.0
 40
1.0
 40
1.0
 10
28.5723284663
 20
50.2051787807
 30
0.0
 10
28.6017668349
 20
50.2110688297
 30
0.0
 10
28.6569962718
 20
50.2221904642
 30
0.0
 10
28.7338266827
 20
50.2407598775
 30
0.0
 10
28.799075684
 20
50.2604354016
 30
0.0
 10
28.8522302975
 20
50.2819653766
 30
0.0
 10
28.8928968082
 20
50.3057484954
 30
0.0
 10
28.9216738862
 20
50.3313919207
 30
0.0
 10
28.9405402545
 20
50.358705728
 30
0.0
 10
28.9512208798
 20
50.3886514348
 30
0.0
 10
28.9540346708
 20
50.4227543537
 30
0.0
 10
28.9476132118
 20
50.4616120677
 30
0.0
 10
28.9332178649
 20
50.5073289962
 30
0.0
 10
28.9123921626
 20
50.5356852819
 30
0.0
 10
28.9002846808
 20
50.5505997397
 30
0.0
  0
SPLINE
  5
2D5
100
AcDbEntity
  8
0
100
AcDbSpline
 62
7
  6
BYLAYER
 70
0
 71
3
 72
26
 73
22
 74
0
 42
0.0000001
 43
0.0000001
 44
0.0000000001
 40
0.0
 40
0.0
 40
0.0
 40
0.0
 40
0.0571408095
 40
0.097104161
 40
0.1332300263
 40
0.1685320961
 40
0.2045146283
 40
0.2474363134
 40
0.2977602881
 40
0.3459818906
 40
0.4052958474
 40
0.4759952187
 40
0.5401514316
 40
0.6089883419
 40
0.6811900243
 40
0.7517568195
 40
0.8155074015
 40
0.8745977162
 40
0.9267430392
 40
0.9697399602
 40
1.0
 40
1.0
 40
1.0
 40
1.0
 10
16.8503188186
 20
51.3807000671
 30
0.0
 10
16.8222860243
 20
51.2242227414
 30
0.0
 10
16.785439718
 20
50.9551270931
 30
0.0
 10
16.8069103872
 20
50.5829414121
 30
0.0
 10
16.8788325461
 20
50.2805138436
 30
0.0
 10
16.9966925791
 20
50.002412672
 30
0.0
 10
17.2007019487
 20
49.7555688653
 30
0.0
 10
17.4662415284
 20
49.5101140558
 30
0.0
 10
17.8152147981
 20
49.3220237418
 30
0.0
 10
18.2184985998
 20
49.1475320854
 30
0.0
 10
18.6983204505
 20
49.0160058214
 30
0.0
 10
19.2310261904
 20
48.9236909336
 30
0.0
 10
19.7954867002
 20
48.8683174941
 30
0.0
 10
20.366553605
 20
48.8529296826
 30
0.0
 10
20.9552074724
 20
48.8702765796
 30
0.0
 10
21.5284513512
 20
48.9121342218
 30
0.0
 10
22.0624926672
 20
48.9800050325
 30
0.0
 10
22.5420698361
 20
49.0640751358
 30
0.0
 10
22.9642783651
 20
49.1403485767
 30
0.0
 10
23.3078545463
 20
49.2013708346
 30
0.0
 10
23.5048196973
 20
49.2559796595
 30
0.0
 10
23.583921833
 20
49.2847885276
 30
0.0
  0
SPLINE
  5
2D6
100
AcDbEntity
  8
0
100
AcDbSpline
 62
7
  6
BYLAYER
 70
0
 71
3
 72
18
 73
14
 74
0
 42
0.0000001
 43
0.0000001
 44
0.0000000001
 40
0.0
 40
0.0
 40
0.0
 40
0.0
 40
0.0081031815
 40
0.0527736927
 40
0.1303680766
 40
0.2339333211
 40
0.3582778468
 40
0.4931903863
 40
0.6287832528
 40
0.7542787003
 40
0.8631522066
 40
0.9479023295
 40
1.0
 40
1.0
 40
1.0
 40
1.0
 10
15.0882920491
 20
51.698165664
 30
0.0
 10
15.086546253
 20
51.7026857996
 30
0.0
 10
15.1299023209
 20
51.7206019375
 30
0.0
 10
15.1929069969
 20
51.6923299286
 30
0.0
 10
15.3357364684
 20
51.6875074442
 30
0.0
 10
15.5125544283
 20
51.6543497105
 30
0.0
 10
15.7278305238
 20
51.6202164338
 30
0.0
 10
15.9598037346
 20
51.5777761786
 30
0.0
 10
16.1925046947
 20
51.5334688979
 30
0.0
 10
16.40933136
 20
51.4895631582
 30
0.0
 10
16.5957385672
 20
51.4487905156
 30
0.0
 10
16.7389253058
 20
51.4155177167
 30
0.0
 10
16.8172204756
 20
51.3915077635
 30
0.0
 10
16.8467099262
 20
51.3814622983
 30
0.0
  0
SPLINE
  5
2D7
100
AcDbEntity
  8
0
100
AcDbSpline
 62
7
  6
BYLAYER
 70
0
 71
3
 72
102
 73
98
 74
0
 42
0.0000001
 43
0.0000001
 44
0.0000000001
 40
0.0
 40
0.0
 40
0.0
 40
0.0
 40
0.0005129542
 40
0.0009199379
 40
0.0012255064
 40
0.0014875384
 40
0.0017579152
 40
0.0019988326
 40
0.0021858261
 40
0.0025211908
 40
0.0027002817
 40
0.0028563938
 40
0.003038818
 40
0.0032494808
 40
0.003492475
 40
0.0037730427
 40
0.0040968054
 40
0.0044704793
 40
0.0049017974
 40
0.0053954809
 40
0.0059591388
 40
0.0066037086
 40
0.0073422228
 40
0.0081819984
 40
0.0086357031
 40
0.0090897551
 40
0.0095970331
 40
0.0101703867
 40
0.0108232566
 40
0.0115708436
 40
0.0124307301
 40
0.0134228674
 40
0.0145704487
 40
0.0159008612
 40
0.0174410282
 40
0.0192187664
 40
0.0211968436
 40
0.0228874994
 40
0.0247642289
 40
0.0268147271
 40
0.0286709647
 40
0.0302754404
 40
0.0319751415
 40
0.0337784907
 40
0.0356938651
 40
0.0377300071
 40
0.0398969033
 40
0.04220535
 40
0.0446665977
 40
0.0472919554
 40
0.0500937818
 40
0.0530847303
 40
0.0562770964
 40
0.059686884
 40
0.0633285372
 40
0.0672161855
 40
0.0713685598
 40
0.075802545
 40
0.0805340877
 40
0.0855820461
 40
0.0909616652
 40
0.0966902356
 40
0.1027812799
 40
0.1092379009
 40
0.1158244426
 40
0.121933012
 40
0.1284875649
 40
0.1356164631
 40
0.1434454142
 40
0.1521028051
 40
0.1617224843
 40
0.1724443262
 40
0.1844120346
 40
0.1977747409
 40
0.2126864708
 40
0.2293022041
 40
0.2477496706
 40
0.2681328359
 40
0.2905817734
 40
0.3152279675
 40
0.3421744002
 40
0.3726513842
 40
0.4059286175
 40
0.4415475342
 40
0.4793620351
 40
0.5191708667
 40
0.5607349253
 40
0.6073228351
 40
0.6564180651
 40
0.7039759675
 40
0.7487353544
 40
0.7900644477
 40
0.8287664785
 40
0.8680505335
 40
0.9085642816
 40
0.950968874
 40
1.0
 40
1.0
 40
1.0
 40
1.0
 10
28.3494536043
 20
49.0796749288
 30
0.0
 10
28.3467710716
 20
49.0805523227
 30
0.0
 10
28.3420682144
 20
49.0824589019
 30
0.0
 10
28.3361385985
 20
49.0857378965
 30
0.0
 10
28.3318324552
 20
49.0888827586
 30
0.0
 10
28.328222932
 20
49.0919422058
 30
0.0
 10
28.3266016
 20
49.0958612118
 30
0.0
 10
28.3245499686
 20
49.0994431986
 30
0.0
 10
28.3202504739
 20
49.1004059775
 30
0.0
 10
28.3165324187
 20
49.1011225602
 30
0.0
 10
28.3128575281
 20
49.1015798333
 30
0.0
 10
28.3100282309
 20
49.1018851531
 30
0.0
 10
28.3070172961
 20
49.1021521479
 30
0.0
 10
28.303526346
 20
49.1024002801
 30
0.0
 10
28.2994919954
 20
49.1026164569
 30
0.0
 10
28.2948327097
 20
49.1027854502
 30
0.0
 10
28.2894522231
 20
49.1028873021
 30
0.0
 10
28.2832412909
 20
49.1028972228
 30
0.0
 10
28.2760962579
 20
49.1027842508
 30
0.0
 10
28.267909407
 20
49.1025144602
 30
0.0
 10
28.2585564373
 20
49.1020456559
 30
0.0
 10
28.2478688774
 20
49.101323851
 30
0.0
 10
28.2356819684
 20
49.1002832265
 30
0.0
 10
28.2245606023
 20
49.0991287852
 30
0.0
 10
28.2150108691
 20
49.0980071865
 30
0.0
 10
28.2072866091
 20
49.0970293624
 30
0.0
 10
28.1989192672
 20
49.0958922522
 30
0.0
 10
28.1894807356
 20
49.0945168497
 30
0.0
 10
28.178749775
 20
49.0928446121
 30
0.0
 10
28.1664809799
 20
49.0908056542
 30
0.0
 10
28.1523955365
 20
49.0883157236
 30
0.0
 10
28.136173791
 20
49.0852725646
 30
0.0
 10
28.1174460189
 20
49.0815522555
 30
0.0
 10
28.0958096999
 20
49.0770041747
 30
0.0
 10
28.0708408215
 20
49.0714621946
 30
0.0
 10
28.0424705992
 20
49.0648073099
 30
0.0
 10
28.0133857341
 20
49.0575836116
 30
0.0
 10
27.9838654325
 20
49.049864489
 30
0.0
 10
27.954053168
 20
49.0416945627
 30
0.0
 10
27.9234699697
 20
49.0328996414
 30
0.0
 10
27.8944318066
 20
49.0241613611
 30
0.0
 10
27.8673317179
 20
49.0156873912
 30
0.0
 10
27.8405956556
 20
49.0070289608
 30
0.0
 10
27.8123316212
 20
48.9975416685
 30
0.0
 10
27.7824274008
 20
48.9871293199
 30
0.0
 10
27.7507687046
 20
48.9756796101
 30
0.0
 10
27.7172262335
 20
48.9630871494
 30
0.0
 10
27.6816494666
 20
48.9492656328
 30
0.0
 10
27.6438841799
 20
48.9341182641
 30
0.0
 10
27.6037684795
 20
48.9175449315
 30
0.0
 10
27.5611336202
 20
48.8994421585
 30
0.0
 10
27.5158059361
 20
48.8797043287
 30
0.0
 10
27.4675928469
 20
48.8582189786
 30
0.0
 10
27.4162919877
 20
48.8348712027
 30
0.0
 10
27.3616896184
 20
48.8095461302
 30
0.0
 10
27.3035591897
 20
48.7821207189
 30
0.0
 10
27.2415973624
 20
48.7526008353
 30
0.0
 10
27.1754665395
 20
48.721036023
 30
0.0
 10
27.1047904014
 20
48.6875545618
 30
0.0
 10
27.0292192757
 20
48.6522551225
 30
0.0
 10
26.9484740873
 20
48.6150732385
 30
0.0
 10
26.862286614
 20
48.5759920262
 30
0.0
 10
26.770447227
 20
48.5350303186
 30
0.0
 10
26.6740138023
 20
48.4927845418
 30
0.0
 10
26.5771758685
 20
48.4512292859
 30
0.0
 10
26.4795991414
 20
48.410035636
 30
0.0
 10
26.3791664224
 20
48.3679357142
 30
0.0
 10
26.2699020349
 20
48.3224197229
 30
0.0
 10
26.1498089769
 20
48.272811007
 30
0.0
 10
26.0167713868
 20
48.2186460344
 30
0.0
 10
25.8685398364
 20
48.1595973437
 30
0.0
 10
25.7026798563
 20
48.0956052815
 30
0.0
 10
25.5165811233
 20
48.0269043163
 30
0.0
 10
25.3074762099
 20
47.954034748
 30
0.0
 10
25.072243487
 20
47.878631605
 30
0.0
 10
24.8085337591
 20
47.8006997355
 30
0.0
 10
24.5152695156
 20
47.716640131
 30
0.0
 10
24.1909920572
 20
47.6242506122
 30
0.0
 10
23.8312694244
 20
47.5320444829
 30
0.0
 10
23.4332882266
 20
47.444724115
 30
0.0
 10
22.9902660427
 20
47.357165896
 30
0.0
 10
22.4982716291
 20
47.273082934
 30
0.0
 10
21.9564330324
 20
47.1988954901
 30
0.0
 10
21.3718682595
 20
47.1422159049
 30
0.0
 10
20.7495459541
 20
47.1078502691
 30
0.0
 10
20.0934698101
 20
47.1023924513
 30
0.0
 10
19.3898519756
 20
47.1372351011
 30
0.0
 10
18.6393030024
 20
47.2303432661
 30
0.0
 10
17.870360794
 20
47.4089674115
 30
0.0
 10
17.133485984
 20
47.6676812945
 30
0.0
 10
16.4895170213
 20
48.0296976646
 30
0.0
 10
15.9488642538
 20
48.4593031529
 30
0.0
 10
15.5294502255
 20
48.9708511085
 30
0.0
 10
15.2237199666
 20
49.5510319986
 30
0.0
 10
15.0295520033
 20
50.2006798131
 30
0.0
 10
14.9884431294
 20
50.930265725
 30
0.0
 10
15.0383836162
 20
51.4328376119
 30
0.0
 10
15.084654082
 20
51.6986189158
 30
0.0
  0
SPLINE
  5
2D8
100
AcDbEntity
  8
0
100
AcDbSpline
 62
7
  6
BYLAYER
 70
0
 71
3
 72
138
 73
134
 74
0
 42
0.0000001
 43
0.0000001
 44
0.0000000001
 40
0.0
 40
0.0
 40
0.0
 40
0.0
 40
0.0544981491
 40
0.1004020079
 40
0.1442737629
 40
0.1884348571
 40
0.2343180542
 40
0.2842426554
 40
0.3373700803
 40
0.3902071791
 40
0.443285058
 40
0.4907070736
 40
0.5323392441
 40
0.5699638696
 40
0.6037042307
 40
0.6338078101
 40
0.6606052816
 40
0.6844748678
 40
0.7058402224
 40
0.7251657414
 40
0.742931476
 40
0.7582509187
 40
0.7619572716
 40
0.7656609468
 40
0.7693609843
 40
0.7730575607
 40
0.7767502289
 40
0.7804383442
 40
0.7841218062
 40
0.7878007144
 40
0.7914750305
 40
0.7951444029
 40
0.7988091574
 40
0.8024695387
 40
0.8061251464
 40
0.8097762653
 40
0.8134230699
 40
0.8170651938
 40
0.8207029097
 40
0.8243363359
 40
0.8279651344
 40
0.8315895571
 40
0.8352096875
 40
0.8388251527
 40
0.842435947
 40
0.8460420028
 40
0.8496429122
 40
0.853238277
 40
0.8568283944
 40
0.8604127197
 40
0.8639885581
 40
0.8675560741
 40
0.8711147863
 40
0.8746594267
 40
0.8781872121
 40
0.8817031536
 40
0.8852083915
 40
0.8886936792
 40
0.8921503088
 40
0.8955804665
 40
0.8989851515
 40
0.9023601377
 40
0.9057005163
 40
0.9090047033
 40
0.9122720746
 40
0.9155006248
 40
0.9186893948
 40
0.9218373692
 40
0.9249431409
 40
0.9280058262
 40
0.93102436
 40
0.9339975406
 40
0.9369242366
 40
0.9398040885
 40
0.9426364533
 40
0.9454193891
 40
0.9481521376
 40
0.9508342841
 40
0.9534641009
 40
0.9560402517
 40
0.9585615563
 40
0.9610264214
 40
0.9634336092
 40
0.9657819433
 40
0.9680696481
 40
0.9702938964
 40
0.972452089
 40
0.9745425216
 40
0.9765618814
 40
0.9785074726
 40
0.9798711182
 40
0.9807167106
 40
0.9815452596
 40
0.9823563284
 40
0.9831496998
 40
0.9839263131
 40
0.9846856313
 40
0.9854268284
 40
0.9861491276
 40
0.9868518066
 40
0.987534206
 40
0.9881967275
 40
0.9888398553
 40
0.9894633217
 40
0.9900668814
 40
0.9906503128
 40
0.9912134184
 40
0.9917559239
 40
0.9922776323
 40
0.9927790895
 40
0.9932608979
 40
0.9937235942
 40
0.9941676466
 40
0.9945933828
 40
0.9949996658
 40
0.9953866575
 40
0.9957551376
 40
0.996105753
 40
0.9964390167
 40
0.9967553068
 40
0.9970542584
 40
0.9973352217
 40
0.9975987298
 40
0.9980846091
 40
0.9986770373
 40
0.9990528669
 40
0.999307771
 40
0.9994922416
 40
0.9996155501
 40
0.9996851317
 40
0.9997195844
 40
0.999748094
 40
1.0
 40
1.0
 40
1.0
 40
1.0
 10
15.0925153863
 20
51.6972993805
 30
0.0
 10
15.0375325303
 20
51.4033523686
 30
0.0
 10
14.9817156331
 20
50.8508801904
 30
0.0
 10
15.0687648506
 20
50.0582907102
 30
0.0
 10
15.3100305171
 20
49.3571819512
 30
0.0
 10
15.7084323284
 20
48.7316396336
 30
0.0
 10
16.2632731222
 20
48.1912479007
 30
0.0
 10
16.9625219048
 20
47.7573962268
 30
0.0
 10
17.7629541606
 20
47.4450676221
 30
0.0
 10
18.6146408691
 20
47.2451368416
 30
0.0
 10
19.4510424128
 20
47.1423295795
 30
0.0
 10
20.2309373176
 20
47.1106718575
 30
0.0
 10
20.9262363175
 20
47.1251269374
 30
0.0
 10
21.5449913704
 20
47.1680402656
 30
0.0
 10
22.0985783253
 20
47.2287549217
 30
0.0
 10
22.5909673056
 20
47.2995409507
 30
0.0
 10
23.0277254607
 20
47.3751912588
 30
0.0
 10
23.4154123455
 20
47.4523778492
 30
0.0
 10
23.7612703685
 20
47.529188299
 30
0.0
 10
24.0730060503
 20
47.6048414298
 30
0.0
 10
24.351261131
 20
47.6775759325
 30
0.0
 10
24.5457425582
 20
47.7317779584
 30
0.0
 10
24.6655527145
 20
47.7664366987
 30
0.0
 10
24.7240514282
 20
47.7835975882
 30
0.0
 10
24.7824346474
 20
47.8009600481
 30
0.0
 10
24.8406935243
 20
47.8185272189
 30
0.0
 10
24.8988241503
 20
47.8362916064
 30
0.0
 10
24.9568215178
 20
47.8542444782
 30
0.0
 10
25.0146798181
 20
47.8723898735
 30
0.0
 10
25.0723990317
 20
47.8907243443
 30
0.0
 10
25.1299778609
 20
47.90924408
 30
0.0
 10
25.1874144969
 20
47.9279509342
 30
0.0
 10
25.2447094044
 20
47.94684472
 30
0.0
 10
25.3018626688
 20
47.9659255583
 30
0.0
 10
25.3588739227
 20
47.9851941842
 30
0.0
 10
25.4157426211
 20
48.0046506296
 30
0.0
 10
25.4724683348
 20
48.0242951429
 30
0.0
 10
25.5290504138
 20
48.044128383
 30
0.0
 10
25.5854880417
 20
48.0641505128
 30
0.0
 10
25.6417805252
 20
48.0843617955
 30
0.0
 10
25.6979270021
 20
48.1047625976
 30
0.0
 10
25.7539261163
 20
48.1253540461
 30
0.0
 10
25.8097766946
 20
48.146136157
 30
0.0
 10
25.8654766811
 20
48.1671072779
 30
0.0
 10
25.9210211641
 20
48.1882709386
 30
0.0
 10
25.9764062879
 20
48.2096271798
 30
0.0
 10
26.0316279007
 20
48.231170869
 30
0.0
 10
26.0866799518
 20
48.2529072291
 30
0.0
 10
26.1415576758
 20
48.2748359442
 30
0.0
 10
26.1962464423
 20
48.2969474759
 30
0.0
 10
26.2507271871
 20
48.319241289
 30
0.0
 10
26.3049837678
 20
48.3417104191
 30
0.0
 10
26.3589878877
 20
48.3643404137
 30
0.0
 10
26.4126934609
 20
48.3871173963
 30
0.0
 10
26.4660823352
 20
48.4100385868
 30
0.0
 10
26.5191726064
 20
48.4331058046
 30
0.0
 10
26.5719532306
 20
48.4562992432
 30
0.0
 10
26.624337297
 20
48.4795848809
 30
0.0
 10
26.6762449401
 20
48.5029266562
 30
0.0
 10
26.7276674897
 20
48.5262677816
 30
0.0
 10
26.7786105846
 20
48.5495806054
 30
0.0
 10
26.8290445632
 20
48.5728215297
 30
0.0
 10
26.8789320667
 20
48.5959303786
 30
0.0
 10
26.9282505503
 20
48.6188625431
 30
0.0
 10
26.9769885816
 20
48.6415875764
 30
0.0
 10
27.0251388765
 20
48.6640744139
 30
0.0
 10
27.0726928293
 20
48.6862898566
 30
0.0
 10
27.1196439085
 20
48.7082040449
 30
0.0
 10
27.1659846056
 20
48.7297901396
 30
0.0
 10
27.2117114517
 20
48.7510118404
 30
0.0
 10
27.2568172394
 20
48.7718432688
 30
0.0
 10
27.301290421
 20
48.7922644988
 30
0.0
 10
27.3451320497
 20
48.8122370625
 30
0.0
 10
27.3883388072
 20
48.8317387151
 30
0.0
 10
27.4308967895
 20
48.8507595398
 30
0.0
 10
27.472798288
 20
48.8692700322
 30
0.0
 10
27.5140329766
 20
48.8872488688
 30
0.0
 10
27.554590151
 20
48.9046779191
 30
0.0
 10
27.594457055
 20
48.9215351018
 30
0.0
 10
27.6336197958
 20
48.9377892195
 30
0.0
 10
27.6720652029
 20
48.9534075969
 30
0.0
 10
27.7097748657
 20
48.9683703016
 30
0.0
 10
27.7467341123
 20
48.9826466829
 30
0.0
 10
27.7829284233
 20
48.9962000292
 30
0.0
 10
27.818323495
 20
49.0090190149
 30
0.0
 10
27.8528761156
 20
49.0210934934
 30
0.0
 10
27.8865441525
 20
49.0324104848
 30
0.0
 10
27.9192804263
 20
49.0429627089
 30
0.0
 10
27.9510386099
 20
49.0527375199
 30
0.0
 10
27.9791041663
 20
49.0609428752
 30
0.0
 10
28.0010688553
 20
49.0670543976
 30
0.0
 10
28.0171699079
 20
49.071369492
 30
0.0
 10
28.0303688071
 20
49.0747987713
 30
0.0
 10
28.0433166656
 20
49.0780531104
 30
0.0
 10
28.0560141339
 20
49.081132735
 30
0.0
 10
28.0684609762
 20
49.0840389843
 30
0.0
 10
28.0806539813
 20
49.0867711112
 30
0.0
 10
28.0925807303
 20
49.0893260023
 30
0.0
 10
28.1042268892
 20
49.091704373
 30
0.0
 10
28.1155787831
 20
49.0939085026
 30
0.0
 10
28.1266291774
 20
49.0959416709
 30
0.0
 10
28.1373772105
 20
49.097809381
 30
0.0
 10
28.1478242514
 20
49.0995172695
 30
0.0
 10
28.1579683712
 20
49.1010694705
 30
0.0
 10
28.1678038185
 20
49.1024697052
 30
0.0
 10
28.1773252575
 20
49.1037217655
 30
0.0
 10
28.1865272176
 20
49.1048294772
 30
0.0
 10
28.1954043752
 20
49.1057968155
 30
0.0
 10
28.2039554718
 20
49.1066283232
 30
0.0
 10
28.21218393
 20
49.1073305024
 30
0.0
 10
28.220097174
 20
49.1079114964
 30
0.0
 10
28.227702383
 20
49.1083786993
 30
0.0
 10
28.2350053585
 20
49.1087390084
 30
0.0
 10
28.2420028354
 20
49.1089989616
 30
0.0
 10
28.2486900013
 20
49.1091637988
 30
0.0
 10
28.2550645594
 20
49.1092400974
 30
0.0
 10
28.2611341063
 20
49.1092346506
 30
0.0
 10
28.2669082688
 20
49.1091536998
 30
0.0
 10
28.2723945463
 20
49.1090028957
 30
0.0
 10
28.2775949674
 20
49.1087879459
 30
0.0
 10
28.2825051917
 20
49.1085135513
 30
0.0
 10
28.2871217825
 20
49.1081851268
 30
0.0
 10
28.2927547723
 20
49.1076982205
 30
0.0
 10
28.30007508
 20
49.1068977823
 30
0.0
 10
28.3079726055
 20
49.1057369618
 30
0.0
 10
28.3145638449
 20
49.1044593881
 30
0.0
 10
28.3189216207
 20
49.1034495824
 30
0.0
 10
28.3219112859
 20
49.10267084
 30
0.0
 10
28.3238819104
 20
49.102036713
 30
0.0
 10
28.3250656329
 20
49.1016372088
 30
0.0
 10
28.3257090653
 20
49.1012857894
 30
0.0
 10
28.3274139191
 20
49.1009381966
 30
0.0
 10
28.3290893504
 20
49.1015664164
 30
0.0
 10
28.3303479762
 20
49.1009949834
 30
0.0
  0
SPLINE
  5
2D9
100
AcDbEntity
  8
0
100
AcDbSpline
 62
7
  6
BYLAYER
 70
0
 71
3
 72
11
 73
7
 74
0
 42
0.0000001
 43
0.0000001
 44
0.0000000001
 40
0.0
 40
0.0
 40
0.0
 40
0.0
 40
0.4215847778
 40
0.7233719228
 40
0.8968760368
 40
1.0
 40
1.0
 40
1.0
 40
1.0
 10
23.7813270662
 20
49.3500616896
 30
0.0
 10
23.7520414126
 20
49.3454579225
 30
0.0
 10
23.7011793962
 20
49.3377599763
 30
0.0
 10
23.6416368165
 20
49.3218606388
 30
0.0
 10
23.6004892291
 20
49.3077974629
 30
0.0
 10
23.5939638182
 20
49.2850282572
 30
0.0
 10
23.5968173974
 20
49.2783617734
 30
0.0
  0
SPLINE
  5
2DA
100
AcDbEntity
  8
0
100
AcDbSpline
 62
7
  6
BYLAYER
 70
0
 71
3
 72
34
 73
30
 74
0
 42
0.0000001
 43
0.0000001
 44
0.0000000001
 40
0.0
 40
0.0
 40
0.0
 40
0.0
 40
0.015406365
 40
0.0332420381
 40
0.0538931987
 40
0.0775385419
 40
0.1044826666
 40
0.1352090146
 40
0.1701735596
 40
0.2099203869
 40
0.254952789
 40
0.3057236812
 40
0.3623659892
 40
0.4256362771
 40
0.4942570963
 40
0.5611030278
 40
0.6205433345
 40
0.6727654875
 40
0.7197738546
 40
0.7622544336
 40
0.8008615013
 40
0.8358621993
 40
0.8673637438
 40
0.8959579443
 40
0.9223462219
 40
0.9462699871
 40
0.9673578867
 40
0.9853471512
 40
1.0
 40
1.0
 40
1.0
 40
1.0
 10
28.8982105485
 20
50.5440881357
 30
0.0
 10
28.8798867871
 20
50.5653504873
 30
0.0
 10
28.8357355547
 20
50.6072899894
 30
0.0
 10
28.7553369416
 20
50.6640999142
 30
0.0
 10
28.6550565707
 20
50.7172328471
 30
0.0
 10
28.5338704383
 20
50.7644585137
 30
0.0
 10
28.3903773445
 20
50.802529973
 30
0.0
 10
28.2231263226
 20
50.8275275214
 30
0.0
 10
28.030806692
 20
50.8351636036
 30
0.0
 10
27.8127443391
 20
50.8202978031
 30
0.0
 10
27.5689732528
 20
50.7784269115
 30
0.0
 10
27.3003108248
 20
50.706651478
 30
0.0
 10
27.0070364379
 20
50.60251455
 30
0.0
 10
26.690299677
 20
50.4693176382
 30
0.0
 10
26.3618598394
 20
50.3168355111
 30
0.0
 10
26.0415826194
 20
50.1634928433
 30
0.0
 10
25.7467369367
 20
50.0262175481
 30
0.0
 10
25.4827126149
 20
49.9084767989
 30
0.0
 10
25.2460735941
 20
49.8052280197
 30
0.0
 10
25.0314653908
 20
49.7135262552
 30
0.0
 10
24.8359615737
 20
49.632815185
 30
0.0
 10
24.6573269716
 20
49.5637459884
 30
0.0
 10
24.4936659069
 20
49.5067635805
 30
0.0
 10
24.3428035497
 20
49.4611323938
 30
0.0
 10
24.2034865552
 20
49.4254966007
 30
0.0
 10
24.0762218073
 20
49.3984202376
 30
0.0
 10
23.9632151564
 20
49.3782383972
 30
0.0
 10
23.8665076204
 20
49.3630546189
 30
0.0
 10
23.8076990036
 20
49.3542074143
 30
0.0
 10
23.7813270662
 20
49.3500616896
 30
0.0
  0
SPLINE
  5
2DB
100
AcDbEntity
  8
0
100
AcDbSpline
 62
7
  6
BYLAYER
 70
0
 71
3
 72
47
 73
43
 74
0
 42
0.0000001
 43
0.0000001
 44
0.0000000001
 40
0.0
 40
0.0
 40
0.0
 40
0.0
 40
0.0043299406
 40
0.009826579
 40
0.016478353
 40
0.024269687
 40
0.043199763
 40
0.0664679814
 40
0.0937855261
 40
0.1249396986
 40
0.1596136494
 40
0.1974897147
 40
0.2814287568
 40
0.3734771403
 40
0.4701465584
 40
0.5677101842
 40
0.6624183268
 40
0.7506686379
 40
0.8290242501
 40
0.8635696718
 40
0.8945611408
 40
0.9216752642
 40
0.9337071362
 40
0.9446893792
 40
0.954597684
 40
0.9634081178
 40
0.9710973641
 40
0.9776431859
 40
0.9830388665
 40
0.9853004666
 40
0.9872729603
 40
0.9889588081
 40
0.9903622008
 40
0.9914907576
 40
0.9923597197
 40
0.9930035376
 40
0.9935060181
 40
0.9946818886
 40
0.9956006964
 40
0.9967850979
 40
0.9982490449
 40
1.0
 40
1.0
 40
1.0
 40
1.0
 10
15.0925153863
 20
51.6972993805
 30
0.0
 10
15.0948780403
 20
51.6961935381
 30
0.0
 10
15.1003156038
 20
51.6938627929
 30
0.0
 10
15.1096274295
 20
51.6904313841
 30
0.0
 10
15.1210054842
 20
51.6866058036
 30
0.0
 10
15.140188737
 20
51.6806319413
 30
0.0
 10
15.1691416832
 20
51.6724126497
 30
0.0
 10
15.2096189055
 20
51.6617842921
 30
0.0
 10
15.2573880095
 20
51.6499716727
 30
0.0
 10
15.3119610547
 20
51.6370867488
 30
0.0
 10
15.3728382538
 20
51.6232516283
 30
0.0
 10
15.4648452437
 20
51.6030184004
 30
0.0
 10
15.5908364192
 20
51.576525723
 30
0.0
 10
15.7517646971
 20
51.5442217831
 30
0.0
 10
15.921008173
 20
51.5116969886
 30
0.0
 10
16.092069032
 20
51.4801725018
 30
0.0
 10
16.258383554
 20
51.4508856016
 30
0.0
 10
16.4135381051
 20
51.4249308773
 30
0.0
 10
16.5331732199
 20
51.4061875282
 30
0.0
 10
16.6188907203
 20
51.3936975476
 30
0.0
 10
16.6741501926
 20
51.386126292
 30
0.0
 10
16.7160424004
 20
51.3808484731
 30
0.0
 10
16.7460234564
 20
51.3774151233
 30
0.0
 10
16.7657329029
 20
51.3753316352
 30
0.0
 10
16.7835326519
 20
51.3736383855
 30
0.0
 10
16.7993773431
 20
51.3723391677
 30
0.0
 10
16.8132220439
 20
51.3714363054
 30
0.0
 10
16.8250298312
 20
51.3709323566
 30
0.0
 10
16.8335821542
 20
51.3708363675
 30
0.0
 10
16.8393777665
 20
51.3709961081
 30
0.0
 10
16.8429358407
 20
51.3712093472
 30
0.0
 10
16.8459684622
 20
51.3715207391
 30
0.0
 10
16.8484758028
 20
51.3719299517
 30
0.0
 10
16.8504660088
 20
51.3724317781
 30
0.0
 10
16.8519420037
 20
51.3730358856
 30
0.0
 10
16.8529560285
 20
51.3737418536
 30
0.0
 10
16.8536169099
 20
51.3750876149
 30
0.0
 10
16.8526174783
 20
51.3766372989
 30
0.0
 10
16.8511628954
 20
51.3778863733
 30
0.0
 10
16.8493703655
 20
51.3791105933
 30
0.0
 10
16.8470686611
 20
51.3804134035
 30
0.0
 10
16.8453319857
 20
51.3812616111
 30
0.0
 10
16.8443791746
 20
51.3817210729
 30
0.0
  0
SPLINE
  5
2DC
100
AcDbEntity
  8
0
100
AcDbSpline
 62
7
  6
BYLAYER
 70
0
 71
3
 72
13
 73
9
 74
0
 42
0.0000001
 43
0.0000001
 44
0.0000000001
 40
0.0
 40
0.0
 40
0.0
 40
0.0
 40
0.1793493223
 40
0.3499914138
 40
0.5151161866
 40
0.6775002437
 40
0.8384668108
 40
1.0
 40
1.0
 40
1.0
 40
1.0
 10
28.1909889524
 20
48.9238314188
 30
0.0
 10
28.1439262938
 20
48.9730651041
 30
0.0
 10
28.0474490255
 20
49.0647920755
 30
0.0
 10
27.894598593
 20
49.1872466886
 30
0.0
 10
27.7361734812
 20
49.291212491
 30
0.0
 10
27.5711889855
 20
49.3767431594
 30
0.0
 10
27.3995278488
 20
49.444236428
 30
0.0
 10
27.2812782393
 20
49.4770793935
 30
0.0
 10
27.2214186404
 20
49.4904894473
 30
0.0
  0
SPLINE
  5
2DD
100
AcDbEntity
  8
0
100
AcDbSpline
 62
7
  6
BYLAYER
 70
0
 71
3
 72
60
 73
56
 74
0
 42
0.0000001
 43
0.0000001
 44
0.0000000001
 40
0.0
 40
0.0
 40
0.0
 40
0.0
 40
0.0175765338
 40
0.0345485841
 40
0.0510119909
 40
0.0670524
 40
0.0827557576
 40
0.0981835637
 40
0.128376229
 40
0.1578820673
 40
0.1724292453
 40
0.1868559491
 40
0.2011841807
 40
0.2154567465
 40
0.2297121643
 40
0.2439990555
 40
0.2583601569
 40
0.2728456618
 40
0.3023452925
 40
0.3327358573
 40
0.3641484295
 40
0.3966411009
 40
0.4301902681
 40
0.4647267511
 40
0.5001394299
 40
0.5362929451
 40
0.5730264406
 40
0.6101655663
 40
0.647522091
 40
0.7220978298
 40
0.7589069607
 40
0.7951170809
 40
0.8305173374
 40
0.8648959688
 40
0.8980434852
 40
0.9140938808
 40
0.9297621086
 40
0.9373966392
 40
0.9447063674
 40
0.9516498905
 40
0.9582010947
 40
0.9643271144
 40
0.969994986
 40
0.9751731101
 40
0.9798304285
 40
0.9839405201
 40
0.9874909966
 40
0.9904830871
 40
0.9929599446
 40
0.9949902131
 40
0.9967173731
 40
0.9975185234
 40
0.9983126837
 40
0.9991298142
 40
1.0
 40
1.0
 40
1.0
 40
1.0
 10
10.9837018681
 20
50.3195745997
 30
0.0
 10
10.9735581564
 20
50.2105832115
 30
0.0
 10
10.9594880423
 20
49.9956804364
 30
0.0
 10
10.9585126308
 20
49.6777361573
 30
0.0
 10
10.9786596482
 20
49.3699544475
 30
0.0
 10
11.0207689041
 20
49.0723504651
 30
0.0
 10
11.0856090842
 20
48.7853927939
 30
0.0
 10
11.2021236319
 20
48.4212079695
 30
0.0
 10
11.4063154292
 20
47.9967092316
 30
0.0
 10
11.6874302447
 20
47.6254054843
 30
0.0
 10
11.9476467687
 20
47.369881043
 30
0.0
 10
12.1570091583
 20
47.1992285305
 30
0.0
 10
12.3790767983
 20
47.0486186595
 30
0.0
 10
12.6117481646
 20
46.9172119943
 30
0.0
 10
12.8533944899
 20
46.8038570421
 30
0.0
 10
13.1027413232
 20
46.7072126167
 30
0.0
 10
13.3589249177
 20
46.6257503572
 30
0.0
 10
13.7110849382
 20
46.5353248796
 30
0.0
 10
14.1679965262
 20
46.4547041507
 30
0.0
 10
14.7345283683
 20
46.4003102433
 30
0.0
 10
15.3219239437
 20
46.3821233111
 30
0.0
 10
15.9290205433
 20
46.3946904247
 30
0.0
 10
16.5544073846
 20
46.4339822154
 30
0.0
 10
17.1961731995
 20
46.4960021089
 30
0.0
 10
17.852096545
 20
46.5773167491
 30
0.0
 10
18.5196684304
 20
46.6744724517
 30
0.0
 10
19.1961550243
 20
46.7842901594
 30
0.0
 10
19.8786346678
 20
46.9035662815
 30
0.0
 10
20.7919524239
 20
47.0709371421
 30
0.0
 10
21.7020795925
 20
47.2441779887
 30
0.0
 10
22.6058110094
 20
47.4127923257
 30
0.0
 10
23.2704087873
 20
47.532648961
 30
0.0
 10
23.9212449984
 20
47.6433841142
 30
0.0
 10
24.5547448009
 20
47.7419646554
 30
0.0
 10
25.0706113439
 20
47.8121594863
 30
0.0
 10
25.4719054027
 20
47.8591990284
 30
0.0
 10
25.7157421469
 20
47.8843394085
 30
0.0
 10
25.9056381366
 20
47.9015897079
 30
0.0
 10
26.0415357875
 20
47.9125182514
 30
0.0
 10
26.1708632527
 20
47.9207951669
 30
0.0
 10
26.2929752008
 20
47.9260200748
 30
0.0
 10
26.4072443138
 20
47.9277851221
 30
0.0
 10
26.5129658065
 20
47.9259638546
 30
0.0
 10
26.6094011758
 20
47.9204201687
 30
0.0
 10
26.6958384069
 20
47.9114674698
 30
0.0
 10
26.7716473324
 20
47.8993787021
 30
0.0
 10
26.8364648905
 20
47.884970208
 30
0.0
 10
26.8903561278
 20
47.8689140276
 30
0.0
 10
26.9340025952
 20
47.8521423978
 30
0.0
 10
26.9690230108
 20
47.8352422183
 30
0.0
 10
26.9933110239
 20
47.8204495062
 30
0.0
 10
27.01023126
 20
47.8085244311
 30
0.0
 10
27.0220733029
 20
47.7992628183
 30
0.0
 10
27.0337330713
 20
47.7891072621
 30
0.0
 10
27.0413189041
 20
47.7818256569
 30
0.0
 10
27.0451481417
 20
47.7779906081
 30
0.0
  0
SPLINE
  5
2DE
100
AcDbEntity
  8
0
100
AcDbSpline
 62
7
  6
BYLAYER
 70
0
 71
3
 72
121
 73
117
 74
0
 42
0.0000001
 43
0.0000001
 44
0.0000000001
 40
0.0
 40
0.0
 40
0.0
 40
0.0
 40
0.0089996248
 40
0.0170101163
 40
0.0240480638
 40
0.0303371741
 40
0.0360242531
 40
0.0412081695
 40
0.0459499788
 40
0.0502707885
 40
0.0541847995
 40
0.0577121453
 40
0.0608851562
 40
0.063735459
 40
0.0662825578
 40
0.0685473777
 40
0.0705398544
 40
0.0722624583
 40
0.0737218845
 40
0.074932749
 40
0.0759307426
 40
0.0767631826
 40
0.0774777259
 40
0.0781151617
 40
0.0787009701
 40
0.0792611307
 40
0.0798344209
 40
0.0804795311
 40
0.0812602929
 40
0.0822307483
 40
0.0834229485
 40
0.0848775157
 40
0.0866395241
 40
0.0887565084
 40
0.0912860425
 40
0.0942779387
 40
0.0977843796
 40
0.1018697795
 40
0.106616026
 40
0.1121133703
 40
0.118439931
 40
0.1256535639
 40
0.1337784492
 40
0.1428518467
 40
0.1529459372
 40
0.1642108251
 40
0.176824432
 40
0.1909388179
 40
0.2066591071
 40
0.2241278822
 40
0.2434958858
 40
0.2650222012
 40
0.2890258384
 40
0.315755354
 40
0.3458861812
 40
0.3777062431
 40
0.4068326484
 40
0.4323351331
 40
0.4551092932
 40
0.4755263766
 40
0.4939286717
 40
0.5105083876
 40
0.525451108
 40
0.5389290531
 40
0.5510746393
 40
0.5620159184
 40
0.5718670189
 40
0.5807303419
 40
0.5886994667
 40
0.5958520701
 40
0.6022714478
 40
0.6080386188
 40
0.6132049251
 40
0.6178151736
 40
0.6219079573
 40
0.6255129668
 40
0.6286515552
 40
0.6313617533
 40
0.6336742923
 40
0.6356033552
 40
0.6371995315
 40
0.6385584043
 40
0.6398173644
 40
0.6411049411
 40
0.6425409024
 40
0.6442565708
 40
0.6463401447
 40
0.6488229728
 40
0.6517035445
 40
0.6550079903
 40
0.6587548749
 40
0.6629598256
 40
0.6676454608
 40
0.6728376521
 40
0.6785682813
 40
0.6848736686
 40
0.6918032566
 40
0.69943994
 40
0.7078643531
 40
0.7171606186
 40
0.7274143228
 40
0.7387030712
 40
0.7511223067
 40
0.764795728
 40
0.7798958338
 40
0.7966414134
 40
0.8152363113
 40
0.8359341702
 40
0.8590412555
 40
0.8845334597
 40
0.9097912405
 40
0.932565695
 40
0.9524314697
 40
0.9699506636
 40
0.9856488872
 40
1.0
 40
1.0
 40
1.0
 40
1.0
 10
26.5244396708
 20
49.6345860323
 30
0.0
 10
26.585019681
 20
49.6354867126
 30
0.0
 10
26.6996133905
 20
49.6343345625
 30
0.0
 10
26.8611570975
 20
49.622709144
 30
0.0
 10
27.0039187223
 20
49.6062888812
 30
0.0
 10
27.1301221595
 20
49.5844653531
 30
0.0
 10
27.242774397
 20
49.5586261689
 30
0.0
 10
27.3438966294
 20
49.5297919878
 30
0.0
 10
27.4347777698
 20
49.4990384763
 30
0.0
 10
27.5162469752
 20
49.4674306463
 30
0.0
 10
27.58888276
 20
49.4358507177
 30
0.0
 10
27.6533375008
 20
49.4049659869
 30
0.0
 10
27.71034368
 20
49.3752025385
 30
0.0
 10
27.7605871781
 20
49.3468167623
 30
0.0
 10
27.8046466995
 20
49.3199735329
 30
0.0
 10
27.8429389876
 20
49.2948150291
 30
0.0
 10
27.8757572109
 20
49.2714818272
 30
0.0
 10
27.903303741
 20
49.2501398668
 30
0.0
 10
27.9258066848
 20
49.2309309927
 30
0.0
 10
27.9436755848
 20
49.2138631404
 30
0.0
 10
27.9575213655
 20
49.1987559657
 30
0.0
 10
27.9680626763
 20
49.185221601
 30
0.0
 10
27.9759243881
 20
49.1727587529
 30
0.0
 10
27.9814558432
 20
49.1608950177
 30
0.0
 10
27.9846723242
 20
49.1492528186
 30
0.0
 10
27.9852601622
 20
49.1375772866
 30
0.0
 10
27.9826314982
 20
49.1257352633
 30
0.0
 10
27.9760985443
 20
49.1137867911
 30
0.0
 10
27.965148315
 20
49.1017904032
 30
0.0
 10
27.9494976428
 20
49.0895424743
 30
0.0
 10
27.9287364755
 20
49.0767501526
 30
0.0
 10
27.9022998247
 20
49.0632116533
 30
0.0
 10
27.8694649127
 20
49.0486486745
 30
0.0
 10
27.8293205847
 20
49.0328187197
 30
0.0
 10
27.7809016012
 20
49.0154839837
 30
0.0
 10
27.7232904399
 20
48.9961203258
 30
0.0
 10
27.6556142306
 20
48.9738360886
 30
0.0
 10
27.5768875944
 20
48.9473443502
 30
0.0
 10
27.4860755679
 20
48.9147869593
 30
0.0
 10
27.3817642458
 20
48.8752405576
 30
0.0
 10
27.262373202
 20
48.8286383975
 30
0.0
 10
27.1265837153
 20
48.7754052989
 30
0.0
 10
26.9731111944
 20
48.7165996901
 30
0.0
 10
26.7997551248
 20
48.6556215991
 30
0.0
 10
26.6044049825
 20
48.5937875193
 30
0.0
 10
26.3848744604
 20
48.5296294411
 30
0.0
 10
26.1390995354
 20
48.458820117
 30
0.0
 10
25.8640932852
 20
48.3811190193
 30
0.0
 10
25.5560892473
 20
48.3000847417
 30
0.0
 10
25.2112455036
 20
48.2205751892
 30
0.0
 10
24.8256261245
 20
48.1449921468
 30
0.0
 10
24.3952809555
 20
48.069482101
 30
0.0
 10
23.9184939651
 20
47.9727694267
 30
0.0
 10
23.3829473884
 20
47.8749653289
 30
0.0
 10
22.7950788366
 20
47.7709231221
 30
0.0
 10
22.1915201271
 20
47.6628951852
 30
0.0
 10
21.6173178323
 20
47.5678780289
 30
0.0
 10
21.1018602514
 20
47.491318835
 30
0.0
 10
20.6432595774
 20
47.431502503
 30
0.0
 10
20.2309339525
 20
47.3871804874
 30
0.0
 10
19.8590282184
 20
47.3582980157
 30
0.0
 10
19.5231217592
 20
47.3446794012
 30
0.0
 10
19.2200978712
 20
47.3440534983
 30
0.0
 10
18.9471174759
 20
47.3541867516
 30
0.0
 10
18.7016178472
 20
47.3730620606
 30
0.0
 10
18.4813291994
 20
47.3989560285
 30
0.0
 10
18.2841340891
 20
47.4305123736
 30
0.0
 10
18.1080195936
 20
47.466157375
 30
0.0
 10
17.951093172
 20
47.504359988
 30
0.0
 10
17.8115295505
 20
47.5438737846
 30
0.0
 10
17.6875789487
 20
47.5837943958
 30
0.0
 10
17.5777185143
 20
47.6236016393
 30
0.0
 10
17.480855692
 20
47.6632846079
 30
0.0
 10
17.3961890237
 20
47.7027435037
 30
0.0
 10
17.3230654922
 20
47.7418143863
 30
0.0
 10
17.261000936
 20
47.7802661813
 30
0.0
 10
17.2095527976
 20
47.8178578021
 30
0.0
 10
17.1683371363
 20
47.8543394883
 30
0.0
 10
17.1371067297
 20
47.8893816682
 30
0.0
 10
17.1156252119
 20
47.9225270257
 30
0.0
 10
17.1033946644
 20
47.9533321754
 30
0.0
 10
17.0994698283
 20
47.9817412398
 30
0.0
 10
17.1029702989
 20
48.008125614
 30
0.0
 10
17.1135809359
 20
48.0330698469
 30
0.0
 10
17.1316735946
 20
48.057157718
 30
0.0
 10
17.1581587602
 20
48.0806895804
 30
0.0
 10
17.1938833191
 20
48.1035651709
 30
0.0
 10
17.2390494885
 20
48.1255141951
 30
0.0
 10
17.2935869299
 20
48.1464158602
 30
0.0
 10
17.3574606612
 20
48.1662988711
 30
0.0
 10
17.4308443677
 20
48.1852897876
 30
0.0
 10
17.5139614515
 20
48.2035178392
 30
0.0
 10
17.6071342973
 20
48.2211037076
 30
0.0
 10
17.7108282625
 20
48.2381516884
 30
0.0
 10
17.8256180901
 20
48.2547831854
 30
0.0
 10
17.9522585077
 20
48.2710716064
 30
0.0
 10
18.0918554474
 20
48.2871034294
 30
0.0
 10
18.245817887
 20
48.3029847261
 30
0.0
 10
18.4157924101
 20
48.318830313
 30
0.0
 10
18.6034424197
 20
48.3348061422
 30
0.0
 10
18.8104079474
 20
48.3511720849
 30
0.0
 10
19.0384462183
 20
48.3677076522
 30
0.0
 10
19.2895897935
 20
48.383812026
 30
0.0
 10
19.5664432587
 20
48.3998208087
 30
0.0
 10
19.872406463
 20
48.4169275073
 30
0.0
 10
20.2113148192
 20
48.4382399229
 30
0.0
 10
20.5875435273
 20
48.4662372195
 30
0.0
 10
21.0059499627
 20
48.5039995316
 30
0.0
 10
21.4696561922
 20
48.5555101486
 30
0.0
 10
21.9623729069
 20
48.6226886352
 30
0.0
 10
22.4509238491
 20
48.7025370952
 30
0.0
 10
22.9000798942
 20
48.7876465055
 30
0.0
 10
23.2960706697
 20
48.8727430682
 30
0.0
 10
23.645193964
 20
48.9488142688
 30
0.0
 10
23.9577549891
 20
49.0192110673
 30
0.0
 10
24.1508735463
 20
49.0804069121
 30
0.0
 10
24.2418640131
 20
49.1128866498
 30
0.0
  0
SPLINE
  5
2DF
100
AcDbEntity
  8
0
100
AcDbSpline
 62
7
  6
BYLAYER
 70
0
 71
3
 72
26
 73
22
 74
0
 42
0.0000001
 43
0.0000001
 44
0.0000000001
 40
0.0
 40
0.0
 40
0.0
 40
0.0
 40
0.1215482462
 40
0.2326382454
 40
0.3341253979
 40
0.4267723611
 40
0.5111812069
 40
0.5878453484
 40
0.657134601
 40
0.719294993
 40
0.7745416747
 40
0.8229841758
 40
0.864339701
 40
0.897693825
 40
0.9231489016
 40
0.9412562346
 40
0.9528992772
 40
0.9590535101
 40
0.9658728654
 40
0.979037701
 40
1.0
 40
1.0
 40
1.0
 40
1.0
 10
25.5166791843
 20
49.613292639
 30
0.0
 10
25.5608536284
 20
49.6170092958
 30
0.0
 10
25.6454005704
 20
49.6241357003
 30
0.0
 10
25.7668388518
 20
49.6342739665
 30
0.0
 10
25.8777987124
 20
49.643223452
 30
0.0
 10
25.9790943996
 20
49.6509423044
 30
0.0
 10
26.0714014141
 20
49.657450408
 30
0.0
 10
26.1552479783
 20
49.662805212
 30
0.0
 10
26.2310315607
 20
49.6670633358
 30
0.0
 10
26.299048724
 20
49.6702625727
 30
0.0
 10
26.3594976696
 20
49.6724524423
 30
0.0
 10
26.4123889493
 20
49.6736363455
 30
0.0
 10
26.4572992266
 20
49.6738847966
 30
0.0
 10
26.4938503116
 20
49.6730346428
 30
0.0
 10
26.5218099045
 20
49.67161585
 30
0.0
 10
26.5419343102
 20
49.6685481585
 30
0.0
 10
26.5544284542
 20
49.6663305296
 30
0.0
 10
26.5626692798
 20
49.6591065054
 30
0.0
 10
26.555286822
 20
49.6499478856
 30
0.0
 10
26.5429411532
 20
49.6432439471
 30
0.0
 10
26.5314232639
 20
49.6376972442
 30
0.0
 10
26.5244396708
 20
49.6345860323
 30
0.0
  0
SPLINE
  5
2E0
100
AcDbEntity
  8
0
100
AcDbSpline
 62
7
  6
BYLAYER
 70
0
 71
3
 72
57
 73
53
 74
0
 42
0.0000001
 43
0.0000001
 44
0.0000000001
 40
0.0
 40
0.0
 40
0.0
 40
0.0
 40
0.0072820248
 40
0.0142097217
 40
0.0270350795
 40
0.0385537583
 40
0.0488692224
 40
0.0663907515
 40
0.0739528268
 40
0.0809904823
 40
0.0877302892
 40
0.0944020858
 40
0.1012264815
 40
0.1083855836
 40
0.1160404403
 40
0.1243003149
 40
0.1332517205
 40
0.1429426791
 40
0.1534036447
 40
0.1646345188
 40
0.1766240253
 40
0.1893578697
 40
0.2028188571
 40
0.2169832797
 40
0.231822583
 40
0.2473050845
 40
0.2633978882
 40
0.2800706828
 40
0.31502802
 40
0.3519157047
 40
0.3904718652
 40
0.4304289425
 40
0.4715247266
 40
0.5134952689
 40
0.5560806465
 40
0.6420636095
 40
0.6849557959
 40
0.7274532127
 40
0.7693182112
 40
0.8103231078
 40
0.8502528405
 40
0.8697494462
 40
0.8889022548
 40
0.8983988403
 40
0.9080402865
 40
0.9278023762
 40
0.9482734822
 40
0.9588392064
 40
0.9696770081
 40
0.9808388704
 40
0.9923778928
 40
1.0
 40
1.0
 40
1.0
 40
1.0
 10
12.7534701629
 20
50.1593141556
 30
0.0
 10
12.7498907437
 20
50.1208353493
 30
0.0
 10
12.743932752
 20
50.0456541049
 30
0.0
 10
12.7368391268
 20
49.902346948
 30
0.0
 10
12.7361128515
 20
49.7362826349
 30
0.0
 10
12.7478926463
 20
49.5525529362
 30
0.0
 10
12.7767484974
 20
49.3456038617
 30
0.0
 10
12.8243490036
 20
49.1626946897
 30
0.0
 10
12.8909080402
 20
49.0055106924
 30
0.0
 10
12.9452085038
 20
48.9059284417
 30
0.0
 10
13.0062492726
 20
48.8159921199
 30
0.0
 10
13.0753771851
 20
48.7335836224
 30
0.0
 10
13.1537236374
 20
48.6566877885
 30
0.0
 10
13.243087107
 20
48.5843206589
 30
0.0
 10
13.3447897789
 20
48.5158720954
 30
0.0
 10
13.4600345718
 20
48.4513226751
 30
0.0
 10
13.5895505041
 20
48.390985938
 30
0.0
 10
13.7337466168
 20
48.3353688641
 30
0.0
 10
13.8926356704
 20
48.2851628281
 30
0.0
 10
14.0658306354
 20
48.2406867987
 30
0.0
 10
14.2528085585
 20
48.2023558483
 30
0.0
 10
14.4529988095
 20
48.1705934845
 30
0.0
 10
14.6657883346
 20
48.1458174938
 30
0.0
 10
14.89046482
 20
48.1279068624
 30
0.0
 10
15.1263112568
 20
48.1167562052
 30
0.0
 10
15.3726076739
 20
48.1122579476
 30
0.0
 10
15.6286623271
 20
48.1143019932
 30
0.0
 10
15.9878947399
 20
48.1255698475
 30
0.0
 10
16.4568216493
 20
48.1551564731
 30
0.0
 10
17.0400342419
 20
48.2116494732
 30
0.0
 10
17.647836074
 20
48.2869818301
 30
0.0
 10
18.2759721706
 20
48.3784464559
 30
0.0
 10
18.9204001491
 20
48.4830634615
 30
0.0
 10
19.5772440247
 20
48.5978693195
 30
0.0
 10
20.4674196613
 20
48.7609886036
 30
0.0
 10
21.3612517519
 20
48.9311530901
 30
0.0
 10
22.2552405789
 20
49.0979585483
 30
0.0
 10
22.9198254875
 20
49.2177976438
 30
0.0
 10
23.5757035469
 20
49.3293546749
 30
0.0
 10
24.2196445761
 20
49.4295014944
 30
0.0
 10
24.7477699428
 20
49.5014405511
 30
0.0
 10
25.1619456113
 20
49.5499301497
 30
0.0
 10
25.4161176358
 20
49.5759841778
 30
0.0
 10
25.6184746146
 20
49.59446634
 30
0.0
 10
25.8242512629
 20
49.6109149414
 30
0.0
 10
26.0885818416
 20
49.6255771021
 30
0.0
 10
26.3583831238
 20
49.6258456831
 30
0.0
 10
26.5802880427
 20
49.6129270782
 30
0.0
 10
26.7522128991
 20
49.5946968053
 30
0.0
 10
26.9280168266
 20
49.5663351809
 30
0.0
 10
27.0850719981
 20
49.5307207786
 30
0.0
 10
27.1828217288
 20
49.5025971894
 30
0.0
 10
27.2214186589
 20
49.4904894429
 30
0.0
  0
SPLINE
  5
2E1
100
AcDbEntity
  8
0
100
AcDbSpline
 62
7
  6
BYLAYER
 70
0
 71
3
 72
10
 73
6
 74
0
 42
0.0000001
 43
0.0000001
 44
0.0000000001
 40
0.0
 40
0.0
 40
0.0
 40
0.0
 40
0.3219553339
 40
0.6550035046
 40
1.0
 40
1.0
 40
1.0
 40
1.0
 10
27.8615832794
 20
48.5944257459
 30
0.0
 10
27.870266513
 20
48.5880568474
 30
0.0
 10
27.8875529085
 20
48.5745756465
 30
0.0
 10
27.9128086441
 20
48.5526273848
 30
0.0
 10
27.929194395
 20
48.5369344024
 30
0.0
 10
27.9373538436
 20
48.5287749538
 30
0.0
  0
SPLINE
  5
2E2
100
AcDbEntity
  8
0
100
AcDbSpline
 62
7
  6
BYLAYER
 70
0
 71
3
 72
50
 73
46
 74
0
 42
0.0000001
 43
0.0000001
 44
0.0000000001
 40
0.0
 40
0.0
 40
0.0
 40
0.0
 40
0.0045220858
 40
0.0102240679
 40
0.0250887439
 40
0.0444327497
 40
0.0680918532
 40
0.0958746254
 40
0.1274839317
 40
0.2008872305
 40
0.3782051205
 40
0.4752859151
 40
0.5730617847
 40
0.6677684175
 40
0.7557993516
 40
0.8337177695
 40
0.8986072094
 40
0.9253207889
 40
0.937133334
 40
0.9478835224
 40
0.9575467622
 40
0.9660985256
 40
0.9735143916
 40
0.979770131
 40
0.9824559667
 40
0.9848456993
 40
0.9869392966
 40
0.9887368451
 40
0.9902386419
 40
0.9914454033
 40
0.9923588038
 40
0.9927067901
 40
0.9929836907
 40
0.9931920009
 40
0.9933378338
 40
0.9934393788
 40
0.9935420467
 40
0.9936902707
 40
0.9939014945
 40
0.9941816575
 40
0.9945332439
 40
0.9954550207
 40
0.9966721057
 40
0.998186684
 40
1.0
 40
1.0
 40
1.0
 40
1.0
 10
12.7534701629
 20
50.1593141556
 30
0.0
 10
12.750802031
 20
50.1598164448
 30
0.0
 10
12.7447571913
 20
50.1608807246
 30
0.0
 10
12.7298773775
 20
50.1632172355
 30
0.0
 10
12.7061487123
 20
50.166541029
 30
0.0
 10
12.6716927857
 20
50.1709727611
 30
0.0
 10
12.6295055385
 20
50.1760758367
 30
0.0
 10
12.5799771088
 20
50.1817969643
 30
0.0
 10
12.5007470518
 20
50.1906253712
 30
0.0
 10
12.332207827
 20
50.2085583106
 30
0.0
 10
12.1244389783
 20
50.2292442035
 30
0.0
 10
11.9020186898
 20
50.2504125544
 30
0.0
 10
11.728919732
 20
50.266360624
 30
0.0
 10
11.5611838396
 20
50.281291997
 30
0.0
 10
11.4052762181
 20
50.2946449726
 30
0.0
 10
11.2671556482
 20
50.3059001647
 30
0.0
 10
11.1656813344
 20
50.3136349325
 30
0.0
 10
11.1037475375
 20
50.3179384362
 30
0.0
 10
11.0742277471
 20
50.3198527439
 30
0.0
 10
11.054917923
 20
50.321036416
 30
0.0
 10
11.0375575341
 20
50.3220257671
 30
0.0
 10
11.0221910567
 20
50.3228187461
 30
0.0
 10
11.0088629705
 20
50.3234131117
 30
0.0
 10
10.9990490221
 20
50.3237584877
 30
0.0
 10
10.9922484884
 20
50.3239230746
 30
0.0
 10
10.9879451106
 20
50.3239891251
 30
0.0
 10
10.9841744645
 20
50.3240048861
 30
0.0
 10
10.9809370309
 20
50.3239706463
 30
0.0
 10
10.9782327815
 20
50.3238878704
 30
0.0
 10
10.9760623093
 20
50.3237563597
 30
0.0
 10
10.974587289
 20
50.3236008162
 30
0.0
 10
10.9736780337
 20
50.3234376334
 30
0.0
 10
10.9731918944
 20
50.3233165339
 30
0.0
 10
10.9728369386
 20
50.3231814256
 30
0.0
 10
10.9725994542
 20
50.3230404211
 30
0.0
 10
10.9724829794
 20
50.3228416927
 30
0.0
 10
10.9725683424
 20
50.322626385
 30
0.0
 10
10.9727798525
 20
50.3224440122
 30
0.0
 10
10.9731097487
 20
50.3222451017
 30
0.0
 10
10.9735712006
 20
50.3220357695
 30
0.0
 10
10.9744442594
 20
50.3217067688
 30
0.0
 10
10.9758787333
 20
50.3212803476
 30
0.0
 10
10.9780067774
 20
50.3207489478
 30
0.0
 10
10.9806723786
 20
50.3201653365
 30
0.0
 10
10.9826332653
 20
50.3197807885
 30
0.0
 10
10.9837018673
 20
50.3195745998
 30
0.0
  0
SPLINE
  5
2E3
100
AcDbEntity
  8
0
100
AcDbSpline
 62
7
  6
BYLAYER
 70
0
 71
3
 72
50
 73
46
 74
0
 42
0.0000001
 43
0.0000001
 44
0.0000000001
 40
0.0
 40
0.0
 40
0.0
 40
0.0
 40
0.0045220858
 40
0.0102240678
 40
0.0250887438
 40
0.0444327498
 40
0.0680918536
 40
0.0958746257
 40
0.1274839319
 40
0.2008872306
 40
0.3782051203
 40
0.4752859148
 40
0.5730617842
 40
0.6677684169
 40
0.7557993508
 40
0.8337177687
 40
0.8986072084
 40
0.9253207879
 40
0.9371333329
 40
0.9478835214
 40
0.9575467612
 40
0.9660985245
 40
0.9735143905
 40
0.9797701299
 40
0.9824559657
 40
0.9848456983
 40
0.9869392957
 40
0.9887368442
 40
0.9902386411
 40
0.9914454024
 40
0.9923588029
 40
0.9927067891
 40
0.9929836897
 40
0.9931919999
 40
0.9933378328
 40
0.9934393777
 40
0.9935420457
 40
0.9936902697
 40
0.9939014936
 40
0.9941816566
 40
0.9945332431
 40
0.9954550201
 40
0.9966721053
 40
0.9981866838
 40
1.0
 40
1.0
 40
1.0
 40
1.0
 10
10.9837018681
 20
50.3195745997
 30
0.0
 10
10.98637
 20
50.3190723104
 30
0.0
 10
10.9924148395
 20
50.3180080307
 30
0.0
 10
11.0072946533
 20
50.3156715197
 30
0.0
 10
11.0310233186
 20
50.3123477263
 30
0.0
 10
11.0654792456
 20
50.3079159941
 30
0.0
 10
11.107666493
 20
50.3028129185
 30
0.0
 10
11.157194923
 20
50.2970917908
 30
0.0
 10
11.2364249799
 20
50.2882633839
 30
0.0
 10
11.4049642048
 20
50.2703304445
 30
0.0
 10
11.6127330535
 20
50.2496445516
 30
0.0
 10
11.835153342
 20
50.2284762007
 30
0.0
 10
12.0082522998
 20
50.2125281311
 30
0.0
 10
12.1759881921
 20
50.1975967581
 30
0.0
 10
12.3318958137
 20
50.1842437825
 30
0.0
 10
12.4700163836
 20
50.1729885904
 30
0.0
 10
12.5714906973
 20
50.1652538226
 30
0.0
 10
12.6334244942
 20
50.160950319
 30
0.0
 10
12.6629442846
 20
50.1590360112
 30
0.0
 10
12.6822541088
 20
50.1578523391
 30
0.0
 10
12.6996144977
 20
50.156862988
 30
0.0
 10
12.7149809751
 20
50.1560700091
 30
0.0
 10
12.7283090612
 20
50.1554756434
 30
0.0
 10
12.7381230097
 20
50.1551302674
 30
0.0
 10
12.7449235435
 20
50.1549656805
 30
0.0
 10
12.7492269214
 20
50.15489963
 30
0.0
 10
12.7529975676
 20
50.1548838691
 30
0.0
 10
12.7562350012
 20
50.1549181088
 30
0.0
 10
12.7589392507
 20
50.1550008847
 30
0.0
 10
12.7611097228
 20
50.1551323955
 30
0.0
 10
12.7625847431
 20
50.1552879389
 30
0.0
 10
12.7634939984
 20
50.1554511218
 30
0.0
 10
12.7639801375
 20
50.1555722213
 30
0.0
 10
12.7643350933
 20
50.1557073296
 30
0.0
 10
12.7645725777
 20
50.1558483341
 30
0.0
 10
12.7646890524
 20
50.1560470625
 30
0.0
 10
12.7646036892
 20
50.1562623703
 30
0.0
 10
12.7643921791
 20
50.1564447431
 30
0.0
 10
12.7640622828
 20
50.1566436536
 30
0.0
 10
12.7636008307
 20
50.1568529858
 30
0.0
 10
12.7627277717
 20
50.1571819865
 30
0.0
 10
12.7612932976
 20
50.1576084077
 30
0.0
 10
12.7591652531
 20
50.1581398076
 30
0.0
 10
12.7564996515
 20
50.1587234189
 30
0.0
 10
12.7545387645
 20
50.159107967
 30
0.0
 10
12.7534701624
 20
50.1593141557
 30
0.0
  0
SPLINE
  5
2E4
100
AcDbEntity
  8
0
100
AcDbSpline
 62
7
  6
BYLAYER
 70
0
 71
3
 72
41
 73
37
 74
0
 42
0.0000001
 43
0.0000001
 44
0.0000000001
 40
0.0
 40
0.0
 40
0.0
 40
0.0
 40
0.0396647315
 40
0.0816985378
 40
0.1256975879
 40
0.1712562278
 40
0.2653641156
 40
0.3604709083
 40
0.4529944737
 40
0.5394922957
 40
0.6166945073
 40
0.6509438836
 40
0.6818603941
 40
0.7091564406
 40
0.7326533874
 40
0.7522245642
 40
0.7605172325
 40
0.7678145729
 40
0.7741375584
 40
0.7795429719
 40
0.7841291272
 40
0.7880589847
 40
0.79159063
 40
0.7950749749
 40
0.7988789607
 40
0.8032930349
 40
0.8085061058
 40
0.8146211615
 40
0.8216912523
 40
0.829742611
 40
0.8488180901
 40
0.8718476029
 40
0.8987308427
 40
0.9292359231
 40
0.9630874755
 40
1.0
 40
1.0
 40
1.0
 40
1.0
 10
24.2358545996
 20
51.337913267
 30
0.0
 10
24.2133268433
 20
51.3403594832
 30
0.0
 10
24.1669836122
 20
51.3459022279
 30
0.0
 10
24.0958598587
 20
51.3558124418
 30
0.0
 10
24.0215908439
 20
51.3674596681
 30
0.0
 10
23.9182063261
 20
51.3853746524
 30
0.0
 10
23.7865982696
 20
51.4113045075
 30
0.0
 10
23.6295930271
 20
51.4467972197
 30
0.0
 10
23.4778852237
 20
51.4857283846
 30
0.0
 10
23.3372789899
 20
51.5264905954
 30
0.0
 10
23.2298770792
 20
51.5620054341
 30
0.0
 10
23.1536748308
 20
51.5904531279
 30
0.0
 10
23.1047559169
 20
51.6104002987
 30
0.0
 10
23.0622131522
 20
51.6296450473
 30
0.0
 10
23.0264257186
 20
51.6479838512
 30
0.0
 10
23.0012139345
 20
51.6630699698
 30
0.0
 10
22.9848411941
 20
51.674724466
 30
0.0
 10
22.9751333954
 20
51.6826461322
 30
0.0
 10
22.9673237317
 20
51.6902303007
 30
0.0
 10
22.9614139058
 20
51.6974726892
 30
0.0
 10
22.9574016211
 20
51.7043913849
 30
0.0
 10
22.9553198628
 20
51.7110323332
 30
0.0
 10
22.9553025095
 20
51.7174011682
 30
0.0
 10
22.9574589198
 20
51.7233242485
 30
0.0
 10
22.9616664637
 20
51.7286333366
 30
0.0
 10
22.9677795602
 20
51.7333565092
 30
0.0
 10
22.9757670829
 20
51.7375561515
 30
0.0
 10
22.9856191342
 20
51.7412707464
 30
0.0
 10
22.9973237811
 20
51.7445080531
 30
0.0
 10
23.0164793757
 20
51.7484009477
 30
0.0
 10
23.0449797501
 20
51.7517454482
 30
0.0
 10
23.0843627601
 20
51.7536261481
 30
0.0
 10
23.1303185017
 20
51.7534756106
 30
0.0
 10
23.1824051785
 20
51.7513184484
 30
0.0
 10
23.2401145478
 20
51.7471750117
 30
0.0
 10
23.2803535064
 20
51.7432306328
 30
0.0
 10
23.3013173651
 20
51.7409751832
 30
0.0
  0
SPLINE
  5
2E5
100
AcDbEntity
  8
0
100
AcDbSpline
 62
7
  6
BYLAYER
 70
0
 71
3
 72
41
 73
37
 74
0
 42
0.0000001
 43
0.0000001
 44
0.0000000001
 40
0.0
 40
0.0
 40
0.0
 40
0.0
 40
0.0396647315
 40
0.0816985378
 40
0.125697588
 40
0.171256228
 40
0.2653641159
 40
0.3604709086
 40
0.452994474
 40
0.5394922961
 40
0.6166945077
 40
0.650943884
 40
0.6818603944
 40
0.709156441
 40
0.7326533877
 40
0.7522245645
 40
0.7605172328
 40
0.7678145731
 40
0.7741375586
 40
0.7795429721
 40
0.7841291273
 40
0.7880589848
 40
0.79159063
 40
0.7950749749
 40
0.7988789607
 40
0.8032930348
 40
0.8085061057
 40
0.8146211614
 40
0.8216912522
 40
0.8297426109
 40
0.84881809
 40
0.8718476028
 40
0.8987308426
 40
0.929235923
 40
0.9630874755
 40
1.0
 40
1.0
 40
1.0
 40
1.0
 10
23.3013173598
 20
51.7409751594
 30
0.0
 10
23.3238451162
 20
51.7385289433
 30
0.0
 10
23.3701883473
 20
51.7329861987
 30
0.0
 10
23.4413121008
 20
51.7230759849
 30
0.0
 10
23.5155811157
 20
51.7114287587
 30
0.0
 10
23.6189656335
 20
51.6935137747
 30
0.0
 10
23.7505736901
 20
51.66758392
 30
0.0
 10
23.9075789328
 20
51.6320912083
 30
0.0
 10
24.0592867364
 20
51.5931600439
 30
0.0
 10
24.1998929702
 20
51.5523978338
 30
0.0
 10
24.3072948811
 20
51.5168829956
 30
0.0
 10
24.3834971296
 20
51.4884353022
 30
0.0
 10
24.4324160436
 20
51.4684881317
 30
0.0
 10
24.4749588083
 20
51.4492433834
 30
0.0
 10
24.510746242
 20
51.4309045798
 30
0.0
 10
24.5359580262
 20
51.4158184614
 30
0.0
 10
24.5523307667
 20
51.4041639654
 30
0.0
 10
24.5620385653
 20
51.3962422993
 30
0.0
 10
24.569848229
 20
51.3886581309
 30
0.0
 10
24.575758055
 20
51.3814157425
 30
0.0
 10
24.5797703398
 20
51.3744970469
 30
0.0
 10
24.5818520981
 20
51.3678560988
 30
0.0
 10
24.5818694514
 20
51.3614872638
 30
0.0
 10
24.5797130411
 20
51.3555641836
 30
0.0
 10
24.5755054972
 20
51.3502550956
 30
0.0
 10
24.5693924007
 20
51.345531923
 30
0.0
 10
24.561404878
 20
51.3413322808
 30
0.0
 10
24.5515528268
 20
51.337617686
 30
0.0
 10
24.5398481798
 20
51.3343803793
 30
0.0
 10
24.5206925852
 20
51.3304874847
 30
0.0
 10
24.4921922109
 20
51.3271429843
 30
0.0
 10
24.4528092009
 20
51.3252622844
 30
0.0
 10
24.4068534593
 20
51.3254128219
 30
0.0
 10
24.3547667825
 20
51.3275699841
 30
0.0
 10
24.2970574131
 20
51.3317134208
 30
0.0
 10
24.2568184545
 20
51.3356577996
 30
0.0
 10
24.2358545958
 20
51.3379132491
 30
0.0
  0
SPLINE
  5
2E6
100
AcDbEntity
  8
0
100
AcDbSpline
 62
7
  6
BYLAYER
 70
0
 71
3
 72
24
 73
20
 74
0
 42
0.0000001
 43
0.0000001
 44
0.0000000001
 40
0.0
 40
0.0
 40
0.0
 40
0.0
 40
0.0828530527
 40
0.1632740389
 40
0.2421035189
 40
0.3203940278
 40
0.398570809
 40
0.4753503307
 40
0.548469919
 40
0.6145842847
 40
0.672841205
 40
0.7247971541
 40
0.7721498071
 40
0.8160716221
 40
0.8567851552
 40
0.894100398
 40
0.9290339792
 40
0.9637273502
 40
1.0
 40
1.0
 40
1.0
 40
1.0
 10
25.2963114829
 20
48.9776780967
 30
0.0
 10
25.3639056282
 20
49.0134948539
 30
0.0
 10
25.5006436124
 20
49.0776952815
 30
0.0
 10
25.712449157
 20
49.1505457083
 30
0.0
 10
25.9272248943
 20
49.1974532385
 30
0.0
 10
26.1439587861
 20
49.2183642651
 30
0.0
 10
26.3597195332
 20
49.2146048423
 30
0.0
 10
26.569054835
 20
49.1889753428
 30
0.0
 10
26.7644735106
 20
49.1482395169
 30
0.0
 10
26.9403694003
 20
49.0998853408
 30
0.0
 10
27.0954021548
 20
49.0500916163
 30
0.0
 10
27.2324882284
 20
49.0013394536
 30
0.0
 10
27.3558396963
 20
48.9536197392
 30
0.0
 10
27.4681019703
 20
48.9061493772
 30
0.0
 10
27.569990328
 20
48.8581266301
 30
0.0
 10
27.6617646768
 20
48.8084364686
 30
0.0
 10
27.7451007868
 20
48.7552692756
 30
0.0
 10
27.8225635515
 20
48.6954036264
 30
0.0
 10
27.8710849305
 20
48.6512813417
 30
0.0
 10
27.895200962
 20
48.6280434284
 30
0.0
  0
SPLINE
  5
2E7
100
AcDbEntity
  8
0
100
AcDbSpline
 62
7
  6
BYLAYER
 70
0
 71
3
 72
48
 73
44
 74
0
 42
0.0000001
 43
0.0000001
 44
0.0000000001
 40
0.0
 40
0.0
 40
0.0
 40
0.0
 40
0.0170358324
 40
0.0327829889
 40
0.0608692945
 40
0.0734695045
 40
0.0853116635
 40
0.0965731282
 40
0.1074353246
 40
0.1180774818
 40
0.1286742942
 40
0.1393894914
 40
0.1503586703
 40
0.173484362
 40
0.1858086346
 40
0.1987015846
 40
0.2121943533
 40
0.2262998001
 40
0.2410217863
 40
0.2563595543
 40
0.2723071998
 40
0.2888493987
 40
0.3236276023
 40
0.3605045628
 40
0.3992604983
 40
0.4396486931
 40
0.4814067793
 40
0.5242578835
 40
0.5679192985
 40
0.6121002551
 40
0.656506597
 40
0.7008393206
 40
0.7447983845
 40
0.7880812594
 40
0.830387098
 40
0.8714179143
 40
0.910882217
 40
0.9485042887
 40
0.966559405
 40
0.9753908094
 40
0.9840878813
 40
0.9926304505
 40
1.0
 40
1.0
 40
1.0
 40
1.0
 10
12.7274163502
 20
51.4207177594
 30
0.0
 10
12.714869669
 20
51.3390063076
 30
0.0
 10
12.6950889351
 20
51.1810242436
 30
0.0
 10
12.6767805657
 20
50.8861108867
 30
0.0
 10
12.6864025318
 20
50.611295592
 30
0.0
 10
12.7252075155
 20
50.3591310528
 30
0.0
 10
12.7653098514
 20
50.1903734095
 30
0.0
 10
12.8166410052
 20
50.0335392787
 30
0.0
 10
12.8790223318
 20
49.8870709116
 30
0.0
 10
12.9522669161
 20
49.7493684007
 30
0.0
 10
13.0367260297
 20
49.6191061421
 30
0.0
 10
13.1326545143
 20
49.4950366743
 30
0.0
 10
13.2792024935
 20
49.3341304908
 30
0.0
 10
13.4499222179
 20
49.1857486501
 30
0.0
 10
13.6414734845
 20
49.0501473099
 30
0.0
 10
13.8014368468
 20
48.9514180894
 30
0.0
 10
13.9745237061
 20
48.8582064685
 30
0.0
 10
14.160372322
 20
48.7706139922
 30
0.0
 10
14.3585523966
 20
48.6888168998
 30
0.0
 10
14.5686159706
 20
48.6129970241
 30
0.0
 10
14.7900741575
 20
48.5433436465
 30
0.0
 10
15.1050154027
 20
48.4572632296
 30
0.0
 10
15.5235579535
 20
48.3662560517
 30
0.0
 10
16.0531498491
 20
48.2834067139
 30
0.0
 10
16.6132207095
 20
48.2240245544
 30
0.0
 10
17.1988950457
 20
48.1869521541
 30
0.0
 10
17.8053627126
 20
48.1706824671
 30
0.0
 10
18.4278990908
 20
48.173703193
 30
0.0
 10
19.0618477476
 20
48.1942287625
 30
0.0
 10
19.7026360235
 20
48.2304718723
 30
0.0
 10
20.3457522799
 20
48.2804796897
 30
0.0
 10
20.9867491033
 20
48.3423016091
 30
0.0
 10
21.6212332236
 20
48.4139039724
 30
0.0
 10
22.2448744847
 20
48.4932580788
 30
0.0
 10
22.8534161543
 20
48.5782964069
 30
0.0
 10
23.4427082241
 20
48.6669317281
 30
0.0
 10
24.0087505411
 20
48.7571563155
 30
0.0
 10
24.4641901581
 20
48.8328867795
 30
0.0
 10
24.772714978
 20
48.8858566105
 30
0.0
 10
24.9428141423
 20
48.915572107
 30
0.0
 10
25.0673949592
 20
48.9376035035
 30
0.0
 10
25.1849763729
 20
48.9584800024
 30
0.0
 10
25.2610757411
 20
48.9715660352
 30
0.0
 10
25.2963114829
 20
48.9776780967
 30
0.0
  0
SPLINE
  5
2E8
100
AcDbEntity
  8
0
100
AcDbSpline
 62
7
  6
BYLAYER
 70
0
 71
3
 72
89
 73
85
 74
0
 42
0.0000001
 43
0.0000001
 44
0.0000000001
 40
0.0
 40
0.0
 40
0.0
 40
0.0
 40
0.0003620015
 40
0.0008950854
 40
0.0011975319
 40
0.0015089007
 40
0.0018179348
 40
0.0021134239
 40
0.002384927
 40
0.0026246517
 40
0.0027303268
 40
0.0028253108
 40
0.0029086717
 40
0.0029794724
 40
0.0030368701
 40
0.0030804079
 40
0.0031097165
 40
0.0031244202
 40
0.0031262059
 40
0.0031283136
 40
0.0031342482
 40
0.0031440823
 40
0.0031578714
 40
0.0031756695
 40
0.0031975303
 40
0.0032235082
 40
0.0032879289
 40
0.003368849
 40
0.0035794523
 40
0.0038539051
 40
0.0041908718
 40
0.0050473877
 40
0.0061401581
 40
0.0074604478
 40
0.0089948605
 40
0.0107289108
 40
0.0126485484
 40
0.0147410212
 40
0.0169966541
 40
0.0219592552
 40
0.0274660531
 40
0.0334733322
 40
0.0366539977
 40
0.0399545224
 40
0.0433777689
 40
0.0469196565
 40
0.0542704716
 40
0.0617265102
 40
0.0692927457
 40
0.0769774015
 40
0.0926817451
 40
0.1252759814
 40
0.1592067802
 40
0.1942348886
 40
0.2301364783
 40
0.2666968735
 40
0.3409699607
 40
0.3782916207
 40
0.415486484
 40
0.4523782482
 40
0.4888034646
 40
0.524612271
 40
0.5596758513
 40
0.5938876517
 40
0.6271731927
 40
0.6594961553
 40
0.6908805025
 40
0.7214121835
 40
0.7512382844
 40
0.7659683811
 40
0.7806201661
 40
0.7952357754
 40
0.809855214
 40
0.8245234115
 40
0.8392764236
 40
0.8541533474
 40
0.8691857358
 40
0.88440776
 40
0.8998575388
 40
0.9155751091
 40
0.9316035558
 40
0.9479898168
 40
0.9648075468
 40
1.0
 40
1.0
 40
1.0
 40
1.0
 10
26.8690036836
 20
47.60184615
 30
0.0
 10
26.8706349349
 20
47.6002149189
 30
0.0
 10
26.874825257
 20
47.5963404951
 30
0.0
 10
26.8806101769
 20
47.5913600781
 30
0.0
 10
26.8863279648
 20
47.5868060457
 30
0.0
 10
26.8910150356
 20
47.5832529753
 30
0.0
 10
26.8957533795
 20
47.5798437849
 30
0.0
 10
26.9003757716
 20
47.5767115702
 30
0.0
 10
26.9047335178
 20
47.5739819794
 30
0.0
 10
26.9081316502
 20
47.5720039073
 30
0.0
 10
26.9105901
 20
47.570649842
 30
0.0
 10
26.9121881659
 20
47.5698007361
 30
0.0
 10
26.9136031339
 20
47.5690775828
 30
0.0
 10
26.9148094557
 20
47.5684837237
 30
0.0
 10
26.9158119154
 20
47.5680196452
 30
0.0
 10
26.9165440874
 20
47.5676854521
 30
0.0
 10
26.9171149332
 20
47.5674677172
 30
0.0
 10
26.9173093228
 20
47.5673694341
 30
0.0
 10
26.9174818716
 20
47.5673307932
 30
0.0
 10
26.9173930239
 20
47.5673806897
 30
0.0
 10
26.9173153624
 20
47.5674132528
 30
0.0
 10
26.9171279126
 20
47.5674965744
 30
0.0
 10
26.9168901416
 20
47.5675930038
 30
0.0
 10
26.9165708572
 20
47.5677197142
 30
0.0
 10
26.9161810765
 20
47.5678685949
 30
0.0
 10
26.9155099741
 20
47.5681177954
 30
0.0
 10
26.9144814085
 20
47.5684831237
 30
0.0
 10
26.9123331217
 20
47.5692119389
 30
0.0
 10
26.9088939443
 20
47.5702996722
 30
0.0
 10
26.9038641399
 20
47.5717652299
 30
0.0
 10
26.8948255801
 20
47.5741793703
 30
0.0
 10
26.8806190315
 20
47.5774358116
 30
0.0
 10
26.8601152933
 20
47.5811816099
 30
0.0
 10
26.8351808023
 20
47.584571523
 30
0.0
 10
26.8060666992
 20
47.5873802713
 30
0.0
 10
26.7730566214
 20
47.5893569231
 30
0.0
 10
26.7364415132
 20
47.5902577855
 30
0.0
 10
26.6964940638
 20
47.5898451983
 30
0.0
 10
26.6371999048
 20
47.5874916246
 30
0.0
 10
26.5563247565
 20
47.5811405284
 30
0.0
 10
26.452030335
 20
47.5688375176
 30
0.0
 10
26.3593502642
 20
47.5553736435
 30
0.0
 10
26.2807495618
 20
47.5428921493
 30
0.0
 10
26.218490153
 20
47.5325134743
 30
0.0
 10
26.1540298243
 20
47.5213482416
 30
0.0
 10
26.0642053827
 20
47.5053885852
 30
0.0
 10
25.9491537569
 20
47.4845064445
 30
0.0
 10
25.8086885368
 20
47.460055136
 30
0.0
 10
25.6661009247
 20
47.4353967205
 30
0.0
 10
25.4717087056
 20
47.4018346764
 30
0.0
 10
25.1200929375
 20
47.3414464027
 30
0.0
 10
24.6033120942
 20
47.254607066
 30
0.0
 10
23.9642436723
 20
47.1524929018
 30
0.0
 10
23.3034152092
 20
47.0531508676
 30
0.0
 10
22.6249470231
 20
46.9586403215
 30
0.0
 10
21.6972515039
 20
46.8411151642
 30
0.0
 10
20.7580866918
 20
46.7423322424
 30
0.0
 10
19.8126858278
 20
46.6689643564
 30
0.0
 10
19.1037883776
 20
46.6288629174
 30
0.0
 10
18.3998295243
 20
46.6058761692
 30
0.0
 10
17.7043140001
 20
46.602278584
 30
0.0
 10
17.0206465538
 20
46.620342143
 30
0.0
 10
16.3521393378
 20
46.662615102
 30
0.0
 10
15.7019746468
 20
46.7316603774
 30
0.0
 10
15.073253553
 20
46.8304144636
 30
0.0
 10
14.4688628953
 20
46.9618701998
 30
0.0
 10
13.8918241404
 20
47.1303693202
 30
0.0
 10
13.3453207204
 20
47.3401931725
 30
0.0
 10
12.9168425052
 20
47.5555236586
 30
0.0
 10
12.5955573979
 20
47.7537550159
 30
0.0
 10
12.3665100495
 20
47.9158256322
 30
0.0
 10
12.149536515
 20
48.092659627
 30
0.0
 10
11.9458901776
 20
48.2848924686
 30
0.0
 10
11.7570698633
 20
48.4929284895
 30
0.0
 10
11.5845778736
 20
48.7168015194
 30
0.0
 10
11.4301415337
 20
48.9562793707
 30
0.0
 10
11.2950877265
 20
49.2106009444
 30
0.0
 10
11.1808390584
 20
49.4788997181
 30
0.0
 10
11.0882529598
 20
49.7600180469
 30
0.0
 10
11.0181705113
 20
50.0528488828
 30
0.0
 10
10.9707749448
 20
50.3562113621
 30
0.0
 10
10.9462355712
 20
50.6692994782
 30
0.0
 10
10.9436279329
 20
51.1054420157
 30
0.0
 10
10.9757160839
 20
51.4364990921
 30
0.0
 10
11.0097536717
 20
51.6581717126
 30
0.0
  0
SPLINE
  5
2E9
100
AcDbEntity
  8
0
100
AcDbSpline
 62
7
  6
BYLAYER
 70
0
 71
3
 72
104
 73
100
 74
0
 42
0.0000001
 43
0.0000001
 44
0.0000000001
 40
0.0
 40
0.0
 40
0.0
 40
0.0
 40
0.042892423
 40
0.0865574898
 40
0.1260717871
 40
0.1609544349
 40
0.1921804855
 40
0.2202115719
 40
0.2454529155
 40
0.2682880458
 40
0.288963843
 40
0.3076885014
 40
0.3246694426
 40
0.3400971143
 40
0.354142835
 40
0.3669456371
 40
0.3786073262
 40
0.3892320696
 40
0.3989167393
 40
0.4077385445
 40
0.4157616218
 40
0.423043566
 40
0.4296326125
 40
0.4355753097
 40
0.4409150562
 40
0.4456866074
 40
0.4499085213
 40
0.4536010326
 40
0.4567842295
 40
0.4594401408
 40
0.4615889011
 40
0.463250327
 40
0.4645159419
 40
0.4655165904
 40
0.4664363143
 40
0.4675226497
 40
0.4689727752
 40
0.4709207789
 40
0.4733863871
 40
0.4763919167
 40
0.479956282
 40
0.4841177731
 40
0.4889133006
 40
0.4943818364
 40
0.5005743107
 40
0.5075489518
 40
0.515376137
 40
0.5241437305
 40
0.5339504331
 40
0.5448971691
 40
0.5570985985
 40
0.5706882948
 40
0.5858289277
 40
0.6027155319
 40
0.6215399328
 40
0.6425342837
 40
0.6659664845
 40
0.692151185
 40
0.7211786052
 40
0.7499446384
 40
0.7752728968
 40
0.7976158294
 40
0.8174716061
 40
0.8352262476
 40
0.8511628601
 40
0.8654748786
 40
0.8783801883
 40
0.8900628235
 40
0.9006423664
 40
0.9102306556
 40
0.9189253114
 40
0.9268173233
 40
0.9339842586
 40
0.9404975843
 40
0.9464199487
 40
0.9518081046
 40
0.9567126926
 40
0.9611788172
 40
0.9652471629
 40
0.9689540853
 40
0.972332095
 40
0.9754103928
 40
0.9782151741
 40
0.9807699429
 40
0.9830957898
 40
0.9852116459
 40
0.987134458
 40
0.9888793765
 40
0.9904598447
 40
0.9918878245
 40
0.993174938
 40
0.9943314957
 40
0.9953693494
 40
0.9963033006
 40
0.9971370965
 40
0.997891507
 40
0.9985877241
 40
0.9992784749
 40
1.0
 40
1.0
 40
1.0
 40
1.0
 10
24.5130562639
 20
48.7240592856
 30
0.0
 10
24.2676468228
 20
48.7186150473
 30
0.0
 10
23.7727924686
 20
48.6923864611
 30
0.0
 10
23.0534626836
 20
48.6366024432
 30
0.0
 10
22.3804397677
 20
48.5768274586
 30
0.0
 10
21.7785137888
 20
48.521435285
 30
0.0
 10
21.2419734315
 20
48.4726327045
 30
0.0
 10
20.7602207125
 20
48.4306389373
 30
0.0
 10
20.3261063871
 20
48.3951805035
 30
0.0
 10
19.933741328
 20
48.3657545118
 30
0.0
 10
19.5783743718
 20
48.3418068698
 30
0.0
 10
19.256263618
 20
48.3228133659
 30
0.0
 10
18.9639895692
 20
48.3082643286
 30
0.0
 10
18.6983419032
 20
48.2976676199
 30
0.0
 10
18.4564986421
 20
48.2905548969
 30
0.0
 10
18.2361409047
 20
48.2864852668
 30
0.0
 10
18.0353292248
 20
48.2850219187
 30
0.0
 10
17.8523589045
 20
48.2857222551
 30
0.0
 10
17.6856579238
 20
48.2881419995
 30
0.0
 10
17.5338743394
 20
48.2918394845
 30
0.0
 10
17.3958716583
 20
48.2963747199
 30
0.0
 10
17.270670626
 20
48.3013175139
 30
0.0
 10
17.1573861857
 20
48.3062603075
 30
0.0
 10
17.0552110172
 20
48.3108240442
 30
0.0
 10
16.9634150887
 20
48.3146600377
 30
0.0
 10
16.8814330328
 20
48.3174428468
 30
0.0
 10
16.8088423725
 20
48.318869599
 30
0.0
 10
16.745323709
 20
48.3186538285
 30
0.0
 10
16.6907993036
 20
48.3165430894
 30
0.0
 10
16.6452477124
 20
48.3123406167
 30
0.0
 10
16.6087335659
 20
48.3059849121
 30
0.0
 10
16.5808514727
 20
48.2974335214
 30
0.0
 10
16.5608743406
 20
48.2866867629
 30
0.0
 10
16.5480717523
 20
48.2729332411
 30
0.0
 10
16.5436888973
 20
48.2555313309
 30
0.0
 10
16.5485228451
 20
48.235788147
 30
0.0
 10
16.5619675409
 20
48.2136904756
 30
0.0
 10
16.5845086042
 20
48.1886570219
 30
0.0
 10
16.6165903864
 20
48.1607445279
 30
0.0
 10
16.6583659956
 20
48.1301933799
 30
0.0
 10
16.7101630999
 20
48.0971373152
 30
0.0
 10
16.7724661044
 20
48.0616832179
 30
0.0
 10
16.8459292297
 20
48.023968711
 30
0.0
 10
16.931313946
 20
47.9841800328
 30
0.0
 10
17.029525809
 20
47.9425494575
 30
0.0
 10
17.1416617541
 20
47.8993486625
 30
0.0
 10
17.2690371806
 20
47.8548995091
 30
0.0
 10
17.4132029802
 20
47.8095918378
 30
0.0
 10
17.5758860846
 20
47.7639191938
 30
0.0
 10
17.7589638192
 20
47.7184994344
 30
0.0
 10
17.9645375551
 20
47.6742483663
 30
0.0
 10
18.1950296363
 20
47.6322388765
 30
0.0
 10
18.4532814863
 20
47.5937282463
 30
0.0
 10
18.7424089807
 20
47.5601469013
 30
0.0
 10
19.0658780278
 20
47.5333174302
 30
0.0
 10
19.4274872037
 20
47.5154949413
 30
0.0
 10
19.8316161116
 20
47.5091686185
 30
0.0
 10
20.281703532
 20
47.5172990227
 30
0.0
 10
20.7617483195
 20
47.5422317564
 30
0.0
 10
21.2358562685
 20
47.581984613
 30
0.0
 10
21.6706472317
 20
47.6304945549
 30
0.0
 10
22.0536622341
 20
47.6821295589
 30
0.0
 10
22.3927438848
 20
47.7346662782
 30
0.0
 10
22.6947262386
 20
47.7868564139
 30
0.0
 10
22.9646764763
 20
47.8378747976
 30
0.0
 10
23.2066734748
 20
47.8872075935
 30
0.0
 10
23.4242036987
 20
47.9345740373
 30
0.0
 10
23.620309012
 20
47.979857265
 30
0.0
 10
23.7974140476
 20
48.0229902342
 30
0.0
 10
23.9574438297
 20
48.0639205091
 30
0.0
 10
24.1021493665
 20
48.1026554681
 30
0.0
 10
24.2330760909
 20
48.1392421251
 30
0.0
 10
24.3516127212
 20
48.173754874
 30
0.0
 10
24.4589813049
 20
48.2062783653
 30
0.0
 10
24.5562795157
 20
48.2369112555
 30
0.0
 10
24.6444825906
 20
48.2657555517
 30
0.0
 10
24.7244637113
 20
48.2929118053
 30
0.0
 10
24.7970010929
 20
48.318482242
 30
0.0
 10
24.8627890151
 20
48.3425676734
 30
0.0
 10
24.9224476816
 20
48.3652667998
 30
0.0
 10
24.9765293326
 20
48.3866762142
 30
0.0
 10
25.0255262834
 20
48.4068889137
 30
0.0
 10
25.0698775312
 20
48.4259940884
 30
0.0
 10
25.1099737137
 20
48.4440770724
 30
0.0
 10
25.1461616201
 20
48.4612195233
 30
0.0
 10
25.1787477153
 20
48.4774996553
 30
0.0
 10
25.2080008687
 20
48.4929925641
 30
0.0
 10
25.2341538044
 20
48.5077703801
 30
0.0
 10
25.2574041684
 20
48.5219027355
 30
0.0
 10
25.2779191826
 20
48.535460344
 30
0.0
 10
25.2958328146
 20
48.5485163218
 30
0.0
 10
25.3112514241
 20
48.5611569729
 30
0.0
 10
25.3242503596
 20
48.5734970203
 30
0.0
 10
25.3348009914
 20
48.5856440407
 30
0.0
 10
25.342776129
 20
48.5977432233
 30
0.0
 10
25.3478519224
 20
48.6099074444
 30
0.0
 10
25.3494266553
 20
48.6222639083
 30
0.0
 10
25.3467369086
 20
48.6342835006
 30
0.0
 10
25.3423792303
 20
48.6412558909
 30
0.0
 10
25.3397861421
 20
48.6444693669
 30
0.0
  0
SPLINE
  5
2EA
100
AcDbEntity
  8
0
100
AcDbSpline
 62
7
  6
BYLAYER
 70
0
 71
3
 72
38
 73
34
 74
0
 42
0.0000001
 43
0.0000001
 44
0.0000000001
 40
0.0
 40
0.0
 40
0.0
 40
0.0
 40
0.0286628898
 40
0.0604196395
 40
0.0974447527
 40
0.1417022394
 40
0.1908107211
 40
0.2387230534
 40
0.2822598437
 40
0.3224874675
 40
0.3593538685
 40
0.3930251817
 40
0.4237636088
 40
0.451715276
 40
0.4770092402
 40
0.4997811066
 40
0.5202007065
 40
0.5384091417
 40
0.5548430926
 40
0.5702959064
 40
0.5858049039
 40
0.6026013229
 40
0.621600482
 40
0.6430947347
 40
0.6672814697
 40
0.694406972
 40
0.7247757032
 40
0.7587108948
 40
0.7966491083
 40
0.8390735196
 40
0.8865403292
 40
0.9398733582
 40
1.0
 40
1.0
 40
1.0
 40
1.0
 10
26.1864911435
 20
47.871843248
 30
0.0
 10
26.1604750458
 20
47.8542434413
 30
0.0
 10
26.1039626888
 20
47.8195130074
 30
0.0
 10
26.0072195931
 20
47.773776014
 30
0.0
 10
25.8897251099
 20
47.7337743984
 30
0.0
 10
25.7503470396
 20
47.701419509
 30
0.0
 10
25.5971027536
 20
47.6785027392
 30
0.0
 10
25.4435569633
 20
47.6652869739
 30
0.0
 10
25.2992743275
 20
47.6606301062
 30
0.0
 10
25.167048851
 20
47.6628272153
 30
0.0
 10
25.0458764365
 20
47.6707697881
 30
0.0
 10
24.9356111507
 20
47.6838641357
 30
0.0
 10
24.8359303334
 20
47.7018168832
 30
0.0
 10
24.7466542236
 20
47.7245538772
 30
0.0
 10
24.6678690102
 20
47.7519904245
 30
0.0
 10
24.599802393
 20
47.7839953553
 30
0.0
 10
24.5429036443
 20
47.8203337098
 30
0.0
 10
24.4975449224
 20
47.860572019
 30
0.0
 10
24.463651464
 20
47.9042000947
 30
0.0
 10
24.4406320653
 20
47.9511825019
 30
0.0
 10
24.4279311402
 20
48.0023450206
 30
0.0
 10
24.4257493161
 20
48.0588856982
 30
0.0
 10
24.4350447071
 20
48.1212944846
 30
0.0
 10
24.4565502711
 20
48.1890904332
 30
0.0
 10
24.4904671508
 20
48.2615109626
 30
0.0
 10
24.5369834736
 20
48.338149452
 30
0.0
 10
24.5964375859
 20
48.4189310487
 30
0.0
 10
24.6694991196
 20
48.5039948391
 30
0.0
 10
24.7573501033
 20
48.59339372
 30
0.0
 10
24.861733671
 20
48.6869490849
 30
0.0
 10
24.9851137295
 20
48.7841370689
 30
0.0
 10
25.1305988944
 20
48.8840237844
 30
0.0
 10
25.2380905081
 20
48.9468279913
 30
0.0
 10
25.2963114829
 20
48.9776780967
 30
0.0
  0
SPLINE
  5
2EB
100
AcDbEntity
  8
0
100
AcDbSpline
 62
7
  6
BYLAYER
 70
0
 71
3
 72
13
 73
9
 74
0
 42
0.0000001
 43
0.0000001
 44
0.0000000001
 40
0.0
 40
0.0
 40
0.0
 40
0.0
 40
0.1648665107
 40
0.3462833514
 40
0.5339258757
 40
0.7099547302
 40
0.8661927319
 40
1.0
 40
1.0
 40
1.0
 40
1.0
 10
27.4535365322
 20
48.5718565302
 30
0.0
 10
27.3731137384
 20
48.5634342424
 30
0.0
 10
27.2057561541
 20
48.5292828404
 30
0.0
 10
26.9595690023
 20
48.4370444682
 30
0.0
 10
26.7262553751
 20
48.3043201023
 30
0.0
 10
26.5227959386
 20
48.1497745846
 30
0.0
 10
26.3513218145
 20
47.9987942608
 30
0.0
 10
26.2408497934
 20
47.9086167003
 30
0.0
 10
26.1864911435
 20
47.871843248
 30
0.0
  0
SPLINE
  5
2EC
100
AcDbEntity
  8
0
100
AcDbSpline
 62
7
  6
BYLAYER
 70
0
 71
3
 72
81
 73
77
 74
0
 42
0.0000001
 43
0.0000001
 44
0.0000000001
 40
0.0
 40
0.0
 40
0.0
 40
0.0
 40
0.0352836372
 40
0.0521449394
 40
0.068573653
 40
0.084643624
 40
0.1004019123
 40
0.1158917147
 40
0.1311531724
 40
0.1462245035
 40
0.161139968
 40
0.1759312011
 40
0.1906374012
 40
0.2052947179
 40
0.2199481969
 40
0.2346379472
 40
0.2494062138
 40
0.2793096078
 40
0.3099204163
 40
0.3413861061
 40
0.3737928484
 40
0.4071646678
 40
0.4414651506
 40
0.4766196241
 40
0.5125212581
 40
0.5490409025
 40
0.5860283066
 40
0.623319598
 40
0.6607380175
 40
0.7352036725
 40
0.7718588628
 40
0.8078535432
 40
0.8429724812
 40
0.8769912684
 40
0.9096700312
 40
0.9254151024
 40
0.933119688
 40
0.9407055464
 40
0.9481809222
 40
0.9555508015
 40
0.959101875
 40
0.9625339995
 40
0.965843084
 40
0.9690319982
 40
0.9750548566
 40
0.9805759358
 40
0.9855514068
 40
0.9878128896
 40
0.9899107892
 40
0.9918354056
 40
0.9935739535
 40
0.9951123463
 40
0.9964360608
 40
0.9975316662
 40
0.9983904046
 40
0.9987282458
 40
0.9990034112
 40
0.9992145614
 40
0.9992956918
 40
0.9993602799
 40
0.9993863254
 40
0.9994082432
 40
0.9994260876
 40
0.9994399127
 40
0.9994497725
 40
0.9994557227
 40
0.9994578361
 40
0.9994596262
 40
0.9994743676
 40
0.9995037517
 40
0.999547402
 40
0.999604948
 40
0.9996827334
 40
0.9997753071
 40
0.9998814622
 40
1.0
 40
1.0
 40
1.0
 40
1.0
 10
11.0097563673
 20
51.658170751
 30
0.0
 10
10.9757188201
 20
51.4364983948
 30
0.0
 10
10.9436307043
 20
51.1054417309
 30
0.0
 10
10.9462383372
 20
50.6692997578
 30
0.0
 10
10.9707776765
 20
50.3562120948
 30
0.0
 10
11.0181731749
 20
50.0528500801
 30
0.0
 10
11.0882555177
 20
49.7600197116
 30
0.0
 10
11.1808414686
 20
49.478901841
 30
0.0
 10
11.2950899508
 20
49.2106035053
 30
0.0
 10
11.4301435369
 20
48.9562823381
 30
0.0
 10
11.5845796322
 20
48.7168048556
 30
0.0
 10
11.7570713638
 20
48.4929321531
 30
0.0
 10
11.9458914163
 20
48.2848964171
 30
0.0
 10
12.1495374959
 20
48.0926638196
 30
0.0
 10
12.3665107822
 20
47.9158300301
 30
0.0
 10
12.5955578961
 20
47.7537595836
 30
0.0
 10
12.9168427298
 20
47.5555283994
 30
0.0
 10
13.345320647
 20
47.3401980669
 30
0.0
 10
13.8918237621
 20
47.1303743299
 30
0.0
 10
14.4688622924
 20
46.9618752786
 30
0.0
 10
15.0732527968
 20
46.8304195778
 30
0.0
 10
15.7019738016
 20
46.731665506
 30
0.0
 10
16.3521384618
 20
46.6626202337
 30
0.0
 10
17.0206457006
 20
46.6203472757
 30
0.0
 10
17.7043132198
 20
46.602283718
 30
0.0
 10
18.3998288652
 20
46.605881307
 30
0.0
 10
19.1037878876
 20
46.6288680628
 30
0.0
 10
19.8126855557
 20
46.6689695148
 30
0.0
 10
20.7580868143
 20
46.7423374301
 30
0.0
 10
21.6972520939
 20
46.841120398
 30
0.0
 10
22.6249481571
 20
46.9586456196
 30
0.0
 10
23.3034168413
 20
47.0531562324
 30
0.0
 10
23.964245863
 20
47.1524983501
 30
0.0
 10
24.6033149002
 20
47.2546126151
 30
0.0
 10
25.1200962879
 20
47.3414520519
 30
0.0
 10
25.4717124556
 20
47.4018403944
 30
0.0
 10
25.6661049124
 20
47.4354024758
 30
0.0
 10
25.808692706
 20
47.4600609175
 30
0.0
 10
25.9491581073
 20
47.4845122529
 30
0.0
 10
26.0642098792
 20
47.5053944308
 30
0.0
 10
26.154034435
 20
47.5213541099
 30
0.0
 10
26.2184948447
 20
47.5325193558
 30
0.0
 10
26.2807543309
 20
47.5428980414
 30
0.0
 10
26.3593551287
 20
47.5553795474
 30
0.0
 10
26.45203531
 20
47.5688434356
 30
0.0
 10
26.556329855
 20
47.5811464616
 30
0.0
 10
26.6372050994
 20
47.5874975679
 30
0.0
 10
26.6964993312
 20
47.589851146
 30
0.0
 10
26.7364468325
 20
47.5902637345
 30
0.0
 10
26.7730619913
 20
47.5893628707
 30
0.0
 10
26.8060721181
 20
47.5873862155
 30
0.0
 10
26.8351862687
 20
47.5845774619
 30
0.0
 10
26.8601208054
 20
47.5811875421
 30
0.0
 10
26.8806245873
 20
47.5774417359
 30
0.0
 10
26.8948311708
 20
47.5741852869
 30
0.0
 10
26.9038697574
 20
47.5717711395
 30
0.0
 10
26.9088995809
 20
47.5703055764
 30
0.0
 10
26.9123387738
 20
47.5692178381
 30
0.0
 10
26.9144870726
 20
47.5684890188
 30
0.0
 10
26.9155156455
 20
47.5681236878
 30
0.0
 10
26.9161867538
 20
47.5678744851
 30
0.0
 10
26.9165765386
 20
47.5677256027
 30
0.0
 10
26.9168958275
 20
47.5675988907
 30
0.0
 10
26.9171336017
 20
47.5675024594
 30
0.0
 10
26.9173210578
 20
47.5674191362
 30
0.0
 10
26.917398719
 20
47.5673865715
 30
0.0
 10
26.917487574
 20
47.5673366742
 30
0.0
 10
26.917315035
 20
47.5673753059
 30
0.0
 10
26.9171206425
 20
47.5674735963
 30
0.0
 10
26.9165498135
 20
47.5676913205
 30
0.0
 10
26.9158176201
 20
47.5680255134
 30
0.0
 10
26.9147757211
 20
47.5685079197
 30
0.0
 10
26.9134803253
 20
47.569147265
 30
0.0
 10
26.9119156508
 20
47.5699511982
 30
0.0
 10
26.9101383956
 20
47.5709032982
 30
0.0
 10
26.9088904456
 20
47.5715982339
 30
0.0
 10
26.9082351354
 20
47.5719700641
 30
0.0
  0
SPLINE
  5
2ED
100
AcDbEntity
  8
0
100
AcDbSpline
 62
7
  6
BYLAYER
 70
0
 71
3
 72
14
 73
10
 74
0
 42
0.0000001
 43
0.0000001
 44
0.0000000001
 40
0.0
 40
0.0
 40
0.0
 40
0.0
 40
0.152493208
 40
0.2835196548
 40
0.4067757113
 40
0.5323693307
 40
0.6676224007
 40
0.8210613463
 40
1.0
 40
1.0
 40
1.0
 40
1.0
 10
27.7804480345
 20
48.5132905009
 30
0.0
 10
27.7665197527
 20
48.5236178353
 30
0.0
 10
27.7395936043
 20
48.541533839
 30
0.0
 10
27.6973315155
 20
48.5609510697
 30
0.0
 10
27.6551783506
 20
48.5712235039
 30
0.0
 10
27.6117611867
 20
48.5764175706
 30
0.0
 10
27.5646516997
 20
48.5782923461
 30
0.0
 10
27.5114678586
 20
48.5769689112
 30
0.0
 10
27.4737721523
 20
48.5739757083
 30
0.0
 10
27.4535365409
 20
48.5718565312
 30
0.0
  0
SPLINE
  5
2EE
100
AcDbEntity
  8
0
100
AcDbSpline
 62
7
  6
BYLAYER
 70
0
 71
3
 72
42
 73
38
 74
0
 42
0.0000001
 43
0.0000001
 44
0.0000000001
 40
0.0
 40
0.0
 40
0.0
 40
0.0
 40
0.0061070814
 40
0.0110759753
 40
0.0149227706
 40
0.0176889335
 40
0.018703049
 40
0.0195137671
 40
0.0201936029
 40
0.020860062
 40
0.0216373902
 40
0.0226086758
 40
0.0252846572
 40
0.0290522826
 40
0.0339480336
 40
0.0471259018
 40
0.0647543734
 40
0.0867144085
 40
0.1128456273
 40
0.1428747241
 40
0.1764984048
 40
0.2134116488
 40
0.2532895628
 40
0.2957308902
 40
0.3403149565
 40
0.3866208001
 40
0.4826468841
 40
0.5801092251
 40
0.6752705294
 40
0.7645126023
 40
0.8443700425
 40
0.8798416822
 40
0.9118666993
 40
0.9401151336
 40
0.9643544028
 40
0.9843808434
 40
1.0
 40
1.0
 40
1.0
 40
1.0
 10
12.7274163502
 20
51.4207177594
 30
0.0
 10
12.7308862959
 20
51.4194800282
 30
0.0
 10
12.7371440859
 20
51.4171359981
 30
0.0
 10
12.7454194888
 20
51.4135687127
 30
0.0
 10
12.7516048867
 20
51.4103205195
 30
0.0
 10
12.7554201999
 20
51.4076782346
 30
0.0
 10
12.7572950737
 20
51.4056212449
 30
0.0
 10
12.7580444448
 20
51.4042855023
 30
0.0
 10
12.7582339835
 20
51.4029544306
 30
0.0
 10
12.7577780367
 20
51.4017079299
 30
0.0
 10
12.7567607273
 20
51.4006295392
 30
0.0
 10
12.7544891164
 20
51.3991988182
 30
0.0
 10
12.7501921808
 20
51.3977993621
 30
0.0
 10
12.7434704782
 20
51.3965389156
 30
0.0
 10
12.730353392
 20
51.3951501248
 30
0.0
 10
12.708807207
 20
51.3945356045
 30
0.0
 10
12.6769766108
 20
51.3950817356
 30
0.0
 10
12.6373714858
 20
51.396979292
 30
0.0
 10
12.590354968
 20
51.4002186891
 30
0.0
 10
12.5363831392
 20
51.4047752905
 30
0.0
 10
12.4759965776
 20
51.4106062936
 30
0.0
 10
12.4097632116
 20
51.4176658372
 30
0.0
 10
12.3383082191
 20
51.4258973098
 30
0.0
 10
12.2623224101
 20
51.4352138507
 30
0.0
 10
12.1825533909
 20
51.4455228435
 30
0.0
 10
12.0708152567
 20
51.4606493551
 30
0.0
 10
11.9276366657
 20
51.4812895161
 30
0.0
 10
11.7555532424
 20
51.5079114119
 30
0.0
 10
11.5877997488
 20
51.5356942584
 30
0.0
 10
11.430829081
 20
51.5635233445
 30
0.0
 10
11.3096136661
 20
51.5867097278
 30
0.0
 10
11.222541999
 20
51.6046090225
 30
0.0
 10
11.1660944342
 20
51.6168501357
 30
0.0
 10
11.1164209768
 20
51.628334716
 30
0.0
 10
11.0739769959
 20
51.6389365686
 30
0.0
 10
11.0391506123
 20
51.6485455588
 30
0.0
 10
11.018628206
 20
51.6550060992
 30
0.0
 10
11.0097536717
 20
51.6581717126
 30
0.0
  0
SPLINE
  5
2EF
100
AcDbEntity
  8
0
100
AcDbSpline
 62
7
  6
BYLAYER
 70
0
 71
3
 72
42
 73
38
 74
0
 42
0.0000001
 43
0.0000001
 44
0.0000000001
 40
0.0
 40
0.0
 40
0.0
 40
0.0
 40
0.0061071966
 40
0.0110761873
 40
0.0149230604
 40
0.0176892815
 40
0.0187034182
 40
0.0195141517
 40
0.0201939963
 40
0.0208604592
 40
0.0216377896
 40
0.0226090791
 40
0.0252850788
 40
0.0290527071
 40
0.0339484619
 40
0.0471263403
 40
0.0647548256
 40
0.0867148778
 40
0.1128461169
 40
0.142875237
 40
0.1764989439
 40
0.2134122166
 40
0.2532901615
 40
0.2957315219
 40
0.3403156228
 40
0.3866215024
 40
0.482647661
 40
0.5801100777
 40
0.6752714558
 40
0.7645135981
 40
0.8443711003
 40
0.8798427676
 40
0.9118678096
 40
0.940115686
 40
0.9643545756
 40
0.9843808281
 40
1.0
 40
1.0
 40
1.0
 40
1.0
 10
11.0097563673
 20
51.658170751
 30
0.0
 10
11.0062863562
 20
51.6594084972
 30
0.0
 10
11.0000284458
 20
51.6617525557
 30
0.0
 10
10.9917528782
 20
51.6653198827
 30
0.0
 10
10.9855673473
 20
51.6685681132
 30
0.0
 10
10.9817519433
 20
51.6712104261
 30
0.0
 10
10.9798770113
 20
51.6732674369
 30
0.0
 10
10.9791276082
 20
51.674603191
 30
0.0
 10
10.9789380415
 20
51.6759342751
 30
0.0
 10
10.9793939715
 20
51.677180792
 30
0.0
 10
10.9804112767
 20
51.6782591951
 30
0.0
 10
10.982682894
 20
51.6796899306
 30
0.0
 10
10.9869798417
 20
51.6810893909
 30
0.0
 10
10.9937015534
 20
51.6823498396
 30
0.0
 10
11.0068186399
 20
51.6837386303
 30
0.0
 10
11.0283648247
 20
51.6843531507
 30
0.0
 10
11.060195421
 20
51.6838070195
 30
0.0
 10
11.0998005459
 20
51.6819094631
 30
0.0
 10
11.1468170638
 20
51.6786700661
 30
0.0
 10
11.2007888925
 20
51.6741134647
 30
0.0
 10
11.2611754542
 20
51.6682824615
 30
0.0
 10
11.3274088201
 20
51.6612229179
 30
0.0
 10
11.3988638126
 20
51.6529914453
 30
0.0
 10
11.4748496217
 20
51.6436749044
 30
0.0
 10
11.5546186409
 20
51.6333659116
 30
0.0
 10
11.6663567751
 20
51.6182394001
 30
0.0
 10
11.8095353661
 20
51.597599239
 30
0.0
 10
11.9816187893
 20
51.5709773432
 30
0.0
 10
12.1493722829
 20
51.5431944967
 30
0.0
 10
12.3063429507
 20
51.5153654107
 30
0.0
 10
12.4275583656
 20
51.4921790273
 30
0.0
 10
12.5146300328
 20
51.4742797326
 30
0.0
 10
12.5710772557
 20
51.4620386936
 30
0.0
 10
12.6207501396
 20
51.4505542526
 30
0.0
 10
12.6631934346
 20
51.439952598
 30
0.0
 10
12.6980194845
 20
51.4303437562
 30
0.0
 10
12.7185417942
 20
51.4238833176
 30
0.0
 10
12.7274163502
 20
51.4207177594
 30
0.0
  0
SPLINE
  5
2F0
100
AcDbEntity
  8
0
100
AcDbSpline
 62
7
  6
BYLAYER
 70
0
 71
3
 72
11
 73
7
 74
0
 42
0.0000001
 43
0.0000001
 44
0.0000000001
 40
0.0
 40
0.0
 40
0.0
 40
0.0
 40
0.4956661775
 40
0.7183260577
 40
0.7839802985
 40
1.0
 40
1.0
 40
1.0
 40
1.0
 10
28.7251297008
 20
49.7187107366
 30
0.0
 10
28.7647080107
 20
49.7258743191
 30
0.0
 10
28.8229471349
 20
49.7331479024
 30
0.0
 10
28.8867541754
 20
49.7293320017
 30
0.0
 10
28.9267115605
 20
49.71871308
 30
0.0
 10
28.94318687
 20
49.7008193096
 30
0.0
 10
28.9555824996
 20
49.688424966
 30
0.0
  0
SPLINE
  5
2F1
100
AcDbEntity
  8
0
100
AcDbSpline
 62
7
  6
BYLAYER
 70
0
 71
3
 72
18
 73
14
 74
0
 42
0.0000001
 43
0.0000001
 44
0.0000000001
 40
0.0
 40
0.0
 40
0.0
 40
0.0
 40
0.2137843953
 40
0.3959572908
 40
0.548064306
 40
0.6717721927
 40
0.7679665192
 40
0.8388893488
 40
0.8892685603
 40
0.923416129
 40
0.9452828862
 40
0.9654609201
 40
1.0
 40
1.0
 40
1.0
 40
1.0
 10
28.146389183
 20
49.7574414612
 30
0.0
 10
28.1914554883
 20
49.7505550292
 30
0.0
 10
28.2747967847
 20
49.7369601189
 30
0.0
 10
28.3899301538
 20
49.7168721937
 30
0.0
 10
28.4861318905
 20
49.6999973512
 30
0.0
 10
28.5643913673
 20
49.6870665348
 30
0.0
 10
28.6258727157
 20
49.6785669309
 30
0.0
 10
28.6719999519
 20
49.6743406618
 30
0.0
 10
28.7054602307
 20
49.6746957159
 30
0.0
 10
28.7274931347
 20
49.6780443721
 30
0.0
 10
28.743172743
 20
49.6878733244
 30
0.0
 10
28.7404081851
 20
49.7065726198
 30
0.0
 10
28.7309194223
 20
49.7141578414
 30
0.0
 10
28.7251297008
 20
49.7187107366
 30
0.0
  0
SPLINE
  5
2F2
100
AcDbEntity
  8
0
100
AcDbSpline
 62
7
  6
BYLAYER
 70
0
 71
3
 72
24
 73
20
 74
0
 42
0.0000001
 43
0.0000001
 44
0.0000000001
 40
0.0
 40
0.0
 40
0.0
 40
0.0
 40
0.0342008794
 40
0.0708179618
 40
0.111059769
 40
0.1565304346
 40
0.2084865464
 40
0.2673707103
 40
0.3314544316
 40
0.3968639132
 40
0.4634894968
 40
0.5331525306
 40
0.6057331503
 40
0.6801094006
 40
0.7535923458
 40
0.8231216004
 40
0.8877571499
 40
0.9469225691
 40
1.0
 40
1.0
 40
1.0
 40
1.0
 10
25.3397861421
 20
48.6444693669
 30
0.0
 10
25.3748690271
 20
48.6541758029
 30
0.0
 10
25.4461737193
 20
48.679628156
 30
0.0
 10
25.5501766238
 20
48.7368592082
 30
0.0
 10
25.6533252809
 20
48.8170553019
 30
0.0
 10
25.7571333973
 20
48.9207995486
 30
0.0
 10
25.8659738068
 20
49.0466462909
 30
0.0
 10
25.9882725768
 20
49.187048621
 30
0.0
 10
26.1302183406
 20
49.3290459139
 30
0.0
 10
26.2929605536
 20
49.4604992854
 30
0.0
 10
26.475442101
 20
49.5746066185
 30
0.0
 10
26.677613554
 20
49.6683753079
 30
0.0
 10
26.8972354277
 20
49.7402150237
 30
0.0
 10
27.1275411487
 20
49.7874414707
 30
0.0
 10
27.3581354523
 20
49.8103242524
 30
0.0
 10
27.5793370775
 20
49.8131189817
 30
0.0
 10
27.7849116348
 20
49.801953368
 30
0.0
 10
27.9722203782
 20
49.7825612607
 30
0.0
 10
28.0905457128
 20
49.7659746966
 30
0.0
 10
28.146389183
 20
49.7574414612
 30
0.0
  0
SPLINE
  5
2F3
100
AcDbEntity
  8
0
100
AcDbSpline
 62
7
  6
BYLAYER
 70
0
 71
3
 72
22
 73
18
 74
0
 42
0.0000001
 43
0.0000001
 44
0.0000000001
 40
0.0
 40
0.0
 40
0.0
 40
0.0
 40
0.1379205643
 40
0.2525448737
 40
0.3482270717
 40
0.4290656339
 40
0.4985284343
 40
0.5587689535
 40
0.610809191
 40
0.6788552391
 40
0.7415602629
 40
0.7929354371
 40
0.8408298066
 40
0.8810182964
 40
0.9158477701
 40
0.9538095209
 40
1.0
 40
1.0
 40
1.0
 40
1.0
 10
24.7110544312
 20
48.7880756651
 30
0.0
 10
24.7469002866
 20
48.7936852936
 30
0.0
 10
24.8129382436
 20
48.8014312214
 30
0.0
 10
24.9043341654
 20
48.8078762092
 30
0.0
 10
24.9808938651
 20
48.8105171363
 30
0.0
 10
25.0456131136
 20
48.8107318993
 30
0.0
 10
25.1009870179
 20
48.8091897813
 30
0.0
 10
25.1487199482
 20
48.8063037636
 30
0.0
 10
25.1959490722
 20
48.8017662362
 30
0.0
 10
25.2435703783
 20
48.7948546186
 30
0.0
 10
25.2903796312
 20
48.7843358256
 30
0.0
 10
25.3307181352
 20
48.7701162622
 30
0.0
 10
25.3628651623
 20
48.7521128676
 30
0.0
 10
25.3846212287
 20
48.7255176057
 30
0.0
 10
25.3834982513
 20
48.6936210372
 30
0.0
 10
25.3659262648
 20
48.6667937842
 30
0.0
 10
25.3494214182
 20
48.6518728218
 30
0.0
 10
25.3397861421
 20
48.6444693669
 30
0.0
  0
SPLINE
  5
2F4
100
AcDbEntity
  8
0
100
AcDbSpline
 62
7
  6
BYLAYER
 70
0
 71
3
 72
12
 73
8
 74
0
 42
0.0000001
 43
0.0000001
 44
0.0000000001
 40
0.0
 40
0.0
 40
0.0
 40
0.0
 40
0.1360661609
 40
0.3025971897
 40
0.5008772854
 40
0.7326888164
 40
1.0
 40
1.0
 40
1.0
 40
1.0
 10
24.5130562639
 20
48.7240592856
 30
0.0
 10
24.5202808508
 20
48.7302673005
 30
0.0
 10
24.5383622448
 20
48.74168515
 30
0.0
 10
24.5706459597
 20
48.7555142341
 30
0.0
 10
24.6105791612
 20
48.7679579881
 30
0.0
 10
24.6581446914
 20
48.7790801583
 30
0.0
 10
24.6925660708
 20
48.7851823646
 30
0.0
 10
24.7110544312
 20
48.7880756651
 30
0.0
  0
SPLINE
  5
2F5
100
AcDbEntity
  8
0
100
AcDbSpline
 62
7
  6
BYLAYER
 70
0
 71
3
 72
10
 73
6
 74
0
 42
0.0000001
 43
0.0000001
 44
0.0000000001
 40
0.0
 40
0.0
 40
0.0
 40
0.0
 40
0.3143577955
 40
0.6251748988
 40
1.0
 40
1.0
 40
1.0
 40
1.0
 10
23.1875752129
 20
49.6050965896
 30
0.0
 10
23.1784813931
 20
49.598584433
 30
0.0
 10
23.1621827121
 20
49.5818539041
 30
0.0
 10
23.1549226506
 20
49.5453118896
 30
0.0
 10
23.1615929066
 20
49.5212020435
 30
0.0
 10
23.1664762792
 20
49.5087917303
 30
0.0
  0
SPLINE
  5
2F6
100
AcDbEntity
  8
0
100
AcDbSpline
 62
7
  6
BYLAYER
 70
0
 71
3
 72
20
 73
16
 74
0
 42
0.0000001
 43
0.0000001
 44
0.0000000001
 40
0.0
 40
0.0
 40
0.0
 40
0.0
 40
0.0877337832
 40
0.1743746012
 40
0.2598218486
 40
0.3439949103
 40
0.4267955383
 40
0.5082848553
 40
0.5885081343
 40
0.6676662663
 40
0.7459323482
 40
0.8235261242
 40
0.9006387109
 40
0.9774642583
 40
1.0
 40
1.0
 40
1.0
 40
1.0
 10
23.037225335
 20
51.9192973589
 30
0.0
 10
23.0006977127
 20
51.8576613756
 30
0.0
 10
22.93478009
 20
51.731166584
 30
0.0
 10
22.8576916234
 20
51.5331208083
 30
0.0
 10
22.8035148945
 20
51.3306432204
 30
0.0
 10
22.7716095478
 20
51.1266859249
 30
0.0
 10
22.7612939414
 20
50.9237712979
 30
0.0
 10
22.7708874572
 20
50.7240937987
 30
0.0
 10
22.7986972908
 20
50.5291686878
 30
0.0
 10
22.8429475788
 20
50.3400473337
 30
0.0
 10
22.9019112444
 20
50.1572683549
 30
0.0
 10
22.974362946
 20
49.9812299789
 30
0.0
 10
23.0591333682
 20
49.812120913
 30
0.0
 10
23.132803335
 20
49.6881732122
 30
0.0
 10
23.1773099333
 20
49.6203565491
 30
0.0
 10
23.1875560616
 20
49.6050792842
 30
0.0
  0
SPLINE
  5
2F7
100
AcDbEntity
  8
0
100
AcDbSpline
 62
7
  6
BYLAYER
 70
0
 71
3
 72
44
 73
40
 74
0
 42
0.0000001
 43
0.0000001
 44
0.0000000001
 40
0.0
 40
0.0
 40
0.0
 40
0.0
 40
0.0070959303
 40
0.0173806604
 40
0.0308060821
 40
0.0472996123
 40
0.0665739667
 40
0.0889232661
 40
0.1151533432
 40
0.1460944871
 40
0.1816545255
 40
0.2210225262
 40
0.2628956528
 40
0.3057588029
 40
0.3475909229
 40
0.386832862
 40
0.4224437959
 40
0.4545637869
 40
0.4836444643
 40
0.5097336299
 40
0.5331296185
 40
0.5547503791
 40
0.5758413452
 40
0.5980659175
 40
0.623280339
 40
0.6525464549
 40
0.6858438658
 40
0.7225174766
 40
0.7618390325
 40
0.8030729694
 40
0.843037015
 40
0.878640296
 40
0.908803405
 40
0.9339646798
 40
0.9545379599
 40
0.9708323923
 40
0.9833859644
 40
0.9928818838
 40
1.0
 40
1.0
 40
1.0
 40
1.0
 10
28.7251297008
 20
49.7187107367
 30
0.0
 10
28.7147257069
 20
49.7268921826
 30
0.0
 10
28.6858015035
 20
49.7423490662
 30
0.0
 10
28.6311894157
 20
49.7605836846
 30
0.0
 10
28.5572910805
 20
49.7745921372
 30
0.0
 10
28.4656619475
 20
49.7816173001
 30
0.0
 10
28.3571415497
 20
49.779959939
 30
0.0
 10
28.2310175302
 20
49.7683597862
 30
0.0
 10
28.0842847127
 20
49.7463646552
 30
0.0
 10
27.9141130198
 20
49.7153907382
 30
0.0
 10
27.7198363758
 20
49.6799971135
 30
0.0
 10
27.5041506289
 20
49.6486300003
 30
0.0
 10
27.273133312
 20
49.6305515772
 30
0.0
 10
27.0367427936
 20
49.6324852907
 30
0.0
 10
26.8063471648
 20
49.6537304092
 30
0.0
 10
26.5910209263
 20
49.6856623913
 30
0.0
 10
26.394142249
 20
49.7180434794
 30
0.0
 10
26.2156657769
 20
49.7455591439
 30
0.0
 10
26.0540524948
 20
49.7656566795
 30
0.0
 10
25.907809847
 20
49.776308714
 30
0.0
 10
25.7750647202
 20
49.7770555146
 30
0.0
 10
25.651949242
 20
49.7680957042
 30
0.0
 10
25.5321450934
 20
49.7494447033
 30
0.0
 10
25.4075353243
 20
49.7206103406
 30
0.0
 10
25.2696989174
 20
49.6822592292
 30
0.0
 10
25.1115836737
 20
49.6396516941
 30
0.0
 10
24.9299173355
 20
49.6030963424
 30
0.0
 10
24.7270887102
 20
49.5803551956
 30
0.0
 10
24.5084081107
 20
49.5724248638
 30
0.0
 10
24.2835773578
 20
49.5778245562
 30
0.0
 10
24.0661418899
 20
49.5919314177
 30
0.0
 10
23.8696572362
 20
49.6088992942
 30
0.0
 10
23.7007853445
 20
49.6245967104
 30
0.0
 10
23.5596948382
 20
49.6362756109
 30
0.0
 10
23.4441294756
 20
49.6424311415
 30
0.0
 10
23.3518964352
 20
49.6426897572
 30
0.0
 10
23.2804570945
 20
49.6370213349
 30
0.0
 10
23.227063598
 20
49.6257809636
 30
0.0
 10
23.1983465576
 20
49.612812401
 30
0.0
 10
23.1875521768
 20
49.605082096
 30
0.0
  0
SPLINE
  5
2F8
100
AcDbEntity
  8
0
100
AcDbSpline
 62
7
  6
BYLAYER
 70
0
 71
3
 72
65
 73
61
 74
0
 42
0.0000001
 43
0.0000001
 44
0.0000000001
 40
0.0
 40
0.0
 40
0.0
 40
0.0
 40
0.0044215117
 40
0.0085771483
 40
0.0163051501
 40
0.0235947533
 40
0.0307956924
 40
0.0382073382
 40
0.0460129932
 40
0.0632060103
 40
0.072616853
 40
0.0824880573
 40
0.0927233265
 40
0.1031975115
 40
0.1137747372
 40
0.1243010018
 40
0.1346111856
 40
0.1445369601
 40
0.1539117232
 40
0.1625669439
 40
0.1703309376
 40
0.1770608481
 40
0.180005989
 40
0.1826441621
 40
0.1849917136
 40
0.1872354013
 40
0.1920530147
 40
0.1975731532
 40
0.2040489756
 40
0.2116254577
 40
0.2203985672
 40
0.2303700493
 40
0.2415136294
 40
0.2537725532
 40
0.2670779486
 40
0.2813584153
 40
0.2965412055
 40
0.3125491328
 40
0.3467018838
 40
0.3831592927
 40
0.4214143313
 40
0.4610091798
 40
0.501589009
 40
0.542875904
 40
0.5847840947
 40
0.627406121
 40
0.6491224795
 40
0.6712055945
 40
0.6937537823
 40
0.7169079526
 40
0.740834358
 40
0.765689191
 40
0.7916311461
 40
0.8187186846
 40
0.846993889
 40
0.8763333589
 40
0.9065758538
 40
0.9374381423
 40
0.9686361827
 40
1.0
 40
1.0
 40
1.0
 40
1.0
 10
24.49994827
 20
51.1595897322
 30
0.0
 10
24.4948469664
 20
51.1509841745
 30
0.0
 10
24.4853694093
 20
51.1340389285
 30
0.0
 10
24.4691500846
 20
51.1008893244
 30
0.0
 10
24.4533966669
 20
51.0603689776
 30
0.0
 10
24.4404130944
 20
51.0117018752
 30
0.0
 10
24.4330469992
 20
50.9626076941
 30
0.0
 10
24.4305341777
 20
50.9118675864
 30
0.0
 10
24.4340970101
 20
50.8385337252
 30
0.0
 10
24.4489068788
 20
50.761609875
 30
0.0
 10
24.4743804535
 20
50.6830603582
 30
0.0
 10
24.4998940516
 20
50.6212678674
 30
0.0
 10
24.5309982048
 20
50.5594028421
 30
0.0
 10
24.5672210105
 20
50.4985198477
 30
0.0
 10
24.6080268692
 20
50.4398105439
 30
0.0
 10
24.6523491496
 20
50.3841915053
 30
0.0
 10
24.6991233491
 20
50.3325931336
 30
0.0
 10
24.7472757561
 20
50.2859431074
 30
0.0
 10
24.7957196523
 20
50.2452007821
 30
0.0
 10
24.8428774444
 20
50.2107468386
 30
0.0
 10
24.8872711291
 20
50.1828768081
 30
0.0
 10
24.9222006685
 20
50.1644342596
 30
0.0
 10
24.947609996
 20
50.1529978248
 30
0.0
 10
24.9642443978
 20
50.1462616057
 30
0.0
 10
24.9796237268
 20
50.1406789585
 30
0.0
 10
24.999978385
 20
50.1344219037
 30
0.0
 10
25.0277623519
 20
50.1280440826
 30
0.0
 10
25.0654700183
 20
50.1227329523
 30
0.0
 10
25.1097128773
 20
50.1200376859
 30
0.0
 10
25.1613933391
 20
50.1207457554
 30
0.0
 10
25.2207803545
 20
50.1256844023
 30
0.0
 10
25.287728094
 20
50.1354808318
 30
0.0
 10
25.3617102161
 20
50.1507560085
 30
0.0
 10
25.4421524179
 20
50.1715112899
 30
0.0
 10
25.5284131588
 20
50.1977754111
 30
0.0
 10
25.6198285417
 20
50.2295604706
 30
0.0
 10
25.7157237868
 20
50.2668602036
 30
0.0
 10
25.8518564994
 20
50.3245468591
 30
0.0
 10
26.0293545922
 20
50.4077525721
 30
0.0
 10
26.2486889982
 20
50.5198547578
 30
0.0
 10
26.4766532121
 20
50.6419826545
 30
0.0
 10
26.711940367
 20
50.7701611587
 30
0.0
 10
26.9541372806
 20
50.8999935677
 30
0.0
 10
27.2035430814
 20
51.0274091466
 30
0.0
 10
27.46173043
 20
51.1474664956
 30
0.0
 10
27.6850177174
 20
51.2369824935
 30
0.0
 10
27.8703525425
 20
51.2994311013
 30
0.0
 10
28.0146596647
 20
51.3409592389
 30
0.0
 10
28.1640971639
 20
51.3757650999
 30
0.0
 10
28.3194777865
 20
51.4023117422
 30
0.0
 10
28.4814967813
 20
51.4190668321
 30
0.0
 10
28.6506621378
 20
51.4237473454
 30
0.0
 10
28.8268239691
 20
51.4141158856
 30
0.0
 10
29.0091012264
 20
51.3874015487
 30
0.0
 10
29.1953706727
 20
51.3410648966
 30
0.0
 10
29.3828364656
 20
51.2739436087
 30
0.0
 10
29.567592355
 20
51.1851633457
 30
0.0
 10
29.7461577104
 20
51.0762063123
 30
0.0
 10
29.9148929853
 20
50.9483823449
 30
0.0
 10
30.0194244505
 20
50.8526056588
 30
0.0
 10
30.0696101746
 20
50.802452641
 30
0.0
  0
SPLINE
  5
2F9
100
AcDbEntity
  8
0
100
AcDbSpline
 62
7
  6
BYLAYER
 70
0
 71
3
 72
12
 73
8
 74
0
 42
0.0000001
 43
0.0000001
 44
0.0000000001
 40
0.0
 40
0.0
 40
0.0
 40
0.0
 40
0.181229836
 40
0.3664610502
 40
0.6805201584
 40
0.8398344452
 40
1.0
 40
1.0
 40
1.0
 40
1.0
 10
28.1463817884
 20
49.7574423742
 30
0.0
 10
28.1784178177
 20
49.7373400242
 30
0.0
 10
28.2422976286
 20
49.6952758988
 30
0.0
 10
28.3574118567
 20
49.6120710161
 30
0.0
 10
28.4640101917
 20
49.5251338235
 30
0.0
 10
28.5620928328
 20
49.4364786313
 30
0.0
 10
28.6100176854
 20
49.3901284575
 30
0.0
 10
28.6336531875
 20
49.3664956539
 30
0.0
  0
SPLINE
  5
2FA
100
AcDbEntity
  8
0
100
AcDbSpline
 62
7
  6
BYLAYER
 70
0
 71
3
 72
41
 73
37
 74
0
 42
0.0000001
 43
0.0000001
 44
0.0000000001
 40
0.0
 40
0.0
 40
0.0
 40
0.0
 40
0.0134635769
 40
0.0263024099
 40
0.05018593
 40
0.0718168677
 40
0.091354028
 40
0.1089770916
 40
0.1249629842
 40
0.1396130121
 40
0.1532722534
 40
0.1662932539
 40
0.1790369103
 40
0.1918511422
 40
0.2050369737
 40
0.2335035487
 40
0.2491603477
 40
0.2659072604
 40
0.283810682
 40
0.3028802011
 40
0.3231061369
 40
0.3444745364
 40
0.3669658545
 40
0.3905444151
 40
0.4151645138
 40
0.4407746658
 40
0.4947419818
 40
0.5520068664
 40
0.612089316
 40
0.6744994251
 40
0.7387303617
 40
0.8042760126
 40
0.8706208258
 40
0.9372473357
 40
0.9686779711
 40
1.0
 40
1.0
 40
1.0
 40
1.0
 10
16.815241759
 20
51.3946692835
 30
0.0
 10
16.8087468056
 20
51.3601755085
 30
0.0
 10
16.7969705736
 20
51.2926175399
 30
0.0
 10
16.7782642974
 20
51.1631181027
 30
0.0
 10
16.7631840948
 20
51.0116389349
 30
0.0
 10
16.757480557
 20
50.8420225488
 30
0.0
 10
16.7632574367
 20
50.6887274872
 30
0.0
 10
16.7792353153
 20
50.5509530114
 30
0.0
 10
16.8041133865
 20
50.427479872
 30
0.0
 10
16.8366060178
 20
50.3165129219
 30
0.0
 10
16.8763497173
 20
50.2162016801
 30
0.0
 10
16.9230162334
 20
50.1244586819
 30
0.0
 10
16.9771689984
 20
50.0395318624
 30
0.0
 10
17.0392771004
 20
49.9596965005
 30
0.0
 10
17.136508472
 20
49.8559935039
 30
0.0
 10
17.2527829616
 20
49.7609673551
 30
0.0
 10
17.3858184519
 20
49.6743389595
 30
0.0
 10
17.5004618733
 20
49.6104259205
 30
0.0
 10
17.6269559463
 20
49.5501443954
 30
0.0
 10
17.7650905018
 20
49.4937932481
 30
0.0
 10
17.9145133549
 20
49.4417994295
 30
0.0
 10
18.0748356593
 20
49.3945990524
 30
0.0
 10
18.2456131647
 20
49.3526328711
 30
0.0
 10
18.4262377746
 20
49.3158844503
 30
0.0
 10
18.6160872145
 20
49.2843535504
 30
0.0
 10
18.8854043388
 20
49.2486575749
 30
0.0
 10
19.2410097664
 20
49.217916823
 30
0.0
 10
19.6874401717
 20
49.2013030935
 30
0.0
 10
20.1561596933
 20
49.2033903733
 30
0.0
 10
20.6426322149
 20
49.222578727
 30
0.0
 10
21.1425020504
 20
49.2572772814
 30
0.0
 10
21.6515318597
 20
49.3055405293
 30
0.0
 10
22.165600044
 20
49.3654285896
 30
0.0
 10
22.5903553365
 20
49.4226962652
 30
0.0
 10
22.9240872395
 20
49.4714839719
 30
0.0
 10
23.085798268
 20
49.4962090251
 30
0.0
 10
23.166476324
 20
49.5087915369
 30
0.0
  0
SPLINE
  5
2FB
100
AcDbEntity
  8
0
100
AcDbSpline
 62
7
  6
BYLAYER
 70
0
 71
3
 72
65
 73
61
 74
0
 42
0.0000001
 43
0.0000001
 44
0.0000000001
 40
0.0
 40
0.0
 40
0.0
 40
0.0
 40
0.019141902
 40
0.0376455515
 40
0.0555907833
 40
0.073071117
 40
0.0901806189
 40
0.1069742306
 40
0.1235025332
 40
0.1397985804
 40
0.155891886
 40
0.1718027929
 40
0.1875479387
 40
0.2031526
 40
0.2186391316
 40
0.234046717
 40
0.2494106623
 40
0.2647763957
 40
0.2801838065
 40
0.2956828965
 40
0.3271072165
 40
0.3592785134
 40
0.3923251296
 40
0.4263020492
 40
0.4611871895
 40
0.4969096913
 40
0.5333555095
 40
0.5703834566
 40
0.6078251811
 40
0.6454967841
 40
0.6831997924
 40
0.757855162
 40
0.794363079
 40
0.8300109629
 40
0.8645549402
 40
0.881335797
 40
0.8977357508
 40
0.9137237976
 40
0.9214963167
 40
0.9289543962
 40
0.9360957884
 40
0.9429248077
 40
0.9494350923
 40
0.9556184529
 40
0.9669568943
 40
0.9720768101
 40
0.9768062391
 40
0.981125375
 40
0.9850004212
 40
0.9883965575
 40
0.9912865368
 40
0.993648903
 40
0.9954830634
 40
0.9968042647
 40
0.9976873143
 40
0.9982396899
 40
0.9986568185
 40
0.9991610609
 40
0.9995226744
 40
1.0
 40
1.0
 40
1.0
 40
1.0
 10
15.1219302706
 20
51.6842194724
 30
0.0
 10
15.1036904218
 20
51.5873393716
 30
0.0
 10
15.0729012633
 20
51.3957485048
 30
0.0
 10
15.0446546668
 20
51.1106304536
 30
0.0
 10
15.0356592157
 20
50.8327719783
 30
0.0
 10
15.0464523701
 20
50.5621381809
 30
0.0
 10
15.0774681582
 20
50.2990122443
 30
0.0
 10
15.1291814062
 20
50.0441237214
 30
0.0
 10
15.2020119728
 20
49.7987909633
 30
0.0
 10
15.2954514088
 20
49.564406083
 30
0.0
 10
15.4089316979
 20
49.3426037766
 30
0.0
 10
15.5409574408
 20
49.1346770756
 30
0.0
 10
15.6901127255
 20
48.9418669228
 30
0.0
 10
15.8543705128
 20
48.764756901
 30
0.0
 10
16.0319676323
 20
48.6036444786
 30
0.0
 10
16.2210656514
 20
48.4582820673
 30
0.0
 10
16.4201534753
 20
48.3281275891
 30
0.0
 10
16.6278664686
 20
48.2123104967
 30
0.0
 10
16.8431784567
 20
48.1097498351
 30
0.0
 10
17.1408142494
 20
47.9889659355
 30
0.0
 10
17.5301193062
 20
47.8665272141
 30
0.0
 10
18.0164534017
 20
47.7581930867
 30
0.0
 10
18.5222459961
 20
47.6832991974
 30
0.0
 10
19.0454083324
 20
47.6374758382
 30
0.0
 10
19.5839145222
 20
47.617397452
 30
0.0
 10
20.1354520853
 20
47.6198055803
 30
0.0
 10
20.697555736
 20
47.6420701484
 30
0.0
 10
21.2675617078
 20
47.6815677867
 30
0.0
 10
21.8426569846
 20
47.7360244279
 30
0.0
 10
22.4198973725
 20
47.8031577437
 30
0.0
 10
23.1857823221
 20
47.9063544411
 30
0.0
 10
23.9432706616
 20
48.0259888852
 30
0.0
 10
24.6883436879
 20
48.1552071554
 30
0.0
 10
25.229126899
 20
48.2532186772
 30
0.0
 10
25.6695064522
 20
48.3353843982
 30
0.0
 10
26.0122595527
 20
48.4002458991
 30
0.0
 10
26.2610943054
 20
48.4473745396
 30
0.0
 10
26.4643932059
 20
48.4855848522
 30
0.0
 10
26.6223400031
 20
48.5157464356
 30
0.0
 10
26.7356329798
 20
48.5368083825
 30
0.0
 10
26.8442967732
 20
48.5561698389
 30
0.0
 10
26.9483426868
 20
48.5735882935
 30
0.0
 10
27.0477462823
 20
48.5888134493
 30
0.0
 10
27.1704344598
 20
48.6052720765
 30
0.0
 10
27.2865588464
 20
48.6167828479
 30
0.0
 10
27.3955652495
 20
48.6224103824
 30
0.0
 10
27.4685547487
 20
48.6235510509
 30
0.0
 10
27.5351189091
 20
48.6217398171
 30
0.0
 10
27.5946792983
 20
48.617291001
 30
0.0
 10
27.6466019585
 20
48.6104866185
 30
0.0
 10
27.6903843901
 20
48.6021174229
 30
0.0
 10
27.7257367756
 20
48.592917895
 30
0.0
 10
27.7527243637
 20
48.5839514647
 30
0.0
 10
27.7720251687
 20
48.5761406949
 30
0.0
 10
27.7847678519
 20
48.5698663907
 30
0.0
 10
27.7931148513
 20
48.5652172862
 30
0.0
 10
27.7993249999
 20
48.5608365745
 30
0.0
 10
27.8044636071
 20
48.5566725996
 30
0.0
 10
27.8095609842
 20
48.55199266
 30
0.0
 10
27.8126396873
 20
48.5489569006
 30
0.0
 10
27.8143854532
 20
48.5472279196
 30
0.0
  0
SPLINE
  5
2FC
100
AcDbEntity
  8
0
100
AcDbSpline
 62
7
  6
BYLAYER
 70
0
 71
3
 72
18
 73
14
 74
0
 42
0.0000001
 43
0.0000001
 44
0.0000000001
 40
0.0
 40
0.0
 40
0.0
 40
0.0
 40
0.148171066
 40
0.2927565106
 40
0.4284494165
 40
0.5504427156
 40
0.6560234384
 40
0.7457147848
 40
0.8211550512
 40
0.8829923074
 40
0.9323532974
 40
0.970775064
 40
1.0
 40
1.0
 40
1.0
 40
1.0
 10
24.5130562639
 20
48.7240592856
 30
0.0
 10
24.4383828583
 20
48.7474867177
 30
0.0
 10
24.2921466843
 20
48.7979811788
 30
0.0
 10
24.0817168586
 20
48.8814324468
 30
0.0
 10
23.8881271628
 20
48.9692251279
 30
0.0
 10
23.7175598236
 20
49.0572837471
 30
0.0
 10
23.5727770438
 20
49.141819999
 30
0.0
 10
23.4534391678
 20
49.2207293097
 30
0.0
 10
23.3575976591
 20
49.2928830408
 30
0.0
 10
23.2830138461
 20
49.3574761514
 30
0.0
 10
23.2277395765
 20
49.4141412909
 30
0.0
 10
23.1896175897
 20
49.4629461022
 30
0.0
 10
23.1721286552
 20
49.4944271849
 30
0.0
 10
23.1664764365
 20
49.5087913871
 30
0.0
  0
LINE
  5
2FD
100
AcDbEntity
  8
0
100
AcDbLine
 62
7
  6
BYLAYER
 10
28.6152462505
 20
49.3480887169
 11
28.6860286491
 21
49.2774497592
  0
SPLINE
  5
2FE
100
AcDbEntity
  8
0
100
AcDbSpline
 62
7
  6
BYLAYER
 70
0
 71
3
 72
48
 73
44
 74
0
 42
0.0000001
 43
0.0000001
 44
0.0000000001
 40
0.0
 40
0.0
 40
0.0
 40
0.0
 40
0.0068352174
 40
0.0125334036
 40
0.0171015346
 40
0.020559855
 40
0.0218897807
 40
0.0229716837
 40
0.0245221629
 40
0.0251775325
 40
0.0259113025
 40
0.026821059
 40
0.0279606447
 40
0.0293576661
 40
0.0310254146
 40
0.0351949802
 40
0.0404920112
 40
0.0469168411
 40
0.0544619958
 40
0.0631163238
 40
0.0728667271
 40
0.083698985
 40
0.0955948001
 40
0.108521853
 40
0.1373249809
 40
0.1698176278
 40
0.2057066648
 40
0.2446781724
 40
0.2863387614
 40
0.3302748094
 40
0.3760723691
 40
0.4715215772
 40
0.5690049585
 40
0.6647883023
 40
0.7552253792
 40
0.8368078597
 40
0.8733190628
 40
0.9064885855
 40
0.9359752143
 40
0.9615336777
 40
0.9829454407
 40
0.9920301363
 40
1.0
 40
1.0
 40
1.0
 40
1.0
 10
16.815241759
 20
51.3946692835
 30
0.0
 10
16.8190985413
 20
51.3932182854
 30
0.0
 10
16.8261640979
 20
51.3905138738
 30
0.0
 10
16.8356372377
 20
51.3864218551
 30
0.0
 10
16.843046542
 20
51.3827134285
 30
0.0
 10
16.8478682938
 20
51.3797594207
 30
0.0
 10
16.8506184548
 20
51.377496911
 30
0.0
 10
16.8522423648
 20
51.3757790514
 30
0.0
 10
16.853269674
 20
51.3738623748
 30
0.0
 10
16.8528368969
 20
51.3720668638
 30
0.0
 10
16.8519286374
 20
51.3709760514
 30
0.0
 10
16.850521859
 20
51.3700370781
 30
0.0
 10
16.8486064865
 20
51.3692098171
 30
0.0
 10
16.846172138
 20
51.3684849604
 30
0.0
 10
16.8418984723
 20
51.3675848435
 30
0.0
 10
16.8352166232
 20
51.3668026492
 30
0.0
 10
16.8256410152
 20
51.3662995785
 30
0.0
 10
16.8140156954
 20
51.3661980999
 30
0.0
 10
16.8003698165
 20
51.3664995251
 30
0.0
 10
16.784730767
 20
51.3672090045
 30
0.0
 10
16.7671286637
 20
51.36832793
 30
0.0
 10
16.7475956051
 20
51.3698575971
 30
0.0
 10
16.7261742271
 20
51.3717970752
 30
0.0
 10
16.6939875131
 20
51.3750406013
 30
0.0
 10
16.6495003444
 20
51.3801183863
 30
0.0
 10
16.5913422678
 20
51.3875171684
 30
0.0
 10
16.5271890577
 20
51.3963664696
 30
0.0
 10
16.4576460183
 20
51.4065924408
 30
0.0
 10
16.3833857062
 20
51.4180891524
 30
0.0
 10
16.3051395522
 20
51.4307424946
 30
0.0
 10
16.194974368
 20
51.4492566033
 30
0.0
 10
16.0531662654
 20
51.4743690884
 30
0.0
 10
15.8819905858
 20
51.5065134273
 30
0.0
 10
15.7141287968
 20
51.5398735121
 30
0.0
 10
15.5560345486
 20
51.5731217195
 30
0.0
 10
15.4332777105
 20
51.6006210158
 30
0.0
 10
15.3445026467
 20
51.6217250572
 30
0.0
 10
15.2864450892
 20
51.6361504387
 30
0.0
 10
15.2349650823
 20
51.6496334524
 30
0.0
 10
15.1905398552
 20
51.6620356715
 30
0.0
 10
15.1581692315
 20
51.6718269459
 30
0.0
 10
15.1361345635
 20
51.6791069487
 30
0.0
 10
15.126439231
 20
51.6825493731
 30
0.0
 10
15.1219303035
 20
51.6842194601
 30
0.0
  0
SPLINE
  5
2FF
100
AcDbEntity
  8
0
100
AcDbSpline
 62
7
  6
BYLAYER
 70
0
 71
3
 72
48
 73
44
 74
0
 42
0.0000001
 43
0.0000001
 44
0.0000000001
 40
0.0
 40
0.0
 40
0.0
 40
0.0
 40
0.0068352169
 40
0.0125334027
 40
0.0171015335
 40
0.0205598536
 40
0.0218897792
 40
0.0229716821
 40
0.0245221612
 40
0.0251775308
 40
0.0259113009
 40
0.0268210573
 40
0.027960643
 40
0.0293576644
 40
0.0310254129
 40
0.0351949784
 40
0.0404920093
 40
0.046916839
 40
0.0544619936
 40
0.0631163215
 40
0.0728667246
 40
0.0836989823
 40
0.0955947972
 40
0.1085218499
 40
0.1373249773
 40
0.1698176236
 40
0.20570666
 40
0.2446781669
 40
0.2863387553
 40
0.3302748025
 40
0.3760723614
 40
0.4715215678
 40
0.5690049475
 40
0.6647882896
 40
0.7552253649
 40
0.8368078441
 40
0.8733190465
 40
0.9064885687
 40
0.9359752056
 40
0.9615336746
 40
0.9829454406
 40
0.9920301366
 40
1.0
 40
1.0
 40
1.0
 40
1.0
 10
15.1219302706
 20
51.6842194724
 30
0.0
 10
15.1180734885
 20
51.6856704705
 30
0.0
 10
15.1110079323
 20
51.6883748819
 30
0.0
 10
15.1015347929
 20
51.6924669006
 30
0.0
 10
15.094125489
 20
51.696175327
 30
0.0
 10
15.0893037375
 20
51.6991293347
 30
0.0
 10
15.0865535767
 20
51.7013918444
 30
0.0
 10
15.0849296668
 20
51.7031097039
 30
0.0
 10
15.0839023578
 20
51.7050263805
 30
0.0
 10
15.0843351349
 20
51.7068218914
 30
0.0
 10
15.0852433944
 20
51.7079127038
 30
0.0
 10
15.0866501728
 20
51.708851677
 30
0.0
 10
15.0885655453
 20
51.709678938
 30
0.0
 10
15.0909998938
 20
51.7104037947
 30
0.0
 10
15.0952735594
 20
51.7113039117
 30
0.0
 10
15.1019554086
 20
51.7120861059
 30
0.0
 10
15.1115310165
 20
51.7125891766
 30
0.0
 10
15.1231563364
 20
51.7126906552
 30
0.0
 10
15.1368022153
 20
51.7123892301
 30
0.0
 10
15.1524412648
 20
51.7116797507
 30
0.0
 10
15.1700433681
 20
51.7105608251
 30
0.0
 10
15.1895764266
 20
51.709031158
 30
0.0
 10
15.2109978046
 20
51.7070916799
 30
0.0
 10
15.2431845187
 20
51.7038481539
 30
0.0
 10
15.2876716874
 20
51.6987703688
 30
0.0
 10
15.3458297639
 20
51.6913715867
 30
0.0
 10
15.409982974
 20
51.6825222855
 30
0.0
 10
15.4795260134
 20
51.6722963144
 30
0.0
 10
15.5537863255
 20
51.6607996027
 30
0.0
 10
15.6320324795
 20
51.6481462605
 30
0.0
 10
15.7421976638
 20
51.6296321518
 30
0.0
 10
15.8840057664
 20
51.6045196667
 30
0.0
 10
16.055181446
 20
51.5723753278
 30
0.0
 10
16.2230432349
 20
51.539015243
 30
0.0
 10
16.3811374832
 20
51.5057670356
 30
0.0
 10
16.5038943212
 20
51.4782677393
 30
0.0
 10
16.5926693851
 20
51.4571636979
 30
0.0
 10
16.6507269476
 20
51.4427383151
 30
0.0
 10
16.7022069629
 20
51.4292552992
 30
0.0
 10
16.7466322004
 20
51.4168530768
 30
0.0
 10
16.7790028297
 20
51.4070618001
 30
0.0
 10
16.8010374997
 20
51.3997817957
 30
0.0
 10
16.8107328322
 20
51.3963393707
 30
0.0
 10
16.8152417595
 20
51.3946692834
 30
0.0
  0
SPLINE
  5
300
100
AcDbEntity
  8
0
100
AcDbSpline
 62
7
  6
BYLAYER
 70
0
 71
3
 72
43
 73
39
 74
0
 42
0.0000001
 43
0.0000001
 44
0.0000000001
 40
0.0
 40
0.0
 40
0.0
 40
0.0
 40
0.009585204
 40
0.0181399774
 40
0.0256706423
 40
0.0321928844
 40
0.0377385862
 40
0.0423691568
 40
0.0462017559
 40
0.0494549137
 40
0.0524904205
 40
0.055747685
 40
0.0595827755
 40
0.0642130316
 40
0.0697569711
 40
0.0762783397
 40
0.0838116974
 40
0.0923755234
 40
0.1125955216
 40
0.1368221405
 40
0.1648602906
 40
0.1964936367
 40
0.2314736557
 40
0.2694595094
 40
0.3100842693
 40
0.3529782504
 40
0.4439891188
 40
0.539029281
 40
0.6345221009
 40
0.7268667987
 40
0.8125490593
 40
0.8519011853
 40
0.8884179328
 40
0.9217426938
 40
0.9516057581
 40
0.9777659677
 40
0.9893870356
 40
1.0
 40
1.0
 40
1.0
 40
1.0
 10
24.49994827
 20
51.1595897322
 30
0.0
 10
24.503984804
 20
51.1553073587
 30
0.0
 10
24.5115170075
 20
51.1470899231
 30
0.0
 10
24.5216473071
 20
51.1350021667
 30
0.0
 10
24.5299868992
 20
51.123889477
 30
0.0
 10
24.5365236301
 20
51.1137665742
 30
0.0
 10
24.5412567657
 20
51.1046449042
 30
0.0
 10
24.5441819823
 20
51.096515589
 30
0.0
 10
24.545276296
 20
51.0893386368
 30
0.0
 10
24.5443944841
 20
51.0830555923
 30
0.0
 10
24.5413028364
 20
51.0778819452
 30
0.0
 10
24.5362028138
 20
51.0741066906
 30
0.0
 10
24.5293772043
 20
51.0716232033
 30
0.0
 10
24.5208416307
 20
51.0702857913
 30
0.0
 10
24.5105693709
 20
51.0700572569
 30
0.0
 10
24.4985511421
 20
51.070932923
 30
0.0
 10
24.4847929476
 20
51.0729173042
 30
0.0
 10
24.4629147227
 20
51.0773042419
 30
0.0
 10
24.4314588026
 20
51.0858233376
 30
0.0
 10
24.3891751825
 20
51.0997906623
 30
0.0
 10
24.3409288497
 20
51.1179205243
 30
0.0
 10
24.2871706063
 20
51.1400640947
 30
0.0
 10
24.2284102674
 20
51.1660467883
 30
0.0
 10
24.1652092474
 20
51.1955999686
 30
0.0
 10
24.0981900846
 20
51.2284324416
 30
0.0
 10
24.0027028479
 20
51.2771485315
 30
0.0
 10
23.8789050067
 20
51.3438698973
 30
0.0
 10
23.7287970718
 20
51.4297430258
 30
0.0
 10
23.5801592005
 20
51.5197314329
 30
0.0
 10
23.4386510647
 20
51.6102971164
 30
0.0
 10
23.3282436617
 20
51.68540722
 30
0.0
 10
23.2476784742
 20
51.7433306559
 30
0.0
 10
23.1939989421
 20
51.7835405095
 30
0.0
 10
23.1458513795
 20
51.8213896812
 30
0.0
 10
23.1036716658
 20
51.8565050042
 30
0.0
 10
23.0726845837
 20
51.8841987839
 30
0.0
 10
23.0512644454
 20
51.9048108488
 30
0.0
 10
23.0417055488
 20
51.9145645674
 30
0.0
 10
23.0372237322
 20
51.9192990542
 30
0.0
  0
SPLINE
  5
301
100
AcDbEntity
  8
0
100
AcDbSpline
 62
7
  6
BYLAYER
 70
0
 71
3
 72
43
 73
39
 74
0
 42
0.0000001
 43
0.0000001
 44
0.0000000001
 40
0.0
 40
0.0
 40
0.0
 40
0.0
 40
0.0095851992
 40
0.0181399684
 40
0.0256706297
 40
0.0321928687
 40
0.0377385681
 40
0.0423691369
 40
0.0462017347
 40
0.0494548916
 40
0.0524903984
 40
0.055747663
 40
0.0595827536
 40
0.0642130098
 40
0.0697569494
 40
0.0762783182
 40
0.083811676
 40
0.0923755022
 40
0.112595501
 40
0.1368221204
 40
0.1648602712
 40
0.196493618
 40
0.2314736378
 40
0.2694594924
 40
0.3100842532
 40
0.3529782353
 40
0.4439891059
 40
0.5390292702
 40
0.6345220924
 40
0.7268667924
 40
0.812549055
 40
0.8519011819
 40
0.8884179302
 40
0.921742692
 40
0.9516057569
 40
0.9777659672
 40
0.9893870353
 40
1.0
 40
1.0
 40
1.0
 40
1.0
 10
23.0372237322
 20
51.9192990542
 30
0.0
 10
23.0331872006
 20
51.9235814257
 30
0.0
 10
23.0256550018
 20
51.9317988577
 30
0.0
 10
23.0155247084
 20
51.9438866089
 30
0.0
 10
23.0071851216
 20
51.9549992938
 30
0.0
 10
23.0006483951
 20
51.9651221924
 30
0.0
 10
22.9959152627
 20
51.9742438587
 30
0.0
 10
22.9929900483
 20
51.9823731708
 30
0.0
 10
22.9918957359
 20
51.9895501205
 30
0.0
 10
22.992777548
 20
51.9958331634
 30
0.0
 10
22.9958691954
 20
52.0010068099
 30
0.0
 10
23.0009692179
 20
52.0047820646
 30
0.0
 10
23.0077948275
 20
52.0072655519
 30
0.0
 10
23.016330401
 20
52.0086029638
 30
0.0
 10
23.0266026609
 20
52.0088314983
 30
0.0
 10
23.0386208896
 20
52.0079558321
 30
0.0
 10
23.0523790841
 20
52.005971451
 30
0.0
 10
23.074257309
 20
52.0015845132
 30
0.0
 10
23.1057132291
 20
51.9930654176
 30
0.0
 10
23.1479968493
 20
51.9790980928
 30
0.0
 10
23.1962431821
 20
51.9609682308
 30
0.0
 10
23.2500014254
 20
51.9388246604
 30
0.0
 10
23.3087617643
 20
51.9128419669
 30
0.0
 10
23.3719627843
 20
51.8832887866
 30
0.0
 10
23.4389819471
 20
51.8504563135
 30
0.0
 10
23.5344691839
 20
51.8017402236
 30
0.0
 10
23.658267025
 20
51.7350188578
 30
0.0
 10
23.80837496
 20
51.6491457293
 30
0.0
 10
23.9570128312
 20
51.5591573222
 30
0.0
 10
24.0985209671
 20
51.4685916387
 30
0.0
 10
24.20892837
 20
51.3934815352
 30
0.0
 10
24.2894935576
 20
51.3355580992
 30
0.0
 10
24.3431730896
 20
51.2953482456
 30
0.0
 10
24.3913206522
 20
51.2574990739
 30
0.0
 10
24.4335003659
 20
51.2223837509
 30
0.0
 10
24.464487448
 20
51.1946899712
 30
0.0
 10
24.4859075863
 20
51.1740779063
 30
0.0
 10
24.4954664829
 20
51.1643241877
 30
0.0
 10
24.4999482995
 20
51.1595897009
 30
0.0
  0
ENDSEC
  0
SECTION
  2
OBJECTS
  0
DICTIONARY
  5
C
100
AcDbDictionary
280
0
281
1
  3
ACAD_GROUP
350
D
  3
ACAD_MLINESTYLE
350
17
  3
ACAD_LAYOUT
350
1A
  3
ACAD_PLOTSETTINGS
350
19
  3
ACAD_PLOTSTYLENAME
350
E
  0
DICTIONARY
  5
D
102
{ACAD_REACTORS
330
C
102
}
100
AcDbDictionary
280
0
281
1
  0
ACDBDICTIONARYWDFLT
  5
E
102
{ACAD_REACTORS
330
C
102
}
100
AcDbDictionary
281
1
  3
Normal
350
F
100
AcDbDictionaryWithDefault
340
F
  0
DICTIONARY
  5
17
102
{ACAD_REACTORS
330
C
102
}
100
AcDbDictionary
280
0
281
1
  3
Standard
350
18
  0
DICTIONARY
  5
19
102
{ACAD_REACTORS
330
C
102
}
100
AcDbDictionary
281
1
  0
DICTIONARY
  5
1A
102
{ACAD_REACTORS
330
C
102
}
100
AcDbDictionary
281
1
  3
Model
350
302
  3
Layout1
350
303
  0
ACDBPLACEHOLDER
  5
F
102
{ACAD_REACTORS
330
E
102
}
  0
MLINESTYLE
  5
18
102
{ACAD_REACTORS
330
17
102
}
100
AcDbMlineStyle
  2
STANDARD
 70
0
  3

 62
256
 51
90.0
 52
90.0
 71
2
 49
0.5
 62
256
  6
BYLAYER
 49
-0.5
 62
256
  6
BYLAYER
  0
LAYOUT
  5
302
102
{ACAD_REACTORS
330
1A
102
}
100
AcDbPlotSettings
  1

  2
none_device
  4

  6

 40
0.0
 41
0.0
 42
0.0
 43
0.0
 44
210.0
 45
297.0
 46
0.0
 47
0.0
 48
0.0
 49
0.0
140
0.0
141
0.0
142
1.0
143
1.0
 70
1024
 72
1
 73
0
 74
0
  7

 75
0
147
1.0
148
0.0
149
0.0
100
AcDbLayout
  1
Model
 70
0
 71
0
 10
0.0
 20
0.0
 11
210.0
 21
297.0
 12
0.0
 22
0.0
 32
0.0
 14
0.0
 24
0.0
 34
0.0
 15
0.0
 25
0.0
 35
0.0
146
0.0
 13
0.0
 23
0.0
 33
0.0
 16
1.0
 26
0.0
 36
0.0
 17
0.0
 27
1.0
 37
0.0
 76
0
330
210
345
0
346
0
  0
LAYOUT
  5
303
102
{ACAD_REACTORS
330
1A
102
}
100
AcDbPlotSettings
  1

  2
none_device
  4

  6

 40
0.0
 41
0.0
 42
0.0
 43
0.0
 44
210.0
 45
297.0
 46
0.0
 47
0.0
 48
0.0
 49
0.0
140
0.0
141
0.0
142
1.0
143
1.0
 70
0
 72
1
 73
0
 74
0
  7

 75
0
147
1.0
148
0.0
149
0.0
100
AcDbLayout
  1
Layout1
 70
0
 71
1
 10
0.0
 20
0.0
 11
210.0
 21
297.0
 12
0.0
 22
0.0
 32
0.0
 14
0.0
 24
0.0
 34
0.0
 15
0.0
 25
0.0
 35
0.0
146
0.0
 13
0.0
 23
0.0
 33
0.0
 16
1.0
 26
0.0
 36
0.0
 17
0.0
 27
1.0
 37
0.0
 76
0
330
211
345
0
346
0
  0
ENDSEC
  0
EOF
