999
DXF file: C:\Users\sesa63760\Dev\_Creo\CAD\MCADID0001742_3D-CAD\drw0001_2.dxf
999
Pro/ENGINEER 2019471 by Parametric Technology Corporation
  0
SECTION
  2
HEADER
  9
$ACADVER
  1
AC1024
  9
$DWGCODEPAGE
  3
ANSI_1252
  9
$EXTMAX
 10
90.5991812877
 20
128.1331278212
 30
0.0
  9
$EXTMIN
 10
0.0
 20
0.0
 30
0.0
  9
$LIMMIN
 10
0.0
 20
0.0
  9
$LIMMAX
 10
90.5991812877
 20
128.1331278212
  9
$VIEWCTR
 10
45.2995906439
 20
64.0665639106
  9
$VIEWSIZE
 40
128.1331278212
  9
$CLAYER
  8
0
  9
$LTSCALE
 40
8.3523816654
  9
$CELTYPE
  6
BYLAYER
  9
$DIMSCALE
 40
1.0
  9
$DIMASZ
 40
1.078561682
  9
$DIMEXO
 40
1.0
  9
$DIMDLI
 40
5.7707364234
  9
$DIMEXE
 40
1.0
  9
$DIMCEN
 40
1.3667533634
  9
$DIMLFAC
 40
1.0
  9
$DIMBLK
  1
_FILLED
  9
$DIMALT
 70
0
  9
$DIMALTF
 40
0.0393700787
  9
$DIMTXT
 40
1.5099863548
  9
$DIMTOL
 70
1
  9
$DIMLIM
 70
0
  9
$DIMTFAC
 40
1.0
  9
$DIMTP
 40
0.01
  9
$DIMTM
 40
0.01
  9
$DIMGAP
 40
0.625
  9
$DIMDSEP
 70
46
  9
$AUNITS
 70
0
  9
$PDMODE
 70
3
  9
$PDSIZE
 40
0.3125
  9
$HANDSEED
  5
335
  9
$TILEMODE
 70
1
  9
$MEASUREMENT
 70
1
  9
$INSUNITS
 70
4
  0
ENDSEC
  0
SECTION
  2
CLASSES
  0
CLASS
  1
ACDBDICTIONARYWDFLT
  2
AcDbDictionaryWithDefault
  3
AutoCAD 2000
 90
0
 91
1
280
0
281
0
  0
CLASS
  1
ACDBPLACEHOLDER
  2
AcDbPlaceHolder
  3
AutoCAD 2000
 90
0
 91
1
280
0
281
0
  0
CLASS
  1
LAYOUT
  2
AcDbLayout
  3
AutoCAD 2000
 90
0
 91
0
280
0
281
0
  0
ENDSEC
  0
SECTION
  2
TABLES
  0
TABLE
  2
VPORT
  5
8
100
AcDbSymbolTable
 70
2
  0
VPORT
  5
1F4
100
AcDbSymbolTableRecord
100
AcDbViewportTableRecord
  2
*ACTIVE
 70
0
 10
0.0
 20
0.0
 11
1.0
 21
1.0
 12
45.2995906439
 22
64.0665639106
 13
0.0
 23
0.0
 14
1.0
 24
1.0
 15
0.0
 25
0.0
 16
0.0
 26
0.0
 36
1.0
 17
0.0
 27
0.0
 37
0.0
 40
128.1331278212
 41
0.7070707071
 42
50.0
 43
0.0
 44
0.0
 50
0.0
 51
0.0
 71
0
 72
100
 73
1
 74
1
 75
0
 76
0
 77
0
 78
0
  0
ENDTAB
  0
TABLE
  2
LTYPE
  5
5
100
AcDbSymbolTable
 70
6
  0
LTYPE
  5
14
100
AcDbSymbolTableRecord
100
AcDbLinetypeTableRecord
  2
BYBLOCK
 70
0
  3

 72
65
 73
0
 40
0.0
  0
LTYPE
  5
15
100
AcDbSymbolTableRecord
100
AcDbLinetypeTableRecord
  2
BYLAYER
 70
0
  3

 72
65
 73
0
 40
0.0
  0
LTYPE
  5
16
100
AcDbSymbolTableRecord
100
AcDbLinetypeTableRecord
  2
CONTINUOUS
 70
64
  3
Solid line
 72
65
 73
0
 40
0.0
  0
LTYPE
  5
1F5
100
AcDbSymbolTableRecord
100
AcDbLinetypeTableRecord
  2
CENTER
 70
64
  3
____ _ ____ _ ____ _ ____ _ ____ _ ____ _ ____
 72
65
 73
4
 40
0.6
 49
0.375
 74
0
 49
-0.075
 74
0
 49
0.075
 74
0
 49
-0.075
 74
0
  0
LTYPE
  5
1F6
100
AcDbSymbolTableRecord
100
AcDbLinetypeTableRecord
  2
HIDDEN
 70
64
  3
- - - - - - - - - - - - - - - - - - - -
 72
65
 73
2
 40
0.2
 49
0.1
 74
0
 49
-0.1
 74
0
  0
LTYPE
  5
1F7
100
AcDbSymbolTableRecord
100
AcDbLinetypeTableRecord
  2
PHANTOM
 70
64
  3
_____ _ _ _____ _ _ _____ _ _ _____
 72
65
 73
6
 40
0.8
 49
0.45
 74
0
 49
-0.05
 74
0
 49
0.1
 74
0
 49
-0.05
 74
0
 49
0.1
 74
0
 49
-0.05
 74
0
  0
LTYPE
  5
1F8
100
AcDbSymbolTableRecord
100
AcDbLinetypeTableRecord
  2
DOT
 70
64
  3
. . . . . . . . . . . . . . . . . . . .
 72
65
 73
2
 40
0.2
 49
0.1
 74
0
 49
-0.1
 74
0
  0
LTYPE
  5
1F9
100
AcDbSymbolTableRecord
100
AcDbLinetypeTableRecord
  2
DASHED
 70
64
  3
- - - - - - - - - - - - - - - - - - - -
 72
65
 73
2
 40
0.2
 49
0.1
 74
0
 49
-0.1
 74
0
  0
ENDTAB
  0
TABLE
  2
LAYER
  5
2
100
AcDbSymbolTable
 70
36
  0
LAYER
  5
10
100
AcDbSymbolTableRecord
100
AcDbLayerTableRecord
  2
0
 70
0
 62
7
  6
CONTINUOUS
370
-3
390
F
  0
LAYER
  5
1FA
100
AcDbSymbolTableRecord
100
AcDbLayerTableRecord
  2
DEFAULT_1
 70
0
 62
7
  6
CENTER
370
-3
390
F
  0
LAYER
  5
1FB
100
AcDbSymbolTableRecord
100
AcDbLayerTableRecord
  2
DEFAULT_2
 70
0
 62
8
  6
HIDDEN
370
-3
390
F
  0
LAYER
  5
1FC
100
AcDbSymbolTableRecord
100
AcDbLayerTableRecord
  2
DEFAULT_3
 70
0
 62
7
  6
PHANTOM
370
-3
390
F
  0
LAYER
  5
1FD
100
AcDbSymbolTableRecord
100
AcDbLayerTableRecord
  2
00_COMPONENTS
 70
0
 62
7
  6
CONTINUOUS
370
-3
390
F
  0
LAYER
  5
1FE
100
AcDbSymbolTableRecord
100
AcDbLayerTableRecord
  2
01_1_DEFAULT_DATUMS
 70
0
 62
7
  6
CONTINUOUS
370
-3
390
F
  0
LAYER
  5
1FF
100
AcDbSymbolTableRecord
100
AcDbLayerTableRecord
  2
01_PLANES
 70
0
 62
7
  6
CONTINUOUS
370
-3
390
F
  0
LAYER
  5
200
100
AcDbSymbolTableRecord
100
AcDbLayerTableRecord
  2
02_COORD_SYS
 70
0
 62
7
  6
CONTINUOUS
370
-3
390
F
  0
LAYER
  5
201
100
AcDbSymbolTableRecord
100
AcDbLayerTableRecord
  2
03_AXES
 70
0
 62
7
  6
CONTINUOUS
370
-3
390
F
  0
LAYER
  5
202
100
AcDbSymbolTableRecord
100
AcDbLayerTableRecord
  2
04_POINTS
 70
0
 62
7
  6
CONTINUOUS
370
-3
390
F
  0
LAYER
  5
203
100
AcDbSymbolTableRecord
100
AcDbLayerTableRecord
  2
05_CURVES
 70
0
 62
7
  6
CONTINUOUS
370
-3
390
F
  0
LAYER
  5
204
100
AcDbSymbolTableRecord
100
AcDbLayerTableRecord
  2
06_SURFS
 70
0
 62
7
  6
CONTINUOUS
370
-3
390
F
  0
LAYER
  5
205
100
AcDbSymbolTableRecord
100
AcDbLayerTableRecord
  2
07_COSMETICS
 70
0
 62
7
  6
CONTINUOUS
370
-3
390
F
  0
LAYER
  5
206
100
AcDbSymbolTableRecord
100
AcDbLayerTableRecord
  2
10_NOTES
 70
0
 62
7
  6
CONTINUOUS
370
-3
390
F
  0
LAYER
  5
207
100
AcDbSymbolTableRecord
100
AcDbLayerTableRecord
  2
11_NOTES_PUB
 70
0
 62
7
  6
CONTINUOUS
370
-3
390
F
  0
LAYER
  5
208
100
AcDbSymbolTableRecord
100
AcDbLayerTableRecord
  2
13_REF_GTOL
 70
0
 62
7
  6
CONTINUOUS
370
-3
390
F
  0
LAYER
  5
209
100
AcDbSymbolTableRecord
100
AcDbLayerTableRecord
  2
16_MISC
 70
0
 62
7
  6
CONTINUOUS
370
-3
390
F
  0
LAYER
  5
20A
100
AcDbSymbolTableRecord
100
AcDbLayerTableRecord
  2
17_NO_PRINT
 70
0
 62
7
  6
CONTINUOUS
370
-3
390
F
  0
LAYER
  5
20B
100
AcDbSymbolTableRecord
100
AcDbLayerTableRecord
  2
18_DATUM_CAMS_JOINTS
 70
0
 62
7
  6
CONTINUOUS
370
-3
390
F
  0
LAYER
  5
20C
100
AcDbSymbolTableRecord
100
AcDbLayerTableRecord
  2
19_DATUM_FUNCTIONAL
 70
0
 62
7
  6
CONTINUOUS
370
-3
390
F
  0
LAYER
  5
20D
100
AcDbSymbolTableRecord
100
AcDbLayerTableRecord
  2
20_DATUM_KINEMATIC_SCHEME
 70
0
 62
7
  6
CONTINUOUS
370
-3
390
F
  0
ENDTAB
  0
TABLE
  2
STYLE
  5
3
100
AcDbSymbolTable
 70
1
  0
STYLE
  5
11
100
AcDbSymbolTableRecord
100
AcDbTextStyleTableRecord
  2
STANDARD
 70
0
 40
0.0
 41
0.8
 50
0.0
 71
0
 42
0.2
  3
txt
  4

  0
STYLE
  5
20E
100
AcDbSymbolTableRecord
100
AcDbTextStyleTableRecord
  2
TEXTSTYLE_1
 70
0
 40
0.0
 41
0.8
 50
0.0
 71
0
 42
0.2
  3
gdt
  4

  0
ENDTAB
  0
TABLE
  2
VIEW
  5
6
100
AcDbSymbolTable
 70
0
  0
ENDTAB
  0
TABLE
  2
UCS
  5
7
100
AcDbSymbolTable
 70
0
  0
ENDTAB
  0
TABLE
  2
APPID
  5
9
100
AcDbSymbolTable
 70
1
  0
APPID
  5
20F
100
AcDbSymbolTableRecord
100
AcDbRegAppTableRecord
  2
ACAD
 70
0
  0
ENDTAB
  0
TABLE
  2
BLOCK_RECORD
  5
1
100
AcDbSymbolTable
 70
0
  0
BLOCK_RECORD
  5
210
100
AcDbSymbolTableRecord
100
AcDbBlockTableRecord
  2
*Model_Space
  0
BLOCK_RECORD
  5
211
100
AcDbSymbolTableRecord
100
AcDbBlockTableRecord
  2
*Paper_Space
  0
BLOCK_RECORD
  5
212
100
AcDbSymbolTableRecord
100
AcDbBlockTableRecord
  2
_FILLED
  0
ENDTAB
  0
TABLE
  2
DIMSTYLE
  5
A
100
AcDbSymbolTable
 70
1
100
AcDbDimStyleTable
 71
0
  0
DIMSTYLE
105
213
100
AcDbSymbolTableRecord
100
AcDbDimStyleTableRecord
  2
STANDARD
 70
0
  3

  4

 40
1.0
 41
1.078561682
 42
1.0
 43
0.38
 44
1.0
 45
0.0
 46
0.0
 47
0.01
 48
0.01
140
1.5099863548
141
0.09
142
0.0
143
25.4
144
1.0
145
0.0
146
1.0
147
0.625
 71
1
 72
0
 73
0
 74
0
 75
0
 76
0
 77
1
 78
8
 79
2
170
0
171
1
172
0
173
0
174
0
175
0
176
0
177
0
178
0
270
2
179
2
271
2
272
2
273
2
274
2
275
0
280
0
281
0
282
0
283
1
284
8
285
0
286
0
287
3
288
0
340
11
278
46
341
212
342
212
343
212
344
212
  0
ENDTAB
  0
ENDSEC
  0
SECTION
  2
BLOCKS
  0
BLOCK
  5
20
100
AcDbEntity
  8
0
100
AcDbBlockBegin
  2
*Model_Space
 70
0
 10
0.0
 20
0.0
 30
0.0
  3
*Model_Space
  1

  0
ENDBLK
  5
21
100
AcDbEntity
  8
0
100
AcDbBlockEnd
  0
BLOCK
  5
1C
100
AcDbEntity
  8
0
100
AcDbBlockBegin
  2
*Paper_Space
 70
0
 10
0.0
 20
0.0
 30
0.0
  3
*Paper_Space
  1

  0
ENDBLK
  5
1D
100
AcDbEntity
  8
0
100
AcDbBlockEnd
  0
BLOCK
  5
214
100
AcDbEntity
  8
0
100
AcDbBlockBegin
  2
_FILLED
 70
64
 10
0.0
 20
0.0
  3
_FILLED
  1

  0
SOLID
  5
215
100
AcDbEntity
  8
0
  6
BYBLOCK
 62
0
100
AcDbTrace
 10
0.0
 20
0.0
 11
-1.0
 21
0.25
 12
-1.0
 22
-0.25
 13
-1.0
 23
-0.25
  0
ENDBLK
  5
216
100
AcDbEntity
  8
0
  6
BYBLOCK
 62
0
100
AcDbBlockEnd
  0
ENDSEC
  0
SECTION
  2
ENTITIES
  0
LINE
  5
217
100
AcDbEntity
  8
0
100
AcDbLine
 62
7
  6
CONTINUOUS
 10
31.925226564
 20
110.0080867272
 11
31.5220929513
 21
109.7312576253
  0
LINE
  5
218
100
AcDbEntity
  8
0
100
AcDbLine
 62
7
  6
CONTINUOUS
 10
31.9335825881
 20
110.0137478556
 11
31.925226564
 21
110.0080867272
  0
LINE
  5
219
100
AcDbEntity
  8
0
100
AcDbLine
 62
7
  6
CONTINUOUS
 10
34.019629121
 20
106.5580597493
 11
34.0195762481
 21
106.5580377774
  0
LINE
  5
21A
100
AcDbEntity
  8
0
100
AcDbLine
 62
7
  6
CONTINUOUS
 10
33.6273247949
 20
20.2313731115
 11
33.6196100443
 21
20.2313145911
  0
LINE
  5
21B
100
AcDbEntity
  8
0
100
AcDbLine
 62
7
  6
CONTINUOUS
 10
12.7935926957
 20
17.4313124514
 11
15.1935926957
 21
17.4313124514
  0
LINE
  5
21C
100
AcDbEntity
  8
0
100
AcDbLine
 62
7
  6
CONTINUOUS
 10
15.1935926957
 20
18.4182822364
 11
12.6195632934
 21
18.4182822364
  0
LINE
  5
21D
100
AcDbEntity
  8
0
100
AcDbLine
 62
7
  6
CONTINUOUS
 10
9.9335926957
 20
20.2313124514
 11
33.9280690568
 21
20.2313104611
  0
LINE
  5
21E
100
AcDbEntity
  8
0
100
AcDbLine
 62
7
  6
CONTINUOUS
 10
33.6198150625
 20
20.7312634115
 11
19.4335926957
 21
20.7312854453
  0
LINE
  5
21F
100
AcDbEntity
  8
0
100
AcDbLine
 62
7
  6
CONTINUOUS
 10
19.3335926957
 20
20.7313124514
 11
9.9335926957
 21
20.7313124514
  0
LINE
  5
220
100
AcDbEntity
  8
0
100
AcDbLine
 62
7
  6
CONTINUOUS
 10
34.0315270799
 20
20.4493867332
 11
34.3216681022
 21
20.4229551989
  0
LINE
  5
221
100
AcDbEntity
  8
0
100
AcDbLine
 62
7
  6
CONTINUOUS
 10
11.6758215392
 20
110.2313124514
 11
9.9335926957
 21
99.2313124514
  0
LINE
  5
222
100
AcDbEntity
  8
0
100
AcDbLine
 62
7
  6
CONTINUOUS
 10
35.5718846849
 20
102.2184765198
 11
35.598153622
 21
102.2269152872
  0
LINE
  5
223
100
AcDbEntity
  8
0
100
AcDbLine
 62
7
  6
CONTINUOUS
 10
19.3335926957
 20
21.5813124514
 11
19.4335926957
 21
21.5813124514
  0
LINE
  5
224
100
AcDbEntity
  8
0
100
AcDbLine
 62
7
  6
CONTINUOUS
 10
19.3335926957
 20
21.9813124514
 11
19.4335926957
 21
21.9813124514
  0
LINE
  5
225
100
AcDbEntity
  8
0
100
AcDbLine
 62
7
  6
CONTINUOUS
 10
19.3335926957
 20
23.3313124514
 11
17.1335926957
 21
23.3313124514
  0
LINE
  5
226
100
AcDbEntity
  8
0
100
AcDbLine
 62
7
  6
CONTINUOUS
 10
17.1335926957
 20
23.3813124514
 11
19.4335926957
 21
23.3813124514
  0
LINE
  5
227
100
AcDbEntity
  8
0
100
AcDbLine
 62
7
  6
CONTINUOUS
 10
34.0314433908
 20
20.4494140052
 11
33.6195923478
 21
20.7314157222
  0
LINE
  5
228
100
AcDbEntity
  8
0
100
AcDbLine
 62
7
  6
CONTINUOUS
 10
12.7935926957
 20
17.4313124514
 11
12.2998771497
 21
20.2313124514
  0
LINE
  5
229
100
AcDbEntity
  8
0
100
AcDbLine
 62
7
  6
CONTINUOUS
 10
9.9335926957
 20
20.2313124514
 11
9.9335926957
 21
46.107591893
  0
LINE
  5
22A
100
AcDbEntity
  8
0
100
AcDbLine
 62
7
  6
CONTINUOUS
 10
9.9335926957
 20
83.3614000031
 11
9.9335926957
 21
99.2313124514
  0
LINE
  5
22B
100
AcDbEntity
  8
0
100
AcDbLine
 62
7
  6
CONTINUOUS
 10
10.1935926957
 20
46.8896844227
 11
10.1935926957
 21
46.1772586831
  0
LINE
  5
22C
100
AcDbEntity
  8
0
100
AcDbLine
 62
7
  6
CONTINUOUS
 10
11.8935926957
 20
46.6300928183
 11
11.8935926957
 21
48.3161537957
  0
LINE
  5
22D
100
AcDbEntity
  8
0
100
AcDbLine
 62
7
  6
CONTINUOUS
 10
14.1935926957
 20
48.5313124514
 11
14.1935926957
 21
47.9313124514
  0
LINE
  5
22E
100
AcDbEntity
  8
0
100
AcDbLine
 62
7
  6
CONTINUOUS
 10
14.6335926957
 20
82.8813124514
 11
14.6335926957
 21
82.3813124514
  0
LINE
  5
22F
100
AcDbEntity
  8
0
100
AcDbLine
 62
7
  6
CONTINUOUS
 10
16.1335926957
 20
81.3813124514
 11
15.4335926957
 21
80.1688768861
  0
LINE
  5
230
100
AcDbEntity
  8
0
100
AcDbLine
 62
7
  6
CONTINUOUS
 10
12.7136802474
 20
80.8813124514
 11
14.6335926957
 21
82.3813124514
  0
LINE
  5
231
100
AcDbEntity
  8
0
100
AcDbLine
 62
7
  6
CONTINUOUS
 10
17.1335926957
 20
31.4813124514
 11
40.1335926957
 21
31.4813124514
  0
LINE
  5
232
100
AcDbEntity
  8
0
100
AcDbLine
 62
7
  6
CONTINUOUS
 10
40.1335926957
 20
31.5013124514
 11
52.6287318894
 21
31.5013124514
  0
LINE
  5
233
100
AcDbEntity
  8
0
100
AcDbLine
 62
7
  6
CONTINUOUS
 10
52.3221151566
 20
32.0012741938
 11
40.1335926957
 21
32.0013124514
  0
LINE
  5
234
100
AcDbEntity
  8
0
100
AcDbLine
 62
7
  6
CONTINUOUS
 10
53.023889624
 20
31.6949110094
 11
52.7331789958
 21
31.7181868747
  0
LINE
  5
235
100
AcDbEntity
  8
0
100
AcDbLine
 62
7
  6
CONTINUOUS
 10
14.1935926957
 20
48.5313124514
 11
13.8184638263
 21
49.9313124514
  0
LINE
  5
236
100
AcDbEntity
  8
0
100
AcDbLine
 62
7
  6
CONTINUOUS
 10
19.3572452691
 20
21.9813124514
 11
19.3335926957
 21
22.4326304388
  0
LINE
  5
237
100
AcDbEntity
  8
0
100
AcDbLine
 62
7
  6
CONTINUOUS
 10
19.2866237708
 20
23.3288509144
 11
19.2838743781
 21
23.3813124514
  0
LINE
  5
238
100
AcDbEntity
  8
0
100
AcDbLine
 62
7
  6
CONTINUOUS
 10
15.1935926957
 20
20.2313124514
 11
15.1935926957
 21
17.4313124514
  0
LINE
  5
239
100
AcDbEntity
  8
0
100
AcDbLine
 62
7
  6
CONTINUOUS
 10
15.1935926957
 20
47.5170046452
 11
15.1935926957
 21
47.9313124514
  0
LINE
  5
23A
100
AcDbEntity
  8
0
100
AcDbLine
 62
7
  6
CONTINUOUS
 10
15.4335926957
 20
47.5813124514
 11
15.4335926957
 21
80.1688768861
  0
LINE
  5
23B
100
AcDbEntity
  8
0
100
AcDbLine
 62
7
  6
CONTINUOUS
 10
16.1335926957
 20
81.3813124514
 11
16.1335926957
 21
82.8813124514
  0
LINE
  5
23C
100
AcDbEntity
  8
0
100
AcDbLine
 62
7
  6
CONTINUOUS
 10
17.1335926957
 20
107.1313124514
 11
17.1335926957
 21
98.9813124514
  0
LINE
  5
23D
100
AcDbEntity
  8
0
100
AcDbLine
 62
7
  6
CONTINUOUS
 10
17.1335926957
 20
31.4813124514
 11
17.1335926957
 21
23.3313124514
  0
LINE
  5
23E
100
AcDbEntity
  8
0
100
AcDbLine
 62
7
  6
CONTINUOUS
 10
40.1335926957
 20
34.5813124514
 11
37.9335926957
 21
34.5813124514
  0
LINE
  5
23F
100
AcDbEntity
  8
0
100
AcDbLine
 62
7
  6
CONTINUOUS
 10
37.9335926957
 20
34.6513124514
 11
40.1335926957
 21
34.6513124514
  0
LINE
  5
240
100
AcDbEntity
  8
0
100
AcDbLine
 62
7
  6
CONTINUOUS
 10
55.1519091943
 20
36.6513124514
 11
54.9131521192
 21
36.6513124514
  0
LINE
  5
241
100
AcDbEntity
  8
0
100
AcDbLine
 62
7
  6
CONTINUOUS
 10
55.1559388237
 20
36.7886399104
 11
55.0340844862
 21
36.7903265878
  0
LINE
  5
242
100
AcDbEntity
  8
0
100
AcDbLine
 62
7
  6
CONTINUOUS
 10
53.8331740854
 20
33.571133957
 11
54.0298564805
 21
33.5657741332
  0
LINE
  5
243
100
AcDbEntity
  8
0
100
AcDbLine
 62
7
  6
CONTINUOUS
 10
19.3335926957
 20
110.2313124514
 11
19.3335926957
 21
107.0813124514
  0
LINE
  5
244
100
AcDbEntity
  8
0
100
AcDbLine
 62
7
  6
CONTINUOUS
 10
19.3335926957
 20
20.2313124514
 11
19.3335926957
 21
23.3313124514
  0
LINE
  5
245
100
AcDbEntity
  8
0
100
AcDbLine
 62
7
  6
CONTINUOUS
 10
19.4335926957
 20
20.2313124514
 11
19.4335926957
 21
23.3813124514
  0
LINE
  5
246
100
AcDbEntity
  8
0
100
AcDbLine
 62
7
  6
CONTINUOUS
 10
56.0828657981
 20
39.5260865811
 11
56.0817161792
 21
39.5259000794
  0
LINE
  5
247
100
AcDbEntity
  8
0
100
AcDbLine
 62
7
  6
CONTINUOUS
 10
55.3402221087
 20
36.7853419014
 11
55.0342671163
 21
36.7908978829
  0
LINE
  5
248
100
AcDbEntity
  8
0
100
AcDbLine
 62
7
  6
CONTINUOUS
 10
55.3399455627
 20
36.784559912
 11
55.2578273475
 21
36.7867181428
  0
LINE
  5
249
100
AcDbEntity
  8
0
100
AcDbLine
 62
7
  6
CONTINUOUS
 10
56.0502807516
 20
39.5554062467
 11
55.7363888026
 21
39.5732485553
  0
LINE
  5
24A
100
AcDbEntity
  8
0
100
AcDbLine
 62
7
  6
CONTINUOUS
 10
56.0502807516
 20
39.5554062467
 11
55.5437015776
 21
39.584369602
  0
LINE
  5
24B
100
AcDbEntity
  8
0
100
AcDbLine
 62
7
  6
CONTINUOUS
 10
56.3698541059
 20
39.5075071296
 11
56.3981489011
 21
39.5057120122
  0
LINE
  5
24C
100
AcDbEntity
  8
0
100
AcDbLine
 62
7
  6
CONTINUOUS
 10
56.3419495101
 20
39.5092795815
 11
56.0817379205
 21
39.5258973123
  0
LINE
  5
24D
100
AcDbEntity
  8
0
100
AcDbLine
 62
7
  6
CONTINUOUS
 10
54.8195789316
 20
35.1745870691
 11
54.819631727
 21
35.1745651304
  0
LINE
  5
24E
100
AcDbEntity
  8
0
100
AcDbLine
 62
7
  6
CONTINUOUS
 10
57.1534795922
 20
42.2513124514
 11
57.1181578306
 21
42.2513124514
  0
LINE
  5
24F
100
AcDbEntity
  8
0
100
AcDbLine
 62
7
  6
CONTINUOUS
 10
57.0831050609
 20
42.2513124514
 11
56.7607833835
 21
42.2513124514
  0
LINE
  5
250
100
AcDbEntity
  8
0
100
AcDbLine
 62
7
  6
CONTINUOUS
 10
56.7123237055
 20
42.2513124514
 11
56.0775248533
 21
42.2513124514
  0
LINE
  5
251
100
AcDbEntity
  8
0
100
AcDbLine
 62
7
  6
CONTINUOUS
 10
37.9335926957
 20
42.7313124514
 11
74.9335926957
 21
42.7313124514
  0
LINE
  5
252
100
AcDbEntity
  8
0
100
AcDbLine
 62
7
  6
CONTINUOUS
 10
75.4335926957
 20
42.9313124514
 11
81.4335279266
 21
42.9313124514
  0
LINE
  5
253
100
AcDbEntity
  8
0
100
AcDbLine
 62
7
  6
CONTINUOUS
 10
75.4335926957
 20
43.2313124514
 11
58.2335926957
 21
43.2313124514
  0
LINE
  5
254
100
AcDbEntity
  8
0
100
AcDbLine
 62
7
  6
CONTINUOUS
 10
81.9335926957
 20
43.4313124514
 11
81.6589606496
 21
43.4313124514
  0
LINE
  5
255
100
AcDbEntity
  8
0
100
AcDbLine
 62
7
  6
CONTINUOUS
 10
81.357689963
 20
43.4313124514
 11
75.4335926957
 21
43.4313124514
  0
LINE
  5
256
100
AcDbEntity
  8
0
100
AcDbLine
 62
7
  6
CONTINUOUS
 10
56.1012402054
 20
39.5845514597
 11
56.3420396185
 21
39.5092473377
  0
LINE
  5
257
100
AcDbEntity
  8
0
100
AcDbLine
 62
7
  6
CONTINUOUS
 10
56.3981538688
 20
39.5057104163
 11
56.3720138878
 21
39.5141077659
  0
LINE
  5
258
100
AcDbEntity
  8
0
100
AcDbLine
 62
7
  6
CONTINUOUS
 10
52.7331043041
 20
31.7182194531
 11
52.3220568829
 21
32.0013090474
  0
LINE
  5
259
100
AcDbEntity
  8
0
100
AcDbLine
 62
7
  6
CONTINUOUS
 10
28.9335926957
 20
110.2313124514
 11
28.9335926957
 21
98.9813124514
  0
LINE
  5
25A
100
AcDbEntity
  8
0
100
AcDbLine
 62
7
  6
CONTINUOUS
 10
15.1935926957
 20
47.9313124514
 11
14.1935926957
 21
47.9313124514
  0
LINE
  5
25B
100
AcDbEntity
  8
0
100
AcDbLine
 62
7
  6
CONTINUOUS
 10
31.5220908793
 20
110.2313124494
 11
31.5220908793
 21
109.7313124514
  0
LINE
  5
25C
100
AcDbEntity
  8
0
100
AcDbLine
 62
7
  6
CONTINUOUS
 10
33.6195899499
 20
20.7312744284
 11
33.6195899499
 21
20.2313124514
  0
LINE
  5
25D
100
AcDbEntity
  8
0
100
AcDbLine
 62
7
  6
CONTINUOUS
 10
9.9335926957
 20
83.3614000031
 11
12.4136802474
 21
80.8813124514
  0
LINE
  5
25E
100
AcDbEntity
  8
0
100
AcDbLine
 62
7
  6
CONTINUOUS
 10
37.0835926957
 20
99.0013116493
 11
37.0835926957
 21
98.9813124514
  0
LINE
  5
25F
100
AcDbEntity
  8
0
100
AcDbLine
 62
7
  6
CONTINUOUS
 10
37.9335926957
 20
95.8813124514
 11
37.9335926957
 21
87.7313124514
  0
LINE
  5
260
100
AcDbEntity
  8
0
100
AcDbLine
 62
7
  6
CONTINUOUS
 10
37.9335926957
 20
42.7313124514
 11
37.9335926957
 21
34.5813124514
  0
LINE
  5
261
100
AcDbEntity
  8
0
100
AcDbLine
 62
7
  6
CONTINUOUS
 10
40.0838743781
 20
95.8313124514
 11
40.0866237708
 21
95.8837739885
  0
LINE
  5
262
100
AcDbEntity
  8
0
100
AcDbLine
 62
7
  6
CONTINUOUS
 10
40.1335926957
 20
96.779994464
 11
40.1572452691
 21
97.2313124514
  0
LINE
  5
263
100
AcDbEntity
  8
0
100
AcDbLine
 62
7
  6
CONTINUOUS
 10
13.8184638263
 20
49.9313124514
 11
10.1935926957
 21
46.8896844227
  0
LINE
  5
264
100
AcDbEntity
  8
0
100
AcDbLine
 62
7
  6
CONTINUOUS
 10
15.4335926957
 20
47.5813124514
 11
9.9335926957
 21
46.107591893
  0
LINE
  5
265
100
AcDbEntity
  8
0
100
AcDbLine
 62
7
  6
CONTINUOUS
 10
40.1335926957
 20
31.4813124514
 11
40.1335926957
 21
34.6513124514
  0
LINE
  5
266
100
AcDbEntity
  8
0
100
AcDbLine
 62
7
  6
CONTINUOUS
 10
40.1335926957
 20
95.8813124514
 11
40.1335926957
 21
98.9813124514
  0
LINE
  5
267
100
AcDbEntity
  8
0
100
AcDbLine
 62
7
  6
CONTINUOUS
 10
40.2335926957
 20
95.8313124514
 11
40.2335926957
 21
98.9813124514
  0
LINE
  5
268
100
AcDbEntity
  8
0
100
AcDbLine
 62
7
  6
CONTINUOUS
 10
36.4640901925
 20
99.0013124514
 11
36.3534813506
 21
99.4813124514
  0
LWPOLYLINE
  5
269
100
AcDbEntity
  8
0
100
AcDbPolyline
 62
7
  6
CONTINUOUS
 90
4
 70
0
 10
35.9625035312
 20
99.4813124514
 10
35.7741502738
 20
100.3173523069
 10
35.5418691726
 20
101.2516279857
 10
35.2829448066
 20
102.206559156
  0
LINE
  5
26A
100
AcDbEntity
  8
0
100
AcDbLine
 62
7
  6
CONTINUOUS
 10
49.7335926957
 20
42.7313126098
 11
49.7335926957
 21
31.5013124514
  0
LWPOLYLINE
  5
26B
100
AcDbEntity
  8
0
100
AcDbPolyline
 62
7
  6
CONTINUOUS
 90
3
 70
0
 10
35.5981536221
 20
102.2269152872
 10
35.1051599765
 20
103.7417220002
 10
34.6728518296
 20
104.9521048124
  0
LINE
  5
26C
100
AcDbEntity
  8
0
100
AcDbLine
 62
7
  6
CONTINUOUS
 10
52.3220581642
 20
32.0012885143
 11
52.3220581646
 21
31.5013124514
  0
LINE
  5
26D
100
AcDbEntity
  8
0
100
AcDbLine
 62
7
  6
CONTINUOUS
 10
33.3918770218
 20
108.0047403407
 11
33.3696046961
 21
108.053813379
  0
LWPOLYLINE
  5
26E
100
AcDbEntity
  8
0
100
AcDbPolyline
 62
7
  6
CONTINUOUS
 90
5
 70
0
 10
34.019629607
 20
106.5580599188
 10
33.7605135184
 20
107.172311718
 10
33.5238486806
 20
107.7139335792
 10
33.3697019365
 20
108.053604353
 10
33.3173324289
 20
108.1661767519
  0
LINE
  5
26F
100
AcDbEntity
  8
0
100
AcDbLine
 62
7
  6
CONTINUOUS
 10
34.2721676268
 20
105.9435617218
 11
34.0196291228
 21
106.5580597501
  0
LINE
  5
270
100
AcDbEntity
  8
0
100
AcDbLine
 62
7
  6
CONTINUOUS
 10
34.6728845146
 20
104.9519954589
 11
34.6729484938
 21
104.951838903
  0
LINE
  5
271
100
AcDbEntity
  8
0
100
AcDbLine
 62
7
  6
CONTINUOUS
 10
34.4881584134
 20
105.4104233234
 11
34.2718076272
 21
105.9444377031
  0
LINE
  5
272
100
AcDbEntity
  8
0
100
AcDbLine
 62
7
  6
CONTINUOUS
 10
34.6729629704
 20
104.9518004493
 11
34.595823615
 21
105.1433546725
  0
LINE
  5
273
100
AcDbEntity
  8
0
100
AcDbLine
 62
7
  6
CONTINUOUS
 10
34.6249596931
 20
105.0710812457
 11
34.4881584134
 21
105.4104233234
  0
LINE
  5
274
100
AcDbEntity
  8
0
100
AcDbLine
 62
7
  6
CONTINUOUS
 10
54.4195907658
 20
98.9813124514
 11
54.4195907658
 21
98.4813517821
  0
LWPOLYLINE
  5
275
100
AcDbEntity
  8
0
100
AcDbPolyline
 62
7
  6
CONTINUOUS
 90
14
 70
0
 10
53.8366322108
 20
33.6849677336
 10
53.8404357322
 20
33.7144219986
 10
53.8569777025
 20
33.7947449207
 10
53.8884154075
 20
33.919126427
 10
53.9365450453
 20
34.0910587424
 10
54.0036001695
 20
34.3163761519
 10
54.0921883333
 20
34.6008578672
 10
54.2064228248
 20
34.9523552353
 10
54.3490628747
 20
35.3687249126
 10
54.5293092648
 20
35.8537156834
 10
54.6729645805
 20
36.1994371489
 10
54.7864481012
 20
36.4392893983
 10
54.8714421442
 20
36.5919830472
 10
54.9269297302
 20
36.6709101005
  0
LINE
  5
276
100
AcDbEntity
  8
0
100
AcDbLine
 62
7
  6
CONTINUOUS
 10
75.4335926957
 20
82.5843868123
 11
80.8335926957
 21
84.0313124514
  0
LINE
  5
277
100
AcDbEntity
  8
0
100
AcDbLine
 62
7
  6
CONTINUOUS
 10
75.5447687173
 20
82.9588207841
 11
80.1494669763
 21
84.192645964
  0
LINE
  5
278
100
AcDbEntity
  8
0
100
AcDbLine
 62
7
  6
CONTINUOUS
 10
74.9335926957
 20
83.3126947528
 11
80.0200629132
 21
84.6756111417
  0
LWPOLYLINE
  5
279
100
AcDbEntity
  8
0
100
AcDbPolyline
 62
7
  6
CONTINUOUS
 90
3
 70
0
 10
33.31670065
 20
108.1675245712
 10
32.9929016865
 20
108.80122119
 10
32.2238252335
 20
110.0375717425
  0
LINE
  5
27A
100
AcDbEntity
  8
0
100
AcDbLine
 62
7
  6
CONTINUOUS
 10
58.2335926957
 20
43.2313124514
 11
58.2335926957
 21
42.7313124514
  0
LINE
  5
27B
100
AcDbEntity
  8
0
100
AcDbLine
 62
7
  6
CONTINUOUS
 10
58.2335926957
 20
87.2313124514
 11
58.2335926957
 21
87.7313124514
  0
LINE
  5
27C
100
AcDbEntity
  8
0
100
AcDbLine
 62
7
  6
CONTINUOUS
 10
57.1534813506
 20
42.2513124514
 11
57.2640901925
 21
42.7313124514
  0
LWPOLYLINE
  5
27D
100
AcDbEntity
  8
0
100
AcDbPolyline
 62
7
  6
CONTINUOUS
 90
4
 70
0
 10
56.0829491468
 20
39.5260622822
 10
56.3416547501
 20
40.4801670266
 10
56.5739546684
 20
41.4144301363
 10
56.7625350285
 20
42.2513124514
  0
LWPOLYLINE
  5
27E
100
AcDbEntity
  8
0
100
AcDbPolyline
 62
7
  6
CONTINUOUS
 90
7
 70
0
 10
34.3217052458
 20
20.4231955568
 10
35.0544617747
 20
21.5827289923
 10
35.7504830486
 20
22.9993035815
 10
36.4399315534
 20
24.6345177677
 10
37.1432402484
 20
26.5358904365
 10
37.8658001292
 20
28.7868044871
 10
38.5685517035
 20
31.4813124514
  0
LINE
  5
27F
100
AcDbEntity
  8
0
100
AcDbLine
 62
7
  6
CONTINUOUS
 10
55.9051579834
 20
37.9908970904
 11
56.3981538688
 21
39.5057104163
  0
LINE
  5
280
100
AcDbEntity
  8
0
100
AcDbLine
 62
7
  6
CONTINUOUS
 10
55.4729250492
 20
36.7807170796
 11
55.9051579834
 21
37.9908970904
  0
LINE
  5
281
100
AcDbEntity
  8
0
100
AcDbLine
 62
7
  6
CONTINUOUS
 10
55.4729462948
 20
36.7807804917
 11
55.2874725829
 21
36.3205017726
  0
LWPOLYLINE
  5
282
100
AcDbEntity
  8
0
100
AcDbPolyline
 62
7
  6
CONTINUOUS
 90
3
 70
0
 10
54.819631728
 20
35.1745651299
 10
55.070973174
 20
35.7861275634
 10
55.2874725829
 20
36.3205017726
  0
LINE
  5
283
100
AcDbEntity
  8
0
100
AcDbLine
 62
7
  6
CONTINUOUS
 10
12.7136802474
 20
80.8813124514
 11
12.4136802474
 21
80.8813124514
  0
LINE
  5
284
100
AcDbEntity
  8
0
100
AcDbLine
 62
7
  6
CONTINUOUS
 10
16.1335926957
 20
82.8813124514
 11
14.6335926957
 21
82.8813124514
  0
LWPOLYLINE
  5
285
100
AcDbEntity
  8
0
100
AcDbPolyline
 62
7
  6
CONTINUOUS
 90
15
 70
0
 10
34.1344519307
 20
105.0536599625
 10
34.125101225
 20
105.0638510455
 10
34.0709032771
 20
105.141510286
 10
33.9853853101
 20
105.2954117542
 10
33.8712454535
 20
105.5370658087
 10
33.7264612077
 20
105.8861500161
 10
33.5467507034
 20
106.3704124133
 10
33.404704625
 20
106.7854047196
 10
33.2910115589
 20
107.1354311447
 10
33.2028045573
 20
107.4188156854
 10
33.1360434196
 20
107.6432593284
 10
33.0881271494
 20
107.8145310014
 10
33.0568349743
 20
107.9384493778
 10
33.0403899206
 20
108.0184225745
 10
33.0369900103
 20
108.0431304803
  0
LWPOLYLINE
  5
286
100
AcDbEntity
  8
0
100
AcDbPolyline
 62
7
  6
CONTINUOUS
 90
7
 70
0
 10
59.3685517035
 20
87.7313124514
 10
58.6658001292
 20
90.4258204157
 10
57.9432402484
 20
92.6767344663
 10
57.2399315534
 20
94.5781071351
 10
56.5504830486
 20
96.2133213213
 10
55.8544617747
 20
97.6298959106
 10
55.1217052458
 20
98.7894293461
  0
LWPOLYLINE
  5
287
100
AcDbEntity
  8
0
100
AcDbPolyline
 62
7
  6
CONTINUOUS
 90
5
 70
0
 10
54.117332302
 20
33.5664478802
 10
54.1695458987
 20
33.67868198
 10
54.3232084182
 20
34.017249501
 10
54.55930551
 20
34.5574897519
 10
54.8196309601
 20
35.1745653624
  0
LWPOLYLINE
  5
288
100
AcDbEntity
  8
0
100
AcDbPolyline
 62
7
  6
CONTINUOUS
 90
3
 70
0
 10
53.0238252335
 20
31.6950531604
 10
53.7928951525
 20
32.9313915174
 10
54.1164435102
 20
33.5645740787
  0
LINE
  5
289
100
AcDbEntity
  8
0
100
AcDbLine
 62
7
  6
CONTINUOUS
 10
80.8335926957
 20
84.0313124514
 11
81.1387360783
 21
84.0313124514
  0
LINE
  5
28A
100
AcDbEntity
  8
0
100
AcDbLine
 62
7
  6
CONTINUOUS
 10
81.4614232294
 20
85.8313124514
 11
81.9335926957
 21
85.8313124514
  0
LINE
  5
28B
100
AcDbEntity
  8
0
100
AcDbLine
 62
7
  6
CONTINUOUS
 10
58.2335926957
 20
87.2313124514
 11
79.6835633998
 21
87.231311677
  0
LINE
  5
28C
100
AcDbEntity
  8
0
100
AcDbLine
 62
7
  6
CONTINUOUS
 10
37.9335926957
 20
87.7313124514
 11
79.6835926956
 21
87.7313124514
  0
LINE
  5
28D
100
AcDbEntity
  8
0
100
AcDbLine
 62
7
  6
CONTINUOUS
 10
73.4335926957
 20
87.7313124514
 11
73.4335926957
 21
42.7313124514
  0
LINE
  5
28E
100
AcDbEntity
  8
0
100
AcDbLine
 62
7
  6
CONTINUOUS
 10
74.9335926957
 20
83.3126947528
 11
74.9335926957
 21
42.7313124514
  0
LINE
  5
28F
100
AcDbEntity
  8
0
100
AcDbLine
 62
7
  6
CONTINUOUS
 10
75.4335926957
 20
42.9313124514
 11
75.4335926957
 21
82.8139321634
  0
LINE
  5
290
100
AcDbEntity
  8
0
100
AcDbLine
 62
7
  6
CONTINUOUS
 10
81.6589606496
 20
50.0727535657
 11
81.357689963
 21
49.8988148537
  0
LINE
  5
291
100
AcDbEntity
  8
0
100
AcDbLine
 62
7
  6
CONTINUOUS
 10
79.6835926957
 20
87.7313124514
 11
79.6835926957
 21
87.2313124514
  0
LINE
  5
292
100
AcDbEntity
  8
0
100
AcDbLine
 62
7
  6
CONTINUOUS
 10
80.2271873771
 20
83.868826636
 11
80.2271873771
 21
42.9313124514
  0
LINE
  5
293
100
AcDbEntity
  8
0
100
AcDbLine
 62
7
  6
CONTINUOUS
 10
80.7067398294
 20
43.4313124514
 11
80.7067398294
 21
83.9973223283
  0
LINE
  5
294
100
AcDbEntity
  8
0
100
AcDbLine
 62
7
  6
CONTINUOUS
 10
81.1387360783
 20
84.9409574111
 11
81.1387360783
 21
84.0313124514
  0
LINE
  5
295
100
AcDbEntity
  8
0
100
AcDbLine
 62
7
  6
CONTINUOUS
 10
81.357689963
 20
43.4313124514
 11
81.357689963
 21
49.8988148537
  0
LINE
  5
296
100
AcDbEntity
  8
0
100
AcDbLine
 62
7
  6
CONTINUOUS
 10
81.6589606496
 20
50.0727535657
 11
81.6589606496
 21
43.4313124514
  0
LINE
  5
297
100
AcDbEntity
  8
0
100
AcDbLine
 62
7
  6
CONTINUOUS
 10
55.1216681022
 20
98.7896697039
 11
54.831531741
 21
98.7632342874
  0
LINE
  5
298
100
AcDbEntity
  8
0
100
AcDbLine
 62
7
  6
CONTINUOUS
 10
37.9335926957
 20
95.8313124514
 11
40.2335926957
 21
95.8313124514
  0
LINE
  5
299
100
AcDbEntity
  8
0
100
AcDbLine
 62
7
  6
CONTINUOUS
 10
37.9335926957
 20
95.8813124514
 11
40.1335926957
 21
95.8813124514
  0
LINE
  5
29A
100
AcDbEntity
  8
0
100
AcDbLine
 62
7
  6
CONTINUOUS
 10
40.1335926957
 20
97.2313124514
 11
40.2335926957
 21
97.2313124514
  0
LINE
  5
29B
100
AcDbEntity
  8
0
100
AcDbLine
 62
7
  6
CONTINUOUS
 10
40.1335926957
 20
97.6313124514
 11
40.2335926957
 21
97.6313124514
  0
LINE
  5
29C
100
AcDbEntity
  8
0
100
AcDbLine
 62
7
  6
CONTINUOUS
 10
40.2335926957
 20
98.4813386321
 11
54.4197920491
 21
98.481364932
  0
LINE
  5
29D
100
AcDbEntity
  8
0
100
AcDbLine
 62
7
  6
CONTINUOUS
 10
17.1335926957
 20
98.9813124514
 11
54.7280690568
 21
98.9813144417
  0
LINE
  5
29E
100
AcDbEntity
  8
0
100
AcDbLine
 62
7
  6
CONTINUOUS
 10
17.1335926957
 20
99.0013124514
 11
37.0835926957
 21
99.0013124514
  0
LINE
  5
29F
100
AcDbEntity
  8
0
100
AcDbLine
 62
7
  6
CONTINUOUS
 10
35.2775245591
 20
99.4813124514
 11
35.9123487768
 21
99.4813124514
  0
LINE
  5
2A0
100
AcDbEntity
  8
0
100
AcDbLine
 62
7
  6
CONTINUOUS
 10
35.9607711532
 20
99.4813124514
 11
36.28318847
 21
99.4813124514
  0
LINE
  5
2A1
100
AcDbEntity
  8
0
100
AcDbLine
 62
7
  6
CONTINUOUS
 10
36.318062928
 20
99.4813124514
 11
36.3534800089
 21
99.4813124514
  0
LINE
  5
2A2
100
AcDbEntity
  8
0
100
AcDbLine
 62
7
  6
CONTINUOUS
 10
81.9335926957
 20
85.8313124514
 11
81.9335926957
 21
43.4313124514
  0
LINE
  5
2A3
100
AcDbEntity
  8
0
100
AcDbLine
 62
7
  6
CONTINUOUS
 10
35.2817334366
 20
102.2067323009
 11
35.5419509578
 21
102.2233531941
  0
LINE
  5
2A4
100
AcDbEntity
  8
0
100
AcDbLine
 62
7
  6
CONTINUOUS
 10
34.7436930158
 20
102.1482587121
 11
35.2502758011
 21
102.1772242616
  0
LINE
  5
2A5
100
AcDbEntity
  8
0
100
AcDbLine
 62
7
  6
CONTINUOUS
 10
35.1053205737
 20
102.1690183021
 11
35.2502758011
 21
102.1772242616
  0
LINE
  5
2A6
100
AcDbEntity
  8
0
100
AcDbLine
 62
7
  6
CONTINUOUS
 10
35.5695306802
 20
102.2262858258
 11
35.598274857
 21
102.226521874
  0
LINE
  5
2A7
100
AcDbEntity
  8
0
100
AcDbLine
 62
7
  6
CONTINUOUS
 10
35.282947544
 20
102.2065494433
 11
35.2817306272
 21
102.2067271096
  0
LINE
  5
2A8
100
AcDbEntity
  8
0
100
AcDbLine
 62
7
  6
CONTINUOUS
 10
80.0200574535
 20
84.675608877
 11
80.149466976
 21
84.192645964
  0
LINE
  5
2A9
100
AcDbEntity
  8
0
100
AcDbLine
 62
7
  6
CONTINUOUS
 10
34.1129150079
 20
105.0813124514
 11
34.3519157839
 21
105.0813124514
  0
LINE
  5
2AA
100
AcDbEntity
  8
0
100
AcDbLine
 62
7
  6
CONTINUOUS
 10
19.3335926957
 20
107.0813124514
 11
17.1335926957
 21
107.0813124514
  0
LINE
  5
2AB
100
AcDbEntity
  8
0
100
AcDbLine
 62
7
  6
CONTINUOUS
 10
17.1335926957
 20
107.1313124514
 11
19.3335926957
 21
107.1313124514
  0
LINE
  5
2AC
100
AcDbEntity
  8
0
100
AcDbLine
 62
7
  6
CONTINUOUS
 10
32.2238755813
 20
110.0377320007
 11
31.9336851905
 21
110.013755233
  0
LINE
  5
2AD
100
AcDbEntity
  8
0
100
AcDbLine
 62
7
  6
CONTINUOUS
 10
33.2298473009
 20
108.1668450262
 11
33.0331579377
 21
108.1614834524
  0
LINE
  5
2AE
100
AcDbEntity
  8
0
100
AcDbLine
 62
7
  6
CONTINUOUS
 10
11.5966293191
 20
109.7313124514
 11
31.5221533313
 21
109.7313309685
  0
LINE
  5
2AF
100
AcDbEntity
  8
0
100
AcDbLine
 62
7
  6
CONTINUOUS
 10
11.6758215392
 20
110.2313124514
 11
31.8287668276
 21
110.2313141671
  0
ARC
  5
2B0
100
AcDbEntity
  8
0
100
AcDbCircle
 62
7
  6
CONTINUOUS
 10
-0.7398833272
 20
58.2502555453
 40
60.1609525941
100
AcDbArc
 50
336.7790041749
 51
337.445283994
  0
ARC
  5
2B1
100
AcDbEntity
  8
0
100
AcDbCircle
 62
7
  6
CONTINUOUS
 10
13.3897915822
 20
52.2146453773
 40
44.796203775
100
AcDbArc
 50
336.3219377155
 51
336.7478483916
  0
ARC
  5
2B2
100
AcDbEntity
  8
0
100
AcDbCircle
 62
7
  6
CONTINUOUS
 10
-49.4291858973
 20
71.9022204756
 40
90.3588489107
100
AcDbArc
 50
22.1010433574
 51
22.5528461857
  0
ARC
  5
2B3
100
AcDbEntity
  8
0
100
AcDbCircle
 62
7
  6
CONTINUOUS
 10
-12.870758797
 20
88.6434283267
 40
50.0262510291
100
AcDbArc
 50
15.2531442462
 51
15.5561926547
  0
ARC
  5
2B4
100
AcDbEntity
  8
0
100
AcDbCircle
 62
7
  6
CONTINUOUS
 10
-12.5023786127
 20
88.7463518435
 40
49.6437630161
100
AcDbArc
 50
15.555777408
 51
15.7320794424
  0
ARC
  5
2B5
100
AcDbEntity
  8
0
100
AcDbCircle
 62
7
  6
CONTINUOUS
 10
-10.4980778681
 20
89.2842570359
 40
47.5685612886
100
AcDbArc
 50
14.3482227318
 51
15.2603237228
  0
ARC
  5
2B6
100
AcDbEntity
  8
0
100
AcDbCircle
 62
7
  6
CONTINUOUS
 10
-6.963827254
 20
90.1919231283
 40
43.9196201058
100
AcDbArc
 50
13.7609561892
 51
14.3436369467
  0
ARC
  5
2B7
100
AcDbEntity
  8
0
100
AcDbCircle
 62
7
  6
CONTINUOUS
 10
-4.3722961159
 20
90.8256953627
 40
41.2517182941
100
AcDbArc
 50
12.9355592121
 51
13.7621658333
  0
ARC
  5
2B8
100
AcDbEntity
  8
0
100
AcDbCircle
 62
7
  6
CONTINUOUS
 10
-2.5567376188
 20
91.2447594186
 40
39.3884246727
100
AcDbArc
 50
12.6541787224
 51
12.932639283
  0
ARC
  5
2B9
100
AcDbEntity
  8
0
100
AcDbCircle
 62
7
  6
CONTINUOUS
 10
-0.9143758772
 20
90.6886734861
 40
38.2565443251
100
AcDbArc
 50
13.2872287577
 51
14.6964212269
  0
ARC
  5
2BA
100
AcDbEntity
  8
0
100
AcDbCircle
 62
7
  6
CONTINUOUS
 10
0.4807407485
 20
91.9237486052
 40
36.2759831965
100
AcDbArc
 50
12.0245436298
 51
12.6587773677
  0
CIRCLE
  5
2BB
100
AcDbEntity
  8
0
100
AcDbCircle
 62
7
  6
CONTINUOUS
 10
14.4335926957
 20
87.2313124514
 40
0.825
  0
CIRCLE
  5
2BC
100
AcDbEntity
  8
0
100
AcDbCircle
 62
7
  6
CONTINUOUS
 10
13.7335926957
 20
107.6313124514
 40
0.8249977244
  0
CIRCLE
  5
2BD
100
AcDbEntity
  8
0
100
AcDbCircle
 62
7
  6
CONTINUOUS
 10
14.4335926957
 20
87.2313124514
 40
0.6
  0
CIRCLE
  5
2BE
100
AcDbEntity
  8
0
100
AcDbCircle
 62
7
  6
CONTINUOUS
 10
13.7335926957
 20
107.6313124514
 40
0.525
  0
CIRCLE
  5
2BF
100
AcDbEntity
  8
0
100
AcDbCircle
 62
7
  6
CONTINUOUS
 10
13.7335926957
 20
107.6313124514
 40
0.5
  0
ARC
  5
2C0
100
AcDbEntity
  8
0
100
AcDbCircle
 62
7
  6
CONTINUOUS
 10
20.4215787476
 20
49.1379670998
 40
37.1207928758
100
AcDbArc
 50
335.9342320426
 51
336.3122550522
  0
ARC
  5
2C1
100
AcDbEntity
  8
0
100
AcDbCircle
 62
7
  6
CONTINUOUS
 10
26.8172402341
 20
46.2856849565
 40
30.1179375715
100
AcDbArc
 50
335.5896966518
 51
335.9271954458
  0
ARC
  5
2C2
100
AcDbEntity
  8
0
100
AcDbCircle
 62
7
  6
CONTINUOUS
 10
75.0318797566
 20
28.0628414653
 40
21.9368890323
100
AcDbArc
 50
160.3808214976
 51
160.7686872892
  0
ARC
  5
2C3
100
AcDbEntity
  8
0
100
AcDbCircle
 62
7
  6
CONTINUOUS
 10
64.5549658985
 20
31.9268574957
 40
10.7695708974
100
AcDbArc
 50
157.7073698209
 51
158.8152863059
  0
ARC
  5
2C4
100
AcDbEntity
  8
0
100
AcDbCircle
 62
7
  6
CONTINUOUS
 10
58.431845154
 20
32.6654164293
 40
4.715495238
100
AcDbArc
 50
165.3164011089
 51
165.8021444489
  0
ARC
  5
2C5
100
AcDbEntity
  8
0
100
AcDbCircle
 62
7
  6
CONTINUOUS
 10
57.0281873274
 20
33.0172135639
 40
3.2684287194
100
AcDbArc
 50
165.7456033879
 51
166.8371915735
  0
ARC
  5
2C6
100
AcDbEntity
  8
0
100
AcDbCircle
 62
7
  6
CONTINUOUS
 10
56.2584878188
 20
35.7865525787
 40
1.6110930988
100
AcDbArc
 50
148.1897305451
 51
148.3499008453
  0
ARC
  5
2C7
100
AcDbEntity
  8
0
100
AcDbCircle
 62
7
  6
CONTINUOUS
 10
54.772757953
 20
33.5090830741
 40
0.959684137
100
AcDbArc
 50
169.6232494615
 51
170.1993352614
  0
CIRCLE
  5
2C8
100
AcDbEntity
  8
0
100
AcDbCircle
 62
7
  6
CONTINUOUS
 10
19.4335926957
 20
43.2313124514
 40
0.825
  0
CIRCLE
  5
2C9
100
AcDbEntity
  8
0
100
AcDbCircle
 62
7
  6
CONTINUOUS
 10
19.4335926957
 20
43.2313124514
 40
0.6
  0
ARC
  5
2CA
100
AcDbEntity
  8
0
100
AcDbCircle
 62
7
  6
CONTINUOUS
 10
81.1536833362
 20
43.4425320255
 40
0.5112199013
100
AcDbArc
 50
270.0648259573
 51
296.097081989
  0
ARC
  5
2CB
100
AcDbEntity
  8
0
100
AcDbCircle
 62
7
  6
CONTINUOUS
 10
81.1553209557
 20
43.4387505024
 40
0.5071035631
100
AcDbArc
 50
296.1188661016
 51
300.6002299847
  0
ARC
  5
2CC
100
AcDbEntity
  8
0
100
AcDbCircle
 62
7
  6
CONTINUOUS
 10
33.9280730572
 20
20.7313105322
 40
0.5000000711
100
AcDbArc
 50
270.0
 51
321.9479928598
  0
ARC
  5
2CD
100
AcDbEntity
  8
0
100
AcDbCircle
 62
7
  6
CONTINUOUS
 10
52.628770387
 20
32.0013107454
 40
0.5000000097
100
AcDbArc
 50
270.0
 51
322.2161527524
  0
ARC
  5
2CE
100
AcDbEntity
  8
0
100
AcDbCircle
 62
7
  6
CONTINUOUS
 10
81.4335926957
 20
43.4313124514
 40
0.5
100
AcDbArc
 50
270.0
 51
360.0
  0
ARC
  5
2CF
100
AcDbEntity
  8
0
100
AcDbCircle
 62
7
  6
CONTINUOUS
 10
74.9335926957
 20
43.2313124514
 40
0.5
100
AcDbArc
 50
270.0
 51
360.0
  0
ARC
  5
2D0
100
AcDbEntity
  8
0
100
AcDbCircle
 62
7
  6
CONTINUOUS
 10
33.6190429594
 20
20.7301225251
 40
0.4989546418
100
AcDbArc
 50
297.8590992261
 51
325.7608823469
  0
ARC
  5
2D1
100
AcDbEntity
  8
0
100
AcDbCircle
 62
7
  6
CONTINUOUS
 10
52.321837988
 20
31.9996160569
 40
0.4983124322
100
AcDbArc
 50
270.025124332
 51
325.6192888864
  0
ARC
  5
2D2
100
AcDbEntity
  8
0
100
AcDbCircle
 62
7
  6
CONTINUOUS
 10
33.6197042155
 20
20.7287329601
 40
0.4974171282
100
AcDbArc
 50
270.8776822062
 51
297.8665547809
  0
ARC
  5
2D3
100
AcDbEntity
  8
0
100
AcDbCircle
 62
7
  6
CONTINUOUS
 10
53.6478281009
 20
33.65108276
 40
0.2020713942
100
AcDbArc
 50
10.266873688
 51
11.6550628285
  0
ARC
  5
2D4
100
AcDbEntity
  8
0
100
AcDbCircle
 62
7
  6
CONTINUOUS
 10
53.6484136692
 20
33.6514886805
 40
0.2014724895
100
AcDbArc
 50
336.4951500073
 51
359.9499602831
  0
ARC
  5
2D5
100
AcDbEntity
  8
0
100
AcDbCircle
 62
7
  6
CONTINUOUS
 10
53.8481114327
 20
33.6514822524
 40
0.2009370784
100
AcDbArc
 50
334.7521679636
 51
359.9516561008
  0
ARC
  5
2D6
100
AcDbEntity
  8
0
100
AcDbCircle
 62
7
  6
CONTINUOUS
 10
53.6489800519
 20
33.6512494
 40
0.2009081914
100
AcDbArc
 50
0.0180586743
 51
10.2786644148
  0
ARC
  5
2D7
100
AcDbEntity
  8
0
100
AcDbCircle
 62
7
  6
CONTINUOUS
 10
53.8491210349
 20
33.6514030324
 40
0.1999250413
100
AcDbArc
 50
359.9741152811
 51
83.9517396935
  0
ARC
  5
2D8
100
AcDbEntity
  8
0
100
AcDbCircle
 62
7
  6
CONTINUOUS
 10
55.1517432714
 20
36.8508062921
 40
0.1995103198
100
AcDbArc
 50
270.0470815278
 51
340.6081636115
  0
ARC
  5
2D9
100
AcDbEntity
  8
0
100
AcDbCircle
 62
7
  6
CONTINUOUS
 10
61.7181982822
 20
116.1464617875
 40
29.8226865795
100
AcDbArc
 50
197.0371284122
 51
197.8764083603
  0
ARC
  5
2DA
100
AcDbEntity
  8
0
100
AcDbCircle
 62
7
  6
CONTINUOUS
 10
56.7007303275
 20
114.5283415095
 40
24.5507516531
100
AcDbArc
 50
197.8768448933
 51
198.5250493361
  0
ARC
  5
2DB
100
AcDbEntity
  8
0
100
AcDbCircle
 62
7
  6
CONTINUOUS
 10
55.2366577358
 20
114.0340722052
 40
23.0055016195
100
AcDbArc
 50
198.516345823
 51
199.3843861144
  0
ARC
  5
2DC
100
AcDbEntity
  8
0
100
AcDbCircle
 62
7
  6
CONTINUOUS
 10
54.8588252002
 20
113.9015387594
 40
22.6050988356
100
AcDbArc
 50
199.3853584488
 51
199.713061165
  0
ARC
  5
2DD
100
AcDbEntity
  8
0
100
AcDbCircle
 62
7
  6
CONTINUOUS
 10
54.0725252344
 20
113.7946497756
 40
21.8234842652
100
AcDbArc
 50
196.7596597296
 51
197.0148465819
  0
ARC
  5
2DE
100
AcDbEntity
  8
0
100
AcDbCircle
 62
7
  6
CONTINUOUS
 10
42.1945240765
 20
109.1587583409
 40
9.0798274283
100
AcDbArc
 50
203.0863860092
 51
203.6974006638
  0
ARC
  5
2DF
100
AcDbEntity
  8
0
100
AcDbCircle
 62
7
  6
CONTINUOUS
 10
38.0952532913
 20
109.1863877972
 40
5.194015982
100
AcDbArc
 50
194.2034442817
 51
194.9568950814
  0
ARC
  5
2E0
100
AcDbEntity
  8
0
100
AcDbCircle
 62
7
  6
CONTINUOUS
 10
37.0017443562
 20
106.8121178067
 40
3.380897672
100
AcDbArc
 50
206.9506005914
 51
207.2652049119
  0
ARC
  5
2E1
100
AcDbEntity
  8
0
100
AcDbCircle
 62
7
  6
CONTINUOUS
 10
80.1335926957
 20
85.8313124514
 40
1.8
100
AcDbArc
 50
0.0
 51
86.2174357242
  0
ARC
  5
2E2
100
AcDbEntity
  8
0
100
AcDbCircle
 62
7
  6
CONTINUOUS
 10
79.6835926957
 20
85.9313124514
 40
1.8
100
AcDbArc
 50
284.9999999892
 51
90.0000000019
  0
ARC
  5
2E3
100
AcDbEntity
  8
0
100
AcDbCircle
 62
7
  6
CONTINUOUS
 10
79.6835926957
 20
85.9313124514
 40
1.2999976766
100
AcDbArc
 50
285.0002582255
 51
90.0012911759
  0
ARC
  5
2E4
100
AcDbEntity
  8
0
100
AcDbCircle
 62
7
  6
CONTINUOUS
 10
35.1267340494
 20
105.7363006806
 40
1.2184609031
100
AcDbArc
 50
211.8688716213
 51
213.780800977
  0
ARC
  5
2E5
100
AcDbEntity
  8
0
100
AcDbCircle
 62
7
  6
CONTINUOUS
 10
33.9794285735
 20
108.2235637208
 40
0.966180989
100
AcDbArc
 50
189.4299479816
 51
190.3790863932
  0
ARC
  5
2E6
100
AcDbEntity
  8
0
100
AcDbCircle
 62
7
  6
CONTINUOUS
 10
34.8779558735
 20
105.5694142489
 40
0.9188921061
100
AcDbArc
 50
213.7567198466
 51
215.5259419037
  0
CIRCLE
  5
2E7
100
AcDbEntity
  8
0
100
AcDbCircle
 62
7
  6
CONTINUOUS
 10
79.6835926957
 20
85.9313124514
 40
0.9
  0
CIRCLE
  5
2E8
100
AcDbEntity
  8
0
100
AcDbCircle
 62
7
  6
CONTINUOUS
 10
79.6835926957
 20
85.9313124514
 40
0.86
  0
ARC
  5
2E9
100
AcDbEntity
  8
0
100
AcDbCircle
 62
7
  6
CONTINUOUS
 10
54.7280730572
 20
98.4813143707
 40
0.5000000711
100
AcDbArc
 50
38.0520071402
 51
90.0
  0
ARC
  5
2EA
100
AcDbEntity
  8
0
100
AcDbCircle
 62
7
  6
CONTINUOUS
 10
31.828770387
 20
109.7313141574
 40
0.5000000097
100
AcDbArc
 50
37.7838472473
 51
90.0
  0
ARC
  5
2EB
100
AcDbEntity
  8
0
100
AcDbCircle
 62
7
  6
CONTINUOUS
 10
54.4188243372
 20
98.4823921675
 40
0.4991113933
100
AcDbArc
 50
34.2371245035
 51
62.0816093956
  0
ARC
  5
2EC
100
AcDbEntity
  8
0
100
AcDbCircle
 62
7
  6
CONTINUOUS
 10
31.5215231234
 20
109.7325889476
 40
0.4988419931
100
AcDbArc
 50
34.3067366663
 51
61.0179124346
  0
ARC
  5
2ED
100
AcDbEntity
  8
0
100
AcDbCircle
 62
7
  6
CONTINUOUS
 10
54.4195620881
 20
98.4837180871
 40
0.4975943663
100
AcDbArc
 50
62.085187512
 51
89.9942674921
  0
ARC
  5
2EE
100
AcDbEntity
  8
0
100
AcDbCircle
 62
7
  6
CONTINUOUS
 10
31.5220649549
 20
109.7337391321
 40
0.4975733148
100
AcDbArc
 50
61.0083172519
 51
89.9972792541
  0
ARC
  5
2EF
100
AcDbEntity
  8
0
100
AcDbCircle
 62
7
  6
CONTINUOUS
 10
32.8485670837
 20
108.0811734641
 40
0.2013100152
100
AcDbArc
 50
0.0394874021
 51
23.512435102
  0
ARC
  5
2F0
100
AcDbEntity
  8
0
100
AcDbCircle
 62
7
  6
CONTINUOUS
 10
33.0478559116
 20
108.0810830347
 40
0.2011890084
100
AcDbArc
 50
0.0652418896
 51
25.231786673
  0
ARC
  5
2F1
100
AcDbEntity
  8
0
100
AcDbCircle
 62
7
  6
CONTINUOUS
 10
32.849001536
 20
108.0813011628
 40
0.2008663981
100
AcDbArc
 50
343.1090118274
 51
354.3712713573
  0
ARC
  5
2F2
100
AcDbEntity
  8
0
100
AcDbCircle
 62
7
  6
CONTINUOUS
 10
32.8494037733
 20
108.0813808396
 40
0.2004739503
100
AcDbArc
 50
354.337333885
 51
359.9803838101
  0
ARC
  5
2F3
100
AcDbEntity
  8
0
100
AcDbCircle
 62
7
  6
CONTINUOUS
 10
32.8496185694
 20
108.0811856681
 40
0.2002429773
100
AcDbArc
 50
342.1578657281
 51
343.089382027
  0
ARC
  5
2F4
100
AcDbEntity
  8
0
100
AcDbCircle
 62
7
  6
CONTINUOUS
 10
33.0491076959
 20
108.0812215926
 40
0.1999263392
100
AcDbArc
 50
276.0495283388
 51
0.0259447305
  0
ARC
  5
2F5
100
AcDbEntity
  8
0
100
AcDbCircle
 62
7
  6
CONTINUOUS
 10
34.3517448863
 20
104.8818146261
 40
0.1995115779
100
AcDbArc
 50
19.345011803
 51
89.9532666897
  0
ARC
  5
2F6
100
AcDbEntity
  8
0
100
AcDbCircle
 62
7
  6
CONTINUOUS
 10
75.5835926957
 20
82.8139322106
 40
0.15
100
AcDbArc
 50
105.0
 51
179.9999650815
  0
SPLINE
  5
2F7
100
AcDbEntity
  8
0
100
AcDbSpline
 62
7
  6
CONTINUOUS
 70
0
 71
3
 72
10
 73
6
 74
0
 42
0.0000001
 43
0.0000001
 44
0.0000000001
 40
0.0
 40
0.0
 40
0.0
 40
0.0
 40
0.5005667067
 40
0.750437142
 40
1.0
 40
1.0
 40
1.0
 40
1.0
 10
56.3697167999
 20
39.5069571958
 30
0.0
 10
56.5085003509
 20
39.960922049
 30
0.0
 10
56.7073232917
 20
40.6443966234
 30
0.0
 10
56.9503033078
 20
41.5611068903
 30
0.0
 10
57.0637092727
 20
42.0209956199
 30
0.0
 10
57.1180441163
 20
42.2513433564
 30
0.0
  0
SPLINE
  5
2F8
100
AcDbEntity
  8
0
100
AcDbSpline
 62
7
  6
CONTINUOUS
 70
0
 71
3
 72
10
 73
6
 74
0
 42
0.0000001
 43
0.0000001
 44
0.0000000001
 40
0.0
 40
0.0
 40
0.0
 40
0.0
 40
0.4999928766
 40
0.7499970456
 40
1.0
 40
1.0
 40
1.0
 40
1.0
 10
55.5437015776
 20
39.584369602
 30
0.0
 10
55.6462981985
 20
40.0260538093
 30
0.0
 10
55.7910613407
 20
40.6907807604
 30
0.0
 10
55.9627375587
 20
41.5813126593
 30
0.0
 10
56.0407885329
 20
42.0280353236
 30
0.0
 10
56.0775607121
 20
42.2517611332
 30
0.0
  0
SPLINE
  5
2F9
100
AcDbEntity
  8
0
100
AcDbSpline
 62
7
  6
CONTINUOUS
 70
0
 71
3
 72
10
 73
6
 74
0
 42
0.0000001
 43
0.0000001
 44
0.0000000001
 40
0.0
 40
0.0
 40
0.0
 40
0.0
 40
0.2495767038
 40
0.4994511502
 40
1.0
 40
1.0
 40
1.0
 40
1.0
 10
57.083052403
 20
42.2511990794
 30
0.0
 10
57.0293114354
 20
42.0210638521
 30
0.0
 10
56.9171011772
 20
41.5615972817
 30
0.0
 10
56.6765374073
 20
40.6457235513
 30
0.0
 10
56.4795432211
 20
39.9628465816
 30
0.0
 10
56.3419860128
 20
39.5092717726
 30
0.0
  0
SPLINE
  5
2FA
100
AcDbEntity
  8
0
100
AcDbSpline
 62
7
  6
CONTINUOUS
 70
0
 71
3
 72
9
 73
5
 74
0
 42
0.0000001
 43
0.0000001
 44
0.0000000001
 40
0.0
 40
0.0
 40
0.0
 40
0.0
 40
0.4913800182
 40
1.0
 40
1.0
 40
1.0
 40
1.0
 10
54.9282877559
 20
36.6697051729
 30
0.0
 10
54.9526373821
 20
36.6810253552
 30
0.0
 10
54.9978859541
 20
36.7146541727
 30
0.0
 10
55.0256764319
 20
36.7638343891
 30
0.0
 10
55.03408485
 20
36.7903265149
 30
0.0
  0
SPLINE
  5
2FB
100
AcDbEntity
  8
0
100
AcDbSpline
 62
7
  6
CONTINUOUS
 70
0
 71
3
 72
10
 73
6
 74
0
 42
0.0000001
 43
0.0000001
 44
0.0000000001
 40
0.0
 40
0.0
 40
0.0
 40
0.0
 40
0.2500037544
 40
0.5000065209
 40
1.0
 40
1.0
 40
1.0
 40
1.0
 10
56.7123125157
 20
42.2510949356
 30
0.0
 10
56.6648237027
 20
42.02466817
 30
0.0
 10
56.5653230143
 20
41.5727539821
 30
0.0
 10
56.3509098305
 20
40.672508307
 30
0.0
 10
56.1741288153
 20
40.0012164224
 30
0.0
 10
56.0502807516
 20
39.5554062467
 30
0.0
  0
SPLINE
  5
2FC
100
AcDbEntity
  8
0
100
AcDbSpline
 62
7
  6
CONTINUOUS
 70
0
 71
3
 72
10
 73
6
 74
0
 42
0.0000001
 43
0.0000001
 44
0.0000000001
 40
0.0
 40
0.0
 40
0.0
 40
0.0
 40
0.4999930937
 40
0.7499972206
 40
1.0
 40
1.0
 40
1.0
 40
1.0
 10
56.0817379205
 20
39.5258973123
 30
0.0
 10
56.2086743452
 20
39.9765757813
 30
0.0
 10
56.3898998399
 20
40.65526014
 30
0.0
 10
56.6099495279
 20
41.5655093375
 30
0.0
 10
56.712028065
 20
42.0225084439
 30
0.0
 10
56.7607736664
 20
42.2514900669
 30
0.0
  0
SPLINE
  5
2FD
100
AcDbEntity
  8
0
100
AcDbSpline
 62
7
  6
CONTINUOUS
 70
0
 71
3
 72
16
 73
12
 74
0
 42
0.0000001
 43
0.0000001
 44
0.0000000001
 40
0.0
 40
0.0
 40
0.0
 40
0.0
 40
0.0275835172
 40
0.0533418404
 40
0.1115824553
 40
0.1919145844
 40
0.298521966
 40
0.4318689446
 40
0.5928161003
 40
0.7820405681
 40
1.0
 40
1.0
 40
1.0
 40
1.0
 10
53.8331704079
 20
33.5711358888
 30
0.0
 10
53.8321824137
 20
33.5710112062
 30
0.0
 10
53.8302137362
 20
33.5710297687
 30
0.0
 10
53.8263923083
 20
33.5726061245
 30
0.0
 10
53.8227888353
 20
33.5777500196
 30
0.0
 10
53.8205909095
 20
33.5863499553
 30
0.0
 10
53.8195052035
 20
33.5979030672
 30
0.0
 10
53.8196202699
 20
33.6123872214
 30
0.0
 10
53.8209182521
 20
33.6298053489
 30
0.0
 10
53.8234253169
 20
33.6501675996
 30
0.0
 10
53.8257405847
 20
33.6646873005
 30
0.0
 10
53.8270795196
 20
33.6724414021
 30
0.0
  0
SPLINE
  5
2FE
100
AcDbEntity
  8
0
100
AcDbSpline
 62
7
  6
CONTINUOUS
 70
0
 71
3
 72
9
 73
5
 74
0
 42
0.0000001
 43
0.0000001
 44
0.0000000001
 40
0.0
 40
0.0
 40
0.0
 40
0.0
 40
0.2252908254
 40
1.0
 40
1.0
 40
1.0
 40
1.0
 10
53.8287697948
 20
33.6819413973
 30
0.0
 10
53.8298687214
 20
33.6879491071
 30
0.0
 10
53.8349802094
 20
33.7145728642
 30
0.0
 10
53.8408561087
 20
33.7410447319
 30
0.0
 10
53.8456302847
 20
33.761496416
 30
0.0
  0
SPLINE
  5
2FF
100
AcDbEntity
  8
0
100
AcDbSpline
 62
7
  6
CONTINUOUS
 70
0
 71
3
 72
12
 73
8
 74
0
 42
0.0000001
 43
0.0000001
 44
0.0000000001
 40
0.0
 40
0.0
 40
0.0
 40
0.0
 40
0.0914853003
 40
0.1969683561
 40
0.4408371399
 40
0.7139395473
 40
1.0
 40
1.0
 40
1.0
 40
1.0
 10
53.8703563296
 20
33.8607051161
 30
0.0
 10
53.8819170567
 20
33.9048652769
 30
0.0
 10
53.9079623626
 20
33.99963975
 30
0.0
 10
53.9693142948
 20
34.2108783177
 30
0.0
 10
54.0604291505
 20
34.5078139295
 30
0.0
 10
54.1826913524
 20
34.8894029759
 30
0.0
 10
54.2721284839
 20
35.1537042194
 30
0.0
 10
54.319145904
 20
35.2884733939
 30
0.0
  0
SPLINE
  5
300
100
AcDbEntity
  8
0
100
AcDbSpline
 62
7
  6
CONTINUOUS
 70
0
 71
3
 72
9
 73
5
 74
0
 42
0.0000001
 43
0.0000001
 44
0.0000000001
 40
0.0
 40
0.0
 40
0.0
 40
0.0
 40
0.2554305591
 40
1.0
 40
1.0
 40
1.0
 40
1.0
 10
54.3685342948
 20
35.4285223397
 30
0.0
 10
54.380434862
 20
35.4618973136
 30
0.0
 10
54.4273670418
 20
35.5924359874
 30
0.0
 10
54.4758547103
 20
35.7224214745
 30
0.0
 10
54.5131999298
 20
35.8187199733
 30
0.0
  0
SPLINE
  5
301
100
AcDbEntity
  8
0
100
AcDbSpline
 62
7
  6
CONTINUOUS
 70
0
 71
3
 72
9
 73
5
 74
0
 42
0.0000001
 43
0.0000001
 44
0.0000000001
 40
0.0
 40
0.0
 40
0.0
 40
0.0
 40
0.5239292014
 40
1.0
 40
1.0
 40
1.0
 40
1.0
 10
54.5903286766
 20
36.0121558142
 30
0.0
 10
54.6161898424
 20
36.0751239659
 30
0.0
 10
54.6668538759
 20
36.194776847
 30
0.0
 10
54.7205038308
 20
36.3131341459
 30
0.0
 10
54.7470820594
 20
36.3689866437
 30
0.0
  0
SPLINE
  5
302
100
AcDbEntity
  8
0
100
AcDbSpline
 62
7
  6
CONTINUOUS
 70
0
 71
3
 72
9
 73
5
 74
0
 42
0.0000001
 43
0.0000001
 44
0.0000000001
 40
0.0
 40
0.0
 40
0.0
 40
0.0
 40
0.2674896617
 40
1.0
 40
1.0
 40
1.0
 40
1.0
 10
54.7470820594
 20
36.3689866437
 30
0.0
 10
54.7539829444
 20
36.3834884252
 30
0.0
 10
54.7800519957
 20
36.4375723549
 30
0.0
 10
54.8073177587
 20
36.4910896586
 30
0.0
 10
54.8282491114
 20
36.5297690445
 30
0.0
  0
SPLINE
  5
303
100
AcDbEntity
  8
0
100
AcDbSpline
 62
7
  6
CONTINUOUS
 70
0
 71
3
 72
9
 73
5
 74
0
 42
0.0000001
 43
0.0000001
 44
0.0000000001
 40
0.0
 40
0.0
 40
0.0
 40
0.0
 40
0.2676286646
 40
1.0
 40
1.0
 40
1.0
 40
1.0
 10
54.8282491114
 20
36.5297690445
 30
0.0
 10
54.8332538551
 20
36.5390173916
 30
0.0
 10
54.8521615915
 20
36.5734605117
 30
0.0
 10
54.8719151502
 20
36.6074458664
 30
0.0
 10
54.8870151133
 20
36.6319421879
 30
0.0
  0
SPLINE
  5
304
100
AcDbEntity
  8
0
100
AcDbSpline
 62
7
  6
CONTINUOUS
 70
0
 71
3
 72
9
 73
5
 74
0
 42
0.0000001
 43
0.0000001
 44
0.0000000001
 40
0.0
 40
0.0
 40
0.0
 40
0.0
 40
0.2684938486
 40
1.0
 40
1.0
 40
1.0
 40
1.0
 10
54.8893837551
 20
36.6357728303
 30
0.0
 10
54.8930313631
 20
36.6416533949
 30
0.0
 10
54.9067609486
 20
36.6634643789
 30
0.0
 10
54.921090576
 20
36.6849075238
 30
0.0
 10
54.9320932773
 20
36.700217292
 30
0.0
  0
SPLINE
  5
305
100
AcDbEntity
  8
0
100
AcDbSpline
 62
7
  6
CONTINUOUS
 70
0
 71
3
 72
11
 73
7
 74
0
 42
0.0000001
 43
0.0000001
 44
0.0000000001
 40
0.0
 40
0.0
 40
0.0
 40
0.0
 40
0.3589758541
 40
0.6374883054
 40
0.8448716307
 40
1.0
 40
1.0
 40
1.0
 40
1.0
 10
54.9320932773
 20
36.700217292
 30
0.0
 10
54.9418050604
 20
36.7137308051
 30
0.0
 10
54.959734642
 20
36.7372682291
 30
0.0
 10
54.9868659853
 20
36.7656997416
 30
0.0
 10
55.0109724233
 20
36.7834087742
 30
0.0
 10
55.027101565
 20
36.7893760353
 30
0.0
 10
55.0342301382
 20
36.7903246119
 30
0.0
  0
LINE
  5
306
100
AcDbEntity
  8
0
100
AcDbLine
 62
7
  6
CONTINUOUS
 10
55.906358613
 20
39.5926101983
 11
55.5670372923
 21
39.6896709514
  0
SPLINE
  5
307
100
AcDbEntity
  8
0
100
AcDbSpline
 62
7
  6
CONTINUOUS
 70
0
 71
3
 72
14
 73
10
 74
0
 42
0.0000001
 43
0.0000001
 44
0.0000000001
 40
0.0
 40
0.0
 40
0.0
 40
0.0
 40
0.0398827708
 40
0.1106175543
 40
0.2101204249
 40
0.3350070674
 40
0.4813838703
 40
0.6446647128
 40
1.0
 40
1.0
 40
1.0
 40
1.0
 10
56.0502696437
 20
39.5554057233
 30
0.0
 10
56.0482958992
 20
39.5555168176
 30
0.0
 10
56.0428892146
 20
39.5565568558
 30
0.0
 10
56.0327156153
 20
39.5587204684
 30
0.0
 10
56.0184921794
 20
39.5621728714
 30
0.0
 10
56.0006805163
 20
39.5666885066
 30
0.0
 10
55.9798525657
 20
39.5721822338
 30
0.0
 10
55.9480390713
 20
39.5808053282
 30
0.0
 10
55.9232896933
 20
39.5877570878
 30
0.0
 10
55.9063584913
 20
39.5926097736
 30
0.0
  0
SPLINE
  5
308
100
AcDbEntity
  8
0
100
AcDbSpline
 62
7
  6
CONTINUOUS
 70
0
 71
3
 72
9
 73
5
 74
0
 42
0.0000001
 43
0.0000001
 44
0.0000000001
 40
0.0
 40
0.0
 40
0.0
 40
0.0
 40
0.2500570584
 40
1.0
 40
1.0
 40
1.0
 40
1.0
 10
55.9065480182
 20
39.5925575261
 30
0.0
 10
55.9677026142
 20
39.812464734
 30
0.0
 10
56.2065702065
 20
40.693447423
 30
0.0
 10
56.4201138696
 20
41.5814497498
 30
0.0
 10
56.5613372729
 20
42.2512723104
 30
0.0
  0
SPLINE
  5
309
100
AcDbEntity
  8
0
100
AcDbSpline
 62
7
  6
CONTINUOUS
 70
0
 71
3
 72
12
 73
8
 74
0
 42
0.0000001
 43
0.0000001
 44
0.0000000001
 40
0.0
 40
0.0
 40
0.0
 40
0.0
 40
0.4263410181
 40
0.7453429736
 40
0.8580144417
 40
0.9379660398
 40
1.0
 40
1.0
 40
1.0
 40
1.0
 10
54.2429160486
 20
33.8388994407
 30
0.0
 10
54.2251592246
 20
33.7997888318
 30
0.0
 10
54.1932630409
 20
33.7300610685
 30
0.0
 10
54.1589285078
 20
33.6557185911
 30
0.0
 10
54.1345678258
 20
33.6034661916
 30
0.0
 10
54.1282573944
 20
33.5897860976
 30
0.0
 10
54.1136614058
 20
33.5587932722
 30
0.0
 10
54.1163702255
 20
33.564425494
 30
0.0
  0
SPLINE
  5
30A
100
AcDbEntity
  8
0
100
AcDbSpline
 62
7
  6
CONTINUOUS
 70
0
 71
3
 72
11
 73
7
 74
0
 42
0.0000001
 43
0.0000001
 44
0.0000000001
 40
0.0
 40
0.0
 40
0.0
 40
0.0
 40
0.1228706514
 40
0.3265312919
 40
0.6184411404
 40
1.0
 40
1.0
 40
1.0
 40
1.0
 10
53.8492555435
 20
33.8513172364
 30
0.0
 10
53.850898863
 20
33.851327381
 30
0.0
 10
53.8550073827
 20
33.8534931396
 30
0.0
 10
53.861185491
 20
33.8588373329
 30
0.0
 10
53.8692317957
 20
33.8674720856
 30
0.0
 10
53.8749265501
 20
33.8744331814
 30
0.0
 10
53.8780894355
 20
33.8784380453
 30
0.0
  0
SPLINE
  5
30B
100
AcDbEntity
  8
0
100
AcDbSpline
 62
7
  6
CONTINUOUS
 70
0
 71
3
 72
35
 73
31
 74
0
 42
0.0000001
 43
0.0000001
 44
0.0000000001
 40
0.0
 40
0.0
 40
0.0
 40
0.0
 40
0.0130570738
 40
0.0303476226
 40
0.0516131395
 40
0.0765476163
 40
0.1361115626
 40
0.2064236602
 40
0.2849902875
 40
0.369386768
 40
0.5464445395
 40
0.6344721078
 40
0.7188590826
 40
0.758863921
 40
0.7969290674
 40
0.8326910198
 40
0.8657874775
 40
0.8958603155
 40
0.9225568691
 40
0.9455572083
 40
0.9555855604
 40
0.9645890145
 40
0.9725438551
 40
0.9794355297
 40
0.9852539162
 40
0.98999708
 40
0.9936868727
 40
0.9963993789
 40
0.9983341163
 40
1.0
 40
1.0
 40
1.0
 40
1.0
 10
53.8780894355
 20
33.8784380453
 30
0.0
 10
53.8863793531
 20
33.8889347874
 30
0.0
 10
53.9045817567
 20
33.9141631382
 30
0.0
 10
53.9339148743
 20
33.9581540743
 30
0.0
 10
53.9686258319
 20
34.0131641884
 30
0.0
 10
54.0247933405
 20
34.1058149955
 30
0.0
 10
54.1040527566
 20
34.2431950697
 30
0.0
 10
54.207012327
 20
34.430269696
 30
0.0
 10
54.3187184081
 20
34.6415302641
 30
0.0
 10
54.4768558042
 20
34.9518864378
 30
0.0
 10
54.6325281652
 20
35.2743412077
 30
0.0
 10
54.7811157732
 20
35.6000543976
 30
0.0
 10
54.86833261
 20
35.7994238467
 30
0.0
 10
54.9329392236
 20
35.9527925938
 30
0.0
 10
54.9771527606
 20
36.0606958083
 30
0.0
 10
55.0175636289
 20
36.1625025771
 30
0.0
 10
55.0537338385
 20
36.2571755807
 30
0.0
 10
55.0852624241
 20
36.3436706537
 30
0.0
 10
55.1117837138
 20
36.420967833
 30
0.0
 10
55.1302179621
 20
36.4793173015
 30
0.0
 10
55.1420785023
 20
36.5207114581
 30
0.0
 10
55.149119357
 20
36.5474472717
 30
0.0
 10
55.154704089
 20
36.5712360614
 30
0.0
 10
55.1588271815
 20
36.5920044266
 30
0.0
 10
55.161484425
 20
36.6096958436
 30
0.0
 10
55.1626930451
 20
36.6242538838
 30
0.0
 10
55.1624430626
 20
36.6357171844
 30
0.0
 10
55.1608248592
 20
36.6441235518
 30
0.0
 10
55.1574208392
 20
36.650016316
 30
0.0
 10
55.1535845817
 20
36.6513009596
 30
0.0
 10
55.1518780747
 20
36.6513049387
 30
0.0
  0
SPLINE
  5
30C
100
AcDbEntity
  8
0
100
AcDbSpline
 62
7
  6
CONTINUOUS
 70
0
 71
3
 72
46
 73
42
 74
0
 42
0.0000001
 43
0.0000001
 44
0.0000000001
 40
0.0
 40
0.0
 40
0.0
 40
0.0
 40
0.0007957778
 40
0.0016226796
 40
0.0025757978
 40
0.0037234059
 40
0.0067552696
 40
0.0109228471
 40
0.0163052612
 40
0.0229052689
 40
0.0307067207
 40
0.0396868912
 40
0.049816715
 40
0.0610629679
 40
0.0867639942
 40
0.1164505294
 40
0.1497128652
 40
0.1861461118
 40
0.2253489156
 40
0.3103153701
 40
0.4011672843
 40
0.4947582805
 40
0.588196513
 40
0.6786731617
 40
0.7219561178
 40
0.7634566286
 40
0.8028051701
 40
0.8396417848
 40
0.8736084019
 40
0.9043197214
 40
0.9313759661
 40
0.9543830939
 40
0.9642470201
 40
0.9729641433
 40
0.980514118
 40
0.9868793748
 40
0.9920431156
 40
0.9959611577
 40
0.9985819
 40
0.9994188546
 40
1.0
 40
1.0
 40
1.0
 40
1.0
 10
55.3398579765
 20
36.7845629503
 30
0.0
 10
55.3407789488
 20
36.7844489264
 30
0.0
 10
55.3426390788
 20
36.7838864476
 30
0.0
 10
55.3450299095
 20
36.7819705598
 30
0.0
 10
55.346940971
 20
36.7790948687
 30
0.0
 10
55.3491108064
 20
36.7734838561
 30
0.0
 10
55.3504495385
 20
36.7637474644
 30
0.0
 10
55.3503824089
 20
36.7490674116
 30
0.0
 10
55.3486548948
 20
36.7302911471
 30
0.0
 10
55.3452817463
 20
36.7074631457
 30
0.0
 10
55.3402479938
 20
36.6806589661
 30
0.0
 10
55.3335660341
 20
36.6499925166
 30
0.0
 10
55.3252552517
 20
36.615579115
 30
0.0
 10
55.3114064358
 20
36.5624527684
 30
0.0
 10
55.2900786502
 20
36.4877212702
 30
0.0
 10
55.2596257331
 20
36.3889232403
 30
0.0
 10
55.2236753001
 20
36.2787400409
 30
0.0
 10
55.1826704164
 20
36.1585460111
 30
0.0
 10
55.1201686626
 20
35.9819911289
 30
0.0
 10
55.0329140191
 20
35.7468969146
 30
0.0
 10
54.9188794703
 20
35.4541365724
 30
0.0
 10
54.7968641565
 20
35.1539190913
 30
0.0
 10
54.6707923068
 20
34.8558588048
 30
0.0
 10
54.5641754579
 20
34.6132973967
 30
0.0
 10
54.4798783624
 20
34.42710836
 30
0.0
 10
54.4191821446
 20
34.2956883824
 30
0.0
 10
54.3606420828
 20
34.1715578716
 30
0.0
 10
54.3048453371
 20
34.055852363
 30
0.0
 10
54.2523878673
 20
33.9497248952
 30
0.0
 10
54.2039277081
 20
33.8543508422
 30
0.0
 10
54.1601497492
 20
33.7709424878
 30
0.0
 10
54.12665414
 20
33.7096019311
 30
0.0
 10
54.1026317064
 20
33.6674690267
 30
0.0
 10
54.087145372
 20
33.6412236593
 30
0.0
 10
54.0733044194
 20
33.6187464109
 30
0.0
 10
54.0611575433
 20
33.6001084646
 30
0.0
 10
54.0507825392
 20
33.5853575421
 30
0.0
 10
54.0422991756
 20
33.5746976988
 30
0.0
 10
54.0362423761
 20
33.5684616027
 30
0.0
 10
54.0322389887
 20
33.5659612075
 30
0.0
 10
54.0305136692
 20
33.5656270362
 30
0.0
 10
54.0298524997
 20
33.5657758431
 30
0.0
  0
SPLINE
  5
30D
100
AcDbEntity
  8
0
100
AcDbSpline
 62
7
  6
CONTINUOUS
 70
0
 71
3
 72
25
 73
21
 74
0
 42
0.0000001
 43
0.0000001
 44
0.0000000001
 40
0.0
 40
0.0
 40
0.0
 40
0.0
 40
0.0312549725
 40
0.0468905158
 40
0.0625188245
 40
0.0937647552
 40
0.1250106067
 40
0.1562571246
 40
0.1875073299
 40
0.2500177011
 40
0.312521279
 40
0.3750195934
 40
0.437518875
 40
0.5000200414
 40
0.6250161553
 40
0.750010464
 40
0.8125093667
 40
0.8750065178
 40
0.9375037092
 40
1.0
 40
1.0
 40
1.0
 40
1.0
 10
52.733121486
 20
31.7181950095
 30
0.0
 10
52.8014534843
 20
31.8175423476
 30
0.0
 10
52.8967034932
 20
31.9716067894
 30
0.0
 10
53.0149408557
 20
32.1818167958
 30
0.0
 10
53.1290109018
 20
32.3943116818
 30
0.0
 10
53.2640576339
 20
32.6638094643
 30
0.0
 10
53.416356475
 20
32.9918500879
 30
0.0
 10
53.561190774
 20
33.323259498
 30
0.0
 10
53.7455026377
 20
33.7689432722
 30
0.0
 10
53.9614879114
 20
34.3318746556
 30
0.0
 10
54.204686376
 20
35.0132246528
 30
0.0
 10
54.4335166253
 20
35.6994876993
 30
0.0
 10
54.6496101955
 20
36.3898458861
 30
0.0
 10
54.9222366118
 20
37.3150077884
 30
0.0
 10
55.2368321324
 20
38.4789958899
 30
0.0
 10
55.5164061317
 20
39.6518770826
 30
0.0
 10
55.719019793
 20
40.5948233954
 30
0.0
 10
55.8593459956
 20
41.3044488794
 30
0.0
 10
55.9870305392
 20
42.0164471364
 30
0.0
 10
56.0626291796
 20
42.4927448188
 30
0.0
 10
56.0974852451
 20
42.7313161359
 30
0.0
  0
SPLINE
  5
30E
100
AcDbEntity
  8
0
100
AcDbSpline
 62
7
  6
CONTINUOUS
 70
0
 71
3
 72
22
 73
18
 74
0
 42
0.0000001
 43
0.0000001
 44
0.0000000001
 40
0.0
 40
0.0
 40
0.0
 40
0.0
 40
0.0302401167
 40
0.0610588575
 40
0.0920194408
 40
0.1230955887
 40
0.1542414822
 40
0.1854357275
 40
0.247938162
 40
0.3105365528
 40
0.3731724008
 40
0.4358399449
 40
0.4985318675
 40
0.6239414335
 40
0.7493556149
 40
0.8747338166
 40
1.0
 40
1.0
 40
1.0
 40
1.0
 10
52.3222393326
 20
32.0011886503
 30
0.0
 10
52.3867242616
 20
32.0947956999
 30
0.0
 10
52.5068480801
 20
32.2906992707
 30
0.0
 10
52.6722656546
 20
32.5945160847
 30
0.0
 10
52.8281848162
 20
32.9068698074
 30
0.0
 10
52.9752043907
 20
33.2248212101
 30
0.0
 10
53.1154959368
 20
33.5467448712
 30
0.0
 10
53.2945496436
 20
33.9805367732
 30
0.0
 10
53.5049377763
 20
34.5291598057
 30
0.0
 10
53.7424401639
 20
35.1937197619
 30
0.0
 10
53.9663739639
 20
35.8636279365
 30
0.0
 10
54.1782148569
 20
36.5378152742
 30
0.0
 10
54.4459491922
 20
37.441634636
 30
0.0
 10
54.7555706346
 20
38.578889149
 30
0.0
 10
55.0869522786
 20
39.9538147158
 30
0.0
 10
55.3776934319
 20
41.3373455954
 30
0.0
 10
55.539942484
 20
42.265718526
 30
0.0
 10
55.6102548462
 20
42.7312987996
 30
0.0
  0
SPLINE
  5
30F
100
AcDbEntity
  8
0
100
AcDbSpline
 62
7
  6
CONTINUOUS
 70
0
 71
3
 72
13
 73
9
 74
0
 42
0.0000001
 43
0.0000001
 44
0.0000000001
 40
0.0
 40
0.0
 40
0.0
 40
0.0
 40
0.0223815485
 40
0.0844228271
 40
0.1830449692
 40
0.3105290721
 40
0.6320712699
 40
1.0
 40
1.0
 40
1.0
 40
1.0
 10
55.4728860004
 20
36.7806296813
 30
0.0
 10
55.4680609026
 20
36.7686279352
 30
0.0
 10
55.449743654
 20
36.7234047188
 30
0.0
 10
55.410251305
 20
36.6252621663
 30
0.0
 10
55.3480635588
 20
36.4707749717
 30
0.0
 10
55.2295974688
 20
36.1772691792
 30
0.0
 10
55.0524750331
 20
35.7395934478
 30
0.0
 10
54.9011721267
 20
35.3709535315
 30
0.0
 10
54.8195789316
 20
35.1745870691
 30
0.0
  0
SPLINE
  5
310
100
AcDbEntity
  8
0
100
AcDbSpline
 62
7
  6
CONTINUOUS
 70
0
 71
3
 72
9
 73
5
 74
0
 42
0.0000001
 43
0.0000001
 44
0.0000000001
 40
0.0
 40
0.0
 40
0.0
 40
0.0
 40
0.4999977044
 40
1.0
 40
1.0
 40
1.0
 40
1.0
 10
35.2775498978
 20
99.4808476615
 30
0.0
 10
35.203996216
 20
99.9282844232
 30
0.0
 10
35.0392432753
 20
100.8203088167
 30
0.0
 10
34.8462907566
 20
101.7065718553
 30
0.0
 10
34.7436930158
 20
102.1482587121
 30
0.0
  0
SPLINE
  5
311
100
AcDbEntity
  8
0
100
AcDbSpline
 62
7
  6
CONTINUOUS
 70
0
 71
3
 72
10
 73
6
 74
0
 42
0.0000001
 43
0.0000001
 44
0.0000000001
 40
0.0
 40
0.0
 40
0.0
 40
0.0
 40
0.5005665965
 40
0.7504370838
 40
1.0
 40
1.0
 40
1.0
 40
1.0
 10
35.5697066614
 20
102.2257101987
 30
0.0
 10
35.7084916444
 20
101.7717407095
 30
0.0
 10
35.9073162675
 20
101.0882589453
 30
0.0
 10
36.1502999174
 20
100.1715394156
 30
0.0
 10
36.2637092224
 20
99.7116463098
 30
0.0
 10
36.3180453225
 20
99.481296274
 30
0.0
  0
SPLINE
  5
312
100
AcDbEntity
  8
0
100
AcDbSpline
 62
7
  6
CONTINUOUS
 70
0
 71
3
 72
12
 73
8
 74
0
 42
0.0000001
 43
0.0000001
 44
0.0000000001
 40
0.0
 40
0.0
 40
0.0
 40
0.0
 40
0.1450294145
 40
0.2423159115
 40
0.3577318046
 40
0.6424375475
 40
1.0
 40
1.0
 40
1.0
 40
1.0
 10
34.2342827742
 20
104.942182615
 30
0.0
 10
34.2273933127
 20
104.941401512
 30
0.0
 10
34.2156378827
 20
104.9456350614
 30
0.0
 10
34.2014972049
 20
104.9549864259
 30
0.0
 10
34.1832254948
 20
104.9703776522
 30
0.0
 10
34.1586693228
 20
104.9971000196
 30
0.0
 10
34.1400507827
 20
105.0215630803
 30
0.0
 10
34.1301132273
 20
105.0354722303
 30
0.0
  0
SPLINE
  5
313
100
AcDbEntity
  8
0
100
AcDbSpline
 62
7
  6
CONTINUOUS
 70
0
 71
3
 72
9
 73
5
 74
0
 42
0.0000001
 43
0.0000001
 44
0.0000000001
 40
0.0
 40
0.0
 40
0.0
 40
0.0
 40
0.4656743162
 40
1.0
 40
1.0
 40
1.0
 40
1.0
 10
34.0919455768
 20
105.0929813281
 30
0.0
 10
34.0759071311
 20
105.1187035498
 30
0.0
 10
34.043108381
 20
105.174963047
 30
0.0
 10
34.0124134665
 20
105.232378369
 30
0.0
 10
33.9964792863
 20
105.263295374
 30
0.0
  0
SPLINE
  5
314
100
AcDbEntity
  8
0
100
AcDbSpline
 62
7
  6
CONTINUOUS
 70
0
 71
3
 72
9
 73
5
 74
0
 42
0.0000001
 43
0.0000001
 44
0.0000000001
 40
0.0
 40
0.0
 40
0.0
 40
0.0
 40
0.4734631651
 40
1.0
 40
1.0
 40
1.0
 40
1.0
 10
33.9880202329
 20
105.2798201929
 30
0.0
 10
33.9698710036
 20
105.3155149968
 30
0.0
 10
33.9328598683
 20
105.3915834841
 30
0.0
 10
33.8982064907
 20
105.4687450189
 30
0.0
 10
33.8803001829
 20
105.5095190811
 30
0.0
  0
SPLINE
  5
315
100
AcDbEntity
  8
0
100
AcDbSpline
 62
7
  6
CONTINUOUS
 70
0
 71
3
 72
11
 73
7
 74
0
 42
0.0000001
 43
0.0000001
 44
0.0000000001
 40
0.0
 40
0.0
 40
0.0
 40
0.0
 40
0.2315598942
 40
0.476057979
 40
0.7341695498
 40
1.0
 40
1.0
 40
1.0
 40
1.0
 10
33.8418574047
 20
105.5983895964
 30
0.0
 10
33.8198038672
 20
105.6500455346
 30
0.0
 10
33.7750892616
 20
105.756513033
 30
0.0
 10
33.7090795197
 20
105.9219194662
 30
0.0
 10
33.6436136933
 20
106.0964450673
 30
0.0
 10
33.6002777749
 20
106.2159155599
 30
0.0
 10
33.578528111
 20
106.2766158641
 30
0.0
  0
SPLINE
  5
316
100
AcDbEntity
  8
0
100
AcDbSpline
 62
7
  6
CONTINUOUS
 70
0
 71
3
 72
9
 73
5
 74
0
 42
0.0000001
 43
0.0000001
 44
0.0000000001
 40
0.0
 40
0.0
 40
0.0
 40
0.0
 40
0.5368350572
 40
1.0
 40
1.0
 40
1.0
 40
1.0
 10
33.1760423695
 20
107.5016799398
 30
0.0
 10
33.1575715415
 20
107.5630389008
 30
0.0
 10
33.1237188501
 20
107.6775038954
 30
0.0
 10
33.0914667905
 20
107.7924371955
 30
0.0
 10
33.0772091768
 20
107.8458523495
 30
0.0
  0
SPLINE
  5
317
100
AcDbEntity
  8
0
100
AcDbSpline
 62
7
  6
CONTINUOUS
 70
0
 71
3
 72
9
 73
5
 74
0
 42
0.0000001
 43
0.0000001
 44
0.0000000001
 40
0.0
 40
0.0
 40
0.0
 40
0.0
 40
0.2638476356
 40
1.0
 40
1.0
 40
1.0
 40
1.0
 10
33.0600152525
 20
107.9119546235
 30
0.0
 10
33.0585119396
 20
107.9179114119
 30
0.0
 10
33.052865306
 20
107.9405007957
 30
0.0
 10
33.0474319843
 20
107.9631441378
 30
0.0
 10
33.0436070393
 20
107.9798528536
 30
0.0
  0
SPLINE
  5
318
100
AcDbEntity
  8
0
100
AcDbSpline
 62
7
  6
CONTINUOUS
 70
0
 71
3
 72
9
 73
5
 74
0
 42
0.0000001
 43
0.0000001
 44
0.0000000001
 40
0.0
 40
0.0
 40
0.0
 40
0.0
 40
0.2719689226
 40
1.0
 40
1.0
 40
1.0
 40
1.0
 10
33.0436070393
 20
107.9798528536
 30
0.0
 10
33.0421676941
 20
107.9861404239
 30
0.0
 10
33.0369703921
 20
108.0092802543
 30
0.0
 10
33.0321647594
 20
108.0325119193
 30
0.0
 10
33.0290569173
 20
108.0494964393
 30
0.0
  0
SPLINE
  5
319
100
AcDbEntity
  8
0
100
AcDbSpline
 62
7
  6
CONTINUOUS
 70
0
 71
3
 72
16
 73
12
 74
0
 42
0.0000001
 43
0.0000001
 44
0.0000000001
 40
0.0
 40
0.0
 40
0.0
 40
0.0
 40
0.2137439916
 40
0.3999501956
 40
0.5594389896
 40
0.6932088795
 40
0.8022631626
 40
0.88493078
 40
0.9429367409
 40
0.9692803194
 40
1.0
 40
1.0
 40
1.0
 40
1.0
 10
33.0263039188
 20
108.0652630699
 30
0.0
 10
33.0250903759
 20
108.0725945272
 30
0.0
 10
33.0230001295
 20
108.0863444729
 30
0.0
 10
33.0207658087
 20
108.1056699927
 30
0.0
 10
33.0196378052
 20
108.1223122399
 30
0.0
 10
33.0195712527
 20
108.1363033859
 30
0.0
 10
33.0205890298
 20
108.1476231264
 30
0.0
 10
33.0224905402
 20
108.1560637312
 30
0.0
 10
33.0261122271
 20
108.1612305509
 30
0.0
 10
33.0301552454
 20
108.1622241142
 30
0.0
 10
33.0321479258
 20
108.1618202509
 30
0.0
 10
33.0331621613
 20
108.1614855721
 30
0.0
  0
SPLINE
  5
31A
100
AcDbEntity
  8
0
100
AcDbSpline
 62
7
  6
CONTINUOUS
 70
0
 71
3
 72
46
 73
42
 74
0
 42
0.0000001
 43
0.0000001
 44
0.0000000001
 40
0.0
 40
0.0
 40
0.0
 40
0.0
 40
0.0002662177
 40
0.0005203509
 40
0.0008413425
 40
0.0012634221
 40
0.002432898
 40
0.0040118695
 40
0.0081598213
 40
0.0134015561
 40
0.0164393868
 40
0.0197644738
 40
0.0273035511
 40
0.0360521823
 40
0.0459612482
 40
0.0689790491
 40
0.0958553964
 40
0.1263774382
 40
0.1603387017
 40
0.1972402458
 40
0.2365668312
 40
0.3212011627
 40
0.4116125532
 40
0.5050045302
 40
0.5985378727
 40
0.6892897894
 40
0.7743374091
 40
0.8135754108
 40
0.8500438835
 40
0.8833385843
 40
0.9130438676
 40
0.9387611437
 40
0.9602014102
 40
0.969239668
 40
0.9771003955
 40
0.9837367076
 40
0.9891088982
 40
0.9932275222
 40
0.9962354313
 40
0.9983631603
 40
1.0
 40
1.0
 40
1.0
 40
1.0
 10
33.2298504028
 20
108.1668462447
 30
0.0
 10
33.2300020714
 20
108.1671171746
 30
0.0
 10
33.2304266285
 20
108.1676132352
 30
0.0
 10
33.2314547884
 20
108.1677787999
 30
0.0
 10
33.2325796158
 20
108.1674104775
 30
0.0
 10
33.2345036073
 20
108.1662685561
 30
0.0
 10
33.2372582789
 20
108.163762721
 30
0.0
 10
33.2426748205
 20
108.1578225742
 30
0.0
 10
33.2504881803
 20
108.1476656325
 30
0.0
 10
33.2588354121
 20
108.135819055
 30
0.0
 10
33.2663329009
 20
108.1245489259
 30
0.0
 10
33.2751119654
 20
108.1109168817
 30
0.0
 10
33.2871064305
 20
108.0914361926
 30
0.0
 10
33.3026173962
 20
108.0651110535
 30
0.0
 10
33.3266731611
 20
108.0228727487
 30
0.0
 10
33.3601037605
 20
107.96165124
 30
0.0
 10
33.403746494
 20
107.8786301352
 30
0.0
 10
33.4520530766
 20
107.7836517089
 30
0.0
 10
33.5044329284
 20
107.6776368976
 30
0.0
 10
33.5602499502
 20
107.5618734521
 30
0.0
 10
33.6402795325
 20
107.3921799952
 30
0.0
 10
33.7441962394
 20
107.1647608588
 30
0.0
 10
33.8701911828
 20
106.8781380361
 30
0.0
 10
33.9962038259
 20
106.5802200893
 30
0.0
 10
34.1182509536
 20
106.2802252185
 30
0.0
 10
34.2321937233
 20
105.9874798001
 30
0.0
 10
34.3195385198
 20
105.7523634641
 30
0.0
 10
34.3821354414
 20
105.575628144
 30
0.0
 10
34.4232061631
 20
105.4553118337
 30
0.0
 10
34.459209265
 20
105.3450241814
 30
0.0
 10
34.489716718
 20
105.2461446936
 30
0.0
 10
34.5143201595
 20
105.1599335532
 30
0.0
 10
34.5305240866
 20
105.0964092932
 30
0.0
 10
34.540099935
 20
105.052726265
 30
0.0
 10
34.5452112896
 20
105.025752277
 30
0.0
 10
34.5486428777
 20
105.0028245989
 30
0.0
 10
34.5503778263
 20
104.9840845911
 30
0.0
 10
34.5504010409
 20
104.9694658273
 30
0.0
 10
34.5488067974
 20
104.9587533287
 30
0.0
 10
34.5456563042
 20
104.9512988815
 30
0.0
 10
34.5419118337
 20
104.948490452
 30
0.0
 10
34.5400934055
 20
104.9479091838
 30
0.0
  0
LINE
  5
31B
100
AcDbEntity
  8
0
100
AcDbLine
 62
7
  6
CONTINUOUS
 10
34.7670685285
 20
102.0429629951
 11
35.1063981242
 21
102.1400248166
  0
SPLINE
  5
31C
100
AcDbEntity
  8
0
100
AcDbSpline
 62
7
  6
CONTINUOUS
 70
0
 71
3
 72
22
 73
18
 74
0
 42
0.0000001
 43
0.0000001
 44
0.0000000001
 40
0.0
 40
0.0
 40
0.0
 40
0.0
 40
0.1252624216
 40
0.2506377691
 40
0.3760484955
 40
0.5014545798
 40
0.5641449037
 40
0.6268108295
 40
0.6894450676
 40
0.7520421849
 40
0.814542868
 40
0.8457361509
 40
0.8768812014
 40
0.9079564423
 40
0.9389141994
 40
0.9697312498
 40
1.0
 40
1.0
 40
1.0
 40
1.0
 10
34.8102632572
 20
99.0013212566
 30
0.0
 10
34.7399701863
 20
99.4668883965
 30
0.0
 10
34.5776557915
 20
100.3952217816
 30
0.0
 10
34.286961445
 20
101.7787170794
 30
0.0
 10
33.9556027252
 20
103.15360557
 30
0.0
 10
33.6459984155
 20
104.2908269579
 30
0.0
 10
33.3782717057
 20
105.1946187483
 30
0.0
 10
33.1664352246
 20
105.8687857418
 30
0.0
 10
32.9425059992
 20
106.5386748453
 30
0.0
 10
32.705014081
 20
107.2032172681
 30
0.0
 10
32.4946384559
 20
107.7518266504
 30
0.0
 10
32.3156008396
 20
108.1856088647
 30
0.0
 10
32.1753239285
 20
108.5075262847
 30
0.0
 10
32.0283239585
 20
108.8254666429
 30
0.0
 10
31.8724134226
 20
109.1377999072
 30
0.0
 10
31.7068634293
 20
109.4416526785
 30
0.0
 10
31.5866709795
 20
109.6376161475
 30
0.0
 10
31.5222808146
 20
109.7314184788
 30
0.0
  0
SPLINE
  5
31D
100
AcDbEntity
  8
0
100
AcDbSpline
 62
7
  6
CONTINUOUS
 70
0
 71
3
 72
9
 73
5
 74
0
 42
0.0000001
 43
0.0000001
 44
0.0000000001
 40
0.0
 40
0.0
 40
0.0
 40
0.0
 40
0.4999480239
 40
1.0
 40
1.0
 40
1.0
 40
1.0
 10
35.761288516
 20
99.4813240558
 30
0.0
 10
35.6671367978
 20
99.9278766618
 30
0.0
 10
35.4614156554
 20
100.8174466856
 30
0.0
 10
35.2287520523
 20
101.7002636146
 30
0.0
 10
35.1064453498
 20
102.1400379506
 30
0.0
  0
SPLINE
  5
31E
100
AcDbEntity
  8
0
100
AcDbSpline
 62
7
  6
CONTINUOUS
 70
0
 71
3
 72
14
 73
10
 74
0
 42
0.0000001
 43
0.0000001
 44
0.0000000001
 40
0.0
 40
0.0
 40
0.0
 40
0.0
 40
0.0398952053
 40
0.1106424014
 40
0.2101359798
 40
0.3350044135
 40
0.4813764234
 40
0.644654102
 40
1.0
 40
1.0
 40
1.0
 40
1.0
 10
35.2502755229
 20
102.1772195219
 30
0.0
 10
35.2483022336
 20
102.1771092766
 30
0.0
 10
35.2428974774
 20
102.1760680102
 30
0.0
 10
35.2327290957
 20
102.1739052721
 30
0.0
 10
35.2185138327
 20
102.1704572195
 30
0.0
 10
35.2007135107
 20
102.1659456848
 30
0.0
 10
35.1798994775
 20
102.1604519807
 30
0.0
 10
35.1481047899
 20
102.151830344
 30
0.0
 10
35.1233675288
 20
102.1448878746
 30
0.0
 10
35.1064453115
 20
102.1400380882
 30
0.0
  0
SPLINE
  5
31F
100
AcDbEntity
  8
0
100
AcDbSpline
 62
7
  6
CONTINUOUS
 70
0
 71
3
 72
25
 73
21
 74
0
 42
0.0000001
 43
0.0000001
 44
0.0000000001
 40
0.0
 40
0.0
 40
0.0
 40
0.0
 40
0.062496499
 40
0.1249939689
 40
0.1874914001
 40
0.2499904916
 40
0.3749848046
 40
0.4999808193
 40
0.5624820454
 40
0.6249813946
 40
0.6874797241
 40
0.749983404
 40
0.8124940596
 40
0.8437443542
 40
0.874990821
 40
0.9062363719
 40
0.9374815731
 40
0.9531093705
 40
0.9687444262
 40
1.0
 40
1.0
 40
1.0
 40
1.0
 10
35.2974813853
 20
99.0013083505
 30
0.0
 10
35.2626332641
 20
99.2398640351
 30
0.0
 10
35.1870316945
 20
99.7161280412
 30
0.0
 10
35.0593464374
 20
100.4280759521
 30
0.0
 10
34.9190335922
 20
101.137653697
 30
0.0
 10
34.7164447597
 20
102.0805359264
 30
0.0
 10
34.4369046808
 20
103.2533360335
 30
0.0
 10
34.1223423035
 20
104.4172427687
 30
0.0
 10
33.8497405999
 20
105.3423394247
 30
0.0
 10
33.6336664942
 20
106.0326495075
 30
0.0
 10
33.4048584136
 20
106.7188655812
 30
0.0
 10
33.1616858705
 20
107.4001709536
 30
0.0
 10
32.9457294095
 20
107.9630685549
 30
0.0
 10
32.7614503228
 20
108.4087294861
 30
0.0
 10
32.6166460846
 20
108.7401223489
 30
0.0
 10
32.4643864216
 20
109.0681477227
 30
0.0
 10
32.3293530022
 20
109.3376218688
 30
0.0
 10
32.215271071
 20
109.5500827955
 30
0.0
 10
32.0969852111
 20
109.7602458634
 30
0.0
 10
32.0017731686
 20
109.9143060453
 30
0.0
 10
31.9336101889
 20
110.0137616753
 30
0.0
  0
LINE
  5
320
100
AcDbEntity
  8
0
100
AcDbLine
 62
7
  6
CONTINUOUS
 10
34.290255604
 20
105.8989363636
 11
34.3128366562
 21
105.8433832494
  0
SPLINE
  5
321
100
AcDbEntity
  8
0
100
AcDbSpline
 62
7
  6
CONTINUOUS
 70
0
 71
3
 72
11
 73
7
 74
0
 42
0.0000001
 43
0.0000001
 44
0.0000000001
 40
0.0
 40
0.0
 40
0.0
 40
0.0
 40
0.3965817109
 40
0.7138646693
 40
0.9236984177
 40
1.0
 40
1.0
 40
1.0
 40
1.0
 10
34.3128366562
 20
105.8433832494
 30
0.0
 10
34.360667078
 20
105.7256420807
 30
0.0
 10
34.446506923
 20
105.513598349
 30
0.0
 10
34.5572044759
 20
105.2390753227
 30
0.0
 10
34.6294806383
 20
105.059724304
 30
0.0
 10
34.6636766209
 20
104.9746464421
 30
0.0
 10
34.6728845146
 20
104.9519954589
 30
0.0
  0
SPLINE
  5
322
100
AcDbEntity
  8
0
100
AcDbSpline
 62
7
  6
CONTINUOUS
 70
0
 71
3
 72
9
 73
5
 74
0
 42
0.0000001
 43
0.0000001
 44
0.0000000001
 40
0.0
 40
0.0
 40
0.0
 40
0.0
 40
0.5000007224
 40
1.0
 40
1.0
 40
1.0
 40
1.0
 10
35.2502758011
 20
102.1772242616
 30
0.0
 10
35.3741072213
 20
101.7314075158
 30
0.0
 10
35.6097030987
 20
100.8363748505
 30
0.0
 10
35.8173408272
 20
99.934354314
 30
0.0
 10
35.91231791
 20
99.4815133839
 30
0.0
  0
LINE
  5
323
100
AcDbEntity
  8
0
100
AcDbLine
 62
7
  6
CONTINUOUS
 10
35.3012361769
 20
102.1480690567
 11
35.5420076433
 21
102.2233658958
  0
SPLINE
  5
324
100
AcDbEntity
  8
0
100
AcDbSpline
 62
7
  6
CONTINUOUS
 70
0
 71
3
 72
10
 73
6
 74
0
 42
0.0000001
 43
0.0000001
 44
0.0000000001
 40
0.0
 40
0.0
 40
0.0
 40
0.0
 40
0.249576774
 40
0.4994512909
 40
1.0
 40
1.0
 40
1.0
 40
1.0
 10
36.2830789109
 20
99.4813685606
 30
0.0
 10
36.2293361981
 20
99.71150893
 30
0.0
 10
36.1171210841
 20
100.1709854477
 30
0.0
 10
35.8765515052
 20
101.0868797408
 30
0.0
 10
35.6795540047
 20
101.7697723913
 30
0.0
 10
35.5419940453
 20
102.2233574135
 30
0.0
  0
SPLINE
  5
325
100
AcDbEntity
  8
0
100
AcDbSpline
 62
7
  6
CONTINUOUS
 70
0
 71
3
 72
9
 73
5
 74
0
 42
0.0000001
 43
0.0000001
 44
0.0000000001
 40
0.0
 40
0.0
 40
0.0
 40
0.0
 40
0.5068219033
 40
1.0
 40
1.0
 40
1.0
 40
1.0
 10
34.2341219955
 20
104.942180382
 30
0.0
 10
34.2262554778
 20
104.9670195065
 30
0.0
 10
34.2008509876
 20
105.0134423596
 30
0.0
 10
34.1597065528
 20
105.0466241373
 30
0.0
 10
34.1372850061
 20
105.0584596746
 30
0.0
  0
SPLINE
  5
326
100
AcDbEntity
  8
0
100
AcDbSpline
 62
7
  6
CONTINUOUS
 70
0
 71
3
 72
9
 73
5
 74
0
 42
0.0000001
 43
0.0000001
 44
0.0000000001
 40
0.0
 40
0.0
 40
0.0
 40
0.0
 40
0.5730682157
 40
1.0
 40
1.0
 40
1.0
 40
1.0
 10
34.2341222139
 20
104.9421804991
 30
0.0
 10
34.2925597982
 20
104.9428080015
 30
0.0
 10
34.3945298295
 20
104.9441716699
 30
0.0
 10
34.4964875751
 20
104.9464602092
 30
0.0
 10
34.5400016183
 20
104.9479073012
 30
0.0
  0
SPLINE
  5
327
100
AcDbEntity
  8
0
100
AcDbSpline
 62
7
  6
CONTINUOUS
 70
0
 71
3
 72
17
 73
13
 74
0
 42
0.0000001
 43
0.0000001
 44
0.0000000001
 40
0.0
 40
0.0
 40
0.0
 40
0.0
 40
0.0050792873
 40
0.0202321859
 40
0.0458372239
 40
0.0819832852
 40
0.1818697993
 40
0.3097773796
 40
0.4622253689
 40
0.6319339669
 40
0.8131083126
 40
1.0
 40
1.0
 40
1.0
 40
1.0
 10
33.3166772506
 20
108.1675602767
 30
0.0
 10
33.3179686362
 20
108.1648814727
 30
0.0
 10
33.3229123822
 20
108.1541159858
 30
0.0
 10
33.3343191894
 20
108.1298244888
 30
0.0
 10
33.3532602808
 20
108.0889759434
 30
0.0
 10
33.3930290289
 20
108.0031018971
 30
0.0
 10
33.4573327474
 20
107.8625824204
 30
0.0
 10
33.5483647265
 20
107.6594176864
 30
0.0
 10
33.6545003224
 20
107.4182313883
 30
0.0
 10
33.7713561731
 20
107.1476970242
 30
0.0
 10
33.8944452225
 20
106.8578948839
 30
0.0
 10
33.9775856957
 20
106.6590817934
 30
0.0
 10
34.0195768088
 20
106.5580379782
 30
0.0
  0
SPLINE
  5
328
100
AcDbEntity
  8
0
100
AcDbSpline
 62
7
  6
CONTINUOUS
 70
0
 71
3
 72
35
 73
31
 74
0
 42
0.0000001
 43
0.0000001
 44
0.0000000001
 40
0.0
 40
0.0
 40
0.0
 40
0.0
 40
0.0016651649
 40
0.0036016631
 40
0.006316924
 40
0.0100096946
 40
0.0147557828
 40
0.0205769252
 40
0.0274711782
 40
0.0354284307
 40
0.0444341428
 40
0.0544645709
 40
0.0774684735
 40
0.1041677559
 40
0.1342424593
 40
0.1673400227
 40
0.2031023968
 40
0.2411673266
 40
0.2811713558
 40
0.3655551845
 40
0.4535782093
 40
0.630625285
 40
0.7150166717
 40
0.793578831
 40
0.8638874658
 40
0.9234494071
 40
0.9483836611
 40
0.9696496141
 40
0.9869412995
 40
1.0
 40
1.0
 40
1.0
 40
1.0
 10
34.3518970353
 20
105.0813172847
 30
0.0
 10
34.3536027746
 20
105.0813245528
 30
0.0
 10
34.3574362599
 20
105.0826204414
 30
0.0
 10
34.3608309652
 20
105.088521437
 30
0.0
 10
34.3624453158
 20
105.0969358759
 30
0.0
 10
34.3626908237
 20
105.1084080452
 30
0.0
 10
34.3614782306
 20
105.1229743943
 30
0.0
 10
34.3588169791
 20
105.1406735548
 30
0.0
 10
34.3546900894
 20
105.1614489805
 30
0.0
 10
34.3491017128
 20
105.1852442379
 30
0.0
 10
34.3420574116
 20
105.2119859415
 30
0.0
 10
34.3301926246
 20
105.2533867548
 30
0.0
 10
34.3117538542
 20
105.3117430023
 30
0.0
 10
34.2852280777
 20
105.3890464339
 30
0.0
 10
34.2536961118
 20
105.4755453069
 30
0.0
 10
34.2175235208
 20
105.5702198136
 30
0.0
 10
34.1771112779
 20
105.6720260612
 30
0.0
 10
34.1328972984
 20
105.7799269076
 30
0.0
 10
34.0682916555
 20
105.9332892513
 30
0.0
 10
33.9810778536
 20
106.1326476616
 30
0.0
 10
33.8324979813
 20
106.4583389413
 30
0.0
 10
33.6768347319
 20
106.7807701845
 30
0.0
 10
33.5187075555
 20
107.0911035643
 30
0.0
 10
33.4070088601
 20
107.3023496864
 30
0.0
 10
33.3040556588
 20
107.4894132625
 30
0.0
 10
33.2248007303
 20
107.6267869831
 30
0.0
 10
33.1686355661
 20
107.7194355399
 30
0.0
 10
33.1339248501
 20
107.7744465109
 30
0.0
 10
33.1045909613
 20
107.8184401103
 30
0.0
 10
33.0863878502
 20
107.8436709558
 30
0.0
 10
33.0780975476
 20
107.8541693118
 30
0.0
  0
SPLINE
  5
329
100
AcDbEntity
  8
0
100
AcDbSpline
 62
7
  6
CONTINUOUS
 70
0
 71
3
 72
22
 73
18
 74
0
 42
0.0000001
 43
0.0000001
 44
0.0000000001
 40
0.0
 40
0.0
 40
0.0
 40
0.0
 40
0.0304360215
 40
0.0611386006
 40
0.0920651535
 40
0.1231496974
 40
0.1543104205
 40
0.1855189587
 40
0.2480158406
 40
0.3106018115
 40
0.3732314259
 40
0.4358951007
 40
0.4985827524
 40
0.6239806878
 40
0.7493857038
 40
0.8747508876
 40
1.0
 40
1.0
 40
1.0
 40
1.0
 10
33.6201114454
 20
20.7310591697
 30
0.0
 10
33.685138225
 20
20.8254219957
 30
0.0
 10
33.8056800558
 20
21.0218561919
 30
0.0
 10
33.9726254655
 20
21.3257127497
 30
0.0
 10
34.1276712968
 20
21.6385857226
 30
0.0
 10
34.274128688
 20
21.9573957059
 30
0.0
 10
34.4140682068
 20
22.2802738983
 30
0.0
 10
34.5930040387
 20
22.7150628165
 30
0.0
 10
34.8042235754
 20
23.2644139873
 30
0.0
 10
35.0415005324
 20
23.9302329816
 30
0.0
 10
35.2652540553
 20
24.6013677219
 30
0.0
 10
35.4769981519
 20
25.2767809366
 30
0.0
 10
35.7445462442
 20
26.1822411335
 30
0.0
 10
36.0535264443
 20
27.3216337862
 30
0.0
 10
36.3847766217
 20
28.6989210363
 30
0.0
 10
36.6744257347
 20
30.0849735277
 30
0.0
 10
36.8362260375
 20
31.0149276578
 30
0.0
 10
36.9061102178
 20
31.481312291
 30
0.0
  0
SPLINE
  5
32A
100
AcDbEntity
  8
0
100
AcDbSpline
 62
7
  6
CONTINUOUS
 70
0
 71
3
 72
21
 73
17
 74
0
 42
0.0000001
 43
0.0000001
 44
0.0000000001
 40
0.0
 40
0.0
 40
0.0
 40
0.0
 40
0.0625008073
 40
0.1250038968
 40
0.2499999524
 40
0.3749963837
 40
0.4999925346
 40
0.5624922829
 40
0.6249922144
 40
0.687492474
 40
0.7499924808
 40
0.8124940512
 40
0.8749953607
 40
0.9062471522
 40
0.9375038357
 40
1.0
 40
1.0
 40
1.0
 40
1.0
 10
37.3934914555
 20
31.481324516
 30
0.0
 10
37.3588413674
 20
31.2423404208
 30
0.0
 10
37.2835701243
 20
30.7652154275
 30
0.0
 10
37.1136004317
 20
29.8143243601
 30
0.0
 10
36.8703124632
 20
28.631462639
 30
0.0
 10
36.5348457401
 20
27.2217999941
 30
0.0
 10
36.2210786317
 20
26.0557066038
 30
0.0
 10
35.9484803564
 20
25.1290327462
 30
0.0
 10
35.7326875147
 20
24.4374397364
 30
0.0
 10
35.5039788738
 20
23.7500002513
 30
0.0
 10
35.2610318643
 20
23.067440917
 30
0.0
 10
35.0010517918
 20
22.3911447933
 30
0.0
 10
34.7662580394
 20
21.8348067741
 30
0.0
 10
34.5641101969
 20
21.3960460386
 30
0.0
 10
34.3484792994
 20
20.9639533112
 30
0.0
 10
34.1677310211
 20
20.6487705457
 30
0.0
 10
34.0314574042
 20
20.4494344876
 30
0.0
  0
SPLINE
  5
32B
100
AcDbEntity
  8
0
100
AcDbSpline
 62
7
  6
CONTINUOUS
 70
0
 71
3
 72
18
 73
14
 74
0
 42
0.0000001
 43
0.0000001
 44
0.0000000001
 40
0.0
 40
0.0
 40
0.0
 40
0.0
 40
0.0101583307
 40
0.0291265588
 40
0.0567405702
 40
0.092761213
 40
0.136842475
 40
0.1886191737
 40
0.3133187701
 40
0.4624375201
 40
0.6306125094
 40
0.8120381688
 40
1.0
 40
1.0
 40
1.0
 40
1.0
 10
54.8314478124
 20
98.7632018015
 30
0.0
 10
54.8301510648
 20
98.7621178521
 30
0.0
 10
54.8260984586
 20
98.7594373028
 30
0.0
 10
54.818281489
 20
98.7541603093
 30
0.0
 10
54.806865459
 20
98.7465007152
 30
0.0
 10
54.7920833101
 20
98.7363707862
 30
0.0
 10
54.7739916781
 20
98.7239549837
 30
0.0
 10
54.7437350345
 20
98.7031919813
 30
0.0
 10
54.699038256
 20
98.6725849236
 30
0.0
 10
54.6383193366
 20
98.6310999898
 30
0.0
 10
54.5699652504
 20
98.5840595393
 30
0.0
 10
54.4960116443
 20
98.5337624147
 30
0.0
 10
54.4451501163
 20
98.4992551623
 30
0.0
 10
54.4195940432
 20
98.4812311543
 30
0.0
  0
SPLINE
  5
32C
100
AcDbEntity
  8
0
100
AcDbSpline
 62
7
  6
CONTINUOUS
 70
0
 71
3
 72
24
 73
20
 74
0
 42
0.0000001
 43
0.0000001
 44
0.0000000001
 40
0.0
 40
0.0
 40
0.0
 40
0.0
 40
0.1252533073
 40
0.2506216183
 40
0.3760290345
 40
0.5014299754
 40
0.5641185654
 40
0.6267834977
 40
0.6894146111
 40
0.752001147
 40
0.8145007285
 40
0.8457055463
 40
0.876868475
 40
0.9079622964
 40
0.938892409
 40
0.9542708917
 40
0.9695936116
 40
0.9848654758
 40
1.0
 40
1.0
 40
1.0
 40
1.0
 10
57.7061137775
 20
87.7313125406
 30
0.0
 10
57.6362471493
 20
88.1977196142
 30
0.0
 10
57.4743801728
 20
89.1276982743
 30
0.0
 10
57.1847763193
 20
90.5138086361
 30
0.0
 10
56.8534604031
 20
91.8911252942
 30
0.0
 10
56.544511634
 20
93.0305603816
 30
0.0
 10
56.2769653165
 20
93.9360496886
 30
0.0
 10
56.0652007212
 20
94.6114772023
 30
0.0
 10
55.8413967707
 20
95.2826144429
 30
0.0
 10
55.6041227837
 20
95.948458284
 30
0.0
 10
55.3929724153
 20
96.4978407214
 30
0.0
 10
55.2139030131
 20
96.9325848147
 30
0.0
 10
55.0739143758
 20
97.2554733482
 30
0.0
 10
54.9276382218
 20
97.5744368274
 30
0.0
 10
54.7980568867
 20
97.8355649777
 30
0.0
 10
54.6885416973
 20
98.0401741779
 30
0.0
 10
54.6032663675
 20
98.190836288
 30
0.0
 10
54.5144662228
 20
98.3383698535
 30
0.0
 10
54.4523537714
 20
98.4345974497
 30
0.0
 10
54.4200885539
 20
98.4815686058
 30
0.0
  0
SPLINE
  5
32D
100
AcDbEntity
  8
0
100
AcDbSpline
 62
7
  6
CONTINUOUS
 70
0
 71
3
 72
23
 73
19
 74
0
 42
0.0000001
 43
0.0000001
 44
0.0000000001
 40
0.0
 40
0.0
 40
0.0
 40
0.0
 40
0.1249911492
 40
0.2499858217
 40
0.3749809326
 40
0.4999767207
 40
0.5624761225
 40
0.6249752572
 40
0.6874750549
 40
0.7499732745
 40
0.7812235493
 40
0.8124766598
 40
0.8749784815
 40
0.9062295775
 40
0.9374825188
 40
0.9531147273
 40
0.9687509819
 40
1.0
 40
1.0
 40
1.0
 40
1.0
 10
58.1934451238
 20
87.7313008388
 30
0.0
 10
58.1241076095
 20
88.2092368731
 30
0.0
 10
57.9622782502
 20
89.1618106456
 30
0.0
 10
57.6702991902
 20
90.5811466953
 30
0.0
 10
57.3348661381
 20
91.9908701488
 30
0.0
 10
57.0210327457
 20
93.1569680422
 30
0.0
 10
56.748484373
 20
94.0836804822
 30
0.0
 10
56.5326265797
 20
94.7752687403
 30
0.0
 10
56.304012461
 20
95.4627471919
 30
0.0
 10
56.101458477
 20
96.0315253965
 30
0.0
 10
55.9309076836
 20
96.4834062728
 30
0.0
 10
55.7542363784
 20
96.9329347943
 30
0.0
 10
55.5666083353
 20
97.3781609401
 30
0.0
 10
55.3637298581
 20
97.8165344783
 30
0.0
 10
55.2288245315
 20
98.086688244
 30
0.0
 10
55.1148441574
 20
98.2996997642
 30
0.0
 10
54.9964185875
 20
98.5102301415
 30
0.0
 10
54.9006528132
 20
98.6642612106
 30
0.0
 10
54.8323552618
 20
98.7638277803
 30
0.0
  0
SPLINE
  5
32E
100
AcDbEntity
  8
0
100
AcDbSpline
 62
7
  6
CONTINUOUS
 70
0
 71
3
 72
11
 73
7
 74
0
 42
0.0000001
 43
0.0000001
 44
0.0000000001
 40
0.0
 40
0.0
 40
0.0
 40
0.0
 40
0.2499585116
 40
0.4999045101
 40
0.7498829547
 40
1.0
 40
1.0
 40
1.0
 40
1.0
 10
81.357689963
 20
43.4313124514
 30
0.0
 10
81.357689963
 20
43.3656452924
 30
0.0
 10
81.3304257636
 20
43.2328607888
 30
0.0
 10
81.215703305
 20
43.066486379
 30
0.0
 10
81.0461473876
 20
42.9568773567
 30
0.0
 10
80.9134423207
 20
42.9313124514
 30
0.0
 10
80.8477335129
 20
42.9313124514
 30
0.0
  0
SPLINE
  5
32F
100
AcDbEntity
  8
0
100
AcDbSpline
 62
7
  6
CONTINUOUS
 70
0
 71
3
 72
11
 73
7
 74
0
 42
0.0000001
 43
0.0000001
 44
0.0000000001
 40
0.0
 40
0.0
 40
0.0
 40
0.0
 40
0.2499772051
 40
0.4999595373
 40
0.7500797734
 40
1.0
 40
1.0
 40
1.0
 40
1.0
 10
81.4134594235
 20
43.0022661897
 30
0.0
 10
81.4504437473
 20
43.0241419388
 30
0.0
 10
81.5190729064
 20
43.0777142125
 30
0.0
 10
81.5979219815
 20
43.1814928567
 30
0.0
 10
81.6475354268
 20
43.3020009192
 30
0.0
 10
81.6589606496
 20
43.3883526215
 30
0.0
 10
81.6589606496
 20
43.4313124514
 30
0.0
  0
SPLINE
  5
330
100
AcDbEntity
  8
0
100
AcDbSpline
 62
7
  6
CONTINUOUS
 70
0
 71
3
 72
11
 73
7
 74
0
 42
0.0000001
 43
0.0000001
 44
0.0000000001
 40
0.0
 40
0.0
 40
0.0
 40
0.0
 40
0.2451935162
 40
0.4931854503
 40
0.7451678277
 40
1.0
 40
1.0
 40
1.0
 40
1.0
 10
80.2271873771
 20
42.9313124514
 30
0.0
 10
80.2896694013
 20
42.9313124519
 30
0.0
 10
80.4168069656
 20
42.957714636
 30
0.0
 10
80.5761505046
 20
43.0698193827
 30
0.0
 10
80.6821435746
 20
43.2358822953
 30
0.0
 10
80.7067398294
 20
43.3663742337
 30
0.0
 10
80.7067398294
 20
43.4313124514
 30
0.0
  0
SPLINE
  5
331
100
AcDbEntity
  8
0
100
AcDbSpline
 62
7
  6
CONTINUOUS
 70
0
 71
3
 72
20
 73
16
 74
0
 42
0.0000001
 43
0.0000001
 44
0.0000000001
 40
0.0
 40
0.0
 40
0.0
 40
0.0
 40
0.0061819909
 40
0.028082028
 40
0.0616518329
 40
0.1053235065
 40
0.1578940442
 40
0.2179056709
 40
0.2837656119
 40
0.354230483
 40
0.4284104749
 40
0.5054413989
 40
0.6657446638
 40
0.8316831711
 40
1.0
 40
1.0
 40
1.0
 40
1.0
 10
75.4335926957
 20
82.8139321634
 30
0.0
 10
75.4335926957
 20
82.8124766855
 30
0.0
 10
75.4248021707
 20
82.8223139178
 30
0.0
 10
75.4195823121
 20
82.8282035548
 30
0.0
 10
75.4006412947
 20
82.8472879138
 30
0.0
 10
75.3797576386
 20
82.8676141628
 30
0.0
 10
75.3532559334
 20
82.8938514894
 30
0.0
 10
75.3236439736
 20
82.9234197902
 30
0.0
 10
75.2909252845
 20
82.956145709
 30
0.0
 10
75.2558855082
 20
82.991174104
 30
0.0
 10
75.2189646984
 20
83.0280687061
 30
0.0
 10
75.1670679676
 20
83.0798915637
 30
0.0
 10
75.0998339322
 20
83.1469324104
 30
0.0
 10
75.017183955
 20
83.2289489651
 30
0.0
 10
74.9614996166
 20
83.2845593419
 30
0.0
 10
74.9335926957
 20
83.3126947528
 30
0.0
  0
SPLINE
  5
332
100
AcDbEntity
  8
0
100
AcDbSpline
 62
7
  6
CONTINUOUS
 70
0
 71
3
 72
26
 73
22
 74
0
 42
0.0000001
 43
0.0000001
 44
0.0000000001
 40
0.0
 40
0.0
 40
0.0
 40
0.0
 40
0.1682616642
 40
0.3341906682
 40
0.4945856862
 40
0.571602514
 40
0.64572826
 40
0.7161618576
 40
0.7820506429
 40
0.8421113892
 40
0.8948115267
 40
0.9179168415
 40
0.9385917958
 40
0.9566344486
 40
0.9718431578
 40
0.9840121947
 40
0.9929145341
 40
0.9960675648
 40
0.9983162455
 40
0.9996323434
 40
1.0
 40
1.0
 40
1.0
 40
1.0
 10
74.9335926957
 20
83.3126947528
 30
0.0
 10
74.9680803565
 20
83.2932099269
 30
0.0
 10
75.0361523105
 20
83.25376138
 30
0.0
 10
75.1366251247
 20
83.1949252519
 30
0.0
 10
75.2188759786
 20
83.1474817082
 30
0.0
 10
75.2823749375
 20
83.1107840103
 30
0.0
 10
75.3275168886
 20
83.0846474738
 30
0.0
 10
75.3703889348
 20
83.0598188515
 30
0.0
 10
75.4104142285
 20
83.0366815005
 30
0.0
 10
75.446825482
 20
83.0156343868
 30
0.0
 10
75.4744789552
 20
82.9995608522
 30
0.0
 10
75.4940763028
 20
82.9880811395
 30
0.0
 10
75.5066342611
 20
82.9807205302
 30
0.0
 10
75.5175921823
 20
82.9743230887
 30
0.0
 10
75.5268674596
 20
82.9689661267
 30
0.0
 10
75.5342655281
 20
82.9647965435
 30
0.0
 10
75.5393475139
 20
82.9619866889
 30
0.0
 10
75.5421674431
 20
82.9604216631
 30
0.0
 10
75.5437494133
 20
82.9595315042
 30
0.0
 10
75.5441969287
 20
82.9592502826
 30
0.0
 10
75.5448521124
 20
82.9588433797
 30
0.0
 10
75.5447685725
 20
82.9588207454
 30
0.0
  0
ENDSEC
  0
SECTION
  2
OBJECTS
  0
DICTIONARY
  5
C
100
AcDbDictionary
280
0
281
1
  3
ACAD_GROUP
350
D
  3
ACAD_MLINESTYLE
350
17
  3
ACAD_LAYOUT
350
1A
  3
ACAD_PLOTSETTINGS
350
19
  3
ACAD_PLOTSTYLENAME
350
E
  0
DICTIONARY
  5
D
102
{ACAD_REACTORS
330
C
102
}
100
AcDbDictionary
280
0
281
1
  0
ACDBDICTIONARYWDFLT
  5
E
102
{ACAD_REACTORS
330
C
102
}
100
AcDbDictionary
281
1
  3
Normal
350
F
100
AcDbDictionaryWithDefault
340
F
  0
DICTIONARY
  5
17
102
{ACAD_REACTORS
330
C
102
}
100
AcDbDictionary
280
0
281
1
  3
Standard
350
18
  0
DICTIONARY
  5
19
102
{ACAD_REACTORS
330
C
102
}
100
AcDbDictionary
281
1
  0
DICTIONARY
  5
1A
102
{ACAD_REACTORS
330
C
102
}
100
AcDbDictionary
281
1
  3
Model
350
333
  3
Layout1
350
334
  0
ACDBPLACEHOLDER
  5
F
102
{ACAD_REACTORS
330
E
102
}
  0
MLINESTYLE
  5
18
102
{ACAD_REACTORS
330
17
102
}
100
AcDbMlineStyle
  2
STANDARD
 70
0
  3

 62
256
 51
90.0
 52
90.0
 71
2
 49
0.5
 62
256
  6
BYLAYER
 49
-0.5
 62
256
  6
BYLAYER
  0
LAYOUT
  5
333
102
{ACAD_REACTORS
330
1A
102
}
100
AcDbPlotSettings
  1

  2
none_device
  4

  6

 40
0.0
 41
0.0
 42
0.0
 43
0.0
 44
210.0
 45
297.0
 46
0.0
 47
0.0
 48
0.0
 49
0.0
140
0.0
141
0.0
142
1.0
143
1.0
 70
1024
 72
1
 73
0
 74
0
  7

 75
0
147
1.0
148
0.0
149
0.0
100
AcDbLayout
  1
Model
 70
0
 71
0
 10
0.0
 20
0.0
 11
210.0
 21
297.0
 12
0.0
 22
0.0
 32
0.0
 14
0.0
 24
0.0
 34
0.0
 15
0.0
 25
0.0
 35
0.0
146
0.0
 13
0.0
 23
0.0
 33
0.0
 16
1.0
 26
0.0
 36
0.0
 17
0.0
 27
1.0
 37
0.0
 76
0
330
210
345
0
346
0
  0
LAYOUT
  5
334
102
{ACAD_REACTORS
330
1A
102
}
100
AcDbPlotSettings
  1

  2
none_device
  4

  6

 40
0.0
 41
0.0
 42
0.0
 43
0.0
 44
210.0
 45
297.0
 46
0.0
 47
0.0
 48
0.0
 49
0.0
140
0.0
141
0.0
142
1.0
143
1.0
 70
0
 72
1
 73
0
 74
0
  7

 75
0
147
1.0
148
0.0
149
0.0
100
AcDbLayout
  1
Layout1
 70
0
 71
1
 10
0.0
 20
0.0
 11
210.0
 21
297.0
 12
0.0
 22
0.0
 32
0.0
 14
0.0
 24
0.0
 34
0.0
 15
0.0
 25
0.0
 35
0.0
146
0.0
 13
0.0
 23
0.0
 33
0.0
 16
1.0
 26
0.0
 36
0.0
 17
0.0
 27
1.0
 37
0.0
 76
0
330
211
345
0
346
0
  0
ENDSEC
  0
EOF
