999
DXF file: C:\Users\sesa63760\Dev\_Creo\CAD\MCADID0001910_3D-CAD\drw0001_6.dxf
999
Pro/ENGINEER 2019471 by Parametric Technology Corporation
  0
SECTION
  2
HEADER
  9
$ACADVER
  1
AC1024
  9
$DWGCODEPAGE
  3
ANSI_1252
  9
$EXTMAX
 10
68.0591323795
 20
96.255058651
 30
0.0
  9
$EXTMIN
 10
0.0
 20
0.0
 30
0.0
  9
$LIMMIN
 10
0.0
 20
0.0
  9
$LIMMAX
 10
68.0591323795
 20
96.255058651
  9
$VIEWCTR
 10
34.0295661898
 20
48.1275293255
  9
$VIEWSIZE
 40
96.255058651
  9
$CLAYER
  8
0
  9
$LTSCALE
 40
6.2744038232
  9
$CELTYPE
  6
BYLAYER
  9
$DIMSCALE
 40
1.0
  9
$DIMASZ
 40
0.8102277664
  9
$DIMEXO
 40
1.0
  9
$DIMDLI
 40
4.3350426415
  9
$DIMEXE
 40
1.0
  9
$DIMCEN
 40
1.0267206256
  9
$DIMLFAC
 40
1.0
  9
$DIMBLK
  1
_FILLED
  9
$DIMALT
 70
0
  9
$DIMALTF
 40
0.0393700787
  9
$DIMTXT
 40
1.134318873
  9
$DIMTOL
 70
1
  9
$DIMLIM
 70
0
  9
$DIMTFAC
 40
1.0
  9
$DIMTP
 40
0.01
  9
$DIMTM
 40
0.01
  9
$DIMGAP
 40
0.625
  9
$DIMDSEP
 70
46
  9
$AUNITS
 70
0
  9
$PDMODE
 70
3
  9
$PDSIZE
 40
0.3125
  9
$HANDSEED
  5
3B3
  9
$TILEMODE
 70
1
  9
$MEASUREMENT
 70
1
  9
$INSUNITS
 70
4
  0
ENDSEC
  0
SECTION
  2
CLASSES
  0
CLASS
  1
ACDBDICTIONARYWDFLT
  2
AcDbDictionaryWithDefault
  3
AutoCAD 2000
 90
0
 91
1
280
0
281
0
  0
CLASS
  1
ACDBPLACEHOLDER
  2
AcDbPlaceHolder
  3
AutoCAD 2000
 90
0
 91
1
280
0
281
0
  0
CLASS
  1
LAYOUT
  2
AcDbLayout
  3
AutoCAD 2000
 90
0
 91
0
280
0
281
0
  0
ENDSEC
  0
SECTION
  2
TABLES
  0
TABLE
  2
VPORT
  5
8
100
AcDbSymbolTable
 70
2
  0
VPORT
  5
1F4
100
AcDbSymbolTableRecord
100
AcDbViewportTableRecord
  2
*ACTIVE
 70
0
 10
0.0
 20
0.0
 11
1.0
 21
1.0
 12
34.0295661898
 22
48.1275293255
 13
0.0
 23
0.0
 14
1.0
 24
1.0
 15
0.0
 25
0.0
 16
0.0
 26
0.0
 36
1.0
 17
0.0
 27
0.0
 37
0.0
 40
96.255058651
 41
0.7070707071
 42
50.0
 43
0.0
 44
0.0
 50
0.0
 51
0.0
 71
0
 72
100
 73
1
 74
1
 75
0
 76
0
 77
0
 78
0
  0
ENDTAB
  0
TABLE
  2
LTYPE
  5
5
100
AcDbSymbolTable
 70
6
  0
LTYPE
  5
14
100
AcDbSymbolTableRecord
100
AcDbLinetypeTableRecord
  2
BYBLOCK
 70
0
  3

 72
65
 73
0
 40
0.0
  0
LTYPE
  5
15
100
AcDbSymbolTableRecord
100
AcDbLinetypeTableRecord
  2
BYLAYER
 70
0
  3

 72
65
 73
0
 40
0.0
  0
LTYPE
  5
16
100
AcDbSymbolTableRecord
100
AcDbLinetypeTableRecord
  2
CONTINUOUS
 70
64
  3
Solid line
 72
65
 73
0
 40
0.0
  0
LTYPE
  5
1F5
100
AcDbSymbolTableRecord
100
AcDbLinetypeTableRecord
  2
CENTER
 70
64
  3
____ _ ____ _ ____ _ ____ _ ____ _ ____ _ ____
 72
65
 73
4
 40
0.6
 49
0.375
 74
0
 49
-0.075
 74
0
 49
0.075
 74
0
 49
-0.075
 74
0
  0
LTYPE
  5
1F6
100
AcDbSymbolTableRecord
100
AcDbLinetypeTableRecord
  2
HIDDEN
 70
64
  3
- - - - - - - - - - - - - - - - - - - -
 72
65
 73
2
 40
0.2
 49
0.1
 74
0
 49
-0.1
 74
0
  0
LTYPE
  5
1F7
100
AcDbSymbolTableRecord
100
AcDbLinetypeTableRecord
  2
PHANTOM
 70
64
  3
_____ _ _ _____ _ _ _____ _ _ _____
 72
65
 73
6
 40
0.8
 49
0.45
 74
0
 49
-0.05
 74
0
 49
0.1
 74
0
 49
-0.05
 74
0
 49
0.1
 74
0
 49
-0.05
 74
0
  0
LTYPE
  5
1F8
100
AcDbSymbolTableRecord
100
AcDbLinetypeTableRecord
  2
DOT
 70
64
  3
. . . . . . . . . . . . . . . . . . . .
 72
65
 73
2
 40
0.2
 49
0.1
 74
0
 49
-0.1
 74
0
  0
LTYPE
  5
1F9
100
AcDbSymbolTableRecord
100
AcDbLinetypeTableRecord
  2
DASHED
 70
64
  3
- - - - - - - - - - - - - - - - - - - -
 72
65
 73
2
 40
0.2
 49
0.1
 74
0
 49
-0.1
 74
0
  0
ENDTAB
  0
TABLE
  2
LAYER
  5
2
100
AcDbSymbolTable
 70
36
  0
LAYER
  5
10
100
AcDbSymbolTableRecord
100
AcDbLayerTableRecord
  2
0
 70
0
 62
7
  6
CONTINUOUS
370
-3
390
F
  0
LAYER
  5
1FA
100
AcDbSymbolTableRecord
100
AcDbLayerTableRecord
  2
DEFAULT_1
 70
0
 62
7
  6
CENTER
370
-3
390
F
  0
LAYER
  5
1FB
100
AcDbSymbolTableRecord
100
AcDbLayerTableRecord
  2
DEFAULT_2
 70
0
 62
8
  6
HIDDEN
370
-3
390
F
  0
LAYER
  5
1FC
100
AcDbSymbolTableRecord
100
AcDbLayerTableRecord
  2
DEFAULT_3
 70
0
 62
7
  6
PHANTOM
370
-3
390
F
  0
LAYER
  5
1FD
100
AcDbSymbolTableRecord
100
AcDbLayerTableRecord
  2
00_COMPONENTS
 70
0
 62
7
  6
CONTINUOUS
370
-3
390
F
  0
LAYER
  5
1FE
100
AcDbSymbolTableRecord
100
AcDbLayerTableRecord
  2
01_1_DEFAULT_DATUMS
 70
0
 62
7
  6
CONTINUOUS
370
-3
390
F
  0
LAYER
  5
1FF
100
AcDbSymbolTableRecord
100
AcDbLayerTableRecord
  2
01_PLANES
 70
0
 62
7
  6
CONTINUOUS
370
-3
390
F
  0
LAYER
  5
200
100
AcDbSymbolTableRecord
100
AcDbLayerTableRecord
  2
02_COORD_SYS
 70
0
 62
7
  6
CONTINUOUS
370
-3
390
F
  0
LAYER
  5
201
100
AcDbSymbolTableRecord
100
AcDbLayerTableRecord
  2
03_AXES
 70
0
 62
7
  6
CONTINUOUS
370
-3
390
F
  0
LAYER
  5
202
100
AcDbSymbolTableRecord
100
AcDbLayerTableRecord
  2
04_POINTS
 70
0
 62
7
  6
CONTINUOUS
370
-3
390
F
  0
LAYER
  5
203
100
AcDbSymbolTableRecord
100
AcDbLayerTableRecord
  2
05_CURVES
 70
0
 62
7
  6
CONTINUOUS
370
-3
390
F
  0
LAYER
  5
204
100
AcDbSymbolTableRecord
100
AcDbLayerTableRecord
  2
06_SURFS
 70
0
 62
7
  6
CONTINUOUS
370
-3
390
F
  0
LAYER
  5
205
100
AcDbSymbolTableRecord
100
AcDbLayerTableRecord
  2
07_COSMETICS
 70
0
 62
7
  6
CONTINUOUS
370
-3
390
F
  0
LAYER
  5
206
100
AcDbSymbolTableRecord
100
AcDbLayerTableRecord
  2
10_NOTES
 70
0
 62
7
  6
CONTINUOUS
370
-3
390
F
  0
LAYER
  5
207
100
AcDbSymbolTableRecord
100
AcDbLayerTableRecord
  2
11_NOTES_PUB
 70
0
 62
7
  6
CONTINUOUS
370
-3
390
F
  0
LAYER
  5
208
100
AcDbSymbolTableRecord
100
AcDbLayerTableRecord
  2
13_REF_GTOL
 70
0
 62
7
  6
CONTINUOUS
370
-3
390
F
  0
LAYER
  5
209
100
AcDbSymbolTableRecord
100
AcDbLayerTableRecord
  2
16_MISC
 70
0
 62
7
  6
CONTINUOUS
370
-3
390
F
  0
LAYER
  5
20A
100
AcDbSymbolTableRecord
100
AcDbLayerTableRecord
  2
17_NO_PRINT
 70
0
 62
7
  6
CONTINUOUS
370
-3
390
F
  0
LAYER
  5
20B
100
AcDbSymbolTableRecord
100
AcDbLayerTableRecord
  2
18_DATUM_CAMS_JOINTS
 70
0
 62
7
  6
CONTINUOUS
370
-3
390
F
  0
LAYER
  5
20C
100
AcDbSymbolTableRecord
100
AcDbLayerTableRecord
  2
19_DATUM_FUNCTIONAL
 70
0
 62
7
  6
CONTINUOUS
370
-3
390
F
  0
LAYER
  5
20D
100
AcDbSymbolTableRecord
100
AcDbLayerTableRecord
  2
20_DATUM_KINEMATIC_SCHEME
 70
0
 62
7
  6
CONTINUOUS
370
-3
390
F
  0
ENDTAB
  0
TABLE
  2
STYLE
  5
3
100
AcDbSymbolTable
 70
1
  0
STYLE
  5
11
100
AcDbSymbolTableRecord
100
AcDbTextStyleTableRecord
  2
STANDARD
 70
0
 40
0.0
 41
0.8
 50
0.0
 71
0
 42
0.2
  3
txt
  4

  0
STYLE
  5
20E
100
AcDbSymbolTableRecord
100
AcDbTextStyleTableRecord
  2
TEXTSTYLE_1
 70
0
 40
0.0
 41
0.8
 50
0.0
 71
0
 42
0.2
  3
gdt
  4

  0
ENDTAB
  0
TABLE
  2
VIEW
  5
6
100
AcDbSymbolTable
 70
0
  0
ENDTAB
  0
TABLE
  2
UCS
  5
7
100
AcDbSymbolTable
 70
0
  0
ENDTAB
  0
TABLE
  2
APPID
  5
9
100
AcDbSymbolTable
 70
1
  0
APPID
  5
20F
100
AcDbSymbolTableRecord
100
AcDbRegAppTableRecord
  2
ACAD
 70
0
  0
ENDTAB
  0
TABLE
  2
BLOCK_RECORD
  5
1
100
AcDbSymbolTable
 70
0
  0
BLOCK_RECORD
  5
210
100
AcDbSymbolTableRecord
100
AcDbBlockTableRecord
  2
*Model_Space
  0
BLOCK_RECORD
  5
211
100
AcDbSymbolTableRecord
100
AcDbBlockTableRecord
  2
*Paper_Space
  0
BLOCK_RECORD
  5
212
100
AcDbSymbolTableRecord
100
AcDbBlockTableRecord
  2
_FILLED
  0
ENDTAB
  0
TABLE
  2
DIMSTYLE
  5
A
100
AcDbSymbolTable
 70
1
100
AcDbDimStyleTable
 71
0
  0
DIMSTYLE
105
213
100
AcDbSymbolTableRecord
100
AcDbDimStyleTableRecord
  2
STANDARD
 70
0
  3

  4

 40
1.0
 41
0.8102277664
 42
1.0
 43
0.38
 44
1.0
 45
0.0
 46
0.0
 47
0.01
 48
0.01
140
1.134318873
141
0.09
142
0.0
143
25.4
144
1.0
145
0.0
146
1.0
147
0.625
 71
1
 72
0
 73
0
 74
0
 75
0
 76
0
 77
1
 78
8
 79
2
170
0
171
1
172
0
173
0
174
0
175
0
176
0
177
0
178
0
270
2
179
2
271
2
272
2
273
2
274
2
275
0
280
0
281
0
282
0
283
1
284
8
285
0
286
0
287
3
288
0
340
11
278
46
341
212
342
212
343
212
344
212
  0
ENDTAB
  0
ENDSEC
  0
SECTION
  2
BLOCKS
  0
BLOCK
  5
20
100
AcDbEntity
  8
0
100
AcDbBlockBegin
  2
*Model_Space
 70
0
 10
0.0
 20
0.0
 30
0.0
  3
*Model_Space
  1

  0
ENDBLK
  5
21
100
AcDbEntity
  8
0
100
AcDbBlockEnd
  0
BLOCK
  5
1C
100
AcDbEntity
  8
0
100
AcDbBlockBegin
  2
*Paper_Space
 70
0
 10
0.0
 20
0.0
 30
0.0
  3
*Paper_Space
  1

  0
ENDBLK
  5
1D
100
AcDbEntity
  8
0
100
AcDbBlockEnd
  0
BLOCK
  5
214
100
AcDbEntity
  8
0
100
AcDbBlockBegin
  2
_FILLED
 70
64
 10
0.0
 20
0.0
  3
_FILLED
  1

  0
SOLID
  5
215
100
AcDbEntity
  8
0
  6
BYBLOCK
 62
0
100
AcDbTrace
 10
0.0
 20
0.0
 11
-1.0
 21
0.25
 12
-1.0
 22
-0.25
 13
-1.0
 23
-0.25
  0
ENDBLK
  5
216
100
AcDbEntity
  8
0
  6
BYBLOCK
 62
0
100
AcDbBlockEnd
  0
ENDSEC
  0
SECTION
  2
ENTITIES
  0
LINE
  5
217
100
AcDbEntity
  8
0
100
AcDbLine
 62
7
  6
CONTINUOUS
 10
21.1686424361
 20
7.9525293255
 11
48.0686424361
 21
7.9525293255
  0
LINE
  5
218
100
AcDbEntity
  8
0
100
AcDbLine
 62
7
  6
CONTINUOUS
 10
22.6186424361
 20
13.4525293255
 11
27.4186424361
 21
13.4525293255
  0
LINE
  5
219
100
AcDbEntity
  8
0
100
AcDbLine
 62
7
  6
CONTINUOUS
 10
29.0186424361
 20
13.4525293255
 11
33.8186424361
 21
13.4525293255
  0
LINE
  5
21A
100
AcDbEntity
  8
0
100
AcDbLine
 62
7
  6
CONTINUOUS
 10
35.4186424361
 20
13.4525293255
 11
40.2186424361
 21
13.4525293255
  0
LINE
  5
21B
100
AcDbEntity
  8
0
100
AcDbLine
 62
7
  6
CONTINUOUS
 10
41.8186424361
 20
13.4525293255
 11
46.6186424361
 21
13.4525293255
  0
LINE
  5
21C
100
AcDbEntity
  8
0
100
AcDbLine
 62
7
  6
CONTINUOUS
 10
45.8186424361
 20
13.5525293255
 11
42.4186424361
 21
13.5525293255
  0
LINE
  5
21D
100
AcDbEntity
  8
0
100
AcDbLine
 62
7
  6
CONTINUOUS
 10
39.4186424361
 20
13.5525293255
 11
36.0186424361
 21
13.5525293255
  0
LINE
  5
21E
100
AcDbEntity
  8
0
100
AcDbLine
 62
7
  6
CONTINUOUS
 10
33.0186424361
 20
13.5525293255
 11
29.6186424361
 21
13.5525293255
  0
LINE
  5
21F
100
AcDbEntity
  8
0
100
AcDbLine
 62
7
  6
CONTINUOUS
 10
26.6186424361
 20
13.5525293255
 11
23.2186424361
 21
13.5525293255
  0
LINE
  5
220
100
AcDbEntity
  8
0
100
AcDbLine
 62
7
  6
CONTINUOUS
 10
23.0186424361
 20
13.7651793471
 11
23.1186424361
 21
13.7651793471
  0
LINE
  5
221
100
AcDbEntity
  8
0
100
AcDbLine
 62
7
  6
CONTINUOUS
 10
26.7186424361
 20
13.7651793471
 11
27.0186424361
 21
13.7651793471
  0
LINE
  5
222
100
AcDbEntity
  8
0
100
AcDbLine
 62
7
  6
CONTINUOUS
 10
29.4186424361
 20
13.7651793471
 11
29.5186424361
 21
13.7651793471
  0
LINE
  5
223
100
AcDbEntity
  8
0
100
AcDbLine
 62
7
  6
CONTINUOUS
 10
33.1186424361
 20
13.7651793471
 11
33.4186424361
 21
13.7651793471
  0
LINE
  5
224
100
AcDbEntity
  8
0
100
AcDbLine
 62
7
  6
CONTINUOUS
 10
35.8186424361
 20
13.7651793471
 11
35.9186424361
 21
13.7651793471
  0
LINE
  5
225
100
AcDbEntity
  8
0
100
AcDbLine
 62
7
  6
CONTINUOUS
 10
39.5186424361
 20
13.7651793471
 11
39.8186424361
 21
13.7651793471
  0
LINE
  5
226
100
AcDbEntity
  8
0
100
AcDbLine
 62
7
  6
CONTINUOUS
 10
42.2186424361
 20
13.7651793471
 11
42.3186424361
 21
13.7651793471
  0
LINE
  5
227
100
AcDbEntity
  8
0
100
AcDbLine
 62
7
  6
CONTINUOUS
 10
45.9186424361
 20
13.7651793471
 11
46.2186424361
 21
13.7651793471
  0
LINE
  5
228
100
AcDbEntity
  8
0
100
AcDbLine
 62
7
  6
CONTINUOUS
 10
32.9186424361
 20
13.9525293255
 11
33.1186424361
 21
13.9525293255
  0
LINE
  5
229
100
AcDbEntity
  8
0
100
AcDbLine
 62
7
  6
CONTINUOUS
 10
35.9186424361
 20
13.9525293255
 11
36.1186424361
 21
13.9525293255
  0
LINE
  5
22A
100
AcDbEntity
  8
0
100
AcDbLine
 62
7
  6
CONTINUOUS
 10
46.2186424361
 20
14.072467859
 11
45.9186424361
 21
14.072467859
  0
LINE
  5
22B
100
AcDbEntity
  8
0
100
AcDbLine
 62
7
  6
CONTINUOUS
 10
42.3186424361
 20
14.072467859
 11
42.2186424361
 21
14.072467859
  0
LINE
  5
22C
100
AcDbEntity
  8
0
100
AcDbLine
 62
7
  6
CONTINUOUS
 10
39.8186424361
 20
14.072467859
 11
39.5186424361
 21
14.072467859
  0
LINE
  5
22D
100
AcDbEntity
  8
0
100
AcDbLine
 62
7
  6
CONTINUOUS
 10
35.9186424361
 20
14.072467859
 11
35.8186424361
 21
14.072467859
  0
LINE
  5
22E
100
AcDbEntity
  8
0
100
AcDbLine
 62
7
  6
CONTINUOUS
 10
33.4186424361
 20
14.072467859
 11
33.1186424361
 21
14.072467859
  0
LINE
  5
22F
100
AcDbEntity
  8
0
100
AcDbLine
 62
7
  6
CONTINUOUS
 10
29.5186424361
 20
14.072467859
 11
29.4186424361
 21
14.072467859
  0
LINE
  5
230
100
AcDbEntity
  8
0
100
AcDbLine
 62
7
  6
CONTINUOUS
 10
27.0186424361
 20
14.072467859
 11
26.7186424361
 21
14.072467859
  0
LINE
  5
231
100
AcDbEntity
  8
0
100
AcDbLine
 62
7
  6
CONTINUOUS
 10
23.1186424361
 20
14.072467859
 11
23.0186424361
 21
14.072467859
  0
LINE
  5
232
100
AcDbEntity
  8
0
100
AcDbLine
 62
7
  6
CONTINUOUS
 10
24.3849058122
 20
79.7861651805
 11
28.9445386701
 21
83.2025293255
  0
LINE
  5
233
100
AcDbEntity
  8
0
100
AcDbLine
 62
7
  6
CONTINUOUS
 10
23.0186424361
 20
14.9525293255
 11
23.1186424361
 21
14.9525293255
  0
LINE
  5
234
100
AcDbEntity
  8
0
100
AcDbLine
 62
7
  6
CONTINUOUS
 10
26.7186424361
 20
14.9525293255
 11
27.0186424361
 21
14.9525293255
  0
LINE
  5
235
100
AcDbEntity
  8
0
100
AcDbLine
 62
7
  6
CONTINUOUS
 10
29.4186424361
 20
14.9525293255
 11
29.5186424361
 21
14.9525293255
  0
LINE
  5
236
100
AcDbEntity
  8
0
100
AcDbLine
 62
7
  6
CONTINUOUS
 10
33.1186424361
 20
14.9525293255
 11
33.4186424361
 21
14.9525293255
  0
LINE
  5
237
100
AcDbEntity
  8
0
100
AcDbLine
 62
7
  6
CONTINUOUS
 10
35.8186424361
 20
14.9525293255
 11
35.9186424361
 21
14.9525293255
  0
LINE
  5
238
100
AcDbEntity
  8
0
100
AcDbLine
 62
7
  6
CONTINUOUS
 10
39.5186424361
 20
14.9525293255
 11
39.8186424361
 21
14.9525293255
  0
LINE
  5
239
100
AcDbEntity
  8
0
100
AcDbLine
 62
7
  6
CONTINUOUS
 10
42.2186424361
 20
14.9525293255
 11
42.3186424361
 21
14.9525293255
  0
LINE
  5
23A
100
AcDbEntity
  8
0
100
AcDbLine
 62
7
  6
CONTINUOUS
 10
45.9186424361
 20
14.9525293255
 11
46.2186424361
 21
14.9525293255
  0
LINE
  5
23B
100
AcDbEntity
  8
0
100
AcDbLine
 62
7
  6
CONTINUOUS
 10
36.1186424361
 20
15.5525293255
 11
35.9186424361
 21
15.5525293255
  0
LINE
  5
23C
100
AcDbEntity
  8
0
100
AcDbLine
 62
7
  6
CONTINUOUS
 10
33.1186424361
 20
15.5525293255
 11
32.9186424361
 21
15.5525293255
  0
LINE
  5
23D
100
AcDbEntity
  8
0
100
AcDbLine
 62
7
  6
CONTINUOUS
 10
23.1186424361
 20
15.5525293255
 11
26.7186424361
 21
15.5525293255
  0
LINE
  5
23E
100
AcDbEntity
  8
0
100
AcDbLine
 62
7
  6
CONTINUOUS
 10
42.3186424361
 20
15.5525293255
 11
45.9186424361
 21
15.5525293255
  0
LINE
  5
23F
100
AcDbEntity
  8
0
100
AcDbLine
 62
7
  6
CONTINUOUS
 10
23.1186424361
 20
15.9525293255
 11
26.7186424361
 21
15.9525293255
  0
LINE
  5
240
100
AcDbEntity
  8
0
100
AcDbLine
 62
7
  6
CONTINUOUS
 10
42.3186424361
 20
15.9525293255
 11
45.9186424361
 21
15.9525293255
  0
LINE
  5
241
100
AcDbEntity
  8
0
100
AcDbLine
 62
7
  6
CONTINUOUS
 10
45.9186424361
 20
16.2525293255
 11
45.7686424361
 21
16.2525293255
  0
LINE
  5
242
100
AcDbEntity
  8
0
100
AcDbLine
 62
7
  6
CONTINUOUS
 10
42.4686424361
 20
16.2525293255
 11
42.3186424361
 21
16.2525293255
  0
LINE
  5
243
100
AcDbEntity
  8
0
100
AcDbLine
 62
7
  6
CONTINUOUS
 10
26.7186424361
 20
16.2525293255
 11
26.5686424361
 21
16.2525293255
  0
LINE
  5
244
100
AcDbEntity
  8
0
100
AcDbLine
 62
7
  6
CONTINUOUS
 10
23.2686424361
 20
16.2525293255
 11
23.1186424361
 21
16.2525293255
  0
LINE
  5
245
100
AcDbEntity
  8
0
100
AcDbLine
 62
7
  6
CONTINUOUS
 10
39.5186424361
 20
18.1525293255
 11
36.1186424361
 21
18.1525293255
  0
LINE
  5
246
100
AcDbEntity
  8
0
100
AcDbLine
 62
7
  6
CONTINUOUS
 10
32.9186424361
 20
18.1525293255
 11
29.5186424361
 21
18.1525293255
  0
LINE
  5
247
100
AcDbEntity
  8
0
100
AcDbLine
 62
7
  6
CONTINUOUS
 10
26.5686424361
 20
18.5525293255
 11
23.2686424361
 21
18.5525293255
  0
LINE
  5
248
100
AcDbEntity
  8
0
100
AcDbLine
 62
7
  6
CONTINUOUS
 10
29.5186424361
 20
18.5525293255
 11
33.1186424361
 21
18.5525293255
  0
LINE
  5
249
100
AcDbEntity
  8
0
100
AcDbLine
 62
7
  6
CONTINUOUS
 10
35.9186424361
 20
18.5525293255
 11
39.5186424361
 21
18.5525293255
  0
LINE
  5
24A
100
AcDbEntity
  8
0
100
AcDbLine
 62
7
  6
CONTINUOUS
 10
42.4686424361
 20
18.5525293255
 11
45.7686424361
 21
18.5525293255
  0
LINE
  5
24B
100
AcDbEntity
  8
0
100
AcDbLine
 62
7
  6
CONTINUOUS
 10
26.7186424361
 20
18.9525293255
 11
23.2186424361
 21
18.9525293255
  0
LINE
  5
24C
100
AcDbEntity
  8
0
100
AcDbLine
 62
7
  6
CONTINUOUS
 10
29.6186424361
 20
18.9525293255
 11
33.1186424361
 21
18.9525293255
  0
LINE
  5
24D
100
AcDbEntity
  8
0
100
AcDbLine
 62
7
  6
CONTINUOUS
 10
36.0186424361
 20
18.9525293255
 11
39.5186424361
 21
18.9525293255
  0
LINE
  5
24E
100
AcDbEntity
  8
0
100
AcDbLine
 62
7
  6
CONTINUOUS
 10
42.4186424361
 20
18.9525293255
 11
45.9186424361
 21
18.9525293255
  0
LINE
  5
24F
100
AcDbEntity
  8
0
100
AcDbLine
 62
7
  6
CONTINUOUS
 10
46.2186424361
 20
19.0525293255
 11
42.2186424361
 21
19.0525293255
  0
LINE
  5
250
100
AcDbEntity
  8
0
100
AcDbLine
 62
7
  6
CONTINUOUS
 10
39.8186424361
 20
19.0525293255
 11
35.8186424361
 21
19.0525293255
  0
LINE
  5
251
100
AcDbEntity
  8
0
100
AcDbLine
 62
7
  6
CONTINUOUS
 10
33.4186424361
 20
19.0525293255
 11
29.4186424361
 21
19.0525293255
  0
LINE
  5
252
100
AcDbEntity
  8
0
100
AcDbLine
 62
7
  6
CONTINUOUS
 10
27.0186424361
 20
19.0525293255
 11
23.0186424361
 21
19.0525293255
  0
LINE
  5
253
100
AcDbEntity
  8
0
100
AcDbLine
 62
7
  6
CONTINUOUS
 10
23.0290606838
 20
88.3025293255
 11
22.8290606838
 21
87.7025293255
  0
LINE
  5
254
100
AcDbEntity
  8
0
100
AcDbLine
 62
7
  6
CONTINUOUS
 10
33.3772210798
 20
75.9111079693
 11
34.2600637922
 21
76.7939506818
  0
LINE
  5
255
100
AcDbEntity
  8
0
100
AcDbLine
 62
7
  6
CONTINUOUS
 10
34.4014851509
 20
76.6560198116
 11
33.518642436
 21
75.7731770943
  0
LINE
  5
256
100
AcDbEntity
  8
0
100
AcDbLine
 62
7
  6
CONTINUOUS
 10
21.4686424361
 20
31.9525293255
 11
47.7686424361
 21
31.9525293255
  0
LINE
  5
257
100
AcDbEntity
  8
0
100
AcDbLine
 62
7
  6
CONTINUOUS
 10
45.8186424361
 20
32.0525293255
 11
42.4186424361
 21
32.0525293255
  0
LINE
  5
258
100
AcDbEntity
  8
0
100
AcDbLine
 62
7
  6
CONTINUOUS
 10
39.4186424361
 20
32.0525293255
 11
36.0186424361
 21
32.0525293255
  0
LINE
  5
259
100
AcDbEntity
  8
0
100
AcDbLine
 62
7
  6
CONTINUOUS
 10
33.0186424361
 20
32.0525293255
 11
29.6186424361
 21
32.0525293255
  0
LINE
  5
25A
100
AcDbEntity
  8
0
100
AcDbLine
 62
7
  6
CONTINUOUS
 10
26.6186424361
 20
32.0525293255
 11
23.2186424361
 21
32.0525293255
  0
LINE
  5
25B
100
AcDbEntity
  8
0
100
AcDbLine
 62
7
  6
CONTINUOUS
 10
23.0186424361
 20
32.2651793471
 11
23.1186424361
 21
32.2651793471
  0
LINE
  5
25C
100
AcDbEntity
  8
0
100
AcDbLine
 62
7
  6
CONTINUOUS
 10
26.7186424361
 20
32.2651793471
 11
27.0186424361
 21
32.2651793471
  0
LINE
  5
25D
100
AcDbEntity
  8
0
100
AcDbLine
 62
7
  6
CONTINUOUS
 10
29.4186424361
 20
32.2651793471
 11
29.5186424361
 21
32.2651793471
  0
LINE
  5
25E
100
AcDbEntity
  8
0
100
AcDbLine
 62
7
  6
CONTINUOUS
 10
33.1186424361
 20
32.2651793471
 11
33.4186424361
 21
32.2651793471
  0
LINE
  5
25F
100
AcDbEntity
  8
0
100
AcDbLine
 62
7
  6
CONTINUOUS
 10
35.8186424361
 20
32.2651793471
 11
35.9186424361
 21
32.2651793471
  0
LINE
  5
260
100
AcDbEntity
  8
0
100
AcDbLine
 62
7
  6
CONTINUOUS
 10
39.5186424361
 20
32.2651793471
 11
39.8186424361
 21
32.2651793471
  0
LINE
  5
261
100
AcDbEntity
  8
0
100
AcDbLine
 62
7
  6
CONTINUOUS
 10
42.2186424361
 20
32.2651793471
 11
42.3186424361
 21
32.2651793471
  0
LINE
  5
262
100
AcDbEntity
  8
0
100
AcDbLine
 62
7
  6
CONTINUOUS
 10
45.9186424361
 20
32.2651793471
 11
46.2186424361
 21
32.2651793471
  0
LINE
  5
263
100
AcDbEntity
  8
0
100
AcDbLine
 62
7
  6
CONTINUOUS
 10
46.2186424361
 20
32.572467859
 11
45.9186424361
 21
32.572467859
  0
LINE
  5
264
100
AcDbEntity
  8
0
100
AcDbLine
 62
7
  6
CONTINUOUS
 10
42.3186424361
 20
32.572467859
 11
42.2186424361
 21
32.572467859
  0
LINE
  5
265
100
AcDbEntity
  8
0
100
AcDbLine
 62
7
  6
CONTINUOUS
 10
39.8186424361
 20
32.572467859
 11
39.5186424361
 21
32.572467859
  0
LINE
  5
266
100
AcDbEntity
  8
0
100
AcDbLine
 62
7
  6
CONTINUOUS
 10
35.9186424361
 20
32.572467859
 11
35.8186424361
 21
32.572467859
  0
LINE
  5
267
100
AcDbEntity
  8
0
100
AcDbLine
 62
7
  6
CONTINUOUS
 10
33.4186424361
 20
32.572467859
 11
33.1186424361
 21
32.572467859
  0
LINE
  5
268
100
AcDbEntity
  8
0
100
AcDbLine
 62
7
  6
CONTINUOUS
 10
29.5186424361
 20
32.572467859
 11
29.4186424361
 21
32.572467859
  0
LINE
  5
269
100
AcDbEntity
  8
0
100
AcDbLine
 62
7
  6
CONTINUOUS
 10
27.0186424361
 20
32.572467859
 11
26.7186424361
 21
32.572467859
  0
LINE
  5
26A
100
AcDbEntity
  8
0
100
AcDbLine
 62
7
  6
CONTINUOUS
 10
23.1186424361
 20
32.572467859
 11
23.0186424361
 21
32.572467859
  0
LINE
  5
26B
100
AcDbEntity
  8
0
100
AcDbLine
 62
7
  6
CONTINUOUS
 10
23.0186424361
 20
33.4525293255
 11
23.1186424361
 21
33.4525293255
  0
LINE
  5
26C
100
AcDbEntity
  8
0
100
AcDbLine
 62
7
  6
CONTINUOUS
 10
26.7186424361
 20
33.4525293255
 11
27.0186424361
 21
33.4525293255
  0
LINE
  5
26D
100
AcDbEntity
  8
0
100
AcDbLine
 62
7
  6
CONTINUOUS
 10
29.4186424361
 20
33.4525293255
 11
29.5186424361
 21
33.4525293255
  0
LINE
  5
26E
100
AcDbEntity
  8
0
100
AcDbLine
 62
7
  6
CONTINUOUS
 10
33.1186424361
 20
33.4525293255
 11
33.4186424361
 21
33.4525293255
  0
LINE
  5
26F
100
AcDbEntity
  8
0
100
AcDbLine
 62
7
  6
CONTINUOUS
 10
35.8186424361
 20
33.4525293255
 11
35.9186424361
 21
33.4525293255
  0
LINE
  5
270
100
AcDbEntity
  8
0
100
AcDbLine
 62
7
  6
CONTINUOUS
 10
39.5186424361
 20
33.4525293255
 11
39.8186424361
 21
33.4525293255
  0
LINE
  5
271
100
AcDbEntity
  8
0
100
AcDbLine
 62
7
  6
CONTINUOUS
 10
42.2186424361
 20
33.4525293255
 11
42.3186424361
 21
33.4525293255
  0
LINE
  5
272
100
AcDbEntity
  8
0
100
AcDbLine
 62
7
  6
CONTINUOUS
 10
45.9186424361
 20
33.4525293255
 11
46.2186424361
 21
33.4525293255
  0
LINE
  5
273
100
AcDbEntity
  8
0
100
AcDbLine
 62
7
  6
CONTINUOUS
 10
21.1686424361
 20
68.6525293255
 11
21.1686424361
 21
7.9525293255
  0
LINE
  5
274
100
AcDbEntity
  8
0
100
AcDbLine
 62
7
  6
CONTINUOUS
 10
21.4686424361
 20
7.9525293255
 11
21.4686424361
 21
68.9525293255
  0
LINE
  5
275
100
AcDbEntity
  8
0
100
AcDbLine
 62
7
  6
CONTINUOUS
 10
22.6186424361
 20
68.9525293255
 11
22.6186424361
 21
13.4525293255
  0
LINE
  5
276
100
AcDbEntity
  8
0
100
AcDbLine
 62
7
  6
CONTINUOUS
 10
22.8290606838
 20
87.5025293255
 11
22.8290606838
 21
87.7025293255
  0
LINE
  5
277
100
AcDbEntity
  8
0
100
AcDbLine
 62
7
  6
CONTINUOUS
 10
23.0186424361
 20
13.4525293255
 11
23.0186424361
 21
68.9525293255
  0
LINE
  5
278
100
AcDbEntity
  8
0
100
AcDbLine
 62
7
  6
CONTINUOUS
 10
23.1186424361
 20
13.6525293255
 11
23.1186424361
 21
18.8525293255
  0
LINE
  5
279
100
AcDbEntity
  8
0
100
AcDbLine
 62
7
  6
CONTINUOUS
 10
23.1186424361
 20
32.1525293255
 11
23.1186424361
 21
37.3525293255
  0
LINE
  5
27A
100
AcDbEntity
  8
0
100
AcDbLine
 62
7
  6
CONTINUOUS
 10
23.1186424361
 20
50.6525293255
 11
23.1186424361
 21
55.8525293255
  0
LINE
  5
27B
100
AcDbEntity
  8
0
100
AcDbLine
 62
7
  6
CONTINUOUS
 10
23.2686424361
 20
15.5525293255
 11
23.2686424361
 21
18.9525293255
  0
LINE
  5
27C
100
AcDbEntity
  8
0
100
AcDbLine
 62
7
  6
CONTINUOUS
 10
23.2686424361
 20
32.0525293255
 11
23.2686424361
 21
37.4525293255
  0
LINE
  5
27D
100
AcDbEntity
  8
0
100
AcDbLine
 62
7
  6
CONTINUOUS
 10
23.2686424361
 20
50.5525293255
 11
23.2686424361
 21
55.9525293255
  0
LINE
  5
27E
100
AcDbEntity
  8
0
100
AcDbLine
 62
7
  6
CONTINUOUS
 10
23.4186424361
 20
13.4525293255
 11
23.4186424361
 21
13.5525293255
  0
LINE
  5
27F
100
AcDbEntity
  8
0
100
AcDbLine
 62
7
  6
CONTINUOUS
 10
23.4186424361
 20
31.9525293255
 11
23.4186424361
 21
32.0525293255
  0
LINE
  5
280
100
AcDbEntity
  8
0
100
AcDbLine
 62
7
  6
CONTINUOUS
 10
23.4186424361
 20
50.4525293255
 11
23.4186424361
 21
50.5525293255
  0
LINE
  5
281
100
AcDbEntity
  8
0
100
AcDbLine
 62
7
  6
CONTINUOUS
 10
22.2204047831
 20
87.5025293255
 11
21.9937625032
 21
68.9525293255
  0
LINE
  5
282
100
AcDbEntity
  8
0
100
AcDbLine
 62
7
  6
CONTINUOUS
 10
24.118642436
 20
73.852529328
 11
24.1675775445
 21
76.6560198116
  0
LINE
  5
283
100
AcDbEntity
  8
0
100
AcDbLine
 62
7
  6
CONTINUOUS
 10
34.8290606838
 20
88.3025293255
 11
34.6290606838
 21
87.7025293255
  0
LINE
  5
284
100
AcDbEntity
  8
0
100
AcDbLine
 62
7
  6
CONTINUOUS
 10
45.7686424361
 20
37.0525293255
 11
42.4686424361
 21
37.0525293255
  0
LINE
  5
285
100
AcDbEntity
  8
0
100
AcDbLine
 62
7
  6
CONTINUOUS
 10
39.3686424361
 20
37.0525293255
 11
36.0686424361
 21
37.0525293255
  0
LINE
  5
286
100
AcDbEntity
  8
0
100
AcDbLine
 62
7
  6
CONTINUOUS
 10
23.2686424361
 20
37.0525293255
 11
26.5686424361
 21
37.0525293255
  0
LINE
  5
287
100
AcDbEntity
  8
0
100
AcDbLine
 62
7
  6
CONTINUOUS
 10
29.6686424361
 20
37.0525293255
 11
32.9686424361
 21
37.0525293255
  0
LINE
  5
288
100
AcDbEntity
  8
0
100
AcDbLine
 62
7
  6
CONTINUOUS
 10
24.1680170305
 20
83.2025293255
 11
24.3849058122
 21
79.7861651805
  0
LINE
  5
289
100
AcDbEntity
  8
0
100
AcDbLine
 62
7
  6
CONTINUOUS
 10
23.7686424361
 20
55.9525293255
 11
23.7686424361
 21
55.5525293255
  0
LINE
  5
28A
100
AcDbEntity
  8
0
100
AcDbLine
 62
7
  6
CONTINUOUS
 10
23.7686424361
 20
37.4525293255
 11
23.7686424361
 21
37.0525293255
  0
LINE
  5
28B
100
AcDbEntity
  8
0
100
AcDbLine
 62
7
  6
CONTINUOUS
 10
23.7686424361
 20
18.9525293255
 11
23.7686424361
 21
18.5525293255
  0
LINE
  5
28C
100
AcDbEntity
  8
0
100
AcDbLine
 62
7
  6
CONTINUOUS
 10
24.1186424361
 20
73.8525293255
 11
24.1186424361
 21
68.9525293255
  0
LINE
  5
28D
100
AcDbEntity
  8
0
100
AcDbLine
 62
7
  6
CONTINUOUS
 10
24.3675470834
 20
76.7939506817
 11
24.3675470834
 21
76.8525293255
  0
LINE
  5
28E
100
AcDbEntity
  8
0
100
AcDbLine
 62
7
  6
CONTINUOUS
 10
24.6099162328
 20
68.9525293255
 11
24.6099162328
 21
73.8525293255
  0
LINE
  5
28F
100
AcDbEntity
  8
0
100
AcDbLine
 62
7
  6
CONTINUOUS
 10
24.8395428271
 20
75.0560198172
 11
24.8395428271
 21
75.2525293255
  0
LINE
  5
290
100
AcDbEntity
  8
0
100
AcDbLine
 62
7
  6
CONTINUOUS
 10
25.1186424361
 20
68.9525293255
 11
25.1186424361
 21
72.7469954897
  0
LINE
  5
291
100
AcDbEntity
  8
0
100
AcDbLine
 62
7
  6
CONTINUOUS
 10
26.0686424361
 20
18.5525293255
 11
26.0686424361
 21
18.9525293255
  0
LINE
  5
292
100
AcDbEntity
  8
0
100
AcDbLine
 62
7
  6
CONTINUOUS
 10
26.0686424361
 20
37.0525293255
 11
26.0686424361
 21
37.4525293255
  0
LINE
  5
293
100
AcDbEntity
  8
0
100
AcDbLine
 62
7
  6
CONTINUOUS
 10
26.0686424361
 20
55.5525293255
 11
26.0686424361
 21
55.9525293255
  0
LINE
  5
294
100
AcDbEntity
  8
0
100
AcDbLine
 62
7
  6
CONTINUOUS
 10
26.4186424361
 20
50.5525293255
 11
26.4186424361
 21
50.4525293255
  0
LINE
  5
295
100
AcDbEntity
  8
0
100
AcDbLine
 62
7
  6
CONTINUOUS
 10
26.4186424361
 20
32.0525293255
 11
26.4186424361
 21
31.9525293255
  0
LINE
  5
296
100
AcDbEntity
  8
0
100
AcDbLine
 62
7
  6
CONTINUOUS
 10
26.4186424361
 20
13.5525293255
 11
26.4186424361
 21
13.4525293255
  0
LINE
  5
297
100
AcDbEntity
  8
0
100
AcDbLine
 62
7
  6
CONTINUOUS
 10
23.9939117751
 20
68.9525293255
 11
24.1680170305
 21
83.2025293255
  0
LINE
  5
298
100
AcDbEntity
  8
0
100
AcDbLine
 62
7
  6
CONTINUOUS
 10
24.8395428271
 20
75.0560198212
 11
24.8185358224
 21
73.8525293269
  0
LINE
  5
299
100
AcDbEntity
  8
0
100
AcDbLine
 62
7
  6
CONTINUOUS
 10
24.3675470834
 20
76.7939506818
 11
24.3399492407
 21
75.2525363456
  0
LINE
  5
29A
100
AcDbEntity
  8
0
100
AcDbLine
 62
7
  6
CONTINUOUS
 10
23.2186424361
 20
37.4525293255
 11
26.7186424361
 21
37.4525293255
  0
LINE
  5
29B
100
AcDbEntity
  8
0
100
AcDbLine
 62
7
  6
CONTINUOUS
 10
29.6186424361
 20
37.4525293255
 11
33.1186424361
 21
37.4525293255
  0
LINE
  5
29C
100
AcDbEntity
  8
0
100
AcDbLine
 62
7
  6
CONTINUOUS
 10
36.0186424361
 20
37.4525293255
 11
39.5186424361
 21
37.4525293255
  0
LINE
  5
29D
100
AcDbEntity
  8
0
100
AcDbLine
 62
7
  6
CONTINUOUS
 10
42.4186424361
 20
37.4525293255
 11
45.9186424361
 21
37.4525293255
  0
LINE
  5
29E
100
AcDbEntity
  8
0
100
AcDbLine
 62
7
  6
CONTINUOUS
 10
46.2186424361
 20
37.5525293255
 11
42.2186424361
 21
37.5525293255
  0
LINE
  5
29F
100
AcDbEntity
  8
0
100
AcDbLine
 62
7
  6
CONTINUOUS
 10
39.8186424361
 20
37.5525293255
 11
35.8186424361
 21
37.5525293255
  0
LINE
  5
2A0
100
AcDbEntity
  8
0
100
AcDbLine
 62
7
  6
CONTINUOUS
 10
33.4186424361
 20
37.5525293255
 11
29.4186424361
 21
37.5525293255
  0
LINE
  5
2A1
100
AcDbEntity
  8
0
100
AcDbLine
 62
7
  6
CONTINUOUS
 10
27.0186424361
 20
37.5525293255
 11
23.0186424361
 21
37.5525293255
  0
LINE
  5
2A2
100
AcDbEntity
  8
0
100
AcDbLine
 62
7
  6
CONTINUOUS
 10
26.5686424361
 20
55.9525293255
 11
26.5686424361
 21
50.5525293255
  0
LINE
  5
2A3
100
AcDbEntity
  8
0
100
AcDbLine
 62
7
  6
CONTINUOUS
 10
26.5686424361
 20
15.5525293255
 11
26.5686424361
 21
18.9525293255
  0
LINE
  5
2A4
100
AcDbEntity
  8
0
100
AcDbLine
 62
7
  6
CONTINUOUS
 10
26.5686424361
 20
32.0525293255
 11
26.5686424361
 21
37.4525293255
  0
LINE
  5
2A5
100
AcDbEntity
  8
0
100
AcDbLine
 62
7
  6
CONTINUOUS
 10
26.6686424361
 20
56.0525293255
 11
26.6686424361
 21
55.9525293255
  0
LINE
  5
2A6
100
AcDbEntity
  8
0
100
AcDbLine
 62
7
  6
CONTINUOUS
 10
26.6686424361
 20
37.5525293255
 11
26.6686424361
 21
37.4525293255
  0
LINE
  5
2A7
100
AcDbEntity
  8
0
100
AcDbLine
 62
7
  6
CONTINUOUS
 10
26.6686424361
 20
19.0525293255
 11
26.6686424361
 21
18.9525293255
  0
LINE
  5
2A8
100
AcDbEntity
  8
0
100
AcDbLine
 62
7
  6
CONTINUOUS
 10
26.6686424361
 20
16.2525293255
 11
26.6686424361
 21
15.9525293255
  0
LINE
  5
2A9
100
AcDbEntity
  8
0
100
AcDbLine
 62
7
  6
CONTINUOUS
 10
26.7186424361
 20
13.6525293255
 11
26.7186424361
 21
19.0525293255
  0
LINE
  5
2AA
100
AcDbEntity
  8
0
100
AcDbLine
 62
7
  6
CONTINUOUS
 10
26.7186424361
 20
32.1525293255
 11
26.7186424361
 21
37.5525293255
  0
LINE
  5
2AB
100
AcDbEntity
  8
0
100
AcDbLine
 62
7
  6
CONTINUOUS
 10
26.7186424361
 20
50.6525293255
 11
26.7186424361
 21
56.0525293255
  0
LINE
  5
2AC
100
AcDbEntity
  8
0
100
AcDbLine
 62
7
  6
CONTINUOUS
 10
27.0186424361
 20
68.9525293255
 11
27.0186424361
 21
13.4525293255
  0
LINE
  5
2AD
100
AcDbEntity
  8
0
100
AcDbLine
 62
7
  6
CONTINUOUS
 10
27.4186424361
 20
13.4525293255
 11
27.4186424361
 21
68.9525293255
  0
LINE
  5
2AE
100
AcDbEntity
  8
0
100
AcDbLine
 62
7
  6
CONTINUOUS
 10
29.0186424361
 20
68.9525293255
 11
29.0186424361
 21
13.4525293255
  0
LINE
  5
2AF
100
AcDbEntity
  8
0
100
AcDbLine
 62
7
  6
CONTINUOUS
 10
29.4186424361
 20
13.4525293255
 11
29.4186424361
 21
68.9525293255
  0
LINE
  5
2B0
100
AcDbEntity
  8
0
100
AcDbLine
 62
7
  6
CONTINUOUS
 10
29.5186424361
 20
13.6525293255
 11
29.5186424361
 21
18.8525293255
  0
LINE
  5
2B1
100
AcDbEntity
  8
0
100
AcDbLine
 62
7
  6
CONTINUOUS
 10
29.5186424361
 20
32.1525293255
 11
29.5186424361
 21
37.3525293255
  0
LINE
  5
2B2
100
AcDbEntity
  8
0
100
AcDbLine
 62
7
  6
CONTINUOUS
 10
29.5186424361
 20
50.6525293255
 11
29.5186424361
 21
55.8525293255
  0
LINE
  5
2B3
100
AcDbEntity
  8
0
100
AcDbLine
 62
7
  6
CONTINUOUS
 10
29.6686424361
 20
18.9525293255
 11
29.6686424361
 21
18.5525293255
  0
LINE
  5
2B4
100
AcDbEntity
  8
0
100
AcDbLine
 62
7
  6
CONTINUOUS
 10
29.6686424361
 20
32.0525293255
 11
29.6686424361
 21
37.4525293255
  0
LINE
  5
2B5
100
AcDbEntity
  8
0
100
AcDbLine
 62
7
  6
CONTINUOUS
 10
29.6686424361
 20
50.5525293255
 11
29.6686424361
 21
55.9525293255
  0
LINE
  5
2B6
100
AcDbEntity
  8
0
100
AcDbLine
 62
7
  6
CONTINUOUS
 10
29.8186424361
 20
13.4525293255
 11
29.8186424361
 21
13.5525293255
  0
LINE
  5
2B7
100
AcDbEntity
  8
0
100
AcDbLine
 62
7
  6
CONTINUOUS
 10
29.8186424361
 20
31.9525293255
 11
29.8186424361
 21
32.0525293255
  0
LINE
  5
2B8
100
AcDbEntity
  8
0
100
AcDbLine
 62
7
  6
CONTINUOUS
 10
29.8186424361
 20
50.4525293255
 11
29.8186424361
 21
50.5525293255
  0
LINE
  5
2B9
100
AcDbEntity
  8
0
100
AcDbLine
 62
7
  6
CONTINUOUS
 10
30.1686424361
 20
37.4525293255
 11
30.1686424361
 21
37.0525293255
  0
LINE
  5
2BA
100
AcDbEntity
  8
0
100
AcDbLine
 62
7
  6
CONTINUOUS
 10
30.1686424361
 20
18.9525293255
 11
30.1686424361
 21
18.5525293255
  0
LINE
  5
2BB
100
AcDbEntity
  8
0
100
AcDbLine
 62
7
  6
CONTINUOUS
 10
30.1686424361
 20
55.5525293255
 11
30.1686424361
 21
55.9525293255
  0
LINE
  5
2BC
100
AcDbEntity
  8
0
100
AcDbLine
 62
7
  6
CONTINUOUS
 10
30.7729112419
 20
80.8107013493
 11
30.7729112419
 21
83.2025293255
  0
LINE
  5
2BD
100
AcDbEntity
  8
0
100
AcDbLine
 62
7
  6
CONTINUOUS
 10
32.8265491746
 20
78.1752974427
 11
32.8229112419
 21
78.0296377806
  0
LINE
  5
2BE
100
AcDbEntity
  8
0
100
AcDbLine
 62
7
  6
CONTINUOUS
 10
32.4686424361
 20
18.9525293255
 11
32.4686424361
 21
18.5525293255
  0
LINE
  5
2BF
100
AcDbEntity
  8
0
100
AcDbLine
 62
7
  6
CONTINUOUS
 10
32.4686424361
 20
37.0525293255
 11
32.4686424361
 21
37.4525293255
  0
LINE
  5
2C0
100
AcDbEntity
  8
0
100
AcDbLine
 62
7
  6
CONTINUOUS
 10
32.4686424361
 20
55.5525293255
 11
32.4686424361
 21
55.9525293255
  0
LINE
  5
2C1
100
AcDbEntity
  8
0
100
AcDbLine
 62
7
  6
CONTINUOUS
 10
32.8186424361
 20
50.5525293255
 11
32.8186424361
 21
50.4525293255
  0
LINE
  5
2C2
100
AcDbEntity
  8
0
100
AcDbLine
 62
7
  6
CONTINUOUS
 10
32.8186424361
 20
32.0525293255
 11
32.8186424361
 21
31.9525293255
  0
LINE
  5
2C3
100
AcDbEntity
  8
0
100
AcDbLine
 62
7
  6
CONTINUOUS
 10
32.8186424361
 20
13.5525293255
 11
32.8186424361
 21
13.4525293255
  0
LINE
  5
2C4
100
AcDbEntity
  8
0
100
AcDbLine
 62
7
  6
CONTINUOUS
 10
32.8229112419
 20
76.8525293255
 11
32.8229112419
 21
78.0296376332
  0
LINE
  5
2C5
100
AcDbEntity
  8
0
100
AcDbLine
 62
7
  6
CONTINUOUS
 10
32.9186424361
 20
18.5525293255
 11
32.9186424361
 21
13.5525293255
  0
LINE
  5
2C6
100
AcDbEntity
  8
0
100
AcDbLine
 62
7
  6
CONTINUOUS
 10
32.9686424361
 20
18.9525293255
 11
32.9686424361
 21
18.5525293255
  0
LINE
  5
2C7
100
AcDbEntity
  8
0
100
AcDbLine
 62
7
  6
CONTINUOUS
 10
32.9686424361
 20
32.0525293255
 11
32.9686424361
 21
37.4525293255
  0
LINE
  5
2C8
100
AcDbEntity
  8
0
100
AcDbLine
 62
7
  6
CONTINUOUS
 10
32.9686424361
 20
50.5525293255
 11
32.9686424361
 21
55.9525293255
  0
LINE
  5
2C9
100
AcDbEntity
  8
0
100
AcDbLine
 62
7
  6
CONTINUOUS
 10
33.0686424361
 20
56.0525293255
 11
33.0686424361
 21
55.9525293255
  0
LINE
  5
2CA
100
AcDbEntity
  8
0
100
AcDbLine
 62
7
  6
CONTINUOUS
 10
33.0686424361
 20
37.5525293255
 11
33.0686424361
 21
37.4525293255
  0
LINE
  5
2CB
100
AcDbEntity
  8
0
100
AcDbLine
 62
7
  6
CONTINUOUS
 10
33.0686424361
 20
19.0525293255
 11
33.0686424361
 21
18.9525293255
  0
LINE
  5
2CC
100
AcDbEntity
  8
0
100
AcDbLine
 62
7
  6
CONTINUOUS
 10
33.1186424361
 20
13.6525293255
 11
33.1186424361
 21
19.0525293255
  0
LINE
  5
2CD
100
AcDbEntity
  8
0
100
AcDbLine
 62
7
  6
CONTINUOUS
 10
33.1186424361
 20
32.1525293255
 11
33.1186424361
 21
37.5525293255
  0
LINE
  5
2CE
100
AcDbEntity
  8
0
100
AcDbLine
 62
7
  6
CONTINUOUS
 10
33.1186424361
 20
50.6525293255
 11
33.1186424361
 21
56.0525293255
  0
LINE
  5
2CF
100
AcDbEntity
  8
0
100
AcDbLine
 62
7
  6
CONTINUOUS
 10
33.318642436
 20
75.2525296311
 11
33.318642436
 21
75.769686613
  0
LINE
  5
2D0
100
AcDbEntity
  8
0
100
AcDbLine
 62
7
  6
CONTINUOUS
 10
33.4186424361
 20
68.9525293255
 11
33.4186424361
 21
13.4525293255
  0
LINE
  5
2D1
100
AcDbEntity
  8
0
100
AcDbLine
 62
7
  6
CONTINUOUS
 10
33.5186424328
 20
75.0560198133
 11
33.518642436
 21
75.7731770943
  0
LINE
  5
2D2
100
AcDbEntity
  8
0
100
AcDbLine
 62
7
  6
CONTINUOUS
 10
33.8186424361
 20
13.4525293255
 11
33.8186424361
 21
68.9525293255
  0
LINE
  5
2D3
100
AcDbEntity
  8
0
100
AcDbLine
 62
7
  6
CONTINUOUS
 10
34.4014851485
 20
76.6560198148
 11
34.4014851485
 21
76.8525293255
  0
LINE
  5
2D4
100
AcDbEntity
  8
0
100
AcDbLine
 62
7
  6
CONTINUOUS
 10
34.6186424361
 20
68.9525293255
 11
34.6186424361
 21
73.8525293255
  0
LINE
  5
2D5
100
AcDbEntity
  8
0
100
AcDbLine
 62
7
  6
CONTINUOUS
 10
36.4188694834
 20
78.1753707094
 11
36.4229106385
 21
78.0296484635
  0
LINE
  5
2D6
100
AcDbEntity
  8
0
100
AcDbLine
 62
7
  6
CONTINUOUS
 10
35.4186424361
 20
68.9525293255
 11
35.4186424361
 21
13.4525293255
  0
LINE
  5
2D7
100
AcDbEntity
  8
0
100
AcDbLine
 62
7
  6
CONTINUOUS
 10
35.8186424361
 20
13.4525293255
 11
35.8186424361
 21
68.9525293255
  0
LINE
  5
2D8
100
AcDbEntity
  8
0
100
AcDbLine
 62
7
  6
CONTINUOUS
 10
35.9186424361
 20
13.6525293255
 11
35.9186424361
 21
18.8525293255
  0
LINE
  5
2D9
100
AcDbEntity
  8
0
100
AcDbLine
 62
7
  6
CONTINUOUS
 10
35.9186424361
 20
32.1525293255
 11
35.9186424361
 21
37.3525293255
  0
LINE
  5
2DA
100
AcDbEntity
  8
0
100
AcDbLine
 62
7
  6
CONTINUOUS
 10
35.9186424361
 20
50.6525293255
 11
35.9186424361
 21
55.8525293255
  0
LINE
  5
2DB
100
AcDbEntity
  8
0
100
AcDbLine
 62
7
  6
CONTINUOUS
 10
36.0686424361
 20
18.9525293255
 11
36.0686424361
 21
18.5525293255
  0
LINE
  5
2DC
100
AcDbEntity
  8
0
100
AcDbLine
 62
7
  6
CONTINUOUS
 10
36.0686424361
 20
32.0525293255
 11
36.0686424361
 21
37.4525293255
  0
LINE
  5
2DD
100
AcDbEntity
  8
0
100
AcDbLine
 62
7
  6
CONTINUOUS
 10
36.0686424361
 20
50.5525293255
 11
36.0686424361
 21
55.9525293255
  0
LINE
  5
2DE
100
AcDbEntity
  8
0
100
AcDbLine
 62
7
  6
CONTINUOUS
 10
36.1186424361
 20
13.5525293255
 11
36.1186424361
 21
18.5525293255
  0
LINE
  5
2DF
100
AcDbEntity
  8
0
100
AcDbLine
 62
7
  6
CONTINUOUS
 10
36.2186424361
 20
13.4525293255
 11
36.2186424361
 21
13.5525293255
  0
LINE
  5
2E0
100
AcDbEntity
  8
0
100
AcDbLine
 62
7
  6
CONTINUOUS
 10
36.2186424361
 20
31.9525293255
 11
36.2186424361
 21
32.0525293255
  0
LINE
  5
2E1
100
AcDbEntity
  8
0
100
AcDbLine
 62
7
  6
CONTINUOUS
 10
36.2186424361
 20
50.4525293255
 11
36.2186424361
 21
50.5525293255
  0
LINE
  5
2E2
100
AcDbEntity
  8
0
100
AcDbLine
 62
7
  6
CONTINUOUS
 10
36.4229112419
 20
78.0296398872
 11
36.4229112419
 21
76.8525293255
  0
LINE
  5
2E3
100
AcDbEntity
  8
0
100
AcDbLine
 62
7
  6
CONTINUOUS
 10
36.5686424361
 20
37.4525293255
 11
36.5686424361
 21
37.0525293255
  0
LINE
  5
2E4
100
AcDbEntity
  8
0
100
AcDbLine
 62
7
  6
CONTINUOUS
 10
36.5686424361
 20
18.9525293255
 11
36.5686424361
 21
18.5525293255
  0
LINE
  5
2E5
100
AcDbEntity
  8
0
100
AcDbLine
 62
7
  6
CONTINUOUS
 10
36.5686424361
 20
55.5525293255
 11
36.5686424361
 21
55.9525293255
  0
LINE
  5
2E6
100
AcDbEntity
  8
0
100
AcDbLine
 62
7
  6
CONTINUOUS
 10
21.4686424361
 20
50.4525293255
 11
47.7686424361
 21
50.4525293255
  0
LINE
  5
2E7
100
AcDbEntity
  8
0
100
AcDbLine
 62
7
  6
CONTINUOUS
 10
45.8186424361
 20
50.5525293255
 11
42.4186424361
 21
50.5525293255
  0
LINE
  5
2E8
100
AcDbEntity
  8
0
100
AcDbLine
 62
7
  6
CONTINUOUS
 10
39.4186424361
 20
50.5525293255
 11
36.0186424361
 21
50.5525293255
  0
LINE
  5
2E9
100
AcDbEntity
  8
0
100
AcDbLine
 62
7
  6
CONTINUOUS
 10
33.0186424361
 20
50.5525293255
 11
29.6186424361
 21
50.5525293255
  0
LINE
  5
2EA
100
AcDbEntity
  8
0
100
AcDbLine
 62
7
  6
CONTINUOUS
 10
26.6186424361
 20
50.5525293255
 11
23.2186424361
 21
50.5525293255
  0
LINE
  5
2EB
100
AcDbEntity
  8
0
100
AcDbLine
 62
7
  6
CONTINUOUS
 10
23.0186424361
 20
50.7651793471
 11
23.1186424361
 21
50.7651793471
  0
LINE
  5
2EC
100
AcDbEntity
  8
0
100
AcDbLine
 62
7
  6
CONTINUOUS
 10
26.7186424361
 20
50.7651793471
 11
27.0186424361
 21
50.7651793471
  0
LINE
  5
2ED
100
AcDbEntity
  8
0
100
AcDbLine
 62
7
  6
CONTINUOUS
 10
29.4186424361
 20
50.7651793471
 11
29.5186424361
 21
50.7651793471
  0
LINE
  5
2EE
100
AcDbEntity
  8
0
100
AcDbLine
 62
7
  6
CONTINUOUS
 10
33.1186424361
 20
50.7651793471
 11
33.4186424361
 21
50.7651793471
  0
LINE
  5
2EF
100
AcDbEntity
  8
0
100
AcDbLine
 62
7
  6
CONTINUOUS
 10
35.8186424361
 20
50.7651793471
 11
35.9186424361
 21
50.7651793471
  0
LINE
  5
2F0
100
AcDbEntity
  8
0
100
AcDbLine
 62
7
  6
CONTINUOUS
 10
39.5186424361
 20
50.7651793471
 11
39.8186424361
 21
50.7651793471
  0
LINE
  5
2F1
100
AcDbEntity
  8
0
100
AcDbLine
 62
7
  6
CONTINUOUS
 10
42.2186424361
 20
50.7651793471
 11
42.3186424361
 21
50.7651793471
  0
LINE
  5
2F2
100
AcDbEntity
  8
0
100
AcDbLine
 62
7
  6
CONTINUOUS
 10
45.9186424361
 20
50.7651793471
 11
46.2186424361
 21
50.7651793471
  0
LINE
  5
2F3
100
AcDbEntity
  8
0
100
AcDbLine
 62
7
  6
CONTINUOUS
 10
46.2186424361
 20
51.072467859
 11
45.9186424361
 21
51.072467859
  0
LINE
  5
2F4
100
AcDbEntity
  8
0
100
AcDbLine
 62
7
  6
CONTINUOUS
 10
42.3186424361
 20
51.072467859
 11
42.2186424361
 21
51.072467859
  0
LINE
  5
2F5
100
AcDbEntity
  8
0
100
AcDbLine
 62
7
  6
CONTINUOUS
 10
39.8186424361
 20
51.072467859
 11
39.5186424361
 21
51.072467859
  0
LINE
  5
2F6
100
AcDbEntity
  8
0
100
AcDbLine
 62
7
  6
CONTINUOUS
 10
35.9186424361
 20
51.072467859
 11
35.8186424361
 21
51.072467859
  0
LINE
  5
2F7
100
AcDbEntity
  8
0
100
AcDbLine
 62
7
  6
CONTINUOUS
 10
33.4186424361
 20
51.072467859
 11
33.1186424361
 21
51.072467859
  0
LINE
  5
2F8
100
AcDbEntity
  8
0
100
AcDbLine
 62
7
  6
CONTINUOUS
 10
29.5186424361
 20
51.072467859
 11
29.4186424361
 21
51.072467859
  0
LINE
  5
2F9
100
AcDbEntity
  8
0
100
AcDbLine
 62
7
  6
CONTINUOUS
 10
27.0186424361
 20
51.072467859
 11
26.7186424361
 21
51.072467859
  0
LINE
  5
2FA
100
AcDbEntity
  8
0
100
AcDbLine
 62
7
  6
CONTINUOUS
 10
23.1186424361
 20
51.072467859
 11
23.0186424361
 21
51.072467859
  0
LINE
  5
2FB
100
AcDbEntity
  8
0
100
AcDbLine
 62
7
  6
CONTINUOUS
 10
38.3698496968
 20
76.8525293255
 11
38.3698496968
 21
78.7525293255
  0
LINE
  5
2FC
100
AcDbEntity
  8
0
100
AcDbLine
 62
7
  6
CONTINUOUS
 10
38.4729112419
 20
83.2025293255
 11
38.4729112419
 21
80.8107013493
  0
LINE
  5
2FD
100
AcDbEntity
  8
0
100
AcDbLine
 62
7
  6
CONTINUOUS
 10
38.8686424361
 20
18.9525293255
 11
38.8686424361
 21
18.5525293255
  0
LINE
  5
2FE
100
AcDbEntity
  8
0
100
AcDbLine
 62
7
  6
CONTINUOUS
 10
38.8686424361
 20
37.0525293255
 11
38.8686424361
 21
37.4525293255
  0
LINE
  5
2FF
100
AcDbEntity
  8
0
100
AcDbLine
 62
7
  6
CONTINUOUS
 10
38.8686424361
 20
55.5525293255
 11
38.8686424361
 21
55.9525293255
  0
LINE
  5
300
100
AcDbEntity
  8
0
100
AcDbLine
 62
7
  6
CONTINUOUS
 10
39.2186424361
 20
50.5525293255
 11
39.2186424361
 21
50.4525293255
  0
LINE
  5
301
100
AcDbEntity
  8
0
100
AcDbLine
 62
7
  6
CONTINUOUS
 10
39.2186424361
 20
32.0525293255
 11
39.2186424361
 21
31.9525293255
  0
LINE
  5
302
100
AcDbEntity
  8
0
100
AcDbLine
 62
7
  6
CONTINUOUS
 10
39.2186424361
 20
13.5525293255
 11
39.2186424361
 21
13.4525293255
  0
LINE
  5
303
100
AcDbEntity
  8
0
100
AcDbLine
 62
7
  6
CONTINUOUS
 10
39.3686424361
 20
18.9525293255
 11
39.3686424361
 21
18.5525293255
  0
LINE
  5
304
100
AcDbEntity
  8
0
100
AcDbLine
 62
7
  6
CONTINUOUS
 10
39.3686424361
 20
32.0525293255
 11
39.3686424361
 21
37.4525293255
  0
LINE
  5
305
100
AcDbEntity
  8
0
100
AcDbLine
 62
7
  6
CONTINUOUS
 10
39.3686424361
 20
50.5525293255
 11
39.3686424361
 21
55.9525293255
  0
LINE
  5
306
100
AcDbEntity
  8
0
100
AcDbLine
 62
7
  6
CONTINUOUS
 10
39.4686424361
 20
56.0525293255
 11
39.4686424361
 21
55.9525293255
  0
LINE
  5
307
100
AcDbEntity
  8
0
100
AcDbLine
 62
7
  6
CONTINUOUS
 10
39.4686424361
 20
37.5525293255
 11
39.4686424361
 21
37.4525293255
  0
LINE
  5
308
100
AcDbEntity
  8
0
100
AcDbLine
 62
7
  6
CONTINUOUS
 10
39.4686424361
 20
19.0525293255
 11
39.4686424361
 21
18.9525293255
  0
LINE
  5
309
100
AcDbEntity
  8
0
100
AcDbLine
 62
7
  6
CONTINUOUS
 10
39.5186424361
 20
13.6525293255
 11
39.5186424361
 21
19.0525293255
  0
LINE
  5
30A
100
AcDbEntity
  8
0
100
AcDbLine
 62
7
  6
CONTINUOUS
 10
39.5186424361
 20
32.1525293255
 11
39.5186424361
 21
37.5525293255
  0
LINE
  5
30B
100
AcDbEntity
  8
0
100
AcDbLine
 62
7
  6
CONTINUOUS
 10
39.5186424361
 20
50.6525293255
 11
39.5186424361
 21
56.0525293255
  0
LINE
  5
30C
100
AcDbEntity
  8
0
100
AcDbLine
 62
7
  6
CONTINUOUS
 10
39.8186424361
 20
68.9525293255
 11
39.8186424361
 21
13.4525293255
  0
LINE
  5
30D
100
AcDbEntity
  8
0
100
AcDbLine
 62
7
  6
CONTINUOUS
 10
40.2186424361
 20
13.4525293255
 11
40.2186424361
 21
68.9525293255
  0
LINE
  5
30E
100
AcDbEntity
  8
0
100
AcDbLine
 62
7
  6
CONTINUOUS
 10
23.0186424361
 20
51.9525293255
 11
23.1186424361
 21
51.9525293255
  0
LINE
  5
30F
100
AcDbEntity
  8
0
100
AcDbLine
 62
7
  6
CONTINUOUS
 10
26.7186424361
 20
51.9525293255
 11
27.0186424361
 21
51.9525293255
  0
LINE
  5
310
100
AcDbEntity
  8
0
100
AcDbLine
 62
7
  6
CONTINUOUS
 10
29.4186424361
 20
51.9525293255
 11
29.5186424361
 21
51.9525293255
  0
LINE
  5
311
100
AcDbEntity
  8
0
100
AcDbLine
 62
7
  6
CONTINUOUS
 10
33.1186424361
 20
51.9525293255
 11
33.4186424361
 21
51.9525293255
  0
LINE
  5
312
100
AcDbEntity
  8
0
100
AcDbLine
 62
7
  6
CONTINUOUS
 10
35.8186424361
 20
51.9525293255
 11
35.9186424361
 21
51.9525293255
  0
LINE
  5
313
100
AcDbEntity
  8
0
100
AcDbLine
 62
7
  6
CONTINUOUS
 10
39.5186424361
 20
51.9525293255
 11
39.8186424361
 21
51.9525293255
  0
LINE
  5
314
100
AcDbEntity
  8
0
100
AcDbLine
 62
7
  6
CONTINUOUS
 10
42.2186424361
 20
51.9525293255
 11
42.3186424361
 21
51.9525293255
  0
LINE
  5
315
100
AcDbEntity
  8
0
100
AcDbLine
 62
7
  6
CONTINUOUS
 10
45.9186424361
 20
51.9525293255
 11
46.2186424361
 21
51.9525293255
  0
LINE
  5
316
100
AcDbEntity
  8
0
100
AcDbLine
 62
7
  6
CONTINUOUS
 10
40.8698496968
 20
76.8525293255
 11
40.8698496968
 21
78.7525293255
  0
LINE
  5
317
100
AcDbEntity
  8
0
100
AcDbLine
 62
7
  6
CONTINUOUS
 10
41.8186424361
 20
68.9525293255
 11
41.8186424361
 21
13.4525293255
  0
LINE
  5
318
100
AcDbEntity
  8
0
100
AcDbLine
 62
7
  6
CONTINUOUS
 10
42.2186424361
 20
13.4525293255
 11
42.2186424361
 21
68.9525293255
  0
LINE
  5
319
100
AcDbEntity
  8
0
100
AcDbLine
 62
7
  6
CONTINUOUS
 10
42.3186424361
 20
13.6525293255
 11
42.3186424361
 21
18.8525293255
  0
LINE
  5
31A
100
AcDbEntity
  8
0
100
AcDbLine
 62
7
  6
CONTINUOUS
 10
42.3186424361
 20
32.1525293255
 11
42.3186424361
 21
37.3525293255
  0
LINE
  5
31B
100
AcDbEntity
  8
0
100
AcDbLine
 62
7
  6
CONTINUOUS
 10
42.3186424361
 20
50.6525293255
 11
42.3186424361
 21
55.8525293255
  0
LINE
  5
31C
100
AcDbEntity
  8
0
100
AcDbLine
 62
7
  6
CONTINUOUS
 10
42.3686424361
 20
16.2525293255
 11
42.3686424361
 21
15.9525293255
  0
LINE
  5
31D
100
AcDbEntity
  8
0
100
AcDbLine
 62
7
  6
CONTINUOUS
 10
42.4686424361
 20
15.5525293255
 11
42.4686424361
 21
18.9525293255
  0
LINE
  5
31E
100
AcDbEntity
  8
0
100
AcDbLine
 62
7
  6
CONTINUOUS
 10
42.4686424361
 20
32.0525293255
 11
42.4686424361
 21
37.4525293255
  0
LINE
  5
31F
100
AcDbEntity
  8
0
100
AcDbLine
 62
7
  6
CONTINUOUS
 10
42.4686424361
 20
50.5525293255
 11
42.4686424361
 21
55.9525293255
  0
LINE
  5
320
100
AcDbEntity
  8
0
100
AcDbLine
 62
7
  6
CONTINUOUS
 10
42.6186424361
 20
13.4525293255
 11
42.6186424361
 21
13.5525293255
  0
LINE
  5
321
100
AcDbEntity
  8
0
100
AcDbLine
 62
7
  6
CONTINUOUS
 10
42.6186424361
 20
31.9525293255
 11
42.6186424361
 21
32.0525293255
  0
LINE
  5
322
100
AcDbEntity
  8
0
100
AcDbLine
 62
7
  6
CONTINUOUS
 10
42.6186424361
 20
50.4525293255
 11
42.6186424361
 21
50.5525293255
  0
LINE
  5
323
100
AcDbEntity
  8
0
100
AcDbLine
 62
7
  6
CONTINUOUS
 10
42.9686424361
 20
55.9525293255
 11
42.9686424361
 21
55.5525293255
  0
LINE
  5
324
100
AcDbEntity
  8
0
100
AcDbLine
 62
7
  6
CONTINUOUS
 10
42.9686424361
 20
37.4525293255
 11
42.9686424361
 21
37.0525293255
  0
LINE
  5
325
100
AcDbEntity
  8
0
100
AcDbLine
 62
7
  6
CONTINUOUS
 10
42.9686424361
 20
18.9525293255
 11
42.9686424361
 21
18.5525293255
  0
LINE
  5
326
100
AcDbEntity
  8
0
100
AcDbLine
 62
7
  6
CONTINUOUS
 10
45.7686424361
 20
55.5525293255
 11
42.4686424361
 21
55.5525293255
  0
LINE
  5
327
100
AcDbEntity
  8
0
100
AcDbLine
 62
7
  6
CONTINUOUS
 10
39.3686424361
 20
55.5525293255
 11
36.0686424361
 21
55.5525293255
  0
LINE
  5
328
100
AcDbEntity
  8
0
100
AcDbLine
 62
7
  6
CONTINUOUS
 10
23.2686424361
 20
55.5525293255
 11
26.5686424361
 21
55.5525293255
  0
LINE
  5
329
100
AcDbEntity
  8
0
100
AcDbLine
 62
7
  6
CONTINUOUS
 10
29.6686424361
 20
55.5525293255
 11
32.9686424361
 21
55.5525293255
  0
LINE
  5
32A
100
AcDbEntity
  8
0
100
AcDbLine
 62
7
  6
CONTINUOUS
 10
23.2186424361
 20
55.9525293255
 11
26.7186424361
 21
55.9525293255
  0
LINE
  5
32B
100
AcDbEntity
  8
0
100
AcDbLine
 62
7
  6
CONTINUOUS
 10
29.6186424361
 20
55.9525293255
 11
33.1186424361
 21
55.9525293255
  0
LINE
  5
32C
100
AcDbEntity
  8
0
100
AcDbLine
 62
7
  6
CONTINUOUS
 10
36.0186424361
 20
55.9525293255
 11
39.5186424361
 21
55.9525293255
  0
LINE
  5
32D
100
AcDbEntity
  8
0
100
AcDbLine
 62
7
  6
CONTINUOUS
 10
42.4186424361
 20
55.9525293255
 11
45.9186424361
 21
55.9525293255
  0
LINE
  5
32E
100
AcDbEntity
  8
0
100
AcDbLine
 62
7
  6
CONTINUOUS
 10
46.2186424361
 20
56.0525293255
 11
42.2186424361
 21
56.0525293255
  0
LINE
  5
32F
100
AcDbEntity
  8
0
100
AcDbLine
 62
7
  6
CONTINUOUS
 10
39.8186424361
 20
56.0525293255
 11
35.8186424361
 21
56.0525293255
  0
LINE
  5
330
100
AcDbEntity
  8
0
100
AcDbLine
 62
7
  6
CONTINUOUS
 10
33.4186424361
 20
56.0525293255
 11
29.4186424361
 21
56.0525293255
  0
LINE
  5
331
100
AcDbEntity
  8
0
100
AcDbLine
 62
7
  6
CONTINUOUS
 10
27.0186424361
 20
56.0525293255
 11
23.0186424361
 21
56.0525293255
  0
LINE
  5
332
100
AcDbEntity
  8
0
100
AcDbLine
 62
7
  6
CONTINUOUS
 10
44.418793196
 20
73.8525293429
 11
44.369866797
 21
76.6560198181
  0
LINE
  5
333
100
AcDbEntity
  8
0
100
AcDbLine
 62
7
  6
CONTINUOUS
 10
45.0697606421
 20
76.6560198248
 11
45.1186957373
 21
73.8525301008
  0
LINE
  5
334
100
AcDbEntity
  8
0
100
AcDbLine
 62
7
  6
CONTINUOUS
 10
45.2519107088
 20
68.9525293255
 11
45.0778054534
 21
83.2025293255
  0
LINE
  5
335
100
AcDbEntity
  8
0
100
AcDbLine
 62
7
  6
CONTINUOUS
 10
44.1186424361
 20
72.7469954417
 11
44.1186424361
 21
68.9525293255
  0
LINE
  5
336
100
AcDbEntity
  8
0
100
AcDbLine
 62
7
  6
CONTINUOUS
 10
44.3698672558
 20
76.8525293255
 11
44.3698672558
 21
76.6560198148
  0
LINE
  5
337
100
AcDbEntity
  8
0
100
AcDbLine
 62
7
  6
CONTINUOUS
 10
44.6273686394
 20
73.8525293255
 11
44.6273686394
 21
68.9525293255
  0
LINE
  5
338
100
AcDbEntity
  8
0
100
AcDbLine
 62
7
  6
CONTINUOUS
 10
45.1186424361
 20
68.9525293255
 11
45.1186424361
 21
73.8525293255
  0
LINE
  5
339
100
AcDbEntity
  8
0
100
AcDbLine
 62
7
  6
CONTINUOUS
 10
45.2686424361
 20
18.5525293255
 11
45.2686424361
 21
18.9525293255
  0
LINE
  5
33A
100
AcDbEntity
  8
0
100
AcDbLine
 62
7
  6
CONTINUOUS
 10
45.2686424361
 20
37.0525293255
 11
45.2686424361
 21
37.4525293255
  0
LINE
  5
33B
100
AcDbEntity
  8
0
100
AcDbLine
 62
7
  6
CONTINUOUS
 10
45.2686424361
 20
55.5525293255
 11
45.2686424361
 21
55.9525293255
  0
LINE
  5
33C
100
AcDbEntity
  8
0
100
AcDbLine
 62
7
  6
CONTINUOUS
 10
45.6186424361
 20
50.5525293255
 11
45.6186424361
 21
50.4525293255
  0
LINE
  5
33D
100
AcDbEntity
  8
0
100
AcDbLine
 62
7
  6
CONTINUOUS
 10
45.6186424361
 20
32.0525293255
 11
45.6186424361
 21
31.9525293255
  0
LINE
  5
33E
100
AcDbEntity
  8
0
100
AcDbLine
 62
7
  6
CONTINUOUS
 10
45.6186424361
 20
13.5525293255
 11
45.6186424361
 21
13.4525293255
  0
LINE
  5
33F
100
AcDbEntity
  8
0
100
AcDbLine
 62
7
  6
CONTINUOUS
 10
45.7686424361
 20
15.5525293255
 11
45.7686424361
 21
18.9525293255
  0
LINE
  5
340
100
AcDbEntity
  8
0
100
AcDbLine
 62
7
  6
CONTINUOUS
 10
45.7686424361
 20
32.0525293255
 11
45.7686424361
 21
37.4525293255
  0
LINE
  5
341
100
AcDbEntity
  8
0
100
AcDbLine
 62
7
  6
CONTINUOUS
 10
45.7686424361
 20
50.5525293255
 11
45.7686424361
 21
55.9525293255
  0
LINE
  5
342
100
AcDbEntity
  8
0
100
AcDbLine
 62
7
  6
CONTINUOUS
 10
45.8686424361
 20
56.0525293255
 11
45.8686424361
 21
55.9525293255
  0
LINE
  5
343
100
AcDbEntity
  8
0
100
AcDbLine
 62
7
  6
CONTINUOUS
 10
45.8686424361
 20
37.5525293255
 11
45.8686424361
 21
37.4525293255
  0
LINE
  5
344
100
AcDbEntity
  8
0
100
AcDbLine
 62
7
  6
CONTINUOUS
 10
45.8686424361
 20
19.0525293255
 11
45.8686424361
 21
18.9525293255
  0
LINE
  5
345
100
AcDbEntity
  8
0
100
AcDbLine
 62
7
  6
CONTINUOUS
 10
45.9186424361
 20
13.6525293255
 11
45.9186424361
 21
19.0525293255
  0
LINE
  5
346
100
AcDbEntity
  8
0
100
AcDbLine
 62
7
  6
CONTINUOUS
 10
45.9186424361
 20
32.1525293255
 11
45.9186424361
 21
37.5525293255
  0
LINE
  5
347
100
AcDbEntity
  8
0
100
AcDbLine
 62
7
  6
CONTINUOUS
 10
45.9186424361
 20
50.6525293255
 11
45.9186424361
 21
56.0525293255
  0
LINE
  5
348
100
AcDbEntity
  8
0
100
AcDbLine
 62
7
  6
CONTINUOUS
 10
46.2186424361
 20
68.9525293255
 11
46.2186424361
 21
13.4525293255
  0
LINE
  5
349
100
AcDbEntity
  8
0
100
AcDbLine
 62
7
  6
CONTINUOUS
 10
47.2520599806
 20
68.9525293255
 11
47.0290382947
 21
87.2061944258
  0
LINE
  5
34A
100
AcDbEntity
  8
0
100
AcDbLine
 62
7
  6
CONTINUOUS
 10
46.4290606838
 20
87.5025293255
 11
46.4290606838
 21
87.7025293255
  0
LINE
  5
34B
100
AcDbEntity
  8
0
100
AcDbLine
 62
7
  6
CONTINUOUS
 10
46.6186424361
 20
13.4525293255
 11
46.6186424361
 21
68.9525293255
  0
LINE
  5
34C
100
AcDbEntity
  8
0
100
AcDbLine
 62
7
  6
CONTINUOUS
 10
47.7686424361
 20
68.9525293255
 11
47.7686424361
 21
7.9525293255
  0
LINE
  5
34D
100
AcDbEntity
  8
0
100
AcDbLine
 62
7
  6
CONTINUOUS
 10
48.0686424361
 20
7.9525293255
 11
48.0686424361
 21
68.6525293255
  0
LINE
  5
34E
100
AcDbEntity
  8
0
100
AcDbLine
 62
7
  6
CONTINUOUS
 10
34.6290606838
 20
87.7025293255
 11
34.4290606838
 21
88.3025293255
  0
LINE
  5
34F
100
AcDbEntity
  8
0
100
AcDbLine
 62
7
  6
CONTINUOUS
 10
21.4686424361
 20
68.9525293255
 11
47.7686424361
 21
68.9525293255
  0
LINE
  5
350
100
AcDbEntity
  8
0
100
AcDbLine
 62
7
  6
CONTINUOUS
 10
44.1186425424
 20
72.7525107727
 11
25.1186423295
 21
72.7525107727
  0
LINE
  5
351
100
AcDbEntity
  8
0
100
AcDbLine
 62
7
  6
CONTINUOUS
 10
45.1946018511
 20
73.6525293255
 11
45.1186424374
 21
73.6525293255
  0
LINE
  5
352
100
AcDbEntity
  8
0
100
AcDbLine
 62
7
  6
CONTINUOUS
 10
24.1186424354
 20
73.6525293255
 11
24.0512270376
 21
73.6525293255
  0
LINE
  5
353
100
AcDbEntity
  8
0
100
AcDbLine
 62
7
  6
CONTINUOUS
 10
24.1186424361
 20
73.8525293255
 11
45.1183032429
 21
73.8525255016
  0
LINE
  5
354
100
AcDbEntity
  8
0
100
AcDbLine
 62
7
  6
CONTINUOUS
 10
46.4290606838
 20
87.7025293255
 11
46.2290606838
 21
88.3025293255
  0
LINE
  5
355
100
AcDbEntity
  8
0
100
AcDbLine
 62
7
  6
CONTINUOUS
 10
45.179095798
 20
74.9075461814
 11
45.1003405095
 21
74.9041003935
  0
LINE
  5
356
100
AcDbEntity
  8
0
100
AcDbLine
 62
7
  6
CONTINUOUS
 10
24.8395428271
 20
75.0560198212
 11
33.5186424328
 21
75.0560198133
  0
LINE
  5
357
100
AcDbEntity
  8
0
100
AcDbLine
 62
7
  6
CONTINUOUS
 10
24.3398613344
 20
75.2525293255
 11
33.318642436
 21
75.2525293255
  0
LINE
  5
358
100
AcDbEntity
  8
0
100
AcDbLine
 62
7
  6
CONTINUOUS
 10
34.4014851509
 20
76.6560198116
 11
44.369866797
 21
76.6560198181
  0
LINE
  5
359
100
AcDbEntity
  8
0
100
AcDbLine
 62
7
  6
CONTINUOUS
 10
24.137008315
 20
74.9047098283
 11
24.0667266857
 21
74.9075461814
  0
LINE
  5
35A
100
AcDbEntity
  8
0
100
AcDbLine
 62
7
  6
CONTINUOUS
 10
24.3675470834
 20
76.7939506818
 11
34.2600637922
 21
76.7939506818
  0
LINE
  5
35B
100
AcDbEntity
  8
0
100
AcDbLine
 62
7
  6
CONTINUOUS
 10
24.3675470834
 20
76.8525293255
 11
44.8697911034
 21
76.8525293255
  0
LINE
  5
35C
100
AcDbEntity
  8
0
100
AcDbLine
 62
7
  6
CONTINUOUS
 10
32.8229112419
 20
77.1637836151
 11
36.4229112419
 21
77.163783615
  0
LINE
  5
35D
100
AcDbEntity
  8
0
100
AcDbLine
 62
7
  6
CONTINUOUS
 10
38.3698496968
 20
78.7525293255
 11
40.8698496968
 21
78.7525293255
  0
LINE
  5
35E
100
AcDbEntity
  8
0
100
AcDbLine
 62
7
  6
CONTINUOUS
 10
40.3012838137
 20
83.2025293255
 11
45.1195076903
 21
79.7893246229
  0
LINE
  5
35F
100
AcDbEntity
  8
0
100
AcDbLine
 62
7
  6
CONTINUOUS
 10
24.1680170305
 20
83.2025293255
 11
45.0778054534
 21
83.2025293255
  0
LINE
  5
360
100
AcDbEntity
  8
0
100
AcDbLine
 62
7
  6
CONTINUOUS
 10
22.1681863573
 20
83.2286056793
 11
47.0776361266
 21
83.2286056793
  0
LINE
  5
361
100
AcDbEntity
  8
0
100
AcDbLine
 62
7
  6
CONTINUOUS
 10
22.1691210662
 20
83.3051095995
 11
47.0767014177
 21
83.3051095995
  0
LINE
  5
362
100
AcDbEntity
  8
0
100
AcDbLine
 62
7
  6
CONTINUOUS
 10
22.1717414882
 20
83.519582623
 11
47.0740809957
 21
83.519582623
  0
LINE
  5
363
100
AcDbEntity
  8
0
100
AcDbLine
 62
7
  6
CONTINUOUS
 10
22.1751302443
 20
83.7969429098
 11
47.0706922395
 21
83.7969429098
  0
LINE
  5
364
100
AcDbEntity
  8
0
100
AcDbLine
 62
7
  6
CONTINUOUS
 10
22.1777243781
 20
84.009264459
 11
47.0680981058
 21
84.009264459
  0
LINE
  5
365
100
AcDbEntity
  8
0
100
AcDbLine
 62
7
  6
CONTINUOUS
 10
22.1811131343
 20
84.2866247458
 11
47.0647093496
 21
84.2866247458
  0
LINE
  5
366
100
AcDbEntity
  8
0
100
AcDbLine
 62
7
  6
CONTINUOUS
 10
22.183707268
 20
84.4989462951
 11
47.0621152159
 21
84.4989462951
  0
LINE
  5
367
100
AcDbEntity
  8
0
100
AcDbLine
 62
7
  6
CONTINUOUS
 10
22.1870960242
 20
84.7763065819
 11
47.0587264597
 21
84.7763065819
  0
LINE
  5
368
100
AcDbEntity
  8
0
100
AcDbLine
 62
7
  6
CONTINUOUS
 10
22.1896901579
 20
84.9886281312
 11
47.056132326
 21
84.9886281312
  0
LINE
  5
369
100
AcDbEntity
  8
0
100
AcDbLine
 62
7
  6
CONTINUOUS
 10
22.1930789141
 20
85.2659884179
 11
47.0527435698
 21
85.2659884179
  0
LINE
  5
36A
100
AcDbEntity
  8
0
100
AcDbLine
 62
7
  6
CONTINUOUS
 10
22.1956730478
 20
85.4783099672
 11
47.0501494361
 21
85.4783099672
  0
LINE
  5
36B
100
AcDbEntity
  8
0
100
AcDbLine
 62
7
  6
CONTINUOUS
 10
22.199061804
 20
85.755670254
 11
47.0467606799
 21
85.755670254
  0
LINE
  5
36C
100
AcDbEntity
  8
0
100
AcDbLine
 62
7
  6
CONTINUOUS
 10
22.2016559377
 20
85.9679918033
 11
47.0441665462
 21
85.9679918033
  0
LINE
  5
36D
100
AcDbEntity
  8
0
100
AcDbLine
 62
7
  6
CONTINUOUS
 10
22.2050446939
 20
86.24535209
 11
47.04077779
 21
86.24535209
  0
LINE
  5
36E
100
AcDbEntity
  8
0
100
AcDbLine
 62
7
  6
CONTINUOUS
 10
22.2076388276
 20
86.4576736393
 11
47.0381836563
 21
86.4576736393
  0
LINE
  5
36F
100
AcDbEntity
  8
0
100
AcDbLine
 62
7
  6
CONTINUOUS
 10
22.2110275838
 20
86.7350339261
 11
47.0347949001
 21
86.7350339261
  0
LINE
  5
370
100
AcDbEntity
  8
0
100
AcDbLine
 62
7
  6
CONTINUOUS
 10
22.2136217175
 20
86.9473554754
 11
47.0322007664
 21
86.9473554754
  0
LINE
  5
371
100
AcDbEntity
  8
0
100
AcDbLine
 62
7
  6
CONTINUOUS
 10
22.2170104729
 20
87.2247157622
 11
47.0282391623
 21
87.2247157622
  0
LINE
  5
372
100
AcDbEntity
  8
0
100
AcDbLine
 62
7
  6
CONTINUOUS
 10
22.219604607
 20
87.4370372796
 11
46.9161596489
 21
87.4370372796
  0
LINE
  5
373
100
AcDbEntity
  8
0
100
AcDbLine
 62
7
  6
CONTINUOUS
 10
46.7290606838
 20
87.5025293255
 11
22.2204047831
 21
87.5025293255
  0
LINE
  5
374
100
AcDbEntity
  8
0
100
AcDbLine
 62
7
  6
CONTINUOUS
 10
46.2290606838
 20
88.3025293255
 11
34.8290606838
 21
88.3025293255
  0
LINE
  5
375
100
AcDbEntity
  8
0
100
AcDbLine
 62
7
  6
CONTINUOUS
 10
34.4290606838
 20
88.3025293255
 11
23.0290606838
 21
88.3025293255
  0
ARC
  5
376
100
AcDbEntity
  8
0
100
AcDbCircle
 62
7
  6
CONTINUOUS
 10
21.4686424361
 20
50.1525293255
 40
0.3
100
AcDbArc
 50
90.0
 51
180.0
  0
ARC
  5
377
100
AcDbEntity
  8
0
100
AcDbCircle
 62
7
  6
CONTINUOUS
 10
21.4686424361
 20
31.6525293255
 40
0.3
100
AcDbArc
 50
90.0
 51
180.0
  0
ARC
  5
378
100
AcDbEntity
  8
0
100
AcDbCircle
 62
7
  6
CONTINUOUS
 10
23.2186424361
 20
37.3525293255
 40
0.1
100
AcDbArc
 50
90.0
 51
180.0
  0
ARC
  5
379
100
AcDbEntity
  8
0
100
AcDbCircle
 62
7
  6
CONTINUOUS
 10
23.2186424361
 20
32.1525293255
 40
0.1
100
AcDbArc
 50
180.0
 51
270.0
  0
ARC
  5
37A
100
AcDbEntity
  8
0
100
AcDbCircle
 62
7
  6
CONTINUOUS
 10
26.6186424361
 20
32.1525293255
 40
0.1
100
AcDbArc
 50
270.0
 51
360.0
  0
ARC
  5
37B
100
AcDbEntity
  8
0
100
AcDbCircle
 62
7
  6
CONTINUOUS
 10
26.6186424361
 20
13.6525293255
 40
0.1
100
AcDbArc
 50
270.0
 51
360.0
  0
ARC
  5
37C
100
AcDbEntity
  8
0
100
AcDbCircle
 62
7
  6
CONTINUOUS
 10
23.2186424361
 20
13.6525293255
 40
0.1
100
AcDbArc
 50
180.0
 51
270.0
  0
ARC
  5
37D
100
AcDbEntity
  8
0
100
AcDbCircle
 62
7
  6
CONTINUOUS
 10
23.2186424361
 20
18.8525293255
 40
0.1
100
AcDbArc
 50
90.0
 51
180.0
  0
ARC
  5
37E
100
AcDbEntity
  8
0
100
AcDbCircle
 62
7
  6
CONTINUOUS
 10
29.6186424361
 20
13.6525293255
 40
0.1
100
AcDbArc
 50
180.0
 51
270.0
  0
ARC
  5
37F
100
AcDbEntity
  8
0
100
AcDbCircle
 62
7
  6
CONTINUOUS
 10
33.0186424361
 20
13.6525293255
 40
0.1
100
AcDbArc
 50
270.0
 51
360.0
  0
ARC
  5
380
100
AcDbEntity
  8
0
100
AcDbCircle
 62
7
  6
CONTINUOUS
 10
29.6186424361
 20
18.8525293255
 40
0.1
100
AcDbArc
 50
90.0
 51
180.0
  0
ARC
  5
381
100
AcDbEntity
  8
0
100
AcDbCircle
 62
7
  6
CONTINUOUS
 10
29.6186424361
 20
32.1525293255
 40
0.1
100
AcDbArc
 50
180.0
 51
270.0
  0
ARC
  5
382
100
AcDbEntity
  8
0
100
AcDbCircle
 62
7
  6
CONTINUOUS
 10
29.6186424361
 20
37.3525293255
 40
0.1
100
AcDbArc
 50
90.0
 51
180.0
  0
ARC
  5
383
100
AcDbEntity
  8
0
100
AcDbCircle
 62
7
  6
CONTINUOUS
 10
33.0186424361
 20
32.1525293255
 40
0.1
100
AcDbArc
 50
270.0
 51
360.0
  0
ARC
  5
384
100
AcDbEntity
  8
0
100
AcDbCircle
 62
7
  6
CONTINUOUS
 10
26.7883949368
 20
69.0618635758
 40
10.7531554174
100
AcDbArc
 50
44.9286631832
 51
45.6855823311
  0
ARC
  5
385
100
AcDbEntity
  8
0
100
AcDbCircle
 62
7
  6
CONTINUOUS
 10
21.4686424361
 20
68.6525293255
 40
0.3
100
AcDbArc
 50
90.0
 51
180.0
  0
ARC
  5
386
100
AcDbEntity
  8
0
100
AcDbCircle
 62
7
  6
CONTINUOUS
 10
33.518642436
 20
75.769686613
 40
0.2
100
AcDbArc
 50
134.9999999989
 51
180.0000000001
  0
ARC
  5
387
100
AcDbEntity
  8
0
100
AcDbCircle
 62
7
  6
CONTINUOUS
 10
24.3675470834
 20
76.6525293255
 40
0.2
100
AcDbArc
 50
90.0
 51
178.9999972302
  0
ARC
  5
388
100
AcDbEntity
  8
0
100
AcDbCircle
 62
7
  6
CONTINUOUS
 10
34.4014851485
 20
76.6525293255
 40
0.2
100
AcDbArc
 50
90.0
 51
134.9999999991
  0
ARC
  5
389
100
AcDbEntity
  8
0
100
AcDbCircle
 62
7
  6
CONTINUOUS
 10
24.3396189795
 20
75.0525293255
 40
0.2
100
AcDbArc
 50
89.9179784707
 51
178.9999967292
  0
ARC
  5
38A
100
AcDbEntity
  8
0
100
AcDbCircle
 62
7
  6
CONTINUOUS
 10
23.2186424361
 20
50.6525293255
 40
0.1
100
AcDbArc
 50
180.0
 51
270.0
  0
ARC
  5
38B
100
AcDbEntity
  8
0
100
AcDbCircle
 62
7
  6
CONTINUOUS
 10
23.2186424361
 20
55.8525293255
 40
0.1
100
AcDbArc
 50
90.0
 51
180.0
  0
ARC
  5
38C
100
AcDbEntity
  8
0
100
AcDbCircle
 62
7
  6
CONTINUOUS
 10
26.6186424361
 20
50.6525293255
 40
0.1
100
AcDbArc
 50
270.0
 51
360.0
  0
ARC
  5
38D
100
AcDbEntity
  8
0
100
AcDbCircle
 62
7
  6
CONTINUOUS
 10
29.6186424361
 20
55.8525293255
 40
0.1
100
AcDbArc
 50
90.0
 51
180.0
  0
ARC
  5
38E
100
AcDbEntity
  8
0
100
AcDbCircle
 62
7
  6
CONTINUOUS
 10
33.0186424361
 20
50.6525293255
 40
0.1
100
AcDbArc
 50
270.0
 51
360.0
  0
ARC
  5
38F
100
AcDbEntity
  8
0
100
AcDbCircle
 62
7
  6
CONTINUOUS
 10
29.6186424361
 20
50.6525293255
 40
0.1
100
AcDbArc
 50
180.0
 51
270.0
  0
ARC
  5
390
100
AcDbEntity
  8
0
100
AcDbCircle
 62
7
  6
CONTINUOUS
 10
47.7686424361
 20
31.6525293255
 40
0.3
100
AcDbArc
 50
0.0
 51
90.0
  0
ARC
  5
391
100
AcDbEntity
  8
0
100
AcDbCircle
 62
7
  6
CONTINUOUS
 10
47.7686424361
 20
50.1525293255
 40
0.3
100
AcDbArc
 50
0.0
 51
90.0
  0
ARC
  5
392
100
AcDbEntity
  8
0
100
AcDbCircle
 62
7
  6
CONTINUOUS
 10
39.4186424361
 20
32.1525293255
 40
0.1
100
AcDbArc
 50
270.0
 51
360.0
  0
ARC
  5
393
100
AcDbEntity
  8
0
100
AcDbCircle
 62
7
  6
CONTINUOUS
 10
39.4186424361
 20
13.6525293255
 40
0.1
100
AcDbArc
 50
270.0
 51
360.0
  0
ARC
  5
394
100
AcDbEntity
  8
0
100
AcDbCircle
 62
7
  6
CONTINUOUS
 10
36.0186424361
 20
13.6525293255
 40
0.1
100
AcDbArc
 50
180.0
 51
270.0
  0
ARC
  5
395
100
AcDbEntity
  8
0
100
AcDbCircle
 62
7
  6
CONTINUOUS
 10
36.0186424361
 20
18.8525293255
 40
0.1
100
AcDbArc
 50
90.0
 51
180.0
  0
ARC
  5
396
100
AcDbEntity
  8
0
100
AcDbCircle
 62
7
  6
CONTINUOUS
 10
36.0186424361
 20
37.3525293255
 40
0.1
100
AcDbArc
 50
90.0
 51
180.0
  0
ARC
  5
397
100
AcDbEntity
  8
0
100
AcDbCircle
 62
7
  6
CONTINUOUS
 10
36.0186424361
 20
32.1525293255
 40
0.1
100
AcDbArc
 50
180.0
 51
270.0
  0
ARC
  5
398
100
AcDbEntity
  8
0
100
AcDbCircle
 62
7
  6
CONTINUOUS
 10
45.8186424361
 20
32.1525293255
 40
0.1
100
AcDbArc
 50
270.0
 51
360.0
  0
ARC
  5
399
100
AcDbEntity
  8
0
100
AcDbCircle
 62
7
  6
CONTINUOUS
 10
42.4186424361
 20
32.1525293255
 40
0.1
100
AcDbArc
 50
180.0
 51
270.0
  0
ARC
  5
39A
100
AcDbEntity
  8
0
100
AcDbCircle
 62
7
  6
CONTINUOUS
 10
42.4186424361
 20
37.3525293255
 40
0.1
100
AcDbArc
 50
90.0
 51
180.0
  0
ARC
  5
39B
100
AcDbEntity
  8
0
100
AcDbCircle
 62
7
  6
CONTINUOUS
 10
42.4186424361
 20
13.6525293255
 40
0.1
100
AcDbArc
 50
180.0
 51
270.0
  0
ARC
  5
39C
100
AcDbEntity
  8
0
100
AcDbCircle
 62
7
  6
CONTINUOUS
 10
45.8186424361
 20
13.6525293255
 40
0.1
100
AcDbArc
 50
270.0
 51
360.0
  0
ARC
  5
39D
100
AcDbEntity
  8
0
100
AcDbCircle
 62
7
  6
CONTINUOUS
 10
42.4186424361
 20
18.8525293255
 40
0.1
100
AcDbArc
 50
90.0
 51
180.0
  0
ARC
  5
39E
100
AcDbEntity
  8
0
100
AcDbCircle
 62
7
  6
CONTINUOUS
 10
47.7686424361
 20
68.6525293255
 40
0.3
100
AcDbArc
 50
0.0
 51
90.0
  0
ARC
  5
39F
100
AcDbEntity
  8
0
100
AcDbCircle
 62
7
  6
CONTINUOUS
 10
46.7290606838
 20
87.2025293255
 40
0.3
100
AcDbArc
 50
0.7000000027
 51
90.0
  0
ARC
  5
3A0
100
AcDbEntity
  8
0
100
AcDbCircle
 62
7
  6
CONTINUOUS
 10
44.8697911034
 20
76.6525293255
 40
0.2
100
AcDbArc
 50
1.0000052536
 51
90.0
  0
ARC
  5
3A1
100
AcDbEntity
  8
0
100
AcDbCircle
 62
7
  6
CONTINUOUS
 10
36.0186424361
 20
50.6525293255
 40
0.1
100
AcDbArc
 50
180.0
 51
270.0
  0
ARC
  5
3A2
100
AcDbEntity
  8
0
100
AcDbCircle
 62
7
  6
CONTINUOUS
 10
39.4186424361
 20
50.6525293255
 40
0.1
100
AcDbArc
 50
270.0
 51
360.0
  0
ARC
  5
3A3
100
AcDbEntity
  8
0
100
AcDbCircle
 62
7
  6
CONTINUOUS
 10
36.0186424361
 20
55.8525293255
 40
0.1
100
AcDbArc
 50
90.0
 51
180.0
  0
ARC
  5
3A4
100
AcDbEntity
  8
0
100
AcDbCircle
 62
7
  6
CONTINUOUS
 10
42.4186424361
 20
50.6525293255
 40
0.1
100
AcDbArc
 50
180.0
 51
270.0
  0
ARC
  5
3A5
100
AcDbEntity
  8
0
100
AcDbCircle
 62
7
  6
CONTINUOUS
 10
42.4186424361
 20
55.8525293255
 40
0.1
100
AcDbArc
 50
90.0
 51
180.0
  0
ARC
  5
3A6
100
AcDbEntity
  8
0
100
AcDbCircle
 62
7
  6
CONTINUOUS
 10
45.8186424361
 20
50.6525293255
 40
0.1
100
AcDbArc
 50
270.0
 51
360.0
  0
SPLINE
  5
3A7
100
AcDbEntity
  8
0
100
AcDbSpline
 62
7
  6
CONTINUOUS
 70
0
 71
3
 72
13
 73
9
 74
0
 42
0.0000001
 43
0.0000001
 44
0.0000000001
 40
0.0
 40
0.0
 40
0.0
 40
0.0
 40
0.1456672265
 40
0.2870209245
 40
0.4226818711
 40
0.5517398336
 40
0.7883564026
 40
1.0
 40
1.0
 40
1.0
 40
1.0
 10
30.7729112419
 20
80.8107013493
 30
0.0
 10
30.9407481497
 20
80.7651499
 30
0.0
 10
31.2639872206
 20
80.6446195174
 30
0.0
 10
31.69925378
 20
80.3842375523
 30
0.0
 10
32.0668931844
 20
80.0642693244
 30
0.0
 10
32.4466980498
 20
79.5986293326
 30
0.0
 10
32.7489835652
 20
78.9658601709
 30
0.0
 10
32.8269553565
 20
78.4279757637
 30
0.0
 10
32.8269540711
 20
78.1752997234
 30
0.0
  0
SPLINE
  5
3A8
100
AcDbEntity
  8
0
100
AcDbSpline
 62
7
  6
CONTINUOUS
 70
0
 71
3
 72
13
 73
9
 74
0
 42
0.0000001
 43
0.0000001
 44
0.0000000001
 40
0.0
 40
0.0
 40
0.0
 40
0.0
 40
0.1456672484
 40
0.287020948
 40
0.4226819038
 40
0.5517398714
 40
0.7883564429
 40
1.0
 40
1.0
 40
1.0
 40
1.0
 10
38.4729112419
 20
80.8107013493
 30
0.0
 10
38.3050743206
 20
80.7651498963
 30
0.0
 10
37.9818352475
 20
80.6446195068
 30
0.0
 10
37.5465686874
 20
80.3842375373
 30
0.0
 10
37.1789292926
 20
80.0642693207
 30
0.0
 10
36.7991244446
 20
79.5986293428
 30
0.0
 10
36.4968389601
 20
78.965860267
 30
0.0
 10
36.4188671452
 20
78.4279759526
 30
0.0
 10
36.4188684058
 20
78.1752999781
 30
0.0
  0
SPLINE
  5
3A9
100
AcDbEntity
  8
0
100
AcDbSpline
 62
7
  6
CONTINUOUS
 70
0
 71
3
 72
23
 73
19
 74
0
 42
0.0000001
 43
0.0000001
 44
0.0000000001
 40
0.0
 40
0.0
 40
0.0
 40
0.0
 40
0.1993531333
 40
0.3860315369
 40
0.5557500056
 40
0.6329101493
 40
0.704223375
 40
0.7691540535
 40
0.8271665726
 40
0.8777253515
 40
0.9202948687
 40
0.9543397314
 40
0.9679982029
 40
0.9793249308
 40
0.9882532358
 40
0.9947167748
 40
0.9986504335
 40
1.0
 40
1.0
 40
1.0
 40
1.0
 10
24.8395428271
 20
75.0560198203
 30
0.0
 10
24.7930327368
 20
75.0562516525
 30
0.0
 10
24.7029694018
 20
75.0566551676
 30
0.0
 10
24.5733092526
 20
75.0571008557
 30
0.0
 10
24.4721572187
 20
75.0573345892
 30
0.0
 10
24.397920558
 20
75.0574284064
 30
0.0
 10
24.3481317866
 20
75.0574523035
 30
0.0
 10
24.3028099353
 20
75.0574326785
 30
0.0
 10
24.2623314769
 20
75.0573686965
 30
0.0
 10
24.2270665681
 20
75.0572644076
 30
0.0
 10
24.1974041808
 20
75.0571106246
 30
0.0
 10
24.1763250063
 20
75.0569573473
 30
0.0
 10
24.1625825694
 20
75.0567735425
 30
0.0
 10
24.1546092879
 20
75.0566912716
 30
0.0
 10
24.1485398614
 20
75.0564489298
 30
0.0
 10
24.1436579761
 20
75.0565632491
 30
0.0
 10
24.1415903103
 20
75.0559768681
 30
0.0
 10
24.1396550167
 20
75.0563346398
 30
0.0
 10
24.1396494408
 20
75.0560198246
 30
0.0
  0
SPLINE
  5
3AA
100
AcDbEntity
  8
0
100
AcDbSpline
 62
7
  6
CONTINUOUS
 70
0
 71
3
 72
23
 73
19
 74
0
 42
0.0000001
 43
0.0000001
 44
0.0000000001
 40
0.0
 40
0.0
 40
0.0
 40
0.0
 40
0.0013493904
 40
0.00528289
 40
0.0117462886
 40
0.0206744715
 40
0.0320010946
 40
0.0456594778
 40
0.0797042103
 40
0.1222736534
 40
0.1728324078
 40
0.2308449454
 40
0.2957756786
 40
0.3670889887
 40
0.4442492398
 40
0.6139679655
 40
0.8006466384
 40
1.0
 40
1.0
 40
1.0
 40
1.0
 10
45.0697606423
 20
76.6560198178
 30
0.0
 10
45.0697553014
 20
76.6563345981
 30
0.0
 10
45.0678195758
 20
76.6559768973
 30
0.0
 10
45.0657525129
 20
76.6565632343
 30
0.0
 10
45.0608703989
 20
76.6564489336
 30
0.0
 10
45.0548011457
 20
76.6566912701
 30
0.0
 10
45.0468278333
 20
76.6567735444
 30
0.0
 10
45.0330854005
 20
76.65695735
 30
0.0
 10
45.0120061344
 20
76.6571106292
 30
0.0
 10
44.9823436026
 20
76.6572644131
 30
0.0
 10
44.9470784677
 20
76.6573687028
 30
0.0
 10
44.9065997201
 20
76.6574326848
 30
0.0
 10
44.86127752
 20
76.6574523093
 30
0.0
 10
44.8114883486
 20
76.6574284112
 30
0.0
 10
44.7372510724
 20
76.6573345919
 30
0.0
 10
44.6360981947
 20
76.6571008541
 30
0.0
 10
44.5064369772
 20
76.656655159
 30
0.0
 10
44.4163729064
 20
76.6562516378
 30
0.0
 10
44.3698624429
 20
76.6560198021
 30
0.0
  0
SPLINE
  5
3AB
100
AcDbEntity
  8
0
100
AcDbSpline
 62
7
  6
CONTINUOUS
 70
0
 71
3
 72
10
 73
6
 74
0
 42
0.0000001
 43
0.0000001
 44
0.0000000001
 40
0.0
 40
0.0
 40
0.0
 40
0.0
 40
0.6430961557
 40
0.8917897765
 40
1.0
 40
1.0
 40
1.0
 40
1.0
 10
33.518642429
 20
75.0560198172
 30
0.0
 10
33.4761396023
 20
75.0985161705
 30
0.0
 10
33.4168232328
 20
75.1570570661
 30
0.0
 10
33.3505904778
 20
75.223017338
 30
0.0
 10
33.326178164
 20
75.2457468513
 30
0.0
 10
33.318672897
 20
75.2525293255
 30
0.0
  0
SPLINE
  5
3AC
100
AcDbEntity
  8
0
100
AcDbSpline
 62
7
  6
CONTINUOUS
 70
0
 71
3
 72
9
 73
5
 74
0
 42
0.0000001
 43
0.0000001
 44
0.0000000001
 40
0.0
 40
0.0
 40
0.0
 40
0.0
 40
0.2792585942
 40
1.0
 40
1.0
 40
1.0
 40
1.0
 10
33.5186424354
 20
75.7731770949
 30
0.0
 10
33.5090399462
 20
75.7827766841
 30
0.0
 10
33.4746062033
 20
75.817103575
 30
0.0
 10
33.4400438869
 20
75.8513032037
 30
0.0
 10
33.4149285199
 20
75.875742063
 30
0.0
  0
SPLINE
  5
3AD
100
AcDbEntity
  8
0
100
AcDbSpline
 62
7
  6
CONTINUOUS
 70
0
 71
3
 72
14
 73
10
 74
0
 42
0.0000001
 43
0.0000001
 44
0.0000000001
 40
0.0
 40
0.0
 40
0.0
 40
0.0
 40
0.4256393451
 40
0.5978619486
 40
0.7407650387
 40
0.8529960598
 40
0.9339164698
 40
0.9830063569
 40
1.0
 40
1.0
 40
1.0
 40
1.0
 10
33.4149285199
 20
75.875742063
 30
0.0
 10
33.4096685928
 20
75.8808603086
 30
0.0
 10
33.4022620478
 20
75.8880476872
 30
0.0
 10
33.3930436745
 20
75.8968507907
 30
0.0
 10
33.3876739533
 20
75.9019780619
 30
0.0
 10
33.3834806519
 20
75.9057655553
 30
0.0
 10
33.3802752562
 20
75.9089385243
 30
0.0
 10
33.3785477847
 20
75.9099344203
 30
0.0
 10
33.3774282733
 20
75.9113151628
 30
0.0
 10
33.3772210798
 20
75.9111079693
 30
0.0
  0
SPLINE
  5
3AE
100
AcDbEntity
  8
0
100
AcDbSpline
 62
7
  6
CONTINUOUS
 70
0
 71
3
 72
18
 73
14
 74
0
 42
0.0000001
 43
0.0000001
 44
0.0000000001
 40
0.0
 40
0.0
 40
0.0
 40
0.0
 40
0.0051823066
 40
0.0197960967
 40
0.0437260264
 40
0.07673133
 40
0.1185567085
 40
0.1689247298
 40
0.2931903361
 40
0.4446354746
 40
0.6180353874
 40
0.8060554574
 40
1.0
 40
1.0
 40
1.0
 40
1.0
 10
33.318642436
 20
75.769686613
 30
0.0
 10
33.318642436
 20
75.7700323024
 30
0.0
 10
33.3206423622
 20
75.7699800019
 30
0.0
 10
33.3228962716
 20
75.7705431163
 30
0.0
 10
33.3280205368
 20
75.770700459
 30
0.0
 10
33.3344448066
 20
75.771077581
 30
0.0
 10
33.3428502958
 20
75.7713554888
 30
0.0
 10
33.357256076
 20
75.7717805961
 30
0.0
 10
33.3790205218
 20
75.7722129395
 30
0.0
 10
33.4089688973
 20
75.7726332752
 30
0.0
 10
33.4431809871
 20
75.7729407017
 30
0.0
 10
33.4802258204
 20
75.7731325619
 30
0.0
 10
33.5057052289
 20
75.7731771279
 30
0.0
 10
33.518642436
 20
75.7731770943
 30
0.0
  0
SPLINE
  5
3AF
100
AcDbEntity
  8
0
100
AcDbSpline
 62
7
  6
CONTINUOUS
 70
0
 71
3
 72
11
 73
7
 74
0
 42
0.0000001
 43
0.0000001
 44
0.0000000001
 40
0.0
 40
0.0
 40
0.0
 40
0.0
 40
0.2094905604
 40
0.4447267396
 40
0.7122631146
 40
1.0
 40
1.0
 40
1.0
 40
1.0
 10
24.1675775444
 20
76.6560198086
 30
0.0
 10
24.1679016202
 20
76.6745860788
 30
0.0
 10
24.1806502855
 20
76.7142059121
 30
0.0
 10
24.22721081
 20
76.7594756542
 30
0.0
 10
24.2924953559
 20
76.7878915057
 30
0.0
 10
24.3420432562
 20
76.7941732672
 30
0.0
 10
24.3675470834
 20
76.7939506818
 30
0.0
  0
SPLINE
  5
3B0
100
AcDbEntity
  8
0
100
AcDbSpline
 62
7
  6
CONTINUOUS
 70
0
 71
3
 72
14
 73
10
 74
0
 42
0.0000001
 43
0.0000001
 44
0.0000000001
 40
0.0
 40
0.0
 40
0.0
 40
0.0
 40
0.0171892269
 40
0.0667952036
 40
0.1482273479
 40
0.2606627526
 40
0.4032521438
 40
0.5751044674
 40
1.0
 40
1.0
 40
1.0
 40
1.0
 10
34.2600637922
 20
76.7939506817
 30
0.0
 10
34.2602887923
 20
76.7941756818
 30
0.0
 10
34.2614898494
 20
76.7926533746
 30
0.0
 10
34.2633617839
 20
76.7915849069
 30
0.0
 10
34.266809911
 20
76.7881458638
 30
0.0
 10
34.2713137357
 20
76.7840722937
 30
0.0
 10
34.2770663845
 20
76.7785676016
 30
0.0
 10
34.2869362059
 20
76.7691269015
 30
0.0
 10
34.2948664124
 20
76.7614182225
 30
0.0
 10
34.3004993869
 20
76.7559287017
 30
0.0
  0
ENDSEC
  0
SECTION
  2
OBJECTS
  0
DICTIONARY
  5
C
100
AcDbDictionary
280
0
281
1
  3
ACAD_GROUP
350
D
  3
ACAD_MLINESTYLE
350
17
  3
ACAD_LAYOUT
350
1A
  3
ACAD_PLOTSETTINGS
350
19
  3
ACAD_PLOTSTYLENAME
350
E
  0
DICTIONARY
  5
D
102
{ACAD_REACTORS
330
C
102
}
100
AcDbDictionary
280
0
281
1
  0
ACDBDICTIONARYWDFLT
  5
E
102
{ACAD_REACTORS
330
C
102
}
100
AcDbDictionary
281
1
  3
Normal
350
F
100
AcDbDictionaryWithDefault
340
F
  0
DICTIONARY
  5
17
102
{ACAD_REACTORS
330
C
102
}
100
AcDbDictionary
280
0
281
1
  3
Standard
350
18
  0
DICTIONARY
  5
19
102
{ACAD_REACTORS
330
C
102
}
100
AcDbDictionary
281
1
  0
DICTIONARY
  5
1A
102
{ACAD_REACTORS
330
C
102
}
100
AcDbDictionary
281
1
  3
Model
350
3B1
  3
Layout1
350
3B2
  0
ACDBPLACEHOLDER
  5
F
102
{ACAD_REACTORS
330
E
102
}
  0
MLINESTYLE
  5
18
102
{ACAD_REACTORS
330
17
102
}
100
AcDbMlineStyle
  2
STANDARD
 70
0
  3

 62
256
 51
90.0
 52
90.0
 71
2
 49
0.5
 62
256
  6
BYLAYER
 49
-0.5
 62
256
  6
BYLAYER
  0
LAYOUT
  5
3B1
102
{ACAD_REACTORS
330
1A
102
}
100
AcDbPlotSettings
  1

  2
none_device
  4

  6

 40
0.0
 41
0.0
 42
0.0
 43
0.0
 44
210.0
 45
297.0
 46
0.0
 47
0.0
 48
0.0
 49
0.0
140
0.0
141
0.0
142
1.0
143
1.0
 70
1024
 72
1
 73
0
 74
0
  7

 75
0
147
1.0
148
0.0
149
0.0
100
AcDbLayout
  1
Model
 70
0
 71
0
 10
0.0
 20
0.0
 11
210.0
 21
297.0
 12
0.0
 22
0.0
 32
0.0
 14
0.0
 24
0.0
 34
0.0
 15
0.0
 25
0.0
 35
0.0
146
0.0
 13
0.0
 23
0.0
 33
0.0
 16
1.0
 26
0.0
 36
0.0
 17
0.0
 27
1.0
 37
0.0
 76
0
330
210
345
0
346
0
  0
LAYOUT
  5
3B2
102
{ACAD_REACTORS
330
1A
102
}
100
AcDbPlotSettings
  1

  2
none_device
  4

  6

 40
0.0
 41
0.0
 42
0.0
 43
0.0
 44
210.0
 45
297.0
 46
0.0
 47
0.0
 48
0.0
 49
0.0
140
0.0
141
0.0
142
1.0
143
1.0
 70
0
 72
1
 73
0
 74
0
  7

 75
0
147
1.0
148
0.0
149
0.0
100
AcDbLayout
  1
Layout1
 70
0
 71
1
 10
0.0
 20
0.0
 11
210.0
 21
297.0
 12
0.0
 22
0.0
 32
0.0
 14
0.0
 24
0.0
 34
0.0
 15
0.0
 25
0.0
 35
0.0
146
0.0
 13
0.0
 23
0.0
 33
0.0
 16
1.0
 26
0.0
 36
0.0
 17
0.0
 27
1.0
 37
0.0
 76
0
330
211
345
0
346
0
  0
ENDSEC
  0
EOF
