999
DXF file: C:\Users\sesa63760\Dev\_Creo\CAD\MCADUE0002391_3D-CAD\drw0001_7.dxf
999
Pro/ENGINEER 2019471 by Parametric Technology Corporation
  0
SECTION
  2
HEADER
  9
$ACADVER
  1
AC1024
  9
$DWGCODEPAGE
  3
ANSI_1252
  9
$EXTMAX
 10
758.7530224512
 20
1073.0935603238
 30
0.0
  9
$EXTMIN
 10
0.0
 20
0.0
 30
0.0
  9
$LIMMIN
 10
0.0
 20
0.0
  9
$LIMMAX
 10
758.7530224512
 20
1073.0935603238
  9
$VIEWCTR
 10
379.3765112256
 20
536.5467801619
  9
$VIEWSIZE
 40
1073.0935603238
  9
$CLAYER
  8
0
  9
$LTSCALE
 40
69.9498024507
  9
$CELTYPE
  6
BYLAYER
  9
$DIMSCALE
 40
1.0
  9
$DIMASZ
 40
9.0327740768
  9
$DIMEXO
 40
1.0
  9
$DIMDLI
 40
48.3289544205
  9
$DIMEXE
 40
1.0
  9
$DIMCEN
 40
11.4463313101
  9
$DIMLFAC
 40
1.0
  9
$DIMBLK
  1
_FILLED
  9
$DIMALT
 70
0
  9
$DIMALTF
 40
0.0393700787
  9
$DIMTXT
 40
12.6458837075
  9
$DIMTOL
 70
1
  9
$DIMLIM
 70
0
  9
$DIMTFAC
 40
1.0
  9
$DIMTP
 40
0.01
  9
$DIMTM
 40
0.01
  9
$DIMGAP
 40
0.625
  9
$DIMDSEP
 70
46
  9
$AUNITS
 70
0
  9
$PDMODE
 70
3
  9
$PDSIZE
 40
0.3125
  9
$HANDSEED
  5
502
  9
$TILEMODE
 70
1
  9
$MEASUREMENT
 70
1
  9
$INSUNITS
 70
4
  0
ENDSEC
  0
SECTION
  2
CLASSES
  0
CLASS
  1
ACDBDICTIONARYWDFLT
  2
AcDbDictionaryWithDefault
  3
AutoCAD 2000
 90
0
 91
1
280
0
281
0
  0
CLASS
  1
ACDBPLACEHOLDER
  2
AcDbPlaceHolder
  3
AutoCAD 2000
 90
0
 91
1
280
0
281
0
  0
CLASS
  1
LAYOUT
  2
AcDbLayout
  3
AutoCAD 2000
 90
0
 91
0
280
0
281
0
  0
ENDSEC
  0
SECTION
  2
TABLES
  0
TABLE
  2
VPORT
  5
8
100
AcDbSymbolTable
 70
2
  0
VPORT
  5
1F4
100
AcDbSymbolTableRecord
100
AcDbViewportTableRecord
  2
*ACTIVE
 70
0
 10
0.0
 20
0.0
 11
1.0
 21
1.0
 12
379.3765112256
 22
536.5467801619
 13
0.0
 23
0.0
 14
1.0
 24
1.0
 15
0.0
 25
0.0
 16
0.0
 26
0.0
 36
1.0
 17
0.0
 27
0.0
 37
0.0
 40
1073.0935603238
 41
0.7070707071
 42
50.0
 43
0.0
 44
0.0
 50
0.0
 51
0.0
 71
0
 72
100
 73
1
 74
1
 75
0
 76
0
 77
0
 78
0
  0
ENDTAB
  0
TABLE
  2
LTYPE
  5
5
100
AcDbSymbolTable
 70
6
  0
LTYPE
  5
14
100
AcDbSymbolTableRecord
100
AcDbLinetypeTableRecord
  2
BYBLOCK
 70
0
  3

 72
65
 73
0
 40
0.0
  0
LTYPE
  5
15
100
AcDbSymbolTableRecord
100
AcDbLinetypeTableRecord
  2
BYLAYER
 70
0
  3

 72
65
 73
0
 40
0.0
  0
LTYPE
  5
16
100
AcDbSymbolTableRecord
100
AcDbLinetypeTableRecord
  2
CONTINUOUS
 70
64
  3
Solid line
 72
65
 73
0
 40
0.0
  0
LTYPE
  5
1F5
100
AcDbSymbolTableRecord
100
AcDbLinetypeTableRecord
  2
CENTER
 70
64
  3
____ _ ____ _ ____ _ ____ _ ____ _ ____ _ ____
 72
65
 73
4
 40
0.6
 49
0.375
 74
0
 49
-0.075
 74
0
 49
0.075
 74
0
 49
-0.075
 74
0
  0
LTYPE
  5
1F6
100
AcDbSymbolTableRecord
100
AcDbLinetypeTableRecord
  2
HIDDEN
 70
64
  3
- - - - - - - - - - - - - - - - - - - -
 72
65
 73
2
 40
0.2
 49
0.1
 74
0
 49
-0.1
 74
0
  0
LTYPE
  5
1F7
100
AcDbSymbolTableRecord
100
AcDbLinetypeTableRecord
  2
PHANTOM
 70
64
  3
_____ _ _ _____ _ _ _____ _ _ _____
 72
65
 73
6
 40
0.8
 49
0.45
 74
0
 49
-0.05
 74
0
 49
0.1
 74
0
 49
-0.05
 74
0
 49
0.1
 74
0
 49
-0.05
 74
0
  0
LTYPE
  5
1F8
100
AcDbSymbolTableRecord
100
AcDbLinetypeTableRecord
  2
DOT
 70
64
  3
. . . . . . . . . . . . . . . . . . . .
 72
65
 73
2
 40
0.2
 49
0.1
 74
0
 49
-0.1
 74
0
  0
LTYPE
  5
1F9
100
AcDbSymbolTableRecord
100
AcDbLinetypeTableRecord
  2
DASHED
 70
64
  3
- - - - - - - - - - - - - - - - - - - -
 72
65
 73
2
 40
0.2
 49
0.1
 74
0
 49
-0.1
 74
0
  0
ENDTAB
  0
TABLE
  2
LAYER
  5
2
100
AcDbSymbolTable
 70
36
  0
LAYER
  5
10
100
AcDbSymbolTableRecord
100
AcDbLayerTableRecord
  2
0
 70
0
 62
7
  6
CONTINUOUS
370
-3
390
F
  0
LAYER
  5
1FA
100
AcDbSymbolTableRecord
100
AcDbLayerTableRecord
  2
DEFAULT_1
 70
0
 62
7
  6
CENTER
370
-3
390
F
  0
LAYER
  5
1FB
100
AcDbSymbolTableRecord
100
AcDbLayerTableRecord
  2
DEFAULT_2
 70
0
 62
8
  6
HIDDEN
370
-3
390
F
  0
LAYER
  5
1FC
100
AcDbSymbolTableRecord
100
AcDbLayerTableRecord
  2
DEFAULT_3
 70
0
 62
7
  6
PHANTOM
370
-3
390
F
  0
LAYER
  5
1FD
100
AcDbSymbolTableRecord
100
AcDbLayerTableRecord
  2
00_COMPONENTS
 70
0
 62
7
  6
CONTINUOUS
370
-3
390
F
  0
LAYER
  5
1FE
100
AcDbSymbolTableRecord
100
AcDbLayerTableRecord
  2
01_1_DEFAULT_DATUMS
 70
0
 62
7
  6
CONTINUOUS
370
-3
390
F
  0
LAYER
  5
1FF
100
AcDbSymbolTableRecord
100
AcDbLayerTableRecord
  2
01_PLANES
 70
0
 62
7
  6
CONTINUOUS
370
-3
390
F
  0
LAYER
  5
200
100
AcDbSymbolTableRecord
100
AcDbLayerTableRecord
  2
02_COORD_SYS
 70
0
 62
7
  6
CONTINUOUS
370
-3
390
F
  0
LAYER
  5
201
100
AcDbSymbolTableRecord
100
AcDbLayerTableRecord
  2
03_AXES
 70
0
 62
7
  6
CONTINUOUS
370
-3
390
F
  0
LAYER
  5
202
100
AcDbSymbolTableRecord
100
AcDbLayerTableRecord
  2
04_POINTS
 70
0
 62
7
  6
CONTINUOUS
370
-3
390
F
  0
LAYER
  5
203
100
AcDbSymbolTableRecord
100
AcDbLayerTableRecord
  2
05_CURVES
 70
0
 62
7
  6
CONTINUOUS
370
-3
390
F
  0
LAYER
  5
204
100
AcDbSymbolTableRecord
100
AcDbLayerTableRecord
  2
06_SURFS
 70
0
 62
7
  6
CONTINUOUS
370
-3
390
F
  0
LAYER
  5
205
100
AcDbSymbolTableRecord
100
AcDbLayerTableRecord
  2
07_COSMETICS
 70
0
 62
7
  6
CONTINUOUS
370
-3
390
F
  0
LAYER
  5
206
100
AcDbSymbolTableRecord
100
AcDbLayerTableRecord
  2
10_NOTES
 70
0
 62
7
  6
CONTINUOUS
370
-3
390
F
  0
LAYER
  5
207
100
AcDbSymbolTableRecord
100
AcDbLayerTableRecord
  2
11_NOTES_PUB
 70
0
 62
7
  6
CONTINUOUS
370
-3
390
F
  0
LAYER
  5
208
100
AcDbSymbolTableRecord
100
AcDbLayerTableRecord
  2
13_REF_GTOL
 70
0
 62
7
  6
CONTINUOUS
370
-3
390
F
  0
LAYER
  5
209
100
AcDbSymbolTableRecord
100
AcDbLayerTableRecord
  2
16_MISC
 70
0
 62
7
  6
CONTINUOUS
370
-3
390
F
  0
LAYER
  5
20A
100
AcDbSymbolTableRecord
100
AcDbLayerTableRecord
  2
17_NO_PRINT
 70
0
 62
7
  6
CONTINUOUS
370
-3
390
F
  0
LAYER
  5
20B
100
AcDbSymbolTableRecord
100
AcDbLayerTableRecord
  2
18_DATUM_CAMS_JOINTS
 70
0
 62
7
  6
CONTINUOUS
370
-3
390
F
  0
LAYER
  5
20C
100
AcDbSymbolTableRecord
100
AcDbLayerTableRecord
  2
19_DATUM_FUNCTIONAL
 70
0
 62
7
  6
CONTINUOUS
370
-3
390
F
  0
LAYER
  5
20D
100
AcDbSymbolTableRecord
100
AcDbLayerTableRecord
  2
20_DATUM_KINEMATIC_SCHEME
 70
0
 62
7
  6
CONTINUOUS
370
-3
390
F
  0
ENDTAB
  0
TABLE
  2
STYLE
  5
3
100
AcDbSymbolTable
 70
1
  0
STYLE
  5
11
100
AcDbSymbolTableRecord
100
AcDbTextStyleTableRecord
  2
STANDARD
 70
0
 40
0.0
 41
0.8
 50
0.0
 71
0
 42
0.2
  3
txt
  4

  0
STYLE
  5
20E
100
AcDbSymbolTableRecord
100
AcDbTextStyleTableRecord
  2
TEXTSTYLE_1
 70
0
 40
0.0
 41
0.8
 50
0.0
 71
0
 42
0.2
  3
gdt
  4

  0
ENDTAB
  0
TABLE
  2
VIEW
  5
6
100
AcDbSymbolTable
 70
0
  0
ENDTAB
  0
TABLE
  2
UCS
  5
7
100
AcDbSymbolTable
 70
0
  0
ENDTAB
  0
TABLE
  2
APPID
  5
9
100
AcDbSymbolTable
 70
1
  0
APPID
  5
20F
100
AcDbSymbolTableRecord
100
AcDbRegAppTableRecord
  2
ACAD
 70
0
  0
ENDTAB
  0
TABLE
  2
BLOCK_RECORD
  5
1
100
AcDbSymbolTable
 70
0
  0
BLOCK_RECORD
  5
210
100
AcDbSymbolTableRecord
100
AcDbBlockTableRecord
  2
*Model_Space
  0
BLOCK_RECORD
  5
211
100
AcDbSymbolTableRecord
100
AcDbBlockTableRecord
  2
*Paper_Space
  0
BLOCK_RECORD
  5
212
100
AcDbSymbolTableRecord
100
AcDbBlockTableRecord
  2
_FILLED
  0
ENDTAB
  0
TABLE
  2
DIMSTYLE
  5
A
100
AcDbSymbolTable
 70
1
100
AcDbDimStyleTable
 71
0
  0
DIMSTYLE
105
213
100
AcDbSymbolTableRecord
100
AcDbDimStyleTableRecord
  2
STANDARD
 70
0
  3

  4

 40
1.0
 41
9.0327740768
 42
1.0
 43
0.38
 44
1.0
 45
0.0
 46
0.0
 47
0.01
 48
0.01
140
12.6458837075
141
0.09
142
0.0
143
25.4
144
1.0
145
0.0
146
1.0
147
0.625
 71
1
 72
0
 73
0
 74
0
 75
0
 76
0
 77
1
 78
8
 79
2
170
0
171
1
172
0
173
0
174
0
175
0
176
0
177
0
178
0
270
2
179
2
271
2
272
2
273
2
274
2
275
0
280
0
281
0
282
0
283
1
284
8
285
0
286
0
287
3
288
0
340
11
278
46
341
212
342
212
343
212
344
212
  0
ENDTAB
  0
ENDSEC
  0
SECTION
  2
BLOCKS
  0
BLOCK
  5
20
100
AcDbEntity
  8
0
100
AcDbBlockBegin
  2
*Model_Space
 70
0
 10
0.0
 20
0.0
 30
0.0
  3
*Model_Space
  1

  0
ENDBLK
  5
21
100
AcDbEntity
  8
0
100
AcDbBlockEnd
  0
BLOCK
  5
1C
100
AcDbEntity
  8
0
100
AcDbBlockBegin
  2
*Paper_Space
 70
0
 10
0.0
 20
0.0
 30
0.0
  3
*Paper_Space
  1

  0
ENDBLK
  5
1D
100
AcDbEntity
  8
0
100
AcDbBlockEnd
  0
BLOCK
  5
214
100
AcDbEntity
  8
0
100
AcDbBlockBegin
  2
_FILLED
 70
64
 10
0.0
 20
0.0
  3
_FILLED
  1

  0
SOLID
  5
215
100
AcDbEntity
  8
0
  6
BYBLOCK
 62
0
100
AcDbTrace
 10
0.0
 20
0.0
 11
-1.0
 21
0.25
 12
-1.0
 22
-0.25
 13
-1.0
 23
-0.25
  0
ENDBLK
  5
216
100
AcDbEntity
  8
0
  6
BYBLOCK
 62
0
100
AcDbBlockEnd
  0
ENDSEC
  0
SECTION
  2
ENTITIES
  0
LINE
  5
217
100
AcDbEntity
  8
0
100
AcDbLine
 62
7
  6
CONTINUOUS
 10
83.3892888046
 20
310.091830151
 11
91.7460058979
 21
304.2403938476
  0
LINE
  5
218
100
AcDbEntity
  8
0
100
AcDbLine
 62
7
  6
CONTINUOUS
 10
84.0775805282
 20
311.0748126042
 11
91.0304531904
 21
306.2063587539
  0
LINE
  5
219
100
AcDbEntity
  8
0
100
AcDbLine
 62
7
  6
CONTINUOUS
 10
83.5658722518
 20
312.0577950573
 11
84.0775805282
 21
311.0748126042
  0
LINE
  5
21A
100
AcDbEntity
  8
0
100
AcDbLine
 62
7
  6
CONTINUOUS
 10
124.8615140104
 20
298.1168796352
 11
124.807278383
 21
298.1335348702
  0
LINE
  5
21B
100
AcDbEntity
  8
0
100
AcDbLine
 62
7
  6
CONTINUOUS
 10
129.8644305907
 20
298.1168741378
 11
129.8619477366
 21
298.117654247
  0
LINE
  5
21C
100
AcDbEntity
  8
0
100
AcDbLine
 62
7
  6
CONTINUOUS
 10
129.8644305907
 20
298.1168741378
 11
129.8629202941
 21
298.1173590995
  0
LINE
  5
21D
100
AcDbEntity
  8
0
100
AcDbLine
 62
7
  6
CONTINUOUS
 10
144.8203840667
 20
298.1411991502
 11
144.7063919754
 21
298.180794383
  0
LINE
  5
21E
100
AcDbEntity
  8
0
100
AcDbLine
 62
7
  6
CONTINUOUS
 10
80.5652689078
 20
613.0204608751
 11
80.5652689078
 21
333.0166553653
  0
LINE
  5
21F
100
AcDbEntity
  8
0
100
AcDbLine
 62
7
  6
CONTINUOUS
 10
80.8146655638
 20
624.2307574865
 11
80.8146655638
 21
776.8307574865
  0
LINE
  5
220
100
AcDbEntity
  8
0
100
AcDbLine
 62
7
  6
CONTINUOUS
 10
82.0652689078
 20
333.0166553653
 11
82.0652689078
 21
613.0204608751
  0
LINE
  5
221
100
AcDbEntity
  8
0
100
AcDbLine
 62
7
  6
CONTINUOUS
 10
82.3658722518
 20
322.5063587539
 11
82.3658722518
 21
312.0577950573
  0
LINE
  5
222
100
AcDbEntity
  8
0
100
AcDbLine
 62
7
  6
CONTINUOUS
 10
83.5658722518
 20
322.5063587539
 11
83.5658722518
 21
312.0577950573
  0
LINE
  5
223
100
AcDbEntity
  8
0
100
AcDbLine
 62
7
  6
CONTINUOUS
 10
84.0652689078
 20
330.0166553653
 11
84.0652689078
 21
333.4204608751
  0
LINE
  5
224
100
AcDbEntity
  8
0
100
AcDbLine
 62
7
  6
CONTINUOUS
 10
86.5652689078
 20
329.2166553653
 11
86.5652689078
 21
330.0166553653
  0
LINE
  5
225
100
AcDbEntity
  8
0
100
AcDbLine
 62
7
  6
CONTINUOUS
 10
86.8146655638
 20
621.2307574865
 11
86.8146655638
 21
622.0307574865
  0
LINE
  5
226
100
AcDbEntity
  8
0
100
AcDbLine
 62
7
  6
CONTINUOUS
 10
87.0652689078
 20
328.9666553653
 11
87.0652689078
 21
328.4666553653
  0
LINE
  5
227
100
AcDbEntity
  8
0
100
AcDbLine
 62
7
  6
CONTINUOUS
 10
87.3146655638
 20
620.9807574865
 11
87.3146655638
 21
620.4807574865
  0
LINE
  5
228
100
AcDbEntity
  8
0
100
AcDbLine
 62
7
  6
CONTINUOUS
 10
96.0652689078
 20
328.9666553653
 11
96.0652689078
 21
328.4666553653
  0
LINE
  5
229
100
AcDbEntity
  8
0
100
AcDbLine
 62
7
  6
CONTINUOUS
 10
96.3146655638
 20
620.9807574865
 11
96.3146655638
 21
620.4807574865
  0
LINE
  5
22A
100
AcDbEntity
  8
0
100
AcDbLine
 62
7
  6
CONTINUOUS
 10
96.3146655638
 20
779.0307574865
 11
96.3146655638
 21
779.2307574865
  0
LINE
  5
22B
100
AcDbEntity
  8
0
100
AcDbLine
 62
7
  6
CONTINUOUS
 10
96.5652689078
 20
329.2166553653
 11
96.5652689078
 21
330.0166553653
  0
LINE
  5
22C
100
AcDbEntity
  8
0
100
AcDbLine
 62
7
  6
CONTINUOUS
 10
96.8146655638
 20
621.2307574865
 11
96.8146655638
 21
622.0307574865
  0
LINE
  5
22D
100
AcDbEntity
  8
0
100
AcDbLine
 62
7
  6
CONTINUOUS
 10
99.063241323
 20
613.0204608751
 11
100.3517259225
 21
619.6491394957
  0
LINE
  5
22E
100
AcDbEntity
  8
0
100
AcDbLine
 62
7
  6
CONTINUOUS
 10
100.0448685065
 20
613.0204608751
 11
101.3333531059
 21
619.6491394957
  0
LINE
  5
22F
100
AcDbEntity
  8
0
100
AcDbLine
 62
7
  6
CONTINUOUS
 10
139.8186973738
 20
298.1222353414
 11
139.8172996019
 21
298.1225799447
  0
LINE
  5
230
100
AcDbEntity
  8
0
100
AcDbLine
 62
7
  6
CONTINUOUS
 10
139.8172996019
 20
298.1225799447
 11
139.8064834425
 21
298.1256130756
  0
LINE
  5
231
100
AcDbEntity
  8
0
100
AcDbLine
 62
7
  6
CONTINUOUS
 10
139.6083992442
 20
298.1861787257
 11
139.8178912807
 21
298.124219966
  0
LINE
  5
232
100
AcDbEntity
  8
0
100
AcDbLine
 62
7
  6
CONTINUOUS
 10
139.6086253205
 20
298.1860765695
 11
139.8071842616
 21
298.1253823187
  0
LINE
  5
233
100
AcDbEntity
  8
0
100
AcDbLine
 62
7
  6
CONTINUOUS
 10
139.8064834425
 20
298.1256130756
 11
139.8049894512
 21
298.1260840871
  0
LINE
  5
234
100
AcDbEntity
  8
0
100
AcDbLine
 62
7
  6
CONTINUOUS
 10
116.44058866
 20
301.9667607671
 11
116.3763484827
 21
303.8063587539
  0
LINE
  5
235
100
AcDbEntity
  8
0
100
AcDbLine
 62
7
  6
CONTINUOUS
 10
109.3146655638
 20
779.0307574865
 11
109.3146655638
 21
779.2307574865
  0
LINE
  5
236
100
AcDbEntity
  8
0
100
AcDbLine
 62
7
  6
CONTINUOUS
 10
660.2959107348
 20
328.1105252777
 11
660.9128281326
 21
328.2304418722
  0
LWPOLYLINE
  5
237
100
AcDbEntity
  8
0
100
AcDbPolyline
 62
7
  6
CONTINUOUS
 90
3
 70
0
 10
119.9113216666
 20
298.1409073268
 10
119.9289615497
 20
298.1393545999
 10
119.9967968415
 20
298.1481075454
  0
LWPOLYLINE
  5
238
100
AcDbEntity
  8
0
100
AcDbPolyline
 62
7
  6
CONTINUOUS
 90
3
 70
0
 10
144.7349476622
 20
298.1481075454
 10
144.8027837368
 20
298.139354634
 10
144.8204228371
 20
298.1409073268
  0
LINE
  5
239
100
AcDbEntity
  8
0
100
AcDbLine
 62
7
  6
CONTINUOUS
 10
100.2177096829
 20
328.2304418722
 11
100.8346270809
 21
328.1105252777
  0
LINE
  5
23A
100
AcDbEntity
  8
0
100
AcDbLine
 62
7
  6
CONTINUOUS
 10
100.8579365056
 20
328.2304418722
 11
100.0632506699
 21
323.8063587539
  0
LINE
  5
23B
100
AcDbEntity
  8
0
100
AcDbLine
 62
7
  6
CONTINUOUS
 10
99.3577550387
 20
323.8063587539
 11
100.2177096829
 21
328.2304418722
  0
LINE
  5
23C
100
AcDbEntity
  8
0
100
AcDbLine
 62
7
  6
CONTINUOUS
 10
148.2911558375
 20
301.966760589
 11
146.9337836108
 21
301.966760589
  0
LINE
  5
23D
100
AcDbEntity
  8
0
100
AcDbLine
 62
7
  6
CONTINUOUS
 10
117.7979608929
 20
301.966760589
 11
116.4405886662
 21
301.966760589
  0
LINE
  5
23E
100
AcDbEntity
  8
0
100
AcDbLine
 62
7
  6
CONTINUOUS
 10
120.8245764695
 20
302.5252915619
 11
143.9071597067
 21
302.5252915619
  0
LINE
  5
23F
100
AcDbEntity
  8
0
100
AcDbLine
 62
7
  6
CONTINUOUS
 10
143.9867105396
 20
303.26774347
 11
120.7450336629
 21
303.26774347
  0
LINE
  5
240
100
AcDbEntity
  8
0
100
AcDbLine
 62
7
  6
CONTINUOUS
 10
93.1225893451
 20
303.8063587539
 11
667.6091551585
 21
303.8063587539
  0
LINE
  5
241
100
AcDbEntity
  8
0
100
AcDbLine
 62
7
  6
CONTINUOUS
 10
669.7012913132
 20
306.2063587539
 11
91.0304531904
 21
306.2063587539
  0
LINE
  5
242
100
AcDbEntity
  8
0
100
AcDbLine
 62
7
  6
CONTINUOUS
 10
101.3333531059
 20
619.6491394957
 11
101.0375794147
 21
620.601786692
  0
LINE
  5
243
100
AcDbEntity
  8
0
100
AcDbLine
 62
7
  6
CONTINUOUS
 10
148.2911558438
 20
301.9667607671
 11
148.355396021
 21
303.8063587539
  0
LINE
  5
244
100
AcDbEntity
  8
0
100
AcDbLine
 62
7
  6
CONTINUOUS
 10
100.8579365056
 20
328.2304418722
 11
100.924885502
 21
328.5166553874
  0
LINE
  5
245
100
AcDbEntity
  8
0
100
AcDbLine
 62
7
  6
CONTINUOUS
 10
310.0356601542
 20
756.0457574865
 11
310.0828100452
 21
756.0929073775
  0
LINE
  5
246
100
AcDbEntity
  8
0
100
AcDbLine
 62
7
  6
CONTINUOUS
 10
310.2525156727
 20
756.262613005
 11
310.2996655638
 21
756.309762896
  0
LINE
  5
247
100
AcDbEntity
  8
0
100
AcDbLine
 62
7
  6
CONTINUOUS
 10
311.4672576392
 20
756.3530551894
 11
311.3768154548
 21
756.262613005
  0
LINE
  5
248
100
AcDbEntity
  8
0
100
AcDbLine
 62
7
  6
CONTINUOUS
 10
309.9923678608
 20
754.878165411
 11
310.0828100452
 21
754.9686075954
  0
LINE
  5
249
100
AcDbEntity
  8
0
100
AcDbLine
 62
7
  6
CONTINUOUS
 10
310.0827292072
 20
754.7988211299
 11
309.569612854
 21
754.2857047768
  0
LINE
  5
24A
100
AcDbEntity
  8
0
100
AcDbLine
 62
7
  6
CONTINUOUS
 10
311.5466019203
 20
756.262693843
 11
312.0597182735
 21
756.7758101962
  0
LINE
  5
24B
100
AcDbEntity
  8
0
100
AcDbLine
 62
7
  6
CONTINUOUS
 10
311.6369632667
 20
756.183349562
 11
311.5465210823
 21
756.0929073775
  0
LINE
  5
24C
100
AcDbEntity
  8
0
100
AcDbLine
 62
7
  6
CONTINUOUS
 10
310.1620734883
 20
754.7084597835
 11
310.2525156727
 21
754.7989019679
  0
LINE
  5
24D
100
AcDbEntity
  8
0
100
AcDbLine
 62
7
  6
CONTINUOUS
 10
82.3658722518
 20
322.5063587539
 11
678.3658722518
 21
322.5063587539
  0
LINE
  5
24E
100
AcDbEntity
  8
0
100
AcDbLine
 62
7
  6
CONTINUOUS
 10
84.4573816975
 20
323.8063587539
 11
676.2743628061
 21
323.8063587539
  0
LINE
  5
24F
100
AcDbEntity
  8
0
100
AcDbLine
 62
7
  6
CONTINUOUS
 10
668.7846770712
 20
327.8166553653
 11
674.6774013486
 21
327.8166553653
  0
LINE
  5
250
100
AcDbEntity
  8
0
100
AcDbLine
 62
7
  6
CONTINUOUS
 10
668.681387849
 20
327.9166553653
 11
665.0404276836
 21
327.9166553653
  0
LINE
  5
251
100
AcDbEntity
  8
0
100
AcDbLine
 62
7
  6
CONTINUOUS
 10
674.6776234192
 20
328.1600868228
 11
668.9355373537
 21
328.1600868228
  0
LINE
  5
252
100
AcDbEntity
  8
0
100
AcDbLine
 62
7
  6
CONTINUOUS
 10
668.5195310743
 20
328.2166553653
 11
664.7886977943
 21
328.2166553653
  0
LINE
  5
253
100
AcDbEntity
  8
0
100
AcDbLine
 62
7
  6
CONTINUOUS
 10
95.8151866604
 20
328.2166553653
 11
87.3152690071
 21
328.2166553653
  0
LINE
  5
254
100
AcDbEntity
  8
0
100
AcDbLine
 62
7
  6
CONTINUOUS
 10
100.8579365056
 20
328.2304418722
 11
660.2726013101
 21
328.2304418722
  0
LINE
  5
255
100
AcDbEntity
  8
0
100
AcDbLine
 62
7
  6
CONTINUOUS
 10
96.0651819275
 20
328.4666553653
 11
87.0652689078
 21
328.4666553653
  0
LINE
  5
256
100
AcDbEntity
  8
0
100
AcDbLine
 62
7
  6
CONTINUOUS
 10
663.7783659118
 20
328.5166553653
 11
676.2652689078
 21
328.5166553653
  0
LINE
  5
257
100
AcDbEntity
  8
0
100
AcDbLine
 62
7
  6
CONTINUOUS
 10
87.0652689078
 20
328.9666553653
 11
96.0650790567
 21
328.9666553653
  0
LINE
  5
258
100
AcDbEntity
  8
0
100
AcDbLine
 62
7
  6
CONTINUOUS
 10
96.5652275873
 20
329.2166553653
 11
86.5653102282
 21
329.2166553653
  0
LINE
  5
259
100
AcDbEntity
  8
0
100
AcDbLine
 62
7
  6
CONTINUOUS
 10
83.5652689078
 20
330.0166553653
 11
84.0552689078
 21
330.0166553653
  0
LINE
  5
25A
100
AcDbEntity
  8
0
100
AcDbLine
 62
7
  6
CONTINUOUS
 10
84.0652689078
 20
330.0166553653
 11
677.0652689078
 21
330.0166553653
  0
LINE
  5
25B
100
AcDbEntity
  8
0
100
AcDbLine
 62
7
  6
CONTINUOUS
 10
677.0752689078
 20
330.0166553653
 11
677.5652689078
 21
330.0166553653
  0
LINE
  5
25C
100
AcDbEntity
  8
0
100
AcDbLine
 62
7
  6
CONTINUOUS
 10
83.5652689078
 20
331.5166553653
 11
84.0552689078
 21
331.5166553653
  0
LINE
  5
25D
100
AcDbEntity
  8
0
100
AcDbLine
 62
7
  6
CONTINUOUS
 10
677.0752689078
 20
331.5166553653
 11
677.5652689078
 21
331.5166553653
  0
LINE
  5
25E
100
AcDbEntity
  8
0
100
AcDbLine
 62
7
  6
CONTINUOUS
 10
677.0652689078
 20
333.0166553653
 11
84.0652689078
 21
333.0166553653
  0
LINE
  5
25F
100
AcDbEntity
  8
0
100
AcDbLine
 62
7
  6
CONTINUOUS
 10
80.5652689078
 20
333.4204608751
 11
84.0652689078
 21
333.4204608751
  0
LINE
  5
260
100
AcDbEntity
  8
0
100
AcDbLine
 62
7
  6
CONTINUOUS
 10
677.0652689078
 20
333.4204608751
 11
680.5652689078
 21
333.4204608751
  0
LINE
  5
261
100
AcDbEntity
  8
0
100
AcDbLine
 62
7
  6
CONTINUOUS
 10
311.3768154548
 20
754.7989019679
 11
311.3296655638
 21
754.7517520769
  0
LINE
  5
262
100
AcDbEntity
  8
0
100
AcDbLine
 62
7
  6
CONTINUOUS
 10
311.5936709733
 20
755.0157574865
 11
311.5465210823
 21
754.9686075954
  0
LINE
  5
263
100
AcDbEntity
  8
0
100
AcDbLine
 62
7
  6
CONTINUOUS
 10
310.0356601542
 20
689.0457574865
 11
310.0828100452
 21
689.0929073775
  0
LINE
  5
264
100
AcDbEntity
  8
0
100
AcDbLine
 62
7
  6
CONTINUOUS
 10
310.2525156727
 20
689.262613005
 11
310.2996655638
 21
689.309762896
  0
LINE
  5
265
100
AcDbEntity
  8
0
100
AcDbLine
 62
7
  6
CONTINUOUS
 10
311.4672576392
 20
689.3530551894
 11
311.3768154548
 21
689.262613005
  0
LINE
  5
266
100
AcDbEntity
  8
0
100
AcDbLine
 62
7
  6
CONTINUOUS
 10
309.9923678608
 20
687.878165411
 11
310.0828100452
 21
687.9686075954
  0
LINE
  5
267
100
AcDbEntity
  8
0
100
AcDbLine
 62
7
  6
CONTINUOUS
 10
310.0827292072
 20
687.7988211299
 11
309.569612854
 21
687.2857047768
  0
LINE
  5
268
100
AcDbEntity
  8
0
100
AcDbLine
 62
7
  6
CONTINUOUS
 10
311.5466019203
 20
689.262693843
 11
312.0597182735
 21
689.7758101962
  0
LINE
  5
269
100
AcDbEntity
  8
0
100
AcDbLine
 62
7
  6
CONTINUOUS
 10
311.6369632667
 20
689.183349562
 11
311.5465210823
 21
689.0929073775
  0
LINE
  5
26A
100
AcDbEntity
  8
0
100
AcDbLine
 62
7
  6
CONTINUOUS
 10
310.1620734883
 20
687.7084597835
 11
310.2525156727
 21
687.7989019679
  0
LINE
  5
26B
100
AcDbEntity
  8
0
100
AcDbLine
 62
7
  6
CONTINUOUS
 10
311.3768154548
 20
687.7989019679
 11
311.3296655638
 21
687.7517520769
  0
LINE
  5
26C
100
AcDbEntity
  8
0
100
AcDbLine
 62
7
  6
CONTINUOUS
 10
311.5936709733
 20
688.0157574865
 11
311.5465210823
 21
687.9686075954
  0
LINE
  5
26D
100
AcDbEntity
  8
0
100
AcDbLine
 62
7
  6
CONTINUOUS
 10
100.775555255
 20
620.7419067862
 11
100.3052202732
 21
620.601786692
  0
LINE
  5
26E
100
AcDbEntity
  8
0
100
AcDbLine
 62
7
  6
CONTINUOUS
 10
253.0646655638
 20
740.2807574865
 11
253.0646655638
 21
703.7807574865
  0
LINE
  5
26F
100
AcDbEntity
  8
0
100
AcDbLine
 62
7
  6
CONTINUOUS
 10
253.5646655638
 20
740.2807574865
 11
253.5646655638
 21
703.7807574865
  0
LINE
  5
270
100
AcDbEntity
  8
0
100
AcDbLine
 62
7
  6
CONTINUOUS
 10
254.3864663014
 20
739.280757486
 11
254.3864663014
 21
704.7807574869
  0
LINE
  5
271
100
AcDbEntity
  8
0
100
AcDbLine
 62
7
  6
CONTINUOUS
 10
256.3560818074
 20
704.7807574865
 11
256.3560818074
 21
739.2807574865
  0
LINE
  5
272
100
AcDbEntity
  8
0
100
AcDbLine
 62
7
  6
CONTINUOUS
 10
256.4479383841
 20
739.2807574865
 11
256.4479383841
 21
704.7807574865
  0
LINE
  5
273
100
AcDbEntity
  8
0
100
AcDbLine
 62
7
  6
CONTINUOUS
 10
257.4327461371
 20
704.7807574865
 11
257.4327461371
 21
739.2807574865
  0
LINE
  5
274
100
AcDbEntity
  8
0
100
AcDbLine
 62
7
  6
CONTINUOUS
 10
258.3146655638
 20
737.0307574865
 11
258.3146655638
 21
707.0307574865
  0
LINE
  5
275
100
AcDbEntity
  8
0
100
AcDbLine
 62
7
  6
CONTINUOUS
 10
280.0646655638
 20
676.7807574865
 11
280.0646655638
 21
677.2807574865
  0
LINE
  5
276
100
AcDbEntity
  8
0
100
AcDbLine
 62
7
  6
CONTINUOUS
 10
280.0646655638
 20
766.7807574865
 11
280.0646655638
 21
767.2807574865
  0
LINE
  5
277
100
AcDbEntity
  8
0
100
AcDbLine
 62
7
  6
CONTINUOUS
 10
281.0646655637
 20
678.1025582241
 11
281.0646655638
 21
681.1488380598
  0
LINE
  5
278
100
AcDbEntity
  8
0
100
AcDbLine
 62
7
  6
CONTINUOUS
 10
281.0646655638
 20
762.9126769132
 11
281.0646655638
 21
765.9589567488
  0
LINE
  5
279
100
AcDbEntity
  8
0
100
AcDbLine
 62
7
  6
CONTINUOUS
 10
88.9383170356
 20
306.2063587539
 11
89.6266087593
 21
307.1893412071
  0
LINE
  5
27A
100
AcDbEntity
  8
0
100
AcDbLine
 62
7
  6
CONTINUOUS
 10
92.0693997419
 20
304.7022481213
 11
91.7460058979
 21
304.2403938476
  0
LINE
  5
27B
100
AcDbEntity
  8
0
100
AcDbLine
 62
7
  6
CONTINUOUS
 10
450.0356601542
 20
756.0457574865
 11
450.0828100452
 21
756.0929073775
  0
LINE
  5
27C
100
AcDbEntity
  8
0
100
AcDbLine
 62
7
  6
CONTINUOUS
 10
450.2525156727
 20
756.262613005
 11
450.2996655638
 21
756.309762896
  0
LINE
  5
27D
100
AcDbEntity
  8
0
100
AcDbLine
 62
7
  6
CONTINUOUS
 10
451.4672576392
 20
756.3530551894
 11
451.3768154548
 21
756.262613005
  0
LINE
  5
27E
100
AcDbEntity
  8
0
100
AcDbLine
 62
7
  6
CONTINUOUS
 10
449.9923678608
 20
754.878165411
 11
450.0828100452
 21
754.9686075954
  0
LINE
  5
27F
100
AcDbEntity
  8
0
100
AcDbLine
 62
7
  6
CONTINUOUS
 10
450.0827292072
 20
754.7988211299
 11
449.569612854
 21
754.2857047768
  0
LINE
  5
280
100
AcDbEntity
  8
0
100
AcDbLine
 62
7
  6
CONTINUOUS
 10
451.5466019203
 20
756.262693843
 11
452.0597182735
 21
756.7758101962
  0
LINE
  5
281
100
AcDbEntity
  8
0
100
AcDbLine
 62
7
  6
CONTINUOUS
 10
451.6369632667
 20
756.183349562
 11
451.5465210823
 21
756.0929073775
  0
LINE
  5
282
100
AcDbEntity
  8
0
100
AcDbLine
 62
7
  6
CONTINUOUS
 10
450.1620734883
 20
754.7084597835
 11
450.2525156727
 21
754.7989019679
  0
LINE
  5
283
100
AcDbEntity
  8
0
100
AcDbLine
 62
7
  6
CONTINUOUS
 10
451.3768154548
 20
754.7989019679
 11
451.3296655638
 21
754.7517520769
  0
LINE
  5
284
100
AcDbEntity
  8
0
100
AcDbLine
 62
7
  6
CONTINUOUS
 10
451.5936709733
 20
755.0157574865
 11
451.5465210823
 21
754.9686075954
  0
LINE
  5
285
100
AcDbEntity
  8
0
100
AcDbLine
 62
7
  6
CONTINUOUS
 10
100.7490852887
 20
620.8307573623
 11
101.0375794147
 21
620.601786692
  0
LINE
  5
286
100
AcDbEntity
  8
0
100
AcDbLine
 62
7
  6
CONTINUOUS
 10
309.9923861652
 20
756.191973531
 11
309.997828598
 21
756.3475944522
  0
LINE
  5
287
100
AcDbEntity
  8
0
100
AcDbLine
 62
7
  6
CONTINUOUS
 10
311.6315025295
 20
754.7139205207
 11
311.6369449623
 21
754.8695414419
  0
LINE
  5
288
100
AcDbEntity
  8
0
100
AcDbLine
 62
7
  6
CONTINUOUS
 10
309.9923861652
 20
689.191973531
 11
309.997828598
 21
689.3475944522
  0
LINE
  5
289
100
AcDbEntity
  8
0
100
AcDbLine
 62
7
  6
CONTINUOUS
 10
311.6315025295
 20
687.7139205207
 11
311.6369449623
 21
687.8695414419
  0
LINE
  5
28A
100
AcDbEntity
  8
0
100
AcDbLine
 62
7
  6
CONTINUOUS
 10
660.446792712
 20
329.3422552376
 11
661.0052207747
 21
329.1044199017
  0
LINE
  5
28B
100
AcDbEntity
  8
0
100
AcDbLine
 62
7
  6
CONTINUOUS
 10
309.9962849506
 20
687.7123768733
 11
309.9924953356
 21
687.8207371227
  0
LINE
  5
28C
100
AcDbEntity
  8
0
100
AcDbLine
 62
7
  6
CONTINUOUS
 10
311.6330461769
 20
689.3491380997
 11
311.6368357919
 21
689.2407778503
  0
LINE
  5
28D
100
AcDbEntity
  8
0
100
AcDbLine
 62
7
  6
CONTINUOUS
 10
309.9962849506
 20
754.7123768733
 11
309.9924953356
 21
754.8207371227
  0
LINE
  5
28E
100
AcDbEntity
  8
0
100
AcDbLine
 62
7
  6
CONTINUOUS
 10
311.6330461769
 20
756.3491380997
 11
311.6368357919
 21
756.2407778503
  0
LINE
  5
28F
100
AcDbEntity
  8
0
100
AcDbLine
 62
7
  6
CONTINUOUS
 10
310.0828100452
 20
689.0929073775
 11
310.0827292072
 21
689.262693843
  0
LINE
  5
290
100
AcDbEntity
  8
0
100
AcDbLine
 62
7
  6
CONTINUOUS
 10
310.0828100452
 20
756.0929073775
 11
310.0827292072
 21
756.262693843
  0
LINE
  5
291
100
AcDbEntity
  8
0
100
AcDbLine
 62
7
  6
CONTINUOUS
 10
311.5466019203
 20
687.7988211299
 11
311.5465210823
 21
687.9686075954
  0
LINE
  5
292
100
AcDbEntity
  8
0
100
AcDbLine
 62
7
  6
CONTINUOUS
 10
311.5466019203
 20
754.7988211299
 11
311.5465210823
 21
754.9686075954
  0
LINE
  5
293
100
AcDbEntity
  8
0
100
AcDbLine
 62
7
  6
CONTINUOUS
 10
310.2996655638
 20
685.9805581782
 11
310.2996655638
 21
687.7517520769
  0
LINE
  5
294
100
AcDbEntity
  8
0
100
AcDbLine
 62
7
  6
CONTINUOUS
 10
310.2996655638
 20
689.309762896
 11
310.2996655638
 21
691.0809566443
  0
LINE
  5
295
100
AcDbEntity
  8
0
100
AcDbLine
 62
7
  6
CONTINUOUS
 10
310.2996655638
 20
752.9805581782
 11
310.2996655638
 21
754.7517520769
  0
LINE
  5
296
100
AcDbEntity
  8
0
100
AcDbLine
 62
7
  6
CONTINUOUS
 10
310.2996655638
 20
756.309762896
 11
310.2996655638
 21
758.0809566443
  0
LINE
  5
297
100
AcDbEntity
  8
0
100
AcDbLine
 62
7
  6
CONTINUOUS
 10
311.3296655638
 20
685.9805582169
 11
311.3296655638
 21
687.7517520769
  0
LINE
  5
298
100
AcDbEntity
  8
0
100
AcDbLine
 62
7
  6
CONTINUOUS
 10
311.3296655638
 20
689.309762896
 11
311.3296655638
 21
691.0809569939
  0
LINE
  5
299
100
AcDbEntity
  8
0
100
AcDbLine
 62
7
  6
CONTINUOUS
 10
311.3296655638
 20
752.9805582169
 11
311.3296655638
 21
754.7517520769
  0
LINE
  5
29A
100
AcDbEntity
  8
0
100
AcDbLine
 62
7
  6
CONTINUOUS
 10
311.3296655638
 20
756.309762896
 11
311.3296655638
 21
758.0809569939
  0
LINE
  5
29B
100
AcDbEntity
  8
0
100
AcDbLine
 62
7
  6
CONTINUOUS
 10
310.0828100452
 20
754.9686075954
 11
310.0827292072
 21
754.7988211299
  0
LINE
  5
29C
100
AcDbEntity
  8
0
100
AcDbLine
 62
7
  6
CONTINUOUS
 10
310.0828100452
 20
687.9686075954
 11
310.0827292072
 21
687.7988211299
  0
LINE
  5
29D
100
AcDbEntity
  8
0
100
AcDbLine
 62
7
  6
CONTINUOUS
 10
311.5466019203
 20
756.262693843
 11
311.5465210823
 21
756.0929073775
  0
LINE
  5
29E
100
AcDbEntity
  8
0
100
AcDbLine
 62
7
  6
CONTINUOUS
 10
311.5466019203
 20
689.262693843
 11
311.5465210823
 21
689.0929073775
  0
LINE
  5
29F
100
AcDbEntity
  8
0
100
AcDbLine
 62
7
  6
CONTINUOUS
 10
450.0356601542
 20
689.0457574865
 11
450.0828100452
 21
689.0929073775
  0
LINE
  5
2A0
100
AcDbEntity
  8
0
100
AcDbLine
 62
7
  6
CONTINUOUS
 10
450.2525156727
 20
689.262613005
 11
450.2996655638
 21
689.309762896
  0
LINE
  5
2A1
100
AcDbEntity
  8
0
100
AcDbLine
 62
7
  6
CONTINUOUS
 10
451.4672576392
 20
689.3530551894
 11
451.3768154548
 21
689.262613005
  0
LINE
  5
2A2
100
AcDbEntity
  8
0
100
AcDbLine
 62
7
  6
CONTINUOUS
 10
449.9923678608
 20
687.878165411
 11
450.0828100452
 21
687.9686075954
  0
LINE
  5
2A3
100
AcDbEntity
  8
0
100
AcDbLine
 62
7
  6
CONTINUOUS
 10
450.0827292072
 20
687.7988211299
 11
449.569612854
 21
687.2857047768
  0
LINE
  5
2A4
100
AcDbEntity
  8
0
100
AcDbLine
 62
7
  6
CONTINUOUS
 10
451.5466019203
 20
689.262693843
 11
452.0597182735
 21
689.7758101962
  0
LINE
  5
2A5
100
AcDbEntity
  8
0
100
AcDbLine
 62
7
  6
CONTINUOUS
 10
451.6369632667
 20
689.183349562
 11
451.5465210823
 21
689.0929073775
  0
LINE
  5
2A6
100
AcDbEntity
  8
0
100
AcDbLine
 62
7
  6
CONTINUOUS
 10
450.1620734883
 20
687.7084597835
 11
450.2525156727
 21
687.7989019679
  0
LINE
  5
2A7
100
AcDbEntity
  8
0
100
AcDbLine
 62
7
  6
CONTINUOUS
 10
451.5936709733
 20
688.0157574865
 11
451.5465210823
 21
687.9686075954
  0
LINE
  5
2A8
100
AcDbEntity
  8
0
100
AcDbLine
 62
7
  6
CONTINUOUS
 10
451.3768154548
 20
687.7989019679
 11
451.3296655638
 21
687.7517520769
  0
LINE
  5
2A9
100
AcDbEntity
  8
0
100
AcDbLine
 62
7
  6
CONTINUOUS
 10
660.1108021651
 20
620.4109776966
 11
661.0924293485
 21
620.601786692
  0
LINE
  5
2AA
100
AcDbEntity
  8
0
100
AcDbLine
 62
7
  6
CONTINUOUS
 10
100.3517259225
 20
619.6491394957
 11
101.3333531059
 21
619.4583305003
  0
LINE
  5
2AB
100
AcDbEntity
  8
0
100
AcDbLine
 62
7
  6
CONTINUOUS
 10
449.9962849506
 20
687.7123768733
 11
449.9924953356
 21
687.8207371227
  0
LINE
  5
2AC
100
AcDbEntity
  8
0
100
AcDbLine
 62
7
  6
CONTINUOUS
 10
451.6330461769
 20
689.3491380997
 11
451.6368357919
 21
689.2407778503
  0
LINE
  5
2AD
100
AcDbEntity
  8
0
100
AcDbLine
 62
7
  6
CONTINUOUS
 10
449.9962849506
 20
754.7123768733
 11
449.9924953356
 21
754.8207371227
  0
LINE
  5
2AE
100
AcDbEntity
  8
0
100
AcDbLine
 62
7
  6
CONTINUOUS
 10
451.6330461769
 20
756.3491380997
 11
451.6368357919
 21
756.2407778503
  0
LINE
  5
2AF
100
AcDbEntity
  8
0
100
AcDbLine
 62
7
  6
CONTINUOUS
 10
450.0828100452
 20
689.0929073775
 11
450.0827292072
 21
689.262693843
  0
LINE
  5
2B0
100
AcDbEntity
  8
0
100
AcDbLine
 62
7
  6
CONTINUOUS
 10
450.0828100452
 20
756.0929073775
 11
450.0827292072
 21
756.262693843
  0
LINE
  5
2B1
100
AcDbEntity
  8
0
100
AcDbLine
 62
7
  6
CONTINUOUS
 10
451.5466019203
 20
687.7988211299
 11
451.5465210823
 21
687.9686075954
  0
LINE
  5
2B2
100
AcDbEntity
  8
0
100
AcDbLine
 62
7
  6
CONTINUOUS
 10
451.5466019203
 20
754.7988211299
 11
451.5465210823
 21
754.9686075954
  0
LINE
  5
2B3
100
AcDbEntity
  8
0
100
AcDbLine
 62
7
  6
CONTINUOUS
 10
450.2996655638
 20
685.9805581782
 11
450.2996655638
 21
687.7517520769
  0
LINE
  5
2B4
100
AcDbEntity
  8
0
100
AcDbLine
 62
7
  6
CONTINUOUS
 10
450.2996655638
 20
689.309762896
 11
450.2996655638
 21
691.0809566443
  0
LINE
  5
2B5
100
AcDbEntity
  8
0
100
AcDbLine
 62
7
  6
CONTINUOUS
 10
450.2996655638
 20
752.9805581782
 11
450.2996655638
 21
754.7517520769
  0
LINE
  5
2B6
100
AcDbEntity
  8
0
100
AcDbLine
 62
7
  6
CONTINUOUS
 10
450.2996655638
 20
756.309762896
 11
450.2996655638
 21
758.0809566443
  0
LINE
  5
2B7
100
AcDbEntity
  8
0
100
AcDbLine
 62
7
  6
CONTINUOUS
 10
451.3296655638
 20
685.9805582169
 11
451.3296655638
 21
687.7517520769
  0
LINE
  5
2B8
100
AcDbEntity
  8
0
100
AcDbLine
 62
7
  6
CONTINUOUS
 10
451.3296655638
 20
689.309762896
 11
451.3296655638
 21
691.0809569939
  0
LINE
  5
2B9
100
AcDbEntity
  8
0
100
AcDbLine
 62
7
  6
CONTINUOUS
 10
451.3296655638
 20
752.9805582169
 11
451.3296655638
 21
754.7517520769
  0
LINE
  5
2BA
100
AcDbEntity
  8
0
100
AcDbLine
 62
7
  6
CONTINUOUS
 10
451.3296655638
 20
756.309762896
 11
451.3296655638
 21
758.0809569939
  0
LINE
  5
2BB
100
AcDbEntity
  8
0
100
AcDbLine
 62
7
  6
CONTINUOUS
 10
450.0828100452
 20
754.9686075954
 11
450.0827292072
 21
754.7988211299
  0
LINE
  5
2BC
100
AcDbEntity
  8
0
100
AcDbLine
 62
7
  6
CONTINUOUS
 10
450.0828100452
 20
687.9686075954
 11
450.0827292072
 21
687.7988211299
  0
LINE
  5
2BD
100
AcDbEntity
  8
0
100
AcDbLine
 62
7
  6
CONTINUOUS
 10
451.5466019203
 20
756.262693843
 11
451.5465210823
 21
756.0929073775
  0
LINE
  5
2BE
100
AcDbEntity
  8
0
100
AcDbLine
 62
7
  6
CONTINUOUS
 10
451.5466019203
 20
689.262693843
 11
451.5465210823
 21
689.0929073775
  0
LINE
  5
2BF
100
AcDbEntity
  8
0
100
AcDbLine
 62
7
  6
CONTINUOUS
 10
449.9923861652
 20
756.191973531
 11
449.997828598
 21
756.3475944522
  0
LINE
  5
2C0
100
AcDbEntity
  8
0
100
AcDbLine
 62
7
  6
CONTINUOUS
 10
451.6315025295
 20
754.7139205207
 11
451.6369449623
 21
754.8695414419
  0
LINE
  5
2C1
100
AcDbEntity
  8
0
100
AcDbLine
 62
7
  6
CONTINUOUS
 10
449.9923861652
 20
689.191973531
 11
449.997828598
 21
689.3475944522
  0
LINE
  5
2C2
100
AcDbEntity
  8
0
100
AcDbLine
 62
7
  6
CONTINUOUS
 10
451.6315025295
 20
687.7139205207
 11
451.6369449623
 21
687.8695414419
  0
LINE
  5
2C3
100
AcDbEntity
  8
0
100
AcDbLine
 62
7
  6
CONTINUOUS
 10
80.5652689078
 20
613.0204608751
 11
680.5652689078
 21
613.0204608751
  0
LINE
  5
2C4
100
AcDbEntity
  8
0
100
AcDbLine
 62
7
  6
CONTINUOUS
 10
669.0340737272
 20
618.3307574865
 11
674.9267980046
 21
618.3307574865
  0
LINE
  5
2C5
100
AcDbEntity
  8
0
100
AcDbLine
 62
7
  6
CONTINUOUS
 10
668.930784505
 20
618.4307574865
 11
665.2898243396
 21
618.4307574865
  0
LINE
  5
2C6
100
AcDbEntity
  8
0
100
AcDbLine
 62
7
  6
CONTINUOUS
 10
674.9270200752
 20
618.674188944
 11
669.1849340097
 21
618.674188944
  0
LINE
  5
2C7
100
AcDbEntity
  8
0
100
AcDbLine
 62
7
  6
CONTINUOUS
 10
668.7689277303
 20
618.7307574865
 11
665.0380944503
 21
618.7307574865
  0
LINE
  5
2C8
100
AcDbEntity
  8
0
100
AcDbLine
 62
7
  6
CONTINUOUS
 10
664.0277625678
 20
619.0307574865
 11
676.5146655638
 21
619.0307574865
  0
LINE
  5
2C9
100
AcDbEntity
  8
0
100
AcDbLine
 62
7
  6
CONTINUOUS
 10
310.2996655638
 20
687.7517520769
 11
310.2525156727
 21
687.7989019679
  0
LINE
  5
2CA
100
AcDbEntity
  8
0
100
AcDbLine
 62
7
  6
CONTINUOUS
 10
310.0828100452
 20
687.9686075954
 11
310.0356601542
 21
688.0157574865
  0
LINE
  5
2CB
100
AcDbEntity
  8
0
100
AcDbLine
 62
7
  6
CONTINUOUS
 10
309.9923678608
 20
689.183349562
 11
310.0828100452
 21
689.0929073775
  0
LINE
  5
2CC
100
AcDbEntity
  8
0
100
AcDbLine
 62
7
  6
CONTINUOUS
 10
311.4672576392
 20
687.7084597835
 11
311.3768154548
 21
687.7989019679
  0
LINE
  5
2CD
100
AcDbEntity
  8
0
100
AcDbLine
 62
7
  6
CONTINUOUS
 10
311.5466019203
 20
687.7988211299
 11
312.2044300447
 21
687.1409930055
  0
LINE
  5
2CE
100
AcDbEntity
  8
0
100
AcDbLine
 62
7
  6
CONTINUOUS
 10
310.0827292072
 20
689.262693843
 11
309.4249010828
 21
689.9205219674
  0
LINE
  5
2CF
100
AcDbEntity
  8
0
100
AcDbLine
 62
7
  6
CONTINUOUS
 10
311.6369632667
 20
687.878165411
 11
311.5465210823
 21
687.9686075954
  0
LINE
  5
2D0
100
AcDbEntity
  8
0
100
AcDbLine
 62
7
  6
CONTINUOUS
 10
310.2525156727
 20
689.262613005
 11
310.1620734883
 21
689.3530551894
  0
LINE
  5
2D1
100
AcDbEntity
  8
0
100
AcDbLine
 62
7
  6
CONTINUOUS
 10
311.5465210823
 20
689.0929073775
 11
311.5936709733
 21
689.0457574865
  0
LINE
  5
2D2
100
AcDbEntity
  8
0
100
AcDbLine
 62
7
  6
CONTINUOUS
 10
311.3296655638
 20
689.309762896
 11
311.3768154548
 21
689.262613005
  0
LINE
  5
2D3
100
AcDbEntity
  8
0
100
AcDbLine
 62
7
  6
CONTINUOUS
 10
480.5646655638
 20
681.1488380598
 11
480.5646655638
 21
678.1025582241
  0
LINE
  5
2D4
100
AcDbEntity
  8
0
100
AcDbLine
 62
7
  6
CONTINUOUS
 10
480.5646655638
 20
762.9126769132
 11
480.5646655638
 21
765.9589567488
  0
LINE
  5
2D5
100
AcDbEntity
  8
0
100
AcDbLine
 62
7
  6
CONTINUOUS
 10
481.5646655638
 20
767.2807574865
 11
481.5646655638
 21
766.7807574865
  0
LINE
  5
2D6
100
AcDbEntity
  8
0
100
AcDbLine
 62
7
  6
CONTINUOUS
 10
481.5646655638
 20
677.2807574865
 11
481.5646655638
 21
676.7807574865
  0
LINE
  5
2D7
100
AcDbEntity
  8
0
100
AcDbLine
 62
7
  6
CONTINUOUS
 10
100.6837451036
 20
329.3422552376
 11
100.1253170409
 21
329.1044199017
  0
LINE
  5
2D8
100
AcDbEntity
  8
0
100
AcDbLine
 62
7
  6
CONTINUOUS
 10
96.0645833164
 20
620.2307574865
 11
87.5646656631
 21
620.2307574865
  0
LINE
  5
2D9
100
AcDbEntity
  8
0
100
AcDbLine
 62
7
  6
CONTINUOUS
 10
96.3145785835
 20
620.4807574865
 11
87.3146655638
 21
620.4807574865
  0
LINE
  5
2DA
100
AcDbEntity
  8
0
100
AcDbLine
 62
7
  6
CONTINUOUS
 10
661.5646655638
 20
620.5307574865
 11
678.3146655638
 21
620.5307574865
  0
LINE
  5
2DB
100
AcDbEntity
  8
0
100
AcDbLine
 62
7
  6
CONTINUOUS
 10
101.0375794147
 20
620.601786692
 11
660.1108021651
 21
620.601786692
  0
LINE
  5
2DC
100
AcDbEntity
  8
0
100
AcDbLine
 62
7
  6
CONTINUOUS
 10
87.3146655638
 20
620.9807574865
 11
96.3144757127
 21
620.9807574865
  0
LINE
  5
2DD
100
AcDbEntity
  8
0
100
AcDbLine
 62
7
  6
CONTINUOUS
 10
96.8146242433
 20
621.2307574865
 11
86.8147068842
 21
621.2307574865
  0
LINE
  5
2DE
100
AcDbEntity
  8
0
100
AcDbLine
 62
7
  6
CONTINUOUS
 10
83.0146655638
 20
622.0307574865
 11
678.6146655638
 21
622.0307574865
  0
LINE
  5
2DF
100
AcDbEntity
  8
0
100
AcDbLine
 62
7
  6
CONTINUOUS
 10
680.8146655638
 20
624.2307574865
 11
80.8146655638
 21
624.2307574865
  0
LINE
  5
2E0
100
AcDbEntity
  8
0
100
AcDbLine
 62
7
  6
CONTINUOUS
 10
310.2996655638
 20
754.7517520769
 11
310.2525156727
 21
754.7989019679
  0
LINE
  5
2E1
100
AcDbEntity
  8
0
100
AcDbLine
 62
7
  6
CONTINUOUS
 10
310.0828100452
 20
754.9686075954
 11
310.0356601542
 21
755.0157574865
  0
LINE
  5
2E2
100
AcDbEntity
  8
0
100
AcDbLine
 62
7
  6
CONTINUOUS
 10
309.9923678608
 20
756.183349562
 11
310.0828100452
 21
756.0929073775
  0
LINE
  5
2E3
100
AcDbEntity
  8
0
100
AcDbLine
 62
7
  6
CONTINUOUS
 10
311.4672576392
 20
754.7084597835
 11
311.3768154548
 21
754.7989019679
  0
LINE
  5
2E4
100
AcDbEntity
  8
0
100
AcDbLine
 62
7
  6
CONTINUOUS
 10
311.5466019203
 20
754.7988211299
 11
312.2044300447
 21
754.1409930055
  0
LINE
  5
2E5
100
AcDbEntity
  8
0
100
AcDbLine
 62
7
  6
CONTINUOUS
 10
310.0827292072
 20
756.262693843
 11
309.4249010828
 21
756.9205219674
  0
LINE
  5
2E6
100
AcDbEntity
  8
0
100
AcDbLine
 62
7
  6
CONTINUOUS
 10
311.6369632667
 20
754.878165411
 11
311.5465210823
 21
754.9686075954
  0
LINE
  5
2E7
100
AcDbEntity
  8
0
100
AcDbLine
 62
7
  6
CONTINUOUS
 10
310.2525156727
 20
756.262613005
 11
310.1620734883
 21
756.3530551894
  0
LINE
  5
2E8
100
AcDbEntity
  8
0
100
AcDbLine
 62
7
  6
CONTINUOUS
 10
311.5465210823
 20
756.0929073775
 11
311.5936709733
 21
756.0457574865
  0
LINE
  5
2E9
100
AcDbEntity
  8
0
100
AcDbLine
 62
7
  6
CONTINUOUS
 10
311.3296655638
 20
756.309762896
 11
311.3768154548
 21
756.262613005
  0
LINE
  5
2EA
100
AcDbEntity
  8
0
100
AcDbLine
 62
7
  6
CONTINUOUS
 10
665.0404276836
 20
327.9166553653
 11
664.7886977943
 21
328.2166553653
  0
LINE
  5
2EB
100
AcDbEntity
  8
0
100
AcDbLine
 62
7
  6
CONTINUOUS
 10
668.6623447617
 20
304.7022481213
 11
668.9857386057
 21
304.2403938476
  0
LINE
  5
2EC
100
AcDbEntity
  8
0
100
AcDbLine
 62
7
  6
CONTINUOUS
 10
671.1051357444
 20
307.189341207
 11
671.793427468
 21
306.2063587539
  0
LINE
  5
2ED
100
AcDbEntity
  8
0
100
AcDbLine
 62
7
  6
CONTINUOUS
 10
503.3146655638
 20
707.0307574865
 11
503.3146655638
 21
737.0307574865
  0
LINE
  5
2EE
100
AcDbEntity
  8
0
100
AcDbLine
 62
7
  6
CONTINUOUS
 10
504.1965849905
 20
739.2807574865
 11
504.1965849905
 21
704.7807574865
  0
LINE
  5
2EF
100
AcDbEntity
  8
0
100
AcDbLine
 62
7
  6
CONTINUOUS
 10
505.1813927435
 20
704.7807574865
 11
505.1813927435
 21
739.2807574865
  0
LINE
  5
2F0
100
AcDbEntity
  8
0
100
AcDbLine
 62
7
  6
CONTINUOUS
 10
505.2732493201
 20
739.2807574865
 11
505.2732493201
 21
704.7807574865
  0
LINE
  5
2F1
100
AcDbEntity
  8
0
100
AcDbLine
 62
7
  6
CONTINUOUS
 10
507.2428648262
 20
704.7807574869
 11
507.2428648262
 21
739.280757486
  0
LINE
  5
2F2
100
AcDbEntity
  8
0
100
AcDbLine
 62
7
  6
CONTINUOUS
 10
508.0646655638
 20
703.7807574865
 11
508.0646655638
 21
740.2807574865
  0
LINE
  5
2F3
100
AcDbEntity
  8
0
100
AcDbLine
 62
7
  6
CONTINUOUS
 10
508.5646655638
 20
703.7807574865
 11
508.5646655638
 21
740.2807574865
  0
LINE
  5
2F4
100
AcDbEntity
  8
0
100
AcDbLine
 62
7
  6
CONTINUOUS
 10
676.4782682379
 20
619.0307574865
 11
676.2438069406
 21
618.8256038513
  0
LINE
  5
2F5
100
AcDbEntity
  8
0
100
AcDbLine
 62
7
  6
CONTINUOUS
 10
120.0253407225
 20
298.1807896495
 11
119.911360437
 21
298.1411991502
  0
LINE
  5
2F6
100
AcDbEntity
  8
0
100
AcDbLine
 62
7
  6
CONTINUOUS
 10
451.6315025295
 20
687.7139205207
 11
451.4758816083
 21
687.7084780879
  0
LINE
  5
2F7
100
AcDbEntity
  8
0
100
AcDbLine
 62
7
  6
CONTINUOUS
 10
449.997828598
 20
689.3475944522
 11
450.1534495192
 21
689.353036885
  0
LINE
  5
2F8
100
AcDbEntity
  8
0
100
AcDbLine
 62
7
  6
CONTINUOUS
 10
311.6315025295
 20
687.7139205207
 11
311.4758816083
 21
687.7084780879
  0
LINE
  5
2F9
100
AcDbEntity
  8
0
100
AcDbLine
 62
7
  6
CONTINUOUS
 10
309.997828598
 20
689.3475944522
 11
310.1534495192
 21
689.353036885
  0
LINE
  5
2FA
100
AcDbEntity
  8
0
100
AcDbLine
 62
7
  6
CONTINUOUS
 10
450.0827292072
 20
687.7988211299
 11
450.2525156727
 21
687.7989019679
  0
LINE
  5
2FB
100
AcDbEntity
  8
0
100
AcDbLine
 62
7
  6
CONTINUOUS
 10
310.0827292072
 20
687.7988211299
 11
310.2525156727
 21
687.7989019679
  0
LINE
  5
2FC
100
AcDbEntity
  8
0
100
AcDbLine
 62
7
  6
CONTINUOUS
 10
451.3768154548
 20
689.262613005
 11
451.5466019203
 21
689.262693843
  0
LINE
  5
2FD
100
AcDbEntity
  8
0
100
AcDbLine
 62
7
  6
CONTINUOUS
 10
311.3768154548
 20
689.262613005
 11
311.5466019203
 21
689.262693843
  0
LINE
  5
2FE
100
AcDbEntity
  8
0
100
AcDbLine
 62
7
  6
CONTINUOUS
 10
280.0646655638
 20
676.7807574865
 11
481.5646655638
 21
676.7807574865
  0
LINE
  5
2FF
100
AcDbEntity
  8
0
100
AcDbLine
 62
7
  6
CONTINUOUS
 10
280.0646655638
 20
677.2807574865
 11
481.5646655638
 21
677.2807574865
  0
LINE
  5
300
100
AcDbEntity
  8
0
100
AcDbLine
 62
7
  6
CONTINUOUS
 10
281.0646655642
 20
678.1025582241
 11
480.5646655633
 21
678.1025582241
  0
LINE
  5
301
100
AcDbEntity
  8
0
100
AcDbLine
 62
7
  6
CONTINUOUS
 10
480.5646655637
 20
680.0721737302
 11
281.0646655638
 21
680.0721737302
  0
LINE
  5
302
100
AcDbEntity
  8
0
100
AcDbLine
 62
7
  6
CONTINUOUS
 10
281.0646655638
 20
680.1640303068
 11
480.5646655638
 21
680.1640303068
  0
LINE
  5
303
100
AcDbEntity
  8
0
100
AcDbLine
 62
7
  6
CONTINUOUS
 10
480.5646655638
 20
681.1488380598
 11
281.0646655638
 21
681.1488380598
  0
LINE
  5
304
100
AcDbEntity
  8
0
100
AcDbLine
 62
7
  6
CONTINUOUS
 10
283.3146655638
 20
682.0307574865
 11
478.3146655638
 21
682.0307574865
  0
LINE
  5
305
100
AcDbEntity
  8
0
100
AcDbLine
 62
7
  6
CONTINUOUS
 10
453.3648653677
 20
688.0157574865
 11
451.5936709733
 21
688.0157574865
  0
LINE
  5
306
100
AcDbEntity
  8
0
100
AcDbLine
 62
7
  6
CONTINUOUS
 10
313.3648653677
 20
688.0157574865
 11
311.5936709733
 21
688.0157574865
  0
LINE
  5
307
100
AcDbEntity
  8
0
100
AcDbLine
 62
7
  6
CONTINUOUS
 10
308.2644664496
 20
688.0157574865
 11
310.0356601542
 21
688.0157574865
  0
LINE
  5
308
100
AcDbEntity
  8
0
100
AcDbLine
 62
7
  6
CONTINUOUS
 10
448.2644664496
 20
688.0157574865
 11
450.0356601542
 21
688.0157574865
  0
LINE
  5
309
100
AcDbEntity
  8
0
100
AcDbLine
 62
7
  6
CONTINUOUS
 10
448.4547696342
 20
688.5307574867
 11
448.2084229403
 21
688.5307574857
  0
LINE
  5
30A
100
AcDbEntity
  8
0
100
AcDbLine
 62
7
  6
CONTINUOUS
 10
308.4547696342
 20
688.5307574867
 11
308.2084229403
 21
688.5307574857
  0
LINE
  5
30B
100
AcDbEntity
  8
0
100
AcDbLine
 62
7
  6
CONTINUOUS
 10
313.1745600278
 20
688.5307574866
 11
313.4209080529
 21
688.5307574906
  0
LINE
  5
30C
100
AcDbEntity
  8
0
100
AcDbLine
 62
7
  6
CONTINUOUS
 10
453.1745600278
 20
688.5307574866
 11
453.4209080529
 21
688.5307574906
  0
LINE
  5
30D
100
AcDbEntity
  8
0
100
AcDbLine
 62
7
  6
CONTINUOUS
 10
453.3648654161
 20
689.0457574865
 11
451.5936709733
 21
689.0457574865
  0
LINE
  5
30E
100
AcDbEntity
  8
0
100
AcDbLine
 62
7
  6
CONTINUOUS
 10
313.3648654161
 20
689.0457574865
 11
311.5936709733
 21
689.0457574865
  0
LINE
  5
30F
100
AcDbEntity
  8
0
100
AcDbLine
 62
7
  6
CONTINUOUS
 10
308.2644668975
 20
689.0457574865
 11
310.0356601542
 21
689.0457574865
  0
LINE
  5
310
100
AcDbEntity
  8
0
100
AcDbLine
 62
7
  6
CONTINUOUS
 10
448.2644668975
 20
689.0457574865
 11
450.0356601542
 21
689.0457574865
  0
LINE
  5
311
100
AcDbEntity
  8
0
100
AcDbLine
 62
7
  6
CONTINUOUS
 10
311.3768154548
 20
687.7989019679
 11
311.5466019203
 21
687.7988211299
  0
LINE
  5
312
100
AcDbEntity
  8
0
100
AcDbLine
 62
7
  6
CONTINUOUS
 10
451.3768154548
 20
687.7989019679
 11
451.5466019203
 21
687.7988211299
  0
LINE
  5
313
100
AcDbEntity
  8
0
100
AcDbLine
 62
7
  6
CONTINUOUS
 10
310.0827292072
 20
689.262693843
 11
310.2525156727
 21
689.262613005
  0
LINE
  5
314
100
AcDbEntity
  8
0
100
AcDbLine
 62
7
  6
CONTINUOUS
 10
450.0827292072
 20
689.262693843
 11
450.2525156727
 21
689.262613005
  0
LINE
  5
315
100
AcDbEntity
  8
0
100
AcDbLine
 62
7
  6
CONTINUOUS
 10
309.9962849506
 20
687.7123768733
 11
310.1046451999
 21
687.7085872583
  0
LINE
  5
316
100
AcDbEntity
  8
0
100
AcDbLine
 62
7
  6
CONTINUOUS
 10
311.6330461769
 20
689.3491380997
 11
311.5246859276
 21
689.3529277146
  0
LINE
  5
317
100
AcDbEntity
  8
0
100
AcDbLine
 62
7
  6
CONTINUOUS
 10
449.9962849506
 20
687.7123768733
 11
450.1046451999
 21
687.7085872583
  0
LINE
  5
318
100
AcDbEntity
  8
0
100
AcDbLine
 62
7
  6
CONTINUOUS
 10
451.6330461769
 20
689.3491380997
 11
451.5246859276
 21
689.3529277146
  0
LINE
  5
319
100
AcDbEntity
  8
0
100
AcDbLine
 62
7
  6
CONTINUOUS
 10
450.2996655638
 20
687.7517520769
 11
450.2525156727
 21
687.7989019679
  0
LINE
  5
31A
100
AcDbEntity
  8
0
100
AcDbLine
 62
7
  6
CONTINUOUS
 10
450.0828100452
 20
687.9686075954
 11
450.0356601542
 21
688.0157574865
  0
LINE
  5
31B
100
AcDbEntity
  8
0
100
AcDbLine
 62
7
  6
CONTINUOUS
 10
451.4672576392
 20
687.7084597835
 11
451.3768154548
 21
687.7989019679
  0
LINE
  5
31C
100
AcDbEntity
  8
0
100
AcDbLine
 62
7
  6
CONTINUOUS
 10
449.9923678608
 20
689.183349562
 11
450.0828100452
 21
689.0929073775
  0
LINE
  5
31D
100
AcDbEntity
  8
0
100
AcDbLine
 62
7
  6
CONTINUOUS
 10
449.4249010828
 20
689.9205219674
 11
450.0827292072
 21
689.262693843
  0
LINE
  5
31E
100
AcDbEntity
  8
0
100
AcDbLine
 62
7
  6
CONTINUOUS
 10
451.5466019203
 20
687.7988211299
 11
452.2044300447
 21
687.1409930055
  0
LINE
  5
31F
100
AcDbEntity
  8
0
100
AcDbLine
 62
7
  6
CONTINUOUS
 10
451.6369632667
 20
687.878165411
 11
451.5465210823
 21
687.9686075954
  0
LINE
  5
320
100
AcDbEntity
  8
0
100
AcDbLine
 62
7
  6
CONTINUOUS
 10
450.2525156727
 20
689.262613005
 11
450.1620734883
 21
689.3530551894
  0
LINE
  5
321
100
AcDbEntity
  8
0
100
AcDbLine
 62
7
  6
CONTINUOUS
 10
451.5465210823
 20
689.0929073775
 11
451.5936709733
 21
689.0457574865
  0
LINE
  5
322
100
AcDbEntity
  8
0
100
AcDbLine
 62
7
  6
CONTINUOUS
 10
451.3296655638
 20
689.309762896
 11
451.3768154548
 21
689.262613005
  0
LINE
  5
323
100
AcDbEntity
  8
0
100
AcDbLine
 62
7
  6
CONTINUOUS
 10
508.5646655638
 20
703.7807574865
 11
508.0646655638
 21
703.7807574865
  0
LINE
  5
324
100
AcDbEntity
  8
0
100
AcDbLine
 62
7
  6
CONTINUOUS
 10
253.5646655638
 20
703.7807574865
 11
253.0646655638
 21
703.7807574865
  0
LINE
  5
325
100
AcDbEntity
  8
0
100
AcDbLine
 62
7
  6
CONTINUOUS
 10
257.4327461371
 20
704.7807574865
 11
254.3864663014
 21
704.7807574865
  0
LINE
  5
326
100
AcDbEntity
  8
0
100
AcDbLine
 62
7
  6
CONTINUOUS
 10
504.1965849905
 20
704.7807574865
 11
507.2428648262
 21
704.7807574865
  0
LINE
  5
327
100
AcDbEntity
  8
0
100
AcDbLine
 62
7
  6
CONTINUOUS
 10
254.3864663014
 20
739.2807574865
 11
257.4327461371
 21
739.2807574865
  0
LINE
  5
328
100
AcDbEntity
  8
0
100
AcDbLine
 62
7
  6
CONTINUOUS
 10
504.1965849905
 20
739.2807574865
 11
507.2428648262
 21
739.2807574865
  0
LINE
  5
329
100
AcDbEntity
  8
0
100
AcDbLine
 62
7
  6
CONTINUOUS
 10
253.0646655638
 20
740.2807574865
 11
253.5646655638
 21
740.2807574865
  0
LINE
  5
32A
100
AcDbEntity
  8
0
100
AcDbLine
 62
7
  6
CONTINUOUS
 10
508.0646655638
 20
740.2807574865
 11
508.5646655638
 21
740.2807574865
  0
LINE
  5
32B
100
AcDbEntity
  8
0
100
AcDbLine
 62
7
  6
CONTINUOUS
 10
450.2996655638
 20
754.7517520769
 11
450.2525156727
 21
754.7989019679
  0
LINE
  5
32C
100
AcDbEntity
  8
0
100
AcDbLine
 62
7
  6
CONTINUOUS
 10
450.0828100452
 20
754.9686075954
 11
450.0356601542
 21
755.0157574865
  0
LINE
  5
32D
100
AcDbEntity
  8
0
100
AcDbLine
 62
7
  6
CONTINUOUS
 10
449.9923678608
 20
756.183349562
 11
450.0828100452
 21
756.0929073775
  0
LINE
  5
32E
100
AcDbEntity
  8
0
100
AcDbLine
 62
7
  6
CONTINUOUS
 10
451.4672576392
 20
754.7084597835
 11
451.3768154548
 21
754.7989019679
  0
LINE
  5
32F
100
AcDbEntity
  8
0
100
AcDbLine
 62
7
  6
CONTINUOUS
 10
451.5466019203
 20
754.7988211299
 11
452.2044300447
 21
754.1409930055
  0
LINE
  5
330
100
AcDbEntity
  8
0
100
AcDbLine
 62
7
  6
CONTINUOUS
 10
450.0827292072
 20
756.262693843
 11
449.4249010828
 21
756.9205219674
  0
LINE
  5
331
100
AcDbEntity
  8
0
100
AcDbLine
 62
7
  6
CONTINUOUS
 10
451.6369632667
 20
754.878165411
 11
451.5465210823
 21
754.9686075954
  0
LINE
  5
332
100
AcDbEntity
  8
0
100
AcDbLine
 62
7
  6
CONTINUOUS
 10
450.2525156727
 20
756.262613005
 11
450.1620734883
 21
756.3530551894
  0
LINE
  5
333
100
AcDbEntity
  8
0
100
AcDbLine
 62
7
  6
CONTINUOUS
 10
451.5465210823
 20
756.0929073775
 11
451.5936709733
 21
756.0457574865
  0
LINE
  5
334
100
AcDbEntity
  8
0
100
AcDbLine
 62
7
  6
CONTINUOUS
 10
451.3296655638
 20
756.309762896
 11
451.3768154548
 21
756.262613005
  0
LINE
  5
335
100
AcDbEntity
  8
0
100
AcDbLine
 62
7
  6
CONTINUOUS
 10
451.6315025295
 20
754.7139205207
 11
451.4758816083
 21
754.7084780879
  0
LINE
  5
336
100
AcDbEntity
  8
0
100
AcDbLine
 62
7
  6
CONTINUOUS
 10
449.997828598
 20
756.3475944522
 11
450.1534495192
 21
756.353036885
  0
LINE
  5
337
100
AcDbEntity
  8
0
100
AcDbLine
 62
7
  6
CONTINUOUS
 10
311.6315025295
 20
754.7139205207
 11
311.4758816083
 21
754.7084780879
  0
LINE
  5
338
100
AcDbEntity
  8
0
100
AcDbLine
 62
7
  6
CONTINUOUS
 10
309.997828598
 20
756.3475944522
 11
310.1534495192
 21
756.353036885
  0
LINE
  5
339
100
AcDbEntity
  8
0
100
AcDbLine
 62
7
  6
CONTINUOUS
 10
450.0827292072
 20
754.7988211299
 11
450.2525156727
 21
754.7989019679
  0
LINE
  5
33A
100
AcDbEntity
  8
0
100
AcDbLine
 62
7
  6
CONTINUOUS
 10
310.0827292072
 20
754.7988211299
 11
310.2525156727
 21
754.7989019679
  0
LINE
  5
33B
100
AcDbEntity
  8
0
100
AcDbLine
 62
7
  6
CONTINUOUS
 10
451.3768154548
 20
756.262613005
 11
451.5466019203
 21
756.262693843
  0
LINE
  5
33C
100
AcDbEntity
  8
0
100
AcDbLine
 62
7
  6
CONTINUOUS
 10
311.3768154548
 20
756.262613005
 11
311.5466019203
 21
756.262693843
  0
LINE
  5
33D
100
AcDbEntity
  8
0
100
AcDbLine
 62
7
  6
CONTINUOUS
 10
453.3648653677
 20
755.0157574865
 11
451.5936709733
 21
755.0157574865
  0
LINE
  5
33E
100
AcDbEntity
  8
0
100
AcDbLine
 62
7
  6
CONTINUOUS
 10
313.3648653677
 20
755.0157574865
 11
311.5936709733
 21
755.0157574865
  0
LINE
  5
33F
100
AcDbEntity
  8
0
100
AcDbLine
 62
7
  6
CONTINUOUS
 10
308.2644664496
 20
755.0157574865
 11
310.0356601542
 21
755.0157574865
  0
LINE
  5
340
100
AcDbEntity
  8
0
100
AcDbLine
 62
7
  6
CONTINUOUS
 10
448.2644664496
 20
755.0157574865
 11
450.0356601542
 21
755.0157574865
  0
LINE
  5
341
100
AcDbEntity
  8
0
100
AcDbLine
 62
7
  6
CONTINUOUS
 10
453.1745600278
 20
755.5307574866
 11
453.4209080529
 21
755.5307574906
  0
LINE
  5
342
100
AcDbEntity
  8
0
100
AcDbLine
 62
7
  6
CONTINUOUS
 10
448.4547696342
 20
755.5307574867
 11
448.2084229403
 21
755.5307574857
  0
LINE
  5
343
100
AcDbEntity
  8
0
100
AcDbLine
 62
7
  6
CONTINUOUS
 10
308.4547696342
 20
755.5307574867
 11
308.2084229403
 21
755.5307574857
  0
LINE
  5
344
100
AcDbEntity
  8
0
100
AcDbLine
 62
7
  6
CONTINUOUS
 10
313.1745600278
 20
755.5307574866
 11
313.4209080529
 21
755.5307574906
  0
LINE
  5
345
100
AcDbEntity
  8
0
100
AcDbLine
 62
7
  6
CONTINUOUS
 10
453.3648654161
 20
756.0457574865
 11
451.5936709733
 21
756.0457574865
  0
LINE
  5
346
100
AcDbEntity
  8
0
100
AcDbLine
 62
7
  6
CONTINUOUS
 10
313.3648654161
 20
756.0457574865
 11
311.5936709733
 21
756.0457574865
  0
LINE
  5
347
100
AcDbEntity
  8
0
100
AcDbLine
 62
7
  6
CONTINUOUS
 10
308.2644668975
 20
756.0457574865
 11
310.0356601542
 21
756.0457574865
  0
LINE
  5
348
100
AcDbEntity
  8
0
100
AcDbLine
 62
7
  6
CONTINUOUS
 10
448.2644668975
 20
756.0457574865
 11
450.0356601542
 21
756.0457574865
  0
LINE
  5
349
100
AcDbEntity
  8
0
100
AcDbLine
 62
7
  6
CONTINUOUS
 10
478.3146655638
 20
762.0307574865
 11
283.3146655638
 21
762.0307574865
  0
LINE
  5
34A
100
AcDbEntity
  8
0
100
AcDbLine
 62
7
  6
CONTINUOUS
 10
281.0646655638
 20
762.9126769132
 11
480.5646655638
 21
762.9126769132
  0
LINE
  5
34B
100
AcDbEntity
  8
0
100
AcDbLine
 62
7
  6
CONTINUOUS
 10
480.5646655638
 20
763.8974846662
 11
281.0646655638
 21
763.8974846662
  0
LINE
  5
34C
100
AcDbEntity
  8
0
100
AcDbLine
 62
7
  6
CONTINUOUS
 10
281.0646655638
 20
763.9893412428
 11
480.5646655637
 21
763.9893412428
  0
LINE
  5
34D
100
AcDbEntity
  8
0
100
AcDbLine
 62
7
  6
CONTINUOUS
 10
480.5646655638
 20
765.9589567488
 11
281.0646655638
 21
765.9589567488
  0
LINE
  5
34E
100
AcDbEntity
  8
0
100
AcDbLine
 62
7
  6
CONTINUOUS
 10
481.5646655638
 20
766.7807574865
 11
280.0646655638
 21
766.7807574865
  0
LINE
  5
34F
100
AcDbEntity
  8
0
100
AcDbLine
 62
7
  6
CONTINUOUS
 10
481.5646655638
 20
767.2807574865
 11
280.0646655638
 21
767.2807574865
  0
LINE
  5
350
100
AcDbEntity
  8
0
100
AcDbLine
 62
7
  6
CONTINUOUS
 10
311.3768154548
 20
754.7989019679
 11
311.5466019203
 21
754.7988211299
  0
LINE
  5
351
100
AcDbEntity
  8
0
100
AcDbLine
 62
7
  6
CONTINUOUS
 10
451.3768154548
 20
754.7989019679
 11
451.5466019203
 21
754.7988211299
  0
LINE
  5
352
100
AcDbEntity
  8
0
100
AcDbLine
 62
7
  6
CONTINUOUS
 10
310.0827292072
 20
756.262693843
 11
310.2525156727
 21
756.262613005
  0
LINE
  5
353
100
AcDbEntity
  8
0
100
AcDbLine
 62
7
  6
CONTINUOUS
 10
450.0827292072
 20
756.262693843
 11
450.2525156727
 21
756.262613005
  0
LINE
  5
354
100
AcDbEntity
  8
0
100
AcDbLine
 62
7
  6
CONTINUOUS
 10
309.9962849506
 20
754.7123768733
 11
310.1046451999
 21
754.7085872583
  0
LINE
  5
355
100
AcDbEntity
  8
0
100
AcDbLine
 62
7
  6
CONTINUOUS
 10
311.6330461769
 20
756.3491380997
 11
311.5246859276
 21
756.3529277146
  0
LINE
  5
356
100
AcDbEntity
  8
0
100
AcDbLine
 62
7
  6
CONTINUOUS
 10
449.9962849506
 20
754.7123768733
 11
450.1046451999
 21
754.7085872583
  0
LINE
  5
357
100
AcDbEntity
  8
0
100
AcDbLine
 62
7
  6
CONTINUOUS
 10
451.6330461769
 20
756.3491380997
 11
451.5246859276
 21
756.3529277146
  0
LINE
  5
358
100
AcDbEntity
  8
0
100
AcDbLine
 62
7
  6
CONTINUOUS
 10
668.5509277747
 20
328.1067669141
 11
668.4338167886
 21
328.5166553653
  0
LINE
  5
359
100
AcDbEntity
  8
0
100
AcDbLine
 62
7
  6
CONTINUOUS
 10
668.8336606273
 20
328.5166553653
 11
668.9355373537
 21
328.1600868228
  0
LINE
  5
35A
100
AcDbEntity
  8
0
100
AcDbLine
 62
7
  6
CONTINUOUS
 10
660.2056523136
 20
328.5166553875
 11
660.27260131
 21
328.2304418722
  0
LINE
  5
35B
100
AcDbEntity
  8
0
100
AcDbLine
 62
7
  6
CONTINUOUS
 10
80.8146655638
 20
776.8307574865
 11
680.8146655638
 21
776.8307574865
  0
LINE
  5
35C
100
AcDbEntity
  8
0
100
AcDbLine
 62
7
  6
CONTINUOUS
 10
678.6146655638
 20
779.0307574865
 11
83.0146655638
 21
779.0307574865
  0
LINE
  5
35D
100
AcDbEntity
  8
0
100
AcDbLine
 62
7
  6
CONTINUOUS
 10
96.3146655638
 20
779.2307574865
 11
109.3146655638
 21
779.2307574865
  0
LINE
  5
35E
100
AcDbEntity
  8
0
100
AcDbLine
 62
7
  6
CONTINUOUS
 10
652.3146655638
 20
779.2307574865
 11
665.3146655638
 21
779.2307574865
  0
LINE
  5
35F
100
AcDbEntity
  8
0
100
AcDbLine
 62
7
  6
CONTINUOUS
 10
660.9128281326
 20
328.2304418722
 11
661.7727827768
 21
323.8063587539
  0
LINE
  5
360
100
AcDbEntity
  8
0
100
AcDbLine
 62
7
  6
CONTINUOUS
 10
661.3242979532
 20
327.0396328768
 11
661.9527827768
 21
323.8063587539
  0
LINE
  5
361
100
AcDbEntity
  8
0
100
AcDbLine
 62
7
  6
CONTINUOUS
 10
663.4808578192
 20
323.8063587539
 11
662.7967387284
 21
327.3258463699
  0
LINE
  5
362
100
AcDbEntity
  8
0
100
AcDbLine
 62
7
  6
CONTINUOUS
 10
661.0672871458
 20
323.8063587539
 11
660.2726013101
 21
328.2304418722
  0
LINE
  5
363
100
AcDbEntity
  8
0
100
AcDbLine
 62
7
  6
CONTINUOUS
 10
664.7886977943
 20
328.2166553653
 11
664.7357997
 21
328.5166553653
  0
LINE
  5
364
100
AcDbEntity
  8
0
100
AcDbLine
 62
7
  6
CONTINUOUS
 10
652.3146655638
 20
779.0307574865
 11
652.3146655638
 21
779.2307574865
  0
LINE
  5
365
100
AcDbEntity
  8
0
100
AcDbLine
 62
7
  6
CONTINUOUS
 10
661.5646655638
 20
621.7803311705
 11
661.5646655638
 21
620.5307574865
  0
LINE
  5
366
100
AcDbEntity
  8
0
100
AcDbLine
 62
7
  6
CONTINUOUS
 10
665.3146655638
 20
779.0307574865
 11
665.3146655638
 21
779.2307574865
  0
LINE
  5
367
100
AcDbEntity
  8
0
100
AcDbLine
 62
7
  6
CONTINUOUS
 10
665.2898243396
 20
618.4307574865
 11
665.0380944503
 21
618.7307574865
  0
LINE
  5
368
100
AcDbEntity
  8
0
100
AcDbLine
 62
7
  6
CONTINUOUS
 10
668.7846770712
 20
327.8166553653
 11
668.7846770712
 21
327.8671724802
  0
LINE
  5
369
100
AcDbEntity
  8
0
100
AcDbLine
 62
7
  6
CONTINUOUS
 10
668.9355373537
 20
327.8166553653
 11
668.9355373537
 21
328.1600868228
  0
LINE
  5
36A
100
AcDbEntity
  8
0
100
AcDbLine
 62
7
  6
CONTINUOUS
 10
669.0340737272
 20
618.3307574865
 11
669.0340737272
 21
618.3812746014
  0
LINE
  5
36B
100
AcDbEntity
  8
0
100
AcDbLine
 62
7
  6
CONTINUOUS
 10
669.1849340097
 20
618.3307574865
 11
669.1849340097
 21
618.674188944
  0
LINE
  5
36C
100
AcDbEntity
  8
0
100
AcDbLine
 62
7
  6
CONTINUOUS
 10
674.677401342
 20
328.1600868228
 11
674.677401342
 21
327.8166553653
  0
LINE
  5
36D
100
AcDbEntity
  8
0
100
AcDbLine
 62
7
  6
CONTINUOUS
 10
674.926797998
 20
618.674188944
 11
674.926797998
 21
618.3307574865
  0
LINE
  5
36E
100
AcDbEntity
  8
0
100
AcDbLine
 62
7
  6
CONTINUOUS
 10
676.0652689078
 20
330.0166553653
 11
676.0652689078
 21
328.5166553653
  0
LINE
  5
36F
100
AcDbEntity
  8
0
100
AcDbLine
 62
7
  6
CONTINUOUS
 10
676.3146655638
 20
620.5307574865
 11
676.3146655638
 21
619.0307574865
  0
LINE
  5
370
100
AcDbEntity
  8
0
100
AcDbLine
 62
7
  6
CONTINUOUS
 10
677.0652689078
 20
333.4204608751
 11
677.0652689078
 21
330.0166553653
  0
LINE
  5
371
100
AcDbEntity
  8
0
100
AcDbLine
 62
7
  6
CONTINUOUS
 10
677.1658722518
 20
322.5063587539
 11
677.1658722518
 21
312.0577950573
  0
LINE
  5
372
100
AcDbEntity
  8
0
100
AcDbLine
 62
7
  6
CONTINUOUS
 10
678.0646655638
 20
622.0307574865
 11
678.0646655638
 21
620.5307574865
  0
LINE
  5
373
100
AcDbEntity
  8
0
100
AcDbLine
 62
7
  6
CONTINUOUS
 10
678.0652689078
 20
329.5166553653
 11
678.0652689078
 21
330.0166553653
  0
LINE
  5
374
100
AcDbEntity
  8
0
100
AcDbLine
 62
7
  6
CONTINUOUS
 10
678.3146655638
 20
620.0307574865
 11
678.3146655638
 21
620.5307574865
  0
LINE
  5
375
100
AcDbEntity
  8
0
100
AcDbLine
 62
7
  6
CONTINUOUS
 10
678.3658722518
 20
322.5063587539
 11
678.3658722518
 21
312.0577950573
  0
LINE
  5
376
100
AcDbEntity
  8
0
100
AcDbLine
 62
7
  6
CONTINUOUS
 10
679.0652689078
 20
333.0166553653
 11
679.0652689078
 21
613.0204608751
  0
LINE
  5
377
100
AcDbEntity
  8
0
100
AcDbLine
 62
7
  6
CONTINUOUS
 10
680.5652689078
 20
333.0166553653
 11
680.5652689078
 21
613.0204608751
  0
LINE
  5
378
100
AcDbEntity
  8
0
100
AcDbLine
 62
7
  6
CONTINUOUS
 10
680.8146655638
 20
624.2307574865
 11
680.8146655638
 21
776.8307574865
  0
LINE
  5
379
100
AcDbEntity
  8
0
100
AcDbLine
 62
7
  6
CONTINUOUS
 10
668.8003244307
 20
618.6208690353
 11
668.6832134446
 21
619.0307574865
  0
LINE
  5
37A
100
AcDbEntity
  8
0
100
AcDbLine
 62
7
  6
CONTINUOUS
 10
669.0830572833
 20
619.0307574865
 11
669.1849340097
 21
618.674188944
  0
LINE
  5
37B
100
AcDbEntity
  8
0
100
AcDbLine
 62
7
  6
CONTINUOUS
 10
661.584462621
 20
613.0204608751
 11
660.1108021651
 21
620.601786692
  0
LINE
  5
37C
100
AcDbEntity
  8
0
100
AcDbLine
 62
7
  6
CONTINUOUS
 10
661.0924293485
 20
620.601786692
 11
662.5660898044
 21
613.0204608751
  0
LINE
  5
37D
100
AcDbEntity
  8
0
100
AcDbLine
 62
7
  6
CONTINUOUS
 10
663.9829488771
 20
613.0204608751
 11
663.0461353844
 21
617.8399484911
  0
LINE
  5
37E
100
AcDbEntity
  8
0
100
AcDbLine
 62
7
  6
CONTINUOUS
 10
665.0380944503
 20
618.7307574865
 11
664.985196356
 21
619.0307574865
  0
LINE
  5
37F
100
AcDbEntity
  8
0
100
AcDbLine
 62
7
  6
CONTINUOUS
 10
676.6541639754
 20
311.0748126041
 11
677.1658722518
 21
312.0577950573
  0
LINE
  5
380
100
AcDbEntity
  8
0
100
AcDbLine
 62
7
  6
CONTINUOUS
 10
676.2288715819
 20
328.5166553653
 11
675.9944102846
 21
328.3115017301
  0
LINE
  5
381
100
AcDbEntity
  8
0
100
AcDbLine
 62
7
  6
CONTINUOUS
 10
669.7012913132
 20
306.2063587539
 11
676.6541639754
 21
311.0748126041
  0
LINE
  5
382
100
AcDbEntity
  8
0
100
AcDbLine
 62
7
  6
CONTINUOUS
 10
668.9857386057
 20
304.2403938476
 11
677.342455699
 21
310.091830151
  0
ARC
  5
383
100
AcDbEntity
  8
0
100
AcDbCircle
 62
7
  6
CONTINUOUS
 10
120.7523658437
 20
284.9931285716
 40
13.7519308053
100
AcDbArc
 50
72.7969399014
 51
73.170267525
  0
ARC
  5
384
100
AcDbEntity
  8
0
100
AcDbCircle
 62
7
  6
CONTINUOUS
 10
122.3658722519
 20
290.4938587539
 40
8.0125
100
AcDbArc
 50
72.2770816541
 51
107.2026248019
  0
ARC
  5
385
100
AcDbEntity
  8
0
100
AcDbCircle
 62
7
  6
CONTINUOUS
 10
122.3243517002
 20
290.6084452373
 40
7.9085556388
100
AcDbArc
 50
96.7664558831
 51
97.1395236769
  0
ARC
  5
386
100
AcDbEntity
  8
0
100
AcDbCircle
 62
7
  6
CONTINUOUS
 10
121.5088113497
 20
293.9503177234
 40
4.4810172229
100
AcDbArc
 50
102.3837841193
 51
103.2154282173
  0
ARC
  5
387
100
AcDbEntity
  8
0
100
AcDbCircle
 62
7
  6
CONTINUOUS
 10
120.438151968
 20
302.1063587539
 40
4.0
100
AcDbArc
 50
182.0000025522
 51
262.4322825038
  0
ARC
  5
388
100
AcDbEntity
  8
0
100
AcDbCircle
 62
7
  6
CONTINUOUS
 10
94.5777226651
 20
306.5442656105
 40
3.1080055847
100
AcDbArc
 50
225.4659830212
 51
227.839725464
  0
ARC
  5
389
100
AcDbEntity
  8
0
100
AcDbCircle
 62
7
  6
CONTINUOUS
 10
93.1225893451
 20
306.2063587539
 40
2.4
100
AcDbArc
 50
235.0000000008
 51
270.0
  0
ARC
  5
38A
100
AcDbEntity
  8
0
100
AcDbCircle
 62
7
  6
CONTINUOUS
 10
120.6971164635
 20
324.1639377439
 40
20.2439571824
100
AcDbArc
 50
165.8744636058
 51
166.6996326325
  0
ARC
  5
38B
100
AcDbEntity
  8
0
100
AcDbCircle
 62
7
  6
CONTINUOUS
 10
94.5268816274
 20
319.7365485754
 40
11.4239888574
100
AcDbArc
 50
55.0865503697
 51
55.490368839
  0
ARC
  5
38C
100
AcDbEntity
  8
0
100
AcDbCircle
 62
7
  6
CONTINUOUS
 10
96.6603321438
 20
308.4497316195
 40
5.9323921868
100
AcDbArc
 50
218.2972820089
 51
220.5354516575
  0
ARC
  5
38D
100
AcDbEntity
  8
0
100
AcDbCircle
 62
7
  6
CONTINUOUS
 10
97.7178348331
 20
324.7488393661
 40
5.479599184
100
AcDbArc
 50
60.8394828552
 51
61.941152715
  0
ARC
  5
38E
100
AcDbEntity
  8
0
100
AcDbCircle
 62
7
  6
CONTINUOUS
 10
83.5652689078
 20
333.0166553653
 40
3.0
100
AcDbArc
 50
180.0000000001
 51
270.0000000001
  0
ARC
  5
38F
100
AcDbEntity
  8
0
100
AcDbCircle
 62
7
  6
CONTINUOUS
 10
84.4652689078
 20
334.0166553653
 40
2.5
100
AcDbArc
 50
199.4378621352
 51
257.0565648267
  0
ARC
  5
390
100
AcDbEntity
  8
0
100
AcDbCircle
 62
7
  6
CONTINUOUS
 10
84.7658722518
 20
312.0577950573
 40
2.4
100
AcDbArc
 50
180.0
 51
235.0000000008
  0
ARC
  5
391
100
AcDbEntity
  8
0
100
AcDbCircle
 62
7
  6
CONTINUOUS
 10
98.7452689078
 20
328.5166553653
 40
1.5
100
AcDbArc
 50
349.0
 51
90.0
  0
ARC
  5
392
100
AcDbEntity
  8
0
100
AcDbCircle
 62
7
  6
CONTINUOUS
 10
83.5652689078
 20
333.0166553653
 40
1.5
100
AcDbArc
 50
180.0000000002
 51
270.0000000002
  0
ARC
  5
393
100
AcDbEntity
  8
0
100
AcDbCircle
 62
7
  6
CONTINUOUS
 10
83.6658722518
 20
322.5063587539
 40
1.3
100
AcDbArc
 50
67.325324187
 51
180.0
  0
ARC
  5
394
100
AcDbEntity
  8
0
100
AcDbCircle
 62
7
  6
CONTINUOUS
 10
84.7658722518
 20
312.0577950573
 40
1.2
100
AcDbArc
 50
180.0
 51
235.0000000017
  0
ARC
  5
395
100
AcDbEntity
  8
0
100
AcDbCircle
 62
7
  6
CONTINUOUS
 10
84.4652689078
 20
334.0166553653
 40
1.0
100
AcDbArc
 50
217.879442922
 51
245.9756500121
  0
ARC
  5
396
100
AcDbEntity
  8
0
100
AcDbCircle
 62
7
  6
CONTINUOUS
 10
87.3152689078
 20
328.4666553653
 40
0.25
100
AcDbArc
 50
180.0
 51
270.0000227737
  0
ARC
  5
397
100
AcDbEntity
  8
0
100
AcDbCircle
 62
7
  6
CONTINUOUS
 10
95.8152689078
 20
328.4666553653
 40
0.25
100
AcDbArc
 50
269.9999772263
 51
360.0
  0
ARC
  5
398
100
AcDbEntity
  8
0
100
AcDbCircle
 62
7
  6
CONTINUOUS
 10
87.3152689078
 20
328.9666553653
 40
0.25
100
AcDbArc
 50
89.9999655508
 51
180.0
  0
ARC
  5
399
100
AcDbEntity
  8
0
100
AcDbCircle
 62
7
  6
CONTINUOUS
 10
95.8152689078
 20
328.9666553653
 40
0.25
100
AcDbArc
 50
0.0
 51
90.0000344492
  0
ARC
  5
39A
100
AcDbEntity
  8
0
100
AcDbCircle
 62
7
  6
CONTINUOUS
 10
125.7043003643
 20
285.1712444984
 40
13.597646965
100
AcDbArc
 50
72.1916661623
 51
72.377373526
  0
ARC
  5
39B
100
AcDbEntity
  8
0
100
AcDbCircle
 62
7
  6
CONTINUOUS
 10
126.9898130743
 20
289.2160378149
 40
9.3534868235
100
AcDbArc
 50
72.3812875375
 51
72.9878227046
  0
ARC
  5
39C
100
AcDbEntity
  8
0
100
AcDbCircle
 62
7
  6
CONTINUOUS
 10
132.3658722519
 20
290.4938587539
 40
8.0125
100
AcDbArc
 50
72.2770979228
 51
107.7229020583
  0
ARC
  5
39D
100
AcDbEntity
  8
0
100
AcDbCircle
 62
7
  6
CONTINUOUS
 10
127.3658722519
 20
290.4938587539
 40
8.0125
100
AcDbArc
 50
72.2770887877
 51
107.7230532959
  0
ARC
  5
39E
100
AcDbEntity
  8
0
100
AcDbCircle
 62
7
  6
CONTINUOUS
 10
126.8308806525
 20
292.3579456961
 40
6.0865311844
100
AcDbArc
 50
107.1561356661
 51
108.4358426353
  0
ARC
  5
39F
100
AcDbEntity
  8
0
100
AcDbCircle
 62
7
  6
CONTINUOUS
 10
131.6028187972
 20
292.9355805303
 40
5.4651438228
100
AcDbArc
 50
108.2124156878
 51
108.5472409966
  0
ARC
  5
3A0
100
AcDbEntity
  8
0
100
AcDbCircle
 62
7
  6
CONTINUOUS
 10
133.1522146731
 20
293.0054199777
 40
5.3915250845
100
AcDbArc
 50
71.451229289
 51
71.7895050528
  0
ARC
  5
3A1
100
AcDbEntity
  8
0
100
AcDbCircle
 62
7
  6
CONTINUOUS
 10
134.8658722519
 20
298.3165920518
 40
0.2
100
AcDbArc
 50
252.2770875914
 51
287.7233559365
  0
ARC
  5
3A2
100
AcDbEntity
  8
0
100
AcDbCircle
 62
7
  6
CONTINUOUS
 10
129.8658722519
 20
298.3165920518
 40
0.2
100
AcDbArc
 50
252.2770396642
 51
287.7229124086
  0
ARC
  5
3A3
100
AcDbEntity
  8
0
100
AcDbCircle
 62
7
  6
CONTINUOUS
 10
124.8658722519
 20
298.3165920518
 40
0.2
100
AcDbArc
 50
252.2773254554
 51
287.7229124086
  0
ARC
  5
3A4
100
AcDbEntity
  8
0
100
AcDbCircle
 62
7
  6
CONTINUOUS
 10
124.8669530197
 20
298.3140521952
 40
0.1972518111
100
AcDbArc
 50
268.416371645
 51
287.6496947604
  0
ARC
  5
3A5
100
AcDbEntity
  8
0
100
AcDbCircle
 62
7
  6
CONTINUOUS
 10
129.8673309082
 20
298.3128356777
 40
0.1959751167
100
AcDbArc
 50
269.1388283038
 51
287.6517397134
  0
ARC
  5
3A6
100
AcDbEntity
  8
0
100
AcDbCircle
 62
7
  6
CONTINUOUS
 10
134.8644118845
 20
298.3128268095
 40
0.195966049
100
AcDbArc
 50
252.3252870464
 51
270.920821414
  0
ARC
  5
3A7
100
AcDbEntity
  8
0
100
AcDbCircle
 62
7
  6
CONTINUOUS
 10
124.8643704734
 20
298.3124484311
 40
0.1955954374
100
AcDbArc
 50
252.3172336698
 51
269.1671452354
  0
ARC
  5
3A8
100
AcDbEntity
  8
0
100
AcDbCircle
 62
7
  6
CONTINUOUS
 10
134.8674902426
 20
298.3122513715
 40
0.1953593347
100
AcDbArc
 50
270.0246520457
 51
287.6628986143
  0
ARC
  5
3A9
100
AcDbEntity
  8
0
100
AcDbCircle
 62
7
  6
CONTINUOUS
 10
129.8642599968
 20
298.3122281086
 40
0.1953522259
100
AcDbArc
 50
252.3149668686
 51
270.0360720485
  0
ARC
  5
3AA
100
AcDbEntity
  8
0
100
AcDbCircle
 62
7
  6
CONTINUOUS
 10
145.3511158711
 20
280.500297273
 40
18.4494865074
100
AcDbArc
 50
106.8509656965
 51
107.1452015442
  0
ARC
  5
3AB
100
AcDbEntity
  8
0
100
AcDbCircle
 62
7
  6
CONTINUOUS
 10
143.3221814635
 20
287.0354963591
 40
11.6065950032
100
AcDbArc
 50
107.0848243563
 51
107.2898450685
  0
ARC
  5
3AC
100
AcDbEntity
  8
0
100
AcDbCircle
 62
7
  6
CONTINUOUS
 10
142.3658722519
 20
290.4938587539
 40
8.0125
100
AcDbArc
 50
72.7973751981
 51
107.7229278793
  0
ARC
  5
3AD
100
AcDbEntity
  8
0
100
AcDbCircle
 62
7
  6
CONTINUOUS
 10
137.3658722519
 20
290.4938587539
 40
8.0125
100
AcDbArc
 50
73.7453589175
 51
107.7229013378
  0
ARC
  5
3AE
100
AcDbEntity
  8
0
100
AcDbCircle
 62
7
  6
CONTINUOUS
 10
142.4077722982
 20
290.6111679886
 40
7.9058116494
100
AcDbArc
 50
82.8614301673
 51
83.2343272514
  0
ARC
  5
3AF
100
AcDbEntity
  8
0
100
AcDbCircle
 62
7
  6
CONTINUOUS
 10
143.241063868
 20
294.0306392802
 40
4.39867806
100
AcDbArc
 50
76.7752939847
 51
77.6247725484
  0
ARC
  5
3B0
100
AcDbEntity
  8
0
100
AcDbCircle
 62
7
  6
CONTINUOUS
 10
144.2935925357
 20
302.1063587539
 40
4.0
100
AcDbArc
 50
277.5677174961
 51
357.9999974478
  0
ARC
  5
3B1
100
AcDbEntity
  8
0
100
AcDbCircle
 62
7
  6
CONTINUOUS
 10
140.318372447
 20
299.6671415949
 40
1.6124752362
100
AcDbArc
 50
252.6820698313
 51
252.9171723182
  0
ARC
  5
3B2
100
AcDbEntity
  8
0
100
AcDbCircle
 62
7
  6
CONTINUOUS
 10
139.8658722519
 20
298.3165920518
 40
0.2
100
AcDbArc
 50
256.3568293038
 51
287.7222926073
  0
ARC
  5
3B3
100
AcDbEntity
  8
0
100
AcDbCircle
 62
7
  6
CONTINUOUS
 10
139.8636600348
 20
298.3077952243
 40
0.190929586
100
AcDbArc
 50
256.3707953215
 51
266.875592204
  0
ARC
  5
3B4
100
AcDbEntity
  8
0
100
AcDbCircle
 62
7
  6
CONTINUOUS
 10
165.9677253983
 20
313.4550130747
 40
66.7639430639
100
AcDbArc
 50
166.6937032001
 51
166.9621043009
  0
ARC
  5
3B5
100
AcDbEntity
  8
0
100
AcDbCircle
 62
7
  6
CONTINUOUS
 10
56.0664819564
 20
564.9326472737
 40
71.5620977678
100
AcDbArc
 50
51.3626263538
 51
51.5315578745
  0
ARC
  5
3B6
100
AcDbEntity
  8
0
100
AcDbCircle
 62
7
  6
CONTINUOUS
 10
84.6545931685
 20
625.1363648418
 40
3.6830580914
100
AcDbArc
 50
221.9327836177
 51
225.0080373972
  0
ARC
  5
3B7
100
AcDbEntity
  8
0
100
AcDbCircle
 62
7
  6
CONTINUOUS
 10
83.0146655638
 20
624.2307574865
 40
2.2
100
AcDbArc
 50
180.0
 51
270.0
  0
ARC
  5
3B8
100
AcDbEntity
  8
0
100
AcDbCircle
 62
7
  6
CONTINUOUS
 10
98.3884715556
 20
620.0307574865
 40
2.0
100
AcDbArc
 50
349.0
 51
65.5296095612
  0
ARC
  5
3B9
100
AcDbEntity
  8
0
100
AcDbCircle
 62
7
  6
CONTINUOUS
 10
87.5646655638
 20
620.4807574865
 40
0.25
100
AcDbArc
 50
180.0
 51
270.0000227737
  0
ARC
  5
3BA
100
AcDbEntity
  8
0
100
AcDbCircle
 62
7
  6
CONTINUOUS
 10
96.0646655638
 20
620.4807574865
 40
0.25
100
AcDbArc
 50
269.9999772263
 51
360.0
  0
ARC
  5
3BB
100
AcDbEntity
  8
0
100
AcDbCircle
 62
7
  6
CONTINUOUS
 10
87.5646655638
 20
620.9807574865
 40
0.25
100
AcDbArc
 50
89.9999655508
 51
180.0
  0
ARC
  5
3BC
100
AcDbEntity
  8
0
100
AcDbCircle
 62
7
  6
CONTINUOUS
 10
96.0646655638
 20
620.9807574865
 40
0.25
100
AcDbArc
 50
0.0
 51
90.0000344492
  0
ARC
  5
3BD
100
AcDbEntity
  8
0
100
AcDbCircle
 62
7
  6
CONTINUOUS
 10
102.8146655638
 20
758.6057574865
 40
21.625
100
AcDbArc
 50
72.5076754749
 51
107.4923245251
  0
ARC
  5
3BE
100
AcDbEntity
  8
0
100
AcDbCircle
 62
7
  6
CONTINUOUS
 10
83.0146655638
 20
776.8307574865
 40
2.2
100
AcDbArc
 50
90.0
 51
180.0
  0
ARC
  5
3BF
100
AcDbEntity
  8
0
100
AcDbCircle
 62
7
  6
CONTINUOUS
 10
280.0646655638
 20
703.7807574865
 40
27.0
100
AcDbArc
 50
180.0
 51
270.0
  0
ARC
  5
3C0
100
AcDbEntity
  8
0
100
AcDbCircle
 62
7
  6
CONTINUOUS
 10
281.0646655638
 20
704.7807574865
 40
26.6781992624
100
AcDbArc
 50
179.9999999991
 51
270.0000000009
  0
ARC
  5
3C1
100
AcDbEntity
  8
0
100
AcDbCircle
 62
7
  6
CONTINUOUS
 10
280.0646655638
 20
703.7807574865
 40
26.5
100
AcDbArc
 50
180.0
 51
270.0
  0
ARC
  5
3C2
100
AcDbEntity
  8
0
100
AcDbCircle
 62
7
  6
CONTINUOUS
 10
283.3146655638
 20
707.0307574865
 40
25.0
100
AcDbArc
 50
180.0
 51
270.0
  0
ARC
  5
3C3
100
AcDbEntity
  8
0
100
AcDbCircle
 62
7
  6
CONTINUOUS
 10
281.0646655638
 20
704.7807574865
 40
24.7085837563
100
AcDbArc
 50
180.0
 51
270.0
  0
ARC
  5
3C4
100
AcDbEntity
  8
0
100
AcDbCircle
 62
7
  6
CONTINUOUS
 10
281.0646655638
 20
704.7807574865
 40
24.6167271797
100
AcDbArc
 50
180.0
 51
270.0
  0
ARC
  5
3C5
100
AcDbEntity
  8
0
100
AcDbCircle
 62
7
  6
CONTINUOUS
 10
281.0646655638
 20
704.7807574865
 40
23.6319194267
100
AcDbArc
 50
180.0
 51
270.0
  0
ARC
  5
3C6
100
AcDbEntity
  8
0
100
AcDbCircle
 62
7
  6
CONTINUOUS
 10
302.5045400234
 20
680.2846223286
 40
11.8634716269
100
AcDbArc
 50
49.8534694092
 51
54.3146497659
  0
ARC
  5
3C7
100
AcDbEntity
  8
0
100
AcDbCircle
 62
7
  6
CONTINUOUS
 10
302.6744734848
 20
680.3031537304
 40
11.7292846323
100
AcDbArc
 50
35.6598184033
 51
40.1720624216
  0
ARC
  5
3C8
100
AcDbEntity
  8
0
100
AcDbCircle
 62
7
  6
CONTINUOUS
 10
310.6098370843
 20
688.5299771582
 40
2.4014143704
100
AcDbArc
 50
167.5972681399
 51
179.9813820073
  0
ARC
  5
3C9
100
AcDbEntity
  8
0
100
AcDbCircle
 62
7
  6
CONTINUOUS
 10
310.6349729714
 20
688.5297893464
 40
2.1802035808
100
AcDbArc
 50
166.3104756764
 51
179.9745572649
  0
ARC
  5
3CA
100
AcDbEntity
  8
0
100
AcDbCircle
 62
7
  6
CONTINUOUS
 10
310.6102191147
 20
688.5315902078
 40
2.4017964185
100
AcDbArc
 50
180.0198648886
 51
192.4020073074
  0
ARC
  5
3CB
100
AcDbEntity
  8
0
100
AcDbCircle
 62
7
  6
CONTINUOUS
 10
310.6354392544
 20
688.5317801707
 40
2.18066986
100
AcDbArc
 50
180.0268704084
 51
193.6880163367
  0
ARC
  5
3CC
100
AcDbEntity
  8
0
100
AcDbCircle
 62
7
  6
CONTINUOUS
 10
311.0191000175
 20
688.5299358705
 40
2.40180841
100
AcDbArc
 50
0.019599868
 51
12.4016731518
  0
ARC
  5
3CD
100
AcDbEntity
  8
0
100
AcDbCircle
 62
7
  6
CONTINUOUS
 10
310.8146657213
 20
688.3183951991
 40
2.3938849576
100
AcDbArc
 50
257.576755418
 51
282.4232368575
  0
ARC
  5
3CE
100
AcDbEntity
  8
0
100
AcDbCircle
 62
7
  6
CONTINUOUS
 10
310.993758884
 20
688.5297209147
 40
2.1808013901
100
AcDbArc
 50
0.0272336482
 51
13.6875455162
  0
ARC
  5
3CF
100
AcDbEntity
  8
0
100
AcDbCircle
 62
7
  6
CONTINUOUS
 10
310.8146656857
 20
688.3431695241
 40
2.1723039023
100
AcDbArc
 50
256.2860005535
 51
283.7139934443
  0
ARC
  5
3D0
100
AcDbEntity
  8
0
100
AcDbCircle
 62
7
  6
CONTINUOUS
 10
310.8146655638
 20
688.530740956
 40
1.1699883389
100
AcDbArc
 50
63.8855680188
 51
116.1144319812
  0
CIRCLE
  5
3D1
100
AcDbEntity
  8
0
100
AcDbCircle
 62
7
  6
CONTINUOUS
 10
310.8146655638
 20
688.5307574865
 40
4.75
  0
ARC
  5
3D2
100
AcDbEntity
  8
0
100
AcDbCircle
 62
7
  6
CONTINUOUS
 10
310.8146517961
 20
688.5334649726
 40
4.6689496252
100
AcDbArc
 50
359.9667746396
 51
0.2815904103
  0
ARC
  5
3D3
100
AcDbEntity
  8
0
100
AcDbCircle
 62
7
  6
CONTINUOUS
 10
310.8146655638
 20
688.5307574865
 40
4.6689421051
100
AcDbArc
 50
0.3148161975
 51
360.0
  0
ARC
  5
3D4
100
AcDbEntity
  8
0
100
AcDbCircle
 62
7
  6
CONTINUOUS
 10
311.0191168391
 20
688.5315770737
 40
2.4017915876
100
AcDbArc
 50
347.5982881564
 51
359.9804483915
  0
ARC
  5
3D5
100
AcDbEntity
  8
0
100
AcDbCircle
 62
7
  6
CONTINUOUS
 10
310.8146654091
 20
688.7431189495
 40
2.3938857585
100
AcDbArc
 50
77.576759711
 51
102.4232327053
  0
ARC
  5
3D6
100
AcDbEntity
  8
0
100
AcDbCircle
 62
7
  6
CONTINUOUS
 10
310.9937793624
 20
688.5317920715
 40
2.1807810223
100
AcDbArc
 50
346.3123781982
 51
359.9728182923
  0
ARC
  5
3D7
100
AcDbEntity
  8
0
100
AcDbCircle
 62
7
  6
CONTINUOUS
 10
310.8146654431
 20
688.71834465
 40
2.172304673
100
AcDbArc
 50
76.2860055781
 51
103.713988487
  0
ARC
  5
3D8
100
AcDbEntity
  8
0
100
AcDbCircle
 62
7
  6
CONTINUOUS
 10
310.8146497983
 20
688.5307574865
 40
1.1699888785
100
AcDbArc
 50
333.8855515293
 51
26.1144484707
  0
ARC
  5
3D9
100
AcDbEntity
  8
0
100
AcDbCircle
 62
7
  6
CONTINUOUS
 10
310.8146813292
 20
688.5307574865
 40
1.1699888785
100
AcDbArc
 50
153.8855515292
 51
206.1144484708
  0
ARC
  5
3DA
100
AcDbEntity
  8
0
100
AcDbCircle
 62
7
  6
CONTINUOUS
 10
310.8146655638
 20
688.5307740169
 40
1.1699883389
100
AcDbArc
 50
243.8855680186
 51
296.1144319814
  0
ARC
  5
3DB
100
AcDbEntity
  8
0
100
AcDbCircle
 62
7
  6
CONTINUOUS
 10
302.5230093091
 20
696.8788621513
 40
11.8912642283
100
AcDbArc
 50
320.0344157591
 51
323.3208297367
  0
ARC
  5
3DC
100
AcDbEntity
  8
0
100
AcDbCircle
 62
7
  6
CONTINUOUS
 10
302.5248100034
 20
696.7487167772
 40
11.7973659486
100
AcDbArc
 50
306.666087925
 51
309.9786665793
  0
ARC
  5
3DD
100
AcDbEntity
  8
0
100
AcDbCircle
 62
7
  6
CONTINUOUS
 10
280.0646655638
 20
740.2807574865
 40
27.0
100
AcDbArc
 50
90.0
 51
180.0
  0
ARC
  5
3DE
100
AcDbEntity
  8
0
100
AcDbCircle
 62
7
  6
CONTINUOUS
 10
281.0646655638
 20
739.2807574865
 40
26.6781992624
100
AcDbArc
 50
90.0
 51
180.0000000009
  0
ARC
  5
3DF
100
AcDbEntity
  8
0
100
AcDbCircle
 62
7
  6
CONTINUOUS
 10
280.0646655638
 20
740.2807574865
 40
26.5
100
AcDbArc
 50
90.0
 51
180.0
  0
ARC
  5
3E0
100
AcDbEntity
  8
0
100
AcDbCircle
 62
7
  6
CONTINUOUS
 10
283.3146655638
 20
737.0307574865
 40
25.0
100
AcDbArc
 50
90.0
 51
180.0
  0
ARC
  5
3E1
100
AcDbEntity
  8
0
100
AcDbCircle
 62
7
  6
CONTINUOUS
 10
281.0646655638
 20
739.2807574865
 40
24.7085837563
100
AcDbArc
 50
90.0
 51
180.0
  0
ARC
  5
3E2
100
AcDbEntity
  8
0
100
AcDbCircle
 62
7
  6
CONTINUOUS
 10
281.0646655638
 20
739.2807574865
 40
24.6167271797
100
AcDbArc
 50
90.0
 51
180.0
  0
ARC
  5
3E3
100
AcDbEntity
  8
0
100
AcDbCircle
 62
7
  6
CONTINUOUS
 10
281.0646655638
 20
739.2807574865
 40
23.6319194267
100
AcDbArc
 50
90.0
 51
180.0
  0
CIRCLE
  5
3E4
100
AcDbEntity
  8
0
100
AcDbCircle
 62
7
  6
CONTINUOUS
 10
305.8146655638
 20
722.0307574865
 40
1.2679491924
  0
ARC
  5
3E5
100
AcDbEntity
  8
0
100
AcDbCircle
 62
7
  6
CONTINUOUS
 10
302.5045400235
 20
747.2846223287
 40
11.8634716268
100
AcDbArc
 50
49.8534694092
 51
54.3146497659
  0
ARC
  5
3E6
100
AcDbEntity
  8
0
100
AcDbCircle
 62
7
  6
CONTINUOUS
 10
302.6744734848
 20
747.3031537304
 40
11.7292846324
100
AcDbArc
 50
35.6598184033
 51
40.1720624216
  0
ARC
  5
3E7
100
AcDbEntity
  8
0
100
AcDbCircle
 62
7
  6
CONTINUOUS
 10
302.5230093091
 20
763.8788621513
 40
11.8912642283
100
AcDbArc
 50
320.0344157591
 51
323.3208297367
  0
ARC
  5
3E8
100
AcDbEntity
  8
0
100
AcDbCircle
 62
7
  6
CONTINUOUS
 10
302.5248100034
 20
763.7487167772
 40
11.7973659486
100
AcDbArc
 50
306.666087925
 51
309.9786665793
  0
CIRCLE
  5
3E9
100
AcDbEntity
  8
0
100
AcDbCircle
 62
7
  6
CONTINUOUS
 10
310.8146655638
 20
755.5307574865
 40
4.75
  0
ARC
  5
3EA
100
AcDbEntity
  8
0
100
AcDbCircle
 62
7
  6
CONTINUOUS
 10
310.8146517961
 20
755.5334649726
 40
4.6689496252
100
AcDbArc
 50
359.9667746396
 51
0.2815904103
  0
ARC
  5
3EB
100
AcDbEntity
  8
0
100
AcDbCircle
 62
7
  6
CONTINUOUS
 10
310.8146655638
 20
755.5307574865
 40
4.6689421051
100
AcDbArc
 50
0.3148161975
 51
360.0
  0
ARC
  5
3EC
100
AcDbEntity
  8
0
100
AcDbCircle
 62
7
  6
CONTINUOUS
 10
311.0191000175
 20
755.5299358705
 40
2.40180841
100
AcDbArc
 50
0.019599868
 51
12.4016731518
  0
ARC
  5
3ED
100
AcDbEntity
  8
0
100
AcDbCircle
 62
7
  6
CONTINUOUS
 10
310.6102191147
 20
755.5315902078
 40
2.4017964185
100
AcDbArc
 50
180.0198648886
 51
192.4020073075
  0
ARC
  5
3EE
100
AcDbEntity
  8
0
100
AcDbCircle
 62
7
  6
CONTINUOUS
 10
311.0191168391
 20
755.5315770737
 40
2.4017915876
100
AcDbArc
 50
347.5982881564
 51
359.9804483915
  0
ARC
  5
3EF
100
AcDbEntity
  8
0
100
AcDbCircle
 62
7
  6
CONTINUOUS
 10
310.6098370843
 20
755.5299771582
 40
2.4014143704
100
AcDbArc
 50
167.5972681399
 51
179.9813820073
  0
ARC
  5
3F0
100
AcDbEntity
  8
0
100
AcDbCircle
 62
7
  6
CONTINUOUS
 10
310.8146657213
 20
755.3183951991
 40
2.3938849576
100
AcDbArc
 50
257.576755418
 51
282.4232368575
  0
ARC
  5
3F1
100
AcDbEntity
  8
0
100
AcDbCircle
 62
7
  6
CONTINUOUS
 10
310.993758884
 20
755.5297209147
 40
2.1808013901
100
AcDbArc
 50
0.0272336482
 51
13.6875455162
  0
ARC
  5
3F2
100
AcDbEntity
  8
0
100
AcDbCircle
 62
7
  6
CONTINUOUS
 10
310.9937793624
 20
755.5317920715
 40
2.1807810223
100
AcDbArc
 50
346.3123781982
 51
359.9728182923
  0
ARC
  5
3F3
100
AcDbEntity
  8
0
100
AcDbCircle
 62
7
  6
CONTINUOUS
 10
310.6354392544
 20
755.5317801707
 40
2.18066986
100
AcDbArc
 50
180.0268704084
 51
193.6880163367
  0
ARC
  5
3F4
100
AcDbEntity
  8
0
100
AcDbCircle
 62
7
  6
CONTINUOUS
 10
310.6349729714
 20
755.5297893464
 40
2.1802035808
100
AcDbArc
 50
166.3104756765
 51
179.9745572649
  0
ARC
  5
3F5
100
AcDbEntity
  8
0
100
AcDbCircle
 62
7
  6
CONTINUOUS
 10
310.8146656857
 20
755.3431695241
 40
2.1723039023
100
AcDbArc
 50
256.2860005536
 51
283.7139934443
  0
ARC
  5
3F6
100
AcDbEntity
  8
0
100
AcDbCircle
 62
7
  6
CONTINUOUS
 10
310.8146497983
 20
755.5307574865
 40
1.1699888785
100
AcDbArc
 50
333.8855515293
 51
26.1144484707
  0
ARC
  5
3F7
100
AcDbEntity
  8
0
100
AcDbCircle
 62
7
  6
CONTINUOUS
 10
310.8146813292
 20
755.5307574865
 40
1.1699888785
100
AcDbArc
 50
153.8855515292
 51
206.1144484708
  0
ARC
  5
3F8
100
AcDbEntity
  8
0
100
AcDbCircle
 62
7
  6
CONTINUOUS
 10
310.8146655638
 20
755.530740956
 40
1.1699883389
100
AcDbArc
 50
63.8855680188
 51
116.1144319812
  0
ARC
  5
3F9
100
AcDbEntity
  8
0
100
AcDbCircle
 62
7
  6
CONTINUOUS
 10
310.8146655638
 20
755.5307740169
 40
1.1699883389
100
AcDbArc
 50
243.8855680186
 51
296.1144319814
  0
ARC
  5
3FA
100
AcDbEntity
  8
0
100
AcDbCircle
 62
7
  6
CONTINUOUS
 10
310.8146654091
 20
755.7431189495
 40
2.3938857585
100
AcDbArc
 50
77.576759711
 51
102.4232327053
  0
ARC
  5
3FB
100
AcDbEntity
  8
0
100
AcDbCircle
 62
7
  6
CONTINUOUS
 10
310.8146654431
 20
755.71834465
 40
2.172304673
100
AcDbArc
 50
76.2860055781
 51
103.713988487
  0
ARC
  5
3FC
100
AcDbEntity
  8
0
100
AcDbCircle
 62
7
  6
CONTINUOUS
 10
319.1063218184
 20
680.1826528217
 40
11.8912642283
100
AcDbArc
 50
140.0344157591
 51
143.3208297366
  0
ARC
  5
3FD
100
AcDbEntity
  8
0
100
AcDbCircle
 62
7
  6
CONTINUOUS
 10
319.124791104
 20
696.7768926443
 40
11.8634716268
100
AcDbArc
 50
229.8534694092
 51
234.3146497659
  0
ARC
  5
3FE
100
AcDbEntity
  8
0
100
AcDbCircle
 62
7
  6
CONTINUOUS
 10
319.060488839
 20
696.8406400935
 40
11.8630765945
100
AcDbArc
 50
215.6852759194
 51
220.1466049055
  0
ARC
  5
3FF
100
AcDbEntity
  8
0
100
AcDbCircle
 62
7
  6
CONTINUOUS
 10
319.1045211242
 20
680.3127981956
 40
11.7973659488
100
AcDbArc
 50
126.666087925
 51
129.9786665792
  0
ARC
  5
400
100
AcDbEntity
  8
0
100
AcDbCircle
 62
7
  6
CONTINUOUS
 10
319.1063218187
 20
747.1826528215
 40
11.8912642287
100
AcDbArc
 50
140.0344157591
 51
143.3208297366
  0
ARC
  5
401
100
AcDbEntity
  8
0
100
AcDbCircle
 62
7
  6
CONTINUOUS
 10
319.1247911041
 20
763.7768926444
 40
11.8634716269
100
AcDbArc
 50
229.8534694092
 51
234.3146497659
  0
ARC
  5
402
100
AcDbEntity
  8
0
100
AcDbCircle
 62
7
  6
CONTINUOUS
 10
319.060488839
 20
763.8406400934
 40
11.8630765944
100
AcDbArc
 50
215.6852759194
 51
220.1466049055
  0
ARC
  5
403
100
AcDbEntity
  8
0
100
AcDbCircle
 62
7
  6
CONTINUOUS
 10
319.1045211242
 20
747.3127981956
 40
11.7973659488
100
AcDbArc
 50
126.666087925
 51
129.9786665792
  0
CIRCLE
  5
404
100
AcDbEntity
  8
0
100
AcDbCircle
 62
7
  6
CONTINUOUS
 10
355.8146655638
 20
722.0307574865
 40
1.2679491924
  0
CIRCLE
  5
405
100
AcDbEntity
  8
0
100
AcDbCircle
 62
7
  6
CONTINUOUS
 10
330.8146655638
 20
722.0307574865
 40
1.2679491924
  0
ARC
  5
406
100
AcDbEntity
  8
0
100
AcDbCircle
 62
7
  6
CONTINUOUS
 10
595.1628224191
 20
313.4550154069
 40
66.7639327939
100
AcDbArc
 50
13.0378956857
 51
13.3062968676
  0
ARC
  5
407
100
AcDbEntity
  8
0
100
AcDbCircle
 62
7
  6
CONTINUOUS
 10
666.6036561834
 20
319.7365485821
 40
11.4239888492
100
AcDbArc
 50
124.5096311604
 51
124.9134496299
  0
ARC
  5
408
100
AcDbEntity
  8
0
100
AcDbCircle
 62
7
  6
CONTINUOUS
 10
663.1341711239
 20
309.1956050134
 40
7.1301948708
100
AcDbArc
 50
321.6664115347
 51
322.5374435189
  0
ARC
  5
409
100
AcDbEntity
  8
0
100
AcDbCircle
 62
7
  6
CONTINUOUS
 10
666.1540217992
 20
306.5442656482
 40
3.1080056389
100
AcDbArc
 50
312.1602746065
 51
314.5340170069
  0
ARC
  5
40A
100
AcDbEntity
  8
0
100
AcDbCircle
 62
7
  6
CONTINUOUS
 10
675.9658722518
 20
312.0577950573
 40
2.4
100
AcDbArc
 50
304.9999999992
 51
360.0
  0
ARC
  5
40B
100
AcDbEntity
  8
0
100
AcDbCircle
 62
7
  6
CONTINUOUS
 10
667.6091551585
 20
306.2063587539
 40
2.4
100
AcDbArc
 50
270.0
 51
304.9999999992
  0
ARC
  5
40C
100
AcDbEntity
  8
0
100
AcDbCircle
 62
7
  6
CONTINUOUS
 10
675.9658722518
 20
312.0577950573
 40
1.2
100
AcDbArc
 50
304.9999999984
 51
360.0
  0
ARC
  5
40D
100
AcDbEntity
  8
0
100
AcDbCircle
 62
7
  6
CONTINUOUS
 10
640.4334225843
 20
324.1639380477
 40
20.2439559133
100
AcDbArc
 50
13.3003674646
 51
14.1255364117
  0
ARC
  5
40E
100
AcDbEntity
  8
0
100
AcDbCircle
 62
7
  6
CONTINUOUS
 10
677.5652689078
 20
333.0166553653
 40
3.0
100
AcDbArc
 50
269.9999999999
 51
359.9999999999
  0
ARC
  5
40F
100
AcDbEntity
  8
0
100
AcDbCircle
 62
7
  6
CONTINUOUS
 10
663.7783659118
 20
327.5166553653
 40
2.5
100
AcDbArc
 50
90.0
 51
191.0
  0
ARC
  5
410
100
AcDbEntity
  8
0
100
AcDbCircle
 62
7
  6
CONTINUOUS
 10
676.6652689078
 20
334.0166553653
 40
2.5
100
AcDbArc
 50
282.9434351758
 51
340.5621378677
  0
ARC
  5
411
100
AcDbEntity
  8
0
100
AcDbCircle
 62
7
  6
CONTINUOUS
 10
676.2652689078
 20
330.6366553653
 40
2.12
100
AcDbArc
 50
270.0
 51
328.1092081982
  0
ARC
  5
412
100
AcDbEntity
  8
0
100
AcDbCircle
 62
7
  6
CONTINUOUS
 10
674.6774013497
 20
329.8166553653
 40
2.0
100
AcDbArc
 50
269.9999999755
 51
311.1859251657
  0
ARC
  5
413
100
AcDbEntity
  8
0
100
AcDbCircle
 62
7
  6
CONTINUOUS
 10
662.3852689078
 20
328.5166553653
 40
1.5
100
AcDbArc
 50
90.0
 51
191.0
  0
ARC
  5
414
100
AcDbEntity
  8
0
100
AcDbCircle
 62
7
  6
CONTINUOUS
 10
677.5652689078
 20
333.0166553653
 40
1.5
100
AcDbArc
 50
269.9999999998
 51
359.9999999998
  0
ARC
  5
415
100
AcDbEntity
  8
0
100
AcDbCircle
 62
7
  6
CONTINUOUS
 10
677.0658722518
 20
322.5063587539
 40
1.3
100
AcDbArc
 50
0.0
 51
112.8153916795
  0
ARC
  5
416
100
AcDbEntity
  8
0
100
AcDbCircle
 62
7
  6
CONTINUOUS
 10
663.7783659118
 20
327.5166553653
 40
1.0
100
AcDbArc
 50
90.0
 51
191.0
  0
ARC
  5
417
100
AcDbEntity
  8
0
100
AcDbCircle
 62
7
  6
CONTINUOUS
 10
676.6652689078
 20
334.0166553653
 40
1.0
100
AcDbArc
 50
298.4719411399
 51
322.120533945
  0
ARC
  5
418
100
AcDbEntity
  8
0
100
AcDbCircle
 62
7
  6
CONTINUOUS
 10
668.9355373537
 20
328.2166553653
 40
0.4
100
AcDbArc
 50
195.9453959009
 51
270.0
  0
ARC
  5
419
100
AcDbEntity
  8
0
100
AcDbCircle
 62
7
  6
CONTINUOUS
 10
668.7846770712
 20
328.0166553653
 40
0.2
100
AcDbArc
 50
210.7173548281
 51
270.0
  0
ARC
  5
41A
100
AcDbEntity
  8
0
100
AcDbCircle
 62
7
  6
CONTINUOUS
 10
442.5045400231
 20
680.2846223282
 40
11.8634716274
100
AcDbArc
 50
49.8534694093
 51
54.3146497658
  0
ARC
  5
41B
100
AcDbEntity
  8
0
100
AcDbCircle
 62
7
  6
CONTINUOUS
 10
442.674473485
 20
680.3031537305
 40
11.7292846321
100
AcDbArc
 50
35.6598184033
 51
40.1720624216
  0
ARC
  5
41C
100
AcDbEntity
  8
0
100
AcDbCircle
 62
7
  6
CONTINUOUS
 10
450.6098370842
 20
688.5299771582
 40
2.4014143704
100
AcDbArc
 50
167.5972681398
 51
179.9813820074
  0
ARC
  5
41D
100
AcDbEntity
  8
0
100
AcDbCircle
 62
7
  6
CONTINUOUS
 10
450.6349729714
 20
688.5297893464
 40
2.1802035808
100
AcDbArc
 50
166.3104756765
 51
179.9745572649
  0
ARC
  5
41E
100
AcDbEntity
  8
0
100
AcDbCircle
 62
7
  6
CONTINUOUS
 10
442.5230093086
 20
696.8788621517
 40
11.8912642289
100
AcDbArc
 50
320.0344157592
 51
323.3208297366
  0
ARC
  5
41F
100
AcDbEntity
  8
0
100
AcDbCircle
 62
7
  6
CONTINUOUS
 10
442.5248100036
 20
696.7487167769
 40
11.7973659482
100
AcDbArc
 50
306.666087925
 51
309.9786665793
  0
ARC
  5
420
100
AcDbEntity
  8
0
100
AcDbCircle
 62
7
  6
CONTINUOUS
 10
450.8146517961
 20
688.5334649725
 40
4.6689496252
100
AcDbArc
 50
359.9667746399
 51
0.2815904107
  0
ARC
  5
421
100
AcDbEntity
  8
0
100
AcDbCircle
 62
7
  6
CONTINUOUS
 10
450.6102191147
 20
688.5315902078
 40
2.4017964185
100
AcDbArc
 50
180.0198648886
 51
192.4020073074
  0
ARC
  5
422
100
AcDbEntity
  8
0
100
AcDbCircle
 62
7
  6
CONTINUOUS
 10
450.8146654091
 20
688.7431189495
 40
2.3938857585
100
AcDbArc
 50
77.576759711
 51
102.4232327053
  0
ARC
  5
423
100
AcDbEntity
  8
0
100
AcDbCircle
 62
7
  6
CONTINUOUS
 10
450.6354392544
 20
688.5317801707
 40
2.18066986
100
AcDbArc
 50
180.0268704083
 51
193.6880163368
  0
ARC
  5
424
100
AcDbEntity
  8
0
100
AcDbCircle
 62
7
  6
CONTINUOUS
 10
450.8146654431
 20
688.71834465
 40
2.172304673
100
AcDbArc
 50
76.2860055781
 51
103.713988487
  0
ARC
  5
425
100
AcDbEntity
  8
0
100
AcDbCircle
 62
7
  6
CONTINUOUS
 10
450.8146497983
 20
688.5307574865
 40
1.1699888785
100
AcDbArc
 50
333.8855515293
 51
26.1144484707
  0
ARC
  5
426
100
AcDbEntity
  8
0
100
AcDbCircle
 62
7
  6
CONTINUOUS
 10
459.1063218181
 20
680.182652822
 40
11.8912642279
100
AcDbArc
 50
140.034415759
 51
143.3208297367
  0
ARC
  5
427
100
AcDbEntity
  8
0
100
AcDbCircle
 62
7
  6
CONTINUOUS
 10
459.1045211243
 20
680.3127981955
 40
11.797365949
100
AcDbArc
 50
126.6660879251
 51
129.9786665792
  0
ARC
  5
428
100
AcDbEntity
  8
0
100
AcDbCircle
 62
7
  6
CONTINUOUS
 10
451.0191000175
 20
688.5299358705
 40
2.40180841
100
AcDbArc
 50
0.019599868
 51
12.4016731518
  0
ARC
  5
429
100
AcDbEntity
  8
0
100
AcDbCircle
 62
7
  6
CONTINUOUS
 10
450.8146657213
 20
688.3183951991
 40
2.3938849576
100
AcDbArc
 50
257.576755418
 51
282.4232368575
  0
ARC
  5
42A
100
AcDbEntity
  8
0
100
AcDbCircle
 62
7
  6
CONTINUOUS
 10
450.993758884
 20
688.5297209147
 40
2.1808013901
100
AcDbArc
 50
0.0272336482
 51
13.6875455162
  0
ARC
  5
42B
100
AcDbEntity
  8
0
100
AcDbCircle
 62
7
  6
CONTINUOUS
 10
450.8146656857
 20
688.3431695241
 40
2.1723039023
100
AcDbArc
 50
256.2860005535
 51
283.7139934443
  0
ARC
  5
42C
100
AcDbEntity
  8
0
100
AcDbCircle
 62
7
  6
CONTINUOUS
 10
450.8146655638
 20
688.530740956
 40
1.1699883389
100
AcDbArc
 50
63.8855680188
 51
116.1144319812
  0
ARC
  5
42D
100
AcDbEntity
  8
0
100
AcDbCircle
 62
7
  6
CONTINUOUS
 10
459.1247911041
 20
696.7768926444
 40
11.8634716269
100
AcDbArc
 50
229.8534694092
 51
234.3146497659
  0
ARC
  5
42E
100
AcDbEntity
  8
0
100
AcDbCircle
 62
7
  6
CONTINUOUS
 10
459.060488839
 20
696.8406400935
 40
11.8630765945
100
AcDbArc
 50
215.6852759194
 51
220.1466049055
  0
CIRCLE
  5
42F
100
AcDbEntity
  8
0
100
AcDbCircle
 62
7
  6
CONTINUOUS
 10
450.8146655638
 20
688.5307574865
 40
4.75
  0
ARC
  5
430
100
AcDbEntity
  8
0
100
AcDbCircle
 62
7
  6
CONTINUOUS
 10
450.8146655638
 20
688.5307574865
 40
4.6689421051
100
AcDbArc
 50
0.3148161975
 51
360.0
  0
ARC
  5
431
100
AcDbEntity
  8
0
100
AcDbCircle
 62
7
  6
CONTINUOUS
 10
451.0191168391
 20
688.5315770737
 40
2.4017915876
100
AcDbArc
 50
347.5982881565
 51
359.9804483915
  0
ARC
  5
432
100
AcDbEntity
  8
0
100
AcDbCircle
 62
7
  6
CONTINUOUS
 10
450.9937793624
 20
688.5317920715
 40
2.1807810223
100
AcDbArc
 50
346.3123781982
 51
359.9728182923
  0
ARC
  5
433
100
AcDbEntity
  8
0
100
AcDbCircle
 62
7
  6
CONTINUOUS
 10
450.8146813292
 20
688.5307574865
 40
1.1699888785
100
AcDbArc
 50
153.8855515292
 51
206.1144484708
  0
ARC
  5
434
100
AcDbEntity
  8
0
100
AcDbCircle
 62
7
  6
CONTINUOUS
 10
450.8146655638
 20
688.5307740169
 40
1.1699883389
100
AcDbArc
 50
243.8855680186
 51
296.1144319814
  0
CIRCLE
  5
435
100
AcDbEntity
  8
0
100
AcDbCircle
 62
7
  6
CONTINUOUS
 10
430.8146655638
 20
722.0307574865
 40
1.2679491924
  0
CIRCLE
  5
436
100
AcDbEntity
  8
0
100
AcDbCircle
 62
7
  6
CONTINUOUS
 10
405.8146655638
 20
722.0307574865
 40
1.2679491924
  0
CIRCLE
  5
437
100
AcDbEntity
  8
0
100
AcDbCircle
 62
7
  6
CONTINUOUS
 10
380.8146655638
 20
722.0307574865
 40
1.2679491924
  0
ARC
  5
438
100
AcDbEntity
  8
0
100
AcDbCircle
 62
7
  6
CONTINUOUS
 10
481.5646655638
 20
703.7807574865
 40
27.0
100
AcDbArc
 50
270.0
 51
360.0
  0
ARC
  5
439
100
AcDbEntity
  8
0
100
AcDbCircle
 62
7
  6
CONTINUOUS
 10
480.5646655638
 20
704.7807574865
 40
26.6781992623
100
AcDbArc
 50
269.9999999991
 51
360.0
  0
ARC
  5
43A
100
AcDbEntity
  8
0
100
AcDbCircle
 62
7
  6
CONTINUOUS
 10
481.5646655638
 20
703.7807574865
 40
26.5
100
AcDbArc
 50
270.0
 51
360.0
  0
ARC
  5
43B
100
AcDbEntity
  8
0
100
AcDbCircle
 62
7
  6
CONTINUOUS
 10
478.3146655638
 20
707.0307574865
 40
25.0
100
AcDbArc
 50
270.0
 51
360.0
  0
ARC
  5
43C
100
AcDbEntity
  8
0
100
AcDbCircle
 62
7
  6
CONTINUOUS
 10
480.5646655638
 20
704.7807574865
 40
24.7085837563
100
AcDbArc
 50
270.0
 51
360.0
  0
ARC
  5
43D
100
AcDbEntity
  8
0
100
AcDbCircle
 62
7
  6
CONTINUOUS
 10
480.5646655638
 20
704.7807574865
 40
24.6167271797
100
AcDbArc
 50
270.0
 51
360.0
  0
ARC
  5
43E
100
AcDbEntity
  8
0
100
AcDbCircle
 62
7
  6
CONTINUOUS
 10
480.5646655638
 20
704.7807574865
 40
23.6319194267
100
AcDbArc
 50
270.0
 51
360.0
  0
CIRCLE
  5
43F
100
AcDbEntity
  8
0
100
AcDbCircle
 62
7
  6
CONTINUOUS
 10
455.8146655638
 20
722.0307574865
 40
1.2679491924
  0
ARC
  5
440
100
AcDbEntity
  8
0
100
AcDbCircle
 62
7
  6
CONTINUOUS
 10
459.1063218185
 20
747.1826528216
 40
11.8912642284
100
AcDbArc
 50
140.0344157591
 51
143.3208297366
  0
ARC
  5
441
100
AcDbEntity
  8
0
100
AcDbCircle
 62
7
  6
CONTINUOUS
 10
442.5045400235
 20
747.2846223287
 40
11.8634716267
100
AcDbArc
 50
49.8534694092
 51
54.3146497659
  0
ARC
  5
442
100
AcDbEntity
  8
0
100
AcDbCircle
 62
7
  6
CONTINUOUS
 10
459.1045211241
 20
747.3127981958
 40
11.7973659486
100
AcDbArc
 50
126.666087925
 51
129.9786665793
  0
ARC
  5
443
100
AcDbEntity
  8
0
100
AcDbCircle
 62
7
  6
CONTINUOUS
 10
442.6744734847
 20
747.3031537303
 40
11.7292846324
100
AcDbArc
 50
35.6598184033
 51
40.1720624216
  0
CIRCLE
  5
444
100
AcDbEntity
  8
0
100
AcDbCircle
 62
7
  6
CONTINUOUS
 10
450.8146655638
 20
755.5307574865
 40
4.75
  0
ARC
  5
445
100
AcDbEntity
  8
0
100
AcDbCircle
 62
7
  6
CONTINUOUS
 10
450.8146517961
 20
755.5334649725
 40
4.6689496252
100
AcDbArc
 50
359.9667746399
 51
0.2815904107
  0
ARC
  5
446
100
AcDbEntity
  8
0
100
AcDbCircle
 62
7
  6
CONTINUOUS
 10
450.8146655638
 20
755.5307574865
 40
4.6689421051
100
AcDbArc
 50
0.3148161975
 51
360.0
  0
ARC
  5
447
100
AcDbEntity
  8
0
100
AcDbCircle
 62
7
  6
CONTINUOUS
 10
450.6102191147
 20
755.5315902078
 40
2.4017964185
100
AcDbArc
 50
180.0198648886
 51
192.4020073074
  0
ARC
  5
448
100
AcDbEntity
  8
0
100
AcDbCircle
 62
7
  6
CONTINUOUS
 10
450.6098370842
 20
755.5299771582
 40
2.4014143704
100
AcDbArc
 50
167.5972681398
 51
179.9813820074
  0
ARC
  5
449
100
AcDbEntity
  8
0
100
AcDbCircle
 62
7
  6
CONTINUOUS
 10
450.8146654091
 20
755.7431189495
 40
2.3938857585
100
AcDbArc
 50
77.576759711
 51
102.4232327053
  0
ARC
  5
44A
100
AcDbEntity
  8
0
100
AcDbCircle
 62
7
  6
CONTINUOUS
 10
450.8146657213
 20
755.3183951991
 40
2.3938849576
100
AcDbArc
 50
257.576755418
 51
282.4232368575
  0
ARC
  5
44B
100
AcDbEntity
  8
0
100
AcDbCircle
 62
7
  6
CONTINUOUS
 10
450.6354392544
 20
755.5317801707
 40
2.18066986
100
AcDbArc
 50
180.0268704084
 51
193.6880163367
  0
ARC
  5
44C
100
AcDbEntity
  8
0
100
AcDbCircle
 62
7
  6
CONTINUOUS
 10
450.6349729714
 20
755.5297893464
 40
2.1802035808
100
AcDbArc
 50
166.3104756765
 51
179.9745572649
  0
ARC
  5
44D
100
AcDbEntity
  8
0
100
AcDbCircle
 62
7
  6
CONTINUOUS
 10
450.8146654431
 20
755.71834465
 40
2.172304673
100
AcDbArc
 50
76.2860055781
 51
103.713988487
  0
ARC
  5
44E
100
AcDbEntity
  8
0
100
AcDbCircle
 62
7
  6
CONTINUOUS
 10
450.8146656857
 20
755.3431695241
 40
2.1723039023
100
AcDbArc
 50
256.2860005535
 51
283.7139934443
  0
ARC
  5
44F
100
AcDbEntity
  8
0
100
AcDbCircle
 62
7
  6
CONTINUOUS
 10
450.8146497983
 20
755.5307574865
 40
1.1699888785
100
AcDbArc
 50
333.8855515292
 51
26.1144484707
  0
ARC
  5
450
100
AcDbEntity
  8
0
100
AcDbCircle
 62
7
  6
CONTINUOUS
 10
450.8146813292
 20
755.5307574865
 40
1.1699888785
100
AcDbArc
 50
153.8855515292
 51
206.1144484708
  0
ARC
  5
451
100
AcDbEntity
  8
0
100
AcDbCircle
 62
7
  6
CONTINUOUS
 10
450.8146655638
 20
755.530740956
 40
1.1699883389
100
AcDbArc
 50
63.8855680188
 51
116.1144319812
  0
ARC
  5
452
100
AcDbEntity
  8
0
100
AcDbCircle
 62
7
  6
CONTINUOUS
 10
450.8146655638
 20
755.5307740169
 40
1.1699883389
100
AcDbArc
 50
243.8855680186
 51
296.1144319814
  0
ARC
  5
453
100
AcDbEntity
  8
0
100
AcDbCircle
 62
7
  6
CONTINUOUS
 10
442.5230093094
 20
763.878862151
 40
11.8912642279
100
AcDbArc
 50
320.034415759
 51
323.3208297367
  0
ARC
  5
454
100
AcDbEntity
  8
0
100
AcDbCircle
 62
7
  6
CONTINUOUS
 10
442.5248100034
 20
763.7487167772
 40
11.7973659486
100
AcDbArc
 50
306.666087925
 51
309.9786665793
  0
ARC
  5
455
100
AcDbEntity
  8
0
100
AcDbCircle
 62
7
  6
CONTINUOUS
 10
451.0191000175
 20
755.5299358705
 40
2.40180841
100
AcDbArc
 50
0.019599868
 51
12.4016731518
  0
ARC
  5
456
100
AcDbEntity
  8
0
100
AcDbCircle
 62
7
  6
CONTINUOUS
 10
451.0191168392
 20
755.5315770737
 40
2.4017915876
100
AcDbArc
 50
347.5982881564
 51
359.9804483915
  0
ARC
  5
457
100
AcDbEntity
  8
0
100
AcDbCircle
 62
7
  6
CONTINUOUS
 10
450.993758884
 20
755.5297209147
 40
2.1808013901
100
AcDbArc
 50
0.0272336483
 51
13.6875455161
  0
ARC
  5
458
100
AcDbEntity
  8
0
100
AcDbCircle
 62
7
  6
CONTINUOUS
 10
450.9937793624
 20
755.5317920715
 40
2.1807810223
100
AcDbArc
 50
346.3123781982
 51
359.9728182923
  0
ARC
  5
459
100
AcDbEntity
  8
0
100
AcDbCircle
 62
7
  6
CONTINUOUS
 10
459.1247911042
 20
763.7768926445
 40
11.8634716271
100
AcDbArc
 50
229.8534694092
 51
234.3146497658
  0
ARC
  5
45A
100
AcDbEntity
  8
0
100
AcDbCircle
 62
7
  6
CONTINUOUS
 10
459.0604888389
 20
763.8406400934
 40
11.8630765944
100
AcDbArc
 50
215.6852759194
 51
220.1466049055
  0
ARC
  5
45B
100
AcDbEntity
  8
0
100
AcDbCircle
 62
7
  6
CONTINUOUS
 10
481.5646655638
 20
740.2807574865
 40
27.0
100
AcDbArc
 50
0.0
 51
90.0
  0
ARC
  5
45C
100
AcDbEntity
  8
0
100
AcDbCircle
 62
7
  6
CONTINUOUS
 10
480.5646655638
 20
739.2807574865
 40
26.6781992623
100
AcDbArc
 50
0.0
 51
90.0
  0
ARC
  5
45D
100
AcDbEntity
  8
0
100
AcDbCircle
 62
7
  6
CONTINUOUS
 10
481.5646655638
 20
740.2807574865
 40
26.5
100
AcDbArc
 50
0.0
 51
90.0
  0
ARC
  5
45E
100
AcDbEntity
  8
0
100
AcDbCircle
 62
7
  6
CONTINUOUS
 10
478.3146655638
 20
737.0307574865
 40
25.0
100
AcDbArc
 50
0.0
 51
90.0
  0
ARC
  5
45F
100
AcDbEntity
  8
0
100
AcDbCircle
 62
7
  6
CONTINUOUS
 10
480.5646655638
 20
739.2807574865
 40
24.7085837563
100
AcDbArc
 50
0.0
 51
90.0
  0
ARC
  5
460
100
AcDbEntity
  8
0
100
AcDbCircle
 62
7
  6
CONTINUOUS
 10
480.5646655638
 20
739.2807574865
 40
24.6167271797
100
AcDbArc
 50
0.0
 51
90.0
  0
ARC
  5
461
100
AcDbEntity
  8
0
100
AcDbCircle
 62
7
  6
CONTINUOUS
 10
480.5646655638
 20
739.2807574865
 40
23.6319194267
100
AcDbArc
 50
0.0
 51
90.0
  0
ARC
  5
462
100
AcDbEntity
  8
0
100
AcDbCircle
 62
7
  6
CONTINUOUS
 10
625.8227921548
 20
656.0167270502
 40
49.2940502379
100
AcDbArc
 50
314.1778058419
 51
314.4552624123
  0
ARC
  5
463
100
AcDbEntity
  8
0
100
AcDbCircle
 62
7
  6
CONTINUOUS
 10
646.1349773159
 20
635.133297605
 40
20.1615597023
100
AcDbArc
 50
313.8832897308
 51
314.1377144945
  0
ARC
  5
464
100
AcDbEntity
  8
0
100
AcDbCircle
 62
7
  6
CONTINUOUS
 10
664.0277625678
 20
618.0307574865
 40
2.5
100
AcDbArc
 50
90.0
 51
179.4526503659
  0
ARC
  5
465
100
AcDbEntity
  8
0
100
AcDbCircle
 62
7
  6
CONTINUOUS
 10
678.6146655638
 20
624.2307574865
 40
2.2
100
AcDbArc
 50
270.0
 51
360.0
  0
ARC
  5
466
100
AcDbEntity
  8
0
100
AcDbCircle
 62
7
  6
CONTINUOUS
 10
676.5146655638
 20
621.1507574865
 40
2.12
100
AcDbArc
 50
270.0
 51
328.1092081982
  0
ARC
  5
467
100
AcDbEntity
  8
0
100
AcDbCircle
 62
7
  6
CONTINUOUS
 10
674.9267980057
 20
620.3307574865
 40
2.0
100
AcDbArc
 50
269.9999999755
 51
311.1859251657
  0
ARC
  5
468
100
AcDbEntity
  8
0
100
AcDbCircle
 62
7
  6
CONTINUOUS
 10
662.2703819687
 20
620.8307574865
 40
1.2
100
AcDbArc
 50
90.0
 51
191.0000000026
  0
ARC
  5
469
100
AcDbEntity
  8
0
100
AcDbCircle
 62
7
  6
CONTINUOUS
 10
664.0277625678
 20
618.0307574865
 40
1.0
100
AcDbArc
 50
90.0
 51
191.0
  0
ARC
  5
46A
100
AcDbEntity
  8
0
100
AcDbCircle
 62
7
  6
CONTINUOUS
 10
669.1849340097
 20
618.7307574865
 40
0.4
100
AcDbArc
 50
195.9453959009
 51
270.0
  0
ARC
  5
46B
100
AcDbEntity
  8
0
100
AcDbCircle
 62
7
  6
CONTINUOUS
 10
669.0340737272
 20
618.5307574865
 40
0.2
100
AcDbArc
 50
210.7173548281
 51
270.0
  0
ARC
  5
46C
100
AcDbEntity
  8
0
100
AcDbCircle
 62
7
  6
CONTINUOUS
 10
658.8146655638
 20
758.6057574865
 40
21.625
100
AcDbArc
 50
72.5076754749
 51
107.4923245251
  0
ARC
  5
46D
100
AcDbEntity
  8
0
100
AcDbCircle
 62
7
  6
CONTINUOUS
 10
678.6146655638
 20
776.8307574865
 40
2.2
100
AcDbArc
 50
0.0
 51
90.0
  0
LINE
  5
46E
100
AcDbEntity
  8
0
100
AcDbLine
 62
7
  6
CONTINUOUS
 10
311.4758816083
 20
687.7084780879
 11
311.4672576392
 21
687.7084597835
  0
LINE
  5
46F
100
AcDbEntity
  8
0
100
AcDbLine
 62
7
  6
CONTINUOUS
 10
311.6369632667
 20
687.878165411
 11
311.6369449623
 21
687.8695414419
  0
LINE
  5
470
100
AcDbEntity
  8
0
100
AcDbLine
 62
7
  6
CONTINUOUS
 10
311.6368357919
 20
689.2407778503
 11
311.6369632667
 21
689.183349562
  0
LINE
  5
471
100
AcDbEntity
  8
0
100
AcDbLine
 62
7
  6
CONTINUOUS
 10
311.7742222074
 20
689.0457574865
 11
311.6369632667
 21
689.183349562
  0
LINE
  5
472
100
AcDbEntity
  8
0
100
AcDbLine
 62
7
  6
CONTINUOUS
 10
311.4672576392
 20
689.3530551894
 11
311.5246859276
 21
689.3529277146
  0
LINE
  5
473
100
AcDbEntity
  8
0
100
AcDbLine
 62
7
  6
CONTINUOUS
 10
311.4672576392
 20
689.3530551894
 11
311.3296655638
 21
689.4903141302
  0
LINE
  5
474
100
AcDbEntity
  8
0
100
AcDbLine
 62
7
  6
CONTINUOUS
 10
309.9923678608
 20
687.878165411
 11
309.9924953356
 21
687.8207371227
  0
LINE
  5
475
100
AcDbEntity
  8
0
100
AcDbLine
 62
7
  6
CONTINUOUS
 10
309.9923678608
 20
689.183349562
 11
309.8551089201
 21
689.0457574865
  0
LINE
  5
476
100
AcDbEntity
  8
0
100
AcDbLine
 62
7
  6
CONTINUOUS
 10
310.1534495192
 20
689.353036885
 11
310.1620734883
 21
689.3530551894
  0
LINE
  5
477
100
AcDbEntity
  8
0
100
AcDbLine
 62
7
  6
CONTINUOUS
 10
310.1046451999
 20
687.7085872583
 11
310.1620734883
 21
687.7084597835
  0
LINE
  5
478
100
AcDbEntity
  8
0
100
AcDbLine
 62
7
  6
CONTINUOUS
 10
310.2996655638
 20
689.4903141302
 11
310.1620734883
 21
689.3530551894
  0
LINE
  5
479
100
AcDbEntity
  8
0
100
AcDbLine
 62
7
  6
CONTINUOUS
 10
310.1620734883
 20
687.7084597835
 11
310.2996655638
 21
687.5712008428
  0
LINE
  5
47A
100
AcDbEntity
  8
0
100
AcDbLine
 62
7
  6
CONTINUOUS
 10
309.9923678608
 20
689.183349562
 11
309.9923861652
 21
689.191973531
  0
LINE
  5
47B
100
AcDbEntity
  8
0
100
AcDbLine
 62
7
  6
CONTINUOUS
 10
309.8551089201
 20
688.0157574865
 11
309.9923678608
 21
687.878165411
  0
LINE
  5
47C
100
AcDbEntity
  8
0
100
AcDbLine
 62
7
  6
CONTINUOUS
 10
311.3296655638
 20
687.5712008428
 11
311.4672576392
 21
687.7084597835
  0
LINE
  5
47D
100
AcDbEntity
  8
0
100
AcDbLine
 62
7
  6
CONTINUOUS
 10
311.6369632667
 20
687.878165411
 11
311.7742222074
 21
688.0157574865
  0
LINE
  5
47E
100
AcDbEntity
  8
0
100
AcDbLine
 62
7
  6
CONTINUOUS
 10
311.4758816083
 20
754.7084780879
 11
311.4672576392
 21
754.7084597835
  0
LINE
  5
47F
100
AcDbEntity
  8
0
100
AcDbLine
 62
7
  6
CONTINUOUS
 10
311.6369632667
 20
754.878165411
 11
311.6369449623
 21
754.8695414419
  0
LINE
  5
480
100
AcDbEntity
  8
0
100
AcDbLine
 62
7
  6
CONTINUOUS
 10
311.6368357919
 20
756.2407778503
 11
311.6369632667
 21
756.183349562
  0
LINE
  5
481
100
AcDbEntity
  8
0
100
AcDbLine
 62
7
  6
CONTINUOUS
 10
311.7742222074
 20
756.0457574865
 11
311.6369632667
 21
756.183349562
  0
LINE
  5
482
100
AcDbEntity
  8
0
100
AcDbLine
 62
7
  6
CONTINUOUS
 10
311.4672576392
 20
756.3530551894
 11
311.5246859276
 21
756.3529277146
  0
LINE
  5
483
100
AcDbEntity
  8
0
100
AcDbLine
 62
7
  6
CONTINUOUS
 10
311.4672576392
 20
756.3530551894
 11
311.3296655638
 21
756.4903141302
  0
LINE
  5
484
100
AcDbEntity
  8
0
100
AcDbLine
 62
7
  6
CONTINUOUS
 10
309.9923678608
 20
754.878165411
 11
309.9924953356
 21
754.8207371227
  0
LINE
  5
485
100
AcDbEntity
  8
0
100
AcDbLine
 62
7
  6
CONTINUOUS
 10
309.9923678608
 20
756.183349562
 11
309.8551089201
 21
756.0457574865
  0
LINE
  5
486
100
AcDbEntity
  8
0
100
AcDbLine
 62
7
  6
CONTINUOUS
 10
310.1534495192
 20
756.353036885
 11
310.1620734883
 21
756.3530551894
  0
LINE
  5
487
100
AcDbEntity
  8
0
100
AcDbLine
 62
7
  6
CONTINUOUS
 10
310.1046451999
 20
754.7085872583
 11
310.1620734883
 21
754.7084597835
  0
LINE
  5
488
100
AcDbEntity
  8
0
100
AcDbLine
 62
7
  6
CONTINUOUS
 10
310.2996655638
 20
756.4903141302
 11
310.1620734883
 21
756.3530551894
  0
LINE
  5
489
100
AcDbEntity
  8
0
100
AcDbLine
 62
7
  6
CONTINUOUS
 10
310.1620734883
 20
754.7084597835
 11
310.2996655638
 21
754.5712008428
  0
LINE
  5
48A
100
AcDbEntity
  8
0
100
AcDbLine
 62
7
  6
CONTINUOUS
 10
309.9923678608
 20
756.183349562
 11
309.9923861652
 21
756.191973531
  0
LINE
  5
48B
100
AcDbEntity
  8
0
100
AcDbLine
 62
7
  6
CONTINUOUS
 10
309.8551089201
 20
755.0157574865
 11
309.9923678608
 21
754.878165411
  0
LINE
  5
48C
100
AcDbEntity
  8
0
100
AcDbLine
 62
7
  6
CONTINUOUS
 10
311.3296655638
 20
754.5712008428
 11
311.4672576392
 21
754.7084597835
  0
LINE
  5
48D
100
AcDbEntity
  8
0
100
AcDbLine
 62
7
  6
CONTINUOUS
 10
311.6369632667
 20
754.878165411
 11
311.7742222074
 21
755.0157574865
  0
LINE
  5
48E
100
AcDbEntity
  8
0
100
AcDbLine
 62
7
  6
CONTINUOUS
 10
451.4758816083
 20
687.7084780879
 11
451.4672576392
 21
687.7084597835
  0
LINE
  5
48F
100
AcDbEntity
  8
0
100
AcDbLine
 62
7
  6
CONTINUOUS
 10
451.6369632667
 20
687.878165411
 11
451.6369449623
 21
687.8695414419
  0
LINE
  5
490
100
AcDbEntity
  8
0
100
AcDbLine
 62
7
  6
CONTINUOUS
 10
451.6368357919
 20
689.2407778503
 11
451.6369632667
 21
689.183349562
  0
LINE
  5
491
100
AcDbEntity
  8
0
100
AcDbLine
 62
7
  6
CONTINUOUS
 10
451.7742222074
 20
689.0457574865
 11
451.6369632667
 21
689.183349562
  0
LINE
  5
492
100
AcDbEntity
  8
0
100
AcDbLine
 62
7
  6
CONTINUOUS
 10
451.4672576392
 20
689.3530551894
 11
451.5246859276
 21
689.3529277146
  0
LINE
  5
493
100
AcDbEntity
  8
0
100
AcDbLine
 62
7
  6
CONTINUOUS
 10
451.4672576392
 20
689.3530551894
 11
451.3296655638
 21
689.4903141302
  0
LINE
  5
494
100
AcDbEntity
  8
0
100
AcDbLine
 62
7
  6
CONTINUOUS
 10
449.9923678608
 20
687.878165411
 11
449.9924953356
 21
687.8207371227
  0
LINE
  5
495
100
AcDbEntity
  8
0
100
AcDbLine
 62
7
  6
CONTINUOUS
 10
449.9923678608
 20
689.183349562
 11
449.8551089201
 21
689.0457574865
  0
LINE
  5
496
100
AcDbEntity
  8
0
100
AcDbLine
 62
7
  6
CONTINUOUS
 10
450.1534495192
 20
689.353036885
 11
450.1620734883
 21
689.3530551894
  0
LINE
  5
497
100
AcDbEntity
  8
0
100
AcDbLine
 62
7
  6
CONTINUOUS
 10
450.1046451999
 20
687.7085872583
 11
450.1620734883
 21
687.7084597835
  0
LINE
  5
498
100
AcDbEntity
  8
0
100
AcDbLine
 62
7
  6
CONTINUOUS
 10
450.2996655638
 20
689.4903141302
 11
450.1620734883
 21
689.3530551894
  0
LINE
  5
499
100
AcDbEntity
  8
0
100
AcDbLine
 62
7
  6
CONTINUOUS
 10
450.1620734883
 20
687.7084597835
 11
450.2996655638
 21
687.5712008428
  0
LINE
  5
49A
100
AcDbEntity
  8
0
100
AcDbLine
 62
7
  6
CONTINUOUS
 10
449.9923678608
 20
689.183349562
 11
449.9923861652
 21
689.191973531
  0
LINE
  5
49B
100
AcDbEntity
  8
0
100
AcDbLine
 62
7
  6
CONTINUOUS
 10
449.8551089201
 20
688.0157574865
 11
449.9923678608
 21
687.878165411
  0
LINE
  5
49C
100
AcDbEntity
  8
0
100
AcDbLine
 62
7
  6
CONTINUOUS
 10
451.3296655638
 20
687.5712008428
 11
451.4672576392
 21
687.7084597835
  0
LINE
  5
49D
100
AcDbEntity
  8
0
100
AcDbLine
 62
7
  6
CONTINUOUS
 10
451.6369632667
 20
687.878165411
 11
451.7742222074
 21
688.0157574865
  0
LINE
  5
49E
100
AcDbEntity
  8
0
100
AcDbLine
 62
7
  6
CONTINUOUS
 10
451.4758816083
 20
754.7084780879
 11
451.4672576392
 21
754.7084597835
  0
LINE
  5
49F
100
AcDbEntity
  8
0
100
AcDbLine
 62
7
  6
CONTINUOUS
 10
451.6369632667
 20
754.878165411
 11
451.6369449623
 21
754.8695414419
  0
LINE
  5
4A0
100
AcDbEntity
  8
0
100
AcDbLine
 62
7
  6
CONTINUOUS
 10
451.6368357919
 20
756.2407778503
 11
451.6369632667
 21
756.183349562
  0
LINE
  5
4A1
100
AcDbEntity
  8
0
100
AcDbLine
 62
7
  6
CONTINUOUS
 10
451.7742222074
 20
756.0457574865
 11
451.6369632667
 21
756.183349562
  0
LINE
  5
4A2
100
AcDbEntity
  8
0
100
AcDbLine
 62
7
  6
CONTINUOUS
 10
451.4672576392
 20
756.3530551894
 11
451.5246859276
 21
756.3529277146
  0
LINE
  5
4A3
100
AcDbEntity
  8
0
100
AcDbLine
 62
7
  6
CONTINUOUS
 10
451.4672576392
 20
756.3530551894
 11
451.3296655638
 21
756.4903141302
  0
LINE
  5
4A4
100
AcDbEntity
  8
0
100
AcDbLine
 62
7
  6
CONTINUOUS
 10
449.9923678608
 20
754.878165411
 11
449.9924953356
 21
754.8207371227
  0
LINE
  5
4A5
100
AcDbEntity
  8
0
100
AcDbLine
 62
7
  6
CONTINUOUS
 10
449.9923678608
 20
756.183349562
 11
449.8551089201
 21
756.0457574865
  0
LINE
  5
4A6
100
AcDbEntity
  8
0
100
AcDbLine
 62
7
  6
CONTINUOUS
 10
450.1534495192
 20
756.353036885
 11
450.1620734883
 21
756.3530551894
  0
LINE
  5
4A7
100
AcDbEntity
  8
0
100
AcDbLine
 62
7
  6
CONTINUOUS
 10
450.1046451999
 20
754.7085872583
 11
450.1620734883
 21
754.7084597835
  0
LINE
  5
4A8
100
AcDbEntity
  8
0
100
AcDbLine
 62
7
  6
CONTINUOUS
 10
450.2996655638
 20
756.4903141302
 11
450.1620734883
 21
756.3530551894
  0
LINE
  5
4A9
100
AcDbEntity
  8
0
100
AcDbLine
 62
7
  6
CONTINUOUS
 10
450.1620734883
 20
754.7084597835
 11
450.2996655638
 21
754.5712008428
  0
LINE
  5
4AA
100
AcDbEntity
  8
0
100
AcDbLine
 62
7
  6
CONTINUOUS
 10
449.9923678608
 20
756.183349562
 11
449.9923861652
 21
756.191973531
  0
LINE
  5
4AB
100
AcDbEntity
  8
0
100
AcDbLine
 62
7
  6
CONTINUOUS
 10
449.8551089201
 20
755.0157574865
 11
449.9923678608
 21
754.878165411
  0
LINE
  5
4AC
100
AcDbEntity
  8
0
100
AcDbLine
 62
7
  6
CONTINUOUS
 10
451.3296655638
 20
754.5712008428
 11
451.4672576392
 21
754.7084597835
  0
LINE
  5
4AD
100
AcDbEntity
  8
0
100
AcDbLine
 62
7
  6
CONTINUOUS
 10
451.6369632667
 20
754.878165411
 11
451.7742222074
 21
755.0157574865
  0
SPLINE
  5
4AE
100
AcDbEntity
  8
0
100
AcDbSpline
 62
7
  6
CONTINUOUS
 70
0
 71
3
 72
12
 73
8
 74
0
 42
0.0000001
 43
0.0000001
 44
0.0000000001
 40
0.0
 40
0.0
 40
0.0
 40
0.0
 40
0.3760267962
 40
0.693036019
 40
0.9073839876
 40
0.9678597761
 40
1.0
 40
1.0
 40
1.0
 40
1.0
 10
668.9355373537
 20
328.1600868228
 30
0.0
 10
668.8879254844
 20
328.1467554994
 30
0.0
 10
668.7993463081
 20
328.1243622892
 30
0.0
 10
668.6828593159
 20
328.1015027024
 30
0.0
 10
668.6038845069
 20
328.0936738812
 30
0.0
 10
668.5648175634
 20
328.0960947228
 30
0.0
 10
668.5520887616
 20
328.1027034598
 30
0.0
 10
668.5509277747
 20
328.1067669141
 30
0.0
  0
SPLINE
  5
4AF
100
AcDbEntity
  8
0
100
AcDbSpline
 62
7
  6
CONTINUOUS
 70
0
 71
3
 72
9
 73
5
 74
0
 42
0.0000001
 43
0.0000001
 44
0.0000000001
 40
0.0
 40
0.0
 40
0.0
 40
0.0
 40
0.5005346518
 40
1.0
 40
1.0
 40
1.0
 40
1.0
 10
674.6776234192
 20
328.1600868228
 30
0.0
 10
674.8584048187
 20
328.1601943033
 30
0.0
 10
675.2222326361
 20
328.2222728385
 30
0.0
 10
675.5441062721
 20
328.4030159273
 30
0.0
 10
675.684207937
 20
328.5166555345
 30
0.0
  0
SPLINE
  5
4B0
100
AcDbEntity
  8
0
100
AcDbSpline
 62
7
  6
CONTINUOUS
 70
0
 71
3
 72
13
 73
9
 74
0
 42
0.0000001
 43
0.0000001
 44
0.0000000001
 40
0.0
 40
0.0
 40
0.0
 40
0.0
 40
0.0267397979
 40
0.0830869159
 40
0.1716173804
 40
0.2904867681
 40
0.6072769157
 40
1.0
 40
1.0
 40
1.0
 40
1.0
 10
675.9944108523
 20
328.3115022269
 30
0.0
 10
675.9923337992
 20
328.3096840182
 30
0.0
 10
675.9821326009
 20
328.312385035
 30
0.0
 10
675.9682874022
 20
328.3213704474
 30
0.0
 10
675.9459658175
 20
328.3380708737
 30
0.0
 10
675.9056104079
 20
328.3736584274
 30
0.0
 10
675.844528785
 20
328.4338376756
 30
0.0
 10
675.7929148268
 20
328.485845037
 30
0.0
 10
675.7665630977
 20
328.5166549667
 30
0.0
  0
SPLINE
  5
4B1
100
AcDbEntity
  8
0
100
AcDbSpline
 62
7
  6
CONTINUOUS
 70
0
 71
3
 72
12
 73
8
 74
0
 42
0.0000001
 43
0.0000001
 44
0.0000000001
 40
0.0
 40
0.0
 40
0.0
 40
0.0
 40
0.3760267962
 40
0.693036019
 40
0.9073839876
 40
0.9678597761
 40
1.0
 40
1.0
 40
1.0
 40
1.0
 10
669.1849340097
 20
618.674188944
 30
0.0
 10
669.1373221404
 20
618.6608576206
 30
0.0
 10
669.0487429641
 20
618.6384644104
 30
0.0
 10
668.9322559719
 20
618.6156048236
 30
0.0
 10
668.8532811629
 20
618.6077760024
 30
0.0
 10
668.8142142194
 20
618.610196844
 30
0.0
 10
668.8014854176
 20
618.616805581
 30
0.0
 10
668.8003244307
 20
618.6208690353
 30
0.0
  0
SPLINE
  5
4B2
100
AcDbEntity
  8
0
100
AcDbSpline
 62
7
  6
CONTINUOUS
 70
0
 71
3
 72
9
 73
5
 74
0
 42
0.0000001
 43
0.0000001
 44
0.0000000001
 40
0.0
 40
0.0
 40
0.0
 40
0.0
 40
0.5005346518
 40
1.0
 40
1.0
 40
1.0
 40
1.0
 10
674.9270200752
 20
618.674188944
 30
0.0
 10
675.1078014747
 20
618.6742964245
 30
0.0
 10
675.4716292921
 20
618.7363749597
 30
0.0
 10
675.7935029281
 20
618.9171180485
 30
0.0
 10
675.933604593
 20
619.0307576557
 30
0.0
  0
SPLINE
  5
4B3
100
AcDbEntity
  8
0
100
AcDbSpline
 62
7
  6
CONTINUOUS
 70
0
 71
3
 72
13
 73
9
 74
0
 42
0.0000001
 43
0.0000001
 44
0.0000000001
 40
0.0
 40
0.0
 40
0.0
 40
0.0
 40
0.0267397979
 40
0.0830869159
 40
0.1716173804
 40
0.2904867681
 40
0.6072769157
 40
1.0
 40
1.0
 40
1.0
 40
1.0
 10
676.2438075083
 20
618.8256043481
 30
0.0
 10
676.2417304552
 20
618.8237861394
 30
0.0
 10
676.2315292569
 20
618.8264871562
 30
0.0
 10
676.2176840582
 20
618.8354725686
 30
0.0
 10
676.1953624735
 20
618.8521729949
 30
0.0
 10
676.1550070639
 20
618.8877605486
 30
0.0
 10
676.093925441
 20
618.9479397968
 30
0.0
 10
676.0423114828
 20
618.9999471582
 30
0.0
 10
676.0159597537
 20
619.0307570879
 30
0.0
  0
SPLINE
  5
4B4
100
AcDbEntity
  8
0
100
AcDbSpline
 62
7
  6
CONTINUOUS
 70
0
 71
3
 72
11
 73
7
 74
0
 42
0.0000001
 43
0.0000001
 44
0.0000000001
 40
0.0
 40
0.0
 40
0.0
 40
0.0
 40
0.2565599924
 40
0.5071668855
 40
0.7539797491
 40
1.0
 40
1.0
 40
1.0
 40
1.0
 10
119.2411955186
 20
303.7838897158
 30
0.0
 10
119.3139876664
 20
303.6179581982
 30
0.0
 10
119.4894143745
 20
303.3019737806
 30
0.0
 10
119.8541665831
 20
302.9065268653
 30
0.0
 10
120.3074039767
 20
302.6259298269
 30
0.0
 10
120.6518609902
 20
302.5440921886
 30
0.0
 10
120.8245833744
 20
302.5252027191
 30
0.0
  0
SPLINE
  5
4B5
100
AcDbEntity
  8
0
100
AcDbSpline
 62
7
  6
CONTINUOUS
 70
0
 71
3
 72
9
 73
5
 74
0
 42
0.0000001
 43
0.0000001
 44
0.0000000001
 40
0.0
 40
0.0
 40
0.0
 40
0.0
 40
0.2436102824
 40
1.0
 40
1.0
 40
1.0
 40
1.0
 10
120.8245635796
 20
302.5252984361
 30
0.0
 10
120.8122746083
 20
302.5847254817
 30
0.0
 10
120.7684428382
 20
302.8300028882
 30
0.0
 10
120.7480005168
 20
303.0793482743
 30
0.0
 10
120.7449481734
 20
303.267743479
 30
0.0
  0
SPLINE
  5
4B6
100
AcDbEntity
  8
0
100
AcDbSpline
 62
7
  6
CONTINUOUS
 70
0
 71
3
 72
10
 73
6
 74
0
 42
0.0000001
 43
0.0000001
 44
0.0000000001
 40
0.0
 40
0.0
 40
0.0
 40
0.0
 40
0.5184406836
 40
0.760026217
 40
1.0
 40
1.0
 40
1.0
 40
1.0
 10
119.9935376162
 20
303.8028538712
 30
0.0
 10
120.0660815764
 20
303.6517862157
 30
0.0
 10
120.2180466071
 20
303.4406950223
 30
0.0
 10
120.5104740445
 20
303.2909947265
 30
0.0
 10
120.6674633425
 20
303.2677743548
 30
0.0
 10
120.745033502
 20
303.2677620453
 30
0.0
  0
SPLINE
  5
4B7
100
AcDbEntity
  8
0
100
AcDbSpline
 62
7
  6
CONTINUOUS
 70
0
 71
3
 72
10
 73
6
 74
0
 42
0.0000001
 43
0.0000001
 44
0.0000000001
 40
0.0
 40
0.0
 40
0.0
 40
0.0
 40
0.23997392
 40
0.4815595068
 40
1.0
 40
1.0
 40
1.0
 40
1.0
 10
143.9867106993
 20
303.2677620824
 30
0.0
 10
144.0642805395
 20
303.2677743788
 30
0.0
 10
144.2212691502
 20
303.2909944958
 30
0.0
 10
144.5136956054
 20
303.4406932093
 30
0.0
 10
144.6656607518
 20
303.651782752
 30
0.0
 10
144.7382048192
 20
303.8028494162
 30
0.0
  0
SPLINE
  5
4B8
100
AcDbEntity
  8
0
100
AcDbSpline
 62
7
  6
CONTINUOUS
 70
0
 71
3
 72
9
 73
5
 74
0
 42
0.0000001
 43
0.0000001
 44
0.0000000001
 40
0.0
 40
0.0
 40
0.0
 40
0.0
 40
0.2537229053
 40
1.0
 40
1.0
 40
1.0
 40
1.0
 10
143.9867906789
 20
303.2677434795
 30
0.0
 10
143.9857664728
 20
303.204550376
 30
0.0
 10
143.9759794682
 20
302.9556431589
 30
0.0
 10
143.94481687
 20
302.7073414596
 30
0.0
 10
143.9071709834
 20
302.5252984697
 30
0.0
  0
SPLINE
  5
4B9
100
AcDbEntity
  8
0
100
AcDbSpline
 62
7
  6
CONTINUOUS
 70
0
 71
3
 72
9
 73
5
 74
0
 42
0.0000001
 43
0.0000001
 44
0.0000000001
 40
0.0
 40
0.0
 40
0.0
 40
0.0
 40
0.1584817233
 40
1.0
 40
1.0
 40
1.0
 40
1.0
 10
144.7063919754
 20
298.180794383
 30
0.0
 10
144.6824598786
 20
298.1887960369
 30
0.0
 10
144.5310258544
 20
298.2380033484
 30
0.0
 10
144.3774121077
 20
298.2805089247
 30
0.0
 10
144.2473433835
 20
298.3126922534
 30
0.0
  0
SPLINE
  5
4BA
100
AcDbEntity
  8
0
100
AcDbSpline
 62
7
  6
CONTINUOUS
 70
0
 71
3
 72
11
 73
7
 74
0
 42
0.0000001
 43
0.0000001
 44
0.0000000001
 40
0.0
 40
0.0
 40
0.0
 40
0.0
 40
0.2458414611
 40
0.5023773201
 40
0.7577177808
 40
1.0
 40
1.0
 40
1.0
 40
1.0
 10
144.2473510749
 20
298.3126679017
 30
0.0
 10
144.6201946554
 20
298.4392959653
 30
0.0
 10
145.3470576252
 20
298.8170033087
 30
0.0
 10
146.2167217045
 20
299.6909640572
 30
0.0
 10
146.7774413475
 20
300.7817466016
 30
0.0
 10
146.9204509724
 20
301.5789303692
 30
0.0
 10
146.9337806188
 20
301.9667606728
 30
0.0
  0
SPLINE
  5
4BB
100
AcDbEntity
  8
0
100
AcDbSpline
 62
7
  6
CONTINUOUS
 70
0
 71
3
 72
12
 73
8
 74
0
 42
0.0000001
 43
0.0000001
 44
0.0000000001
 40
0.0
 40
0.0
 40
0.0
 40
0.0
 40
0.3399875369
 40
0.6246125039
 40
0.8453345168
 40
0.9308140958
 40
1.0
 40
1.0
 40
1.0
 40
1.0
 10
143.9071450961
 20
302.5252915619
 30
0.0
 10
143.8865105561
 20
302.0590599652
 30
0.0
 10
143.8421893868
 20
301.2026335887
 30
0.0
 10
143.7445255615
 20
300.0464447061
 30
0.0
 10
143.6290953201
 20
299.242048217
 30
0.0
 10
143.5033189068
 20
298.7419586346
 30
0.0
 10
143.4306421319
 20
298.541636138
 30
0.0
 10
143.3902232217
 20
298.4556978037
 30
0.0
  0
SPLINE
  5
4BC
100
AcDbEntity
  8
0
100
AcDbSpline
 62
7
  6
CONTINUOUS
 70
0
 71
3
 72
10
 73
6
 74
0
 42
0.0000001
 43
0.0000001
 44
0.0000000001
 40
0.0
 40
0.0
 40
0.0
 40
0.0
 40
0.5054595366
 40
0.7530087302
 40
1.0
 40
1.0
 40
1.0
 40
1.0
 10
145.494515881
 20
303.7912220063
 30
0.0
 10
145.3511313154
 20
303.4641461189
 30
0.0
 10
145.0360109038
 20
303.0024089378
 30
0.0
 10
144.4260467863
 20
302.6291771258
 30
0.0
 10
144.080980493
 20
302.5404665537
 30
0.0
 10
143.9071421651
 20
302.5251964428
 30
0.0
  0
SPLINE
  5
4BD
100
AcDbEntity
  8
0
100
AcDbSpline
 62
7
  6
CONTINUOUS
 70
0
 71
3
 72
12
 73
8
 74
0
 42
0.0000001
 43
0.0000001
 44
0.0000000001
 40
0.0
 40
0.0
 40
0.0
 40
0.0
 40
0.06917949
 40
0.1546535742
 40
0.375378538
 40
0.6600074165
 40
1.0
 40
1.0
 40
1.0
 40
1.0
 10
121.3414291439
 20
298.4556814093
 30
0.0
 10
121.3010138033
 20
298.5416113639
 30
0.0
 10
121.2283938792
 20
298.7419389863
 30
0.0
 10
121.1026996418
 20
299.2420302822
 30
0.0
 10
120.9871952082
 20
300.046412583
 30
0.0
 10
120.8895676701
 20
301.2026204954
 30
0.0
 10
120.8452319096
 20
302.0590545048
 30
0.0
 10
120.8245971476
 20
302.5252915619
 30
0.0
  0
SPLINE
  5
4BE
100
AcDbEntity
  8
0
100
AcDbSpline
 62
7
  6
CONTINUOUS
 70
0
 71
3
 72
11
 73
7
 74
0
 42
0.0000001
 43
0.0000001
 44
0.0000000001
 40
0.0
 40
0.0
 40
0.0
 40
0.0
 40
0.2422832538
 40
0.4976240995
 40
0.7541595824
 40
1.0
 40
1.0
 40
1.0
 40
1.0
 10
117.7979636543
 20
301.9667606728
 30
0.0
 10
117.8112933466
 20
301.578928706
 30
0.0
 10
117.9543038722
 20
300.7817426173
 30
0.0
 10
118.5150259354
 20
299.6909593215
 30
0.0
 10
119.3846901448
 20
298.8170011112
 30
0.0
 10
120.1115512136
 20
298.4392953795
 30
0.0
 10
120.4843932222
 20
298.3126678639
 30
0.0
  0
SPLINE
  5
4BF
100
AcDbEntity
  8
0
100
AcDbSpline
 62
7
  6
CONTINUOUS
 70
0
 71
3
 72
9
 73
5
 74
0
 42
0.0000001
 43
0.0000001
 44
0.0000000001
 40
0.0
 40
0.0
 40
0.0
 40
0.0
 40
0.4954798247
 40
1.0
 40
1.0
 40
1.0
 40
1.0
 10
140.0029190094
 20
298.1576000884
 30
0.0
 10
140.5355156808
 20
298.318182677
 30
0.0
 10
141.6441267656
 20
298.5419216386
 30
0.0
 10
142.7766644521
 20
298.5286559828
 30
0.0
 10
143.3391483637
 20
298.4619256884
 30
0.0
  0
LINE
  5
4C0
100
AcDbEntity
  8
0
100
AcDbLine
 62
7
  6
CONTINUOUS
 10
134.8673222254
 20
298.1168726891
 11
134.8971667398
 21
298.1259088275
  0
SPLINE
  5
4C1
100
AcDbEntity
  8
0
100
AcDbSpline
 62
7
  6
CONTINUOUS
 70
0
 71
3
 72
13
 73
9
 74
0
 42
0.0000001
 43
0.0000001
 44
0.0000000001
 40
0.0
 40
0.0
 40
0.0
 40
0.0
 40
0.0712499204
 40
0.1990773572
 40
0.5297574783
 40
0.8178063846
 40
0.9238192297
 40
1.0
 40
1.0
 40
1.0
 40
1.0
 10
134.8971667398
 20
298.1259088275
 30
0.0
 10
135.0071600438
 20
298.1603315819
 30
0.0
 10
135.3151586946
 20
298.2546670803
 30
0.0
 10
136.1504936364
 20
298.449250182
 30
0.0
 10
137.3611358083
 20
298.5646870607
 30
0.0
 10
138.5349513231
 20
298.4553339853
 30
0.0
 10
139.2784575574
 20
298.2930916733
 30
0.0
 10
139.5628709547
 20
298.2151649363
 30
0.0
 10
139.6805244981
 20
298.1785141803
 30
0.0
  0
SPLINE
  5
4C2
100
AcDbEntity
  8
0
100
AcDbSpline
 62
7
  6
CONTINUOUS
 70
0
 71
3
 72
9
 73
5
 74
0
 42
0.0000001
 43
0.0000001
 44
0.0000000001
 40
0.0
 40
0.0
 40
0.0
 40
0.0
 40
0.2979995868
 40
1.0
 40
1.0
 40
1.0
 40
1.0
 10
139.6805244981
 20
298.1785141803
 30
0.0
 10
139.6962500604
 20
298.1736154435
 30
0.0
 10
139.7489489429
 20
298.1569461779
 30
0.0
 10
139.8013385588
 20
298.1393111023
 30
0.0
 10
139.8383810695
 20
298.1277635825
 30
0.0
  0
SPLINE
  5
4C3
100
AcDbEntity
  8
0
100
AcDbSpline
 62
7
  6
CONTINUOUS
 70
0
 71
3
 72
8
 73
4
 74
0
 42
0.0000001
 43
0.0000001
 44
0.0000000001
 40
0.0
 40
0.0
 40
0.0
 40
0.0
 40
1.0
 40
1.0
 40
1.0
 40
1.0
 10
139.8447016417
 20
298.1258069928
 30
0.0
 10
139.8539759347
 20
298.12295757
 30
0.0
 10
139.8632783374
 20
298.1201928043
 30
0.0
 10
139.8726358457
 20
298.1176298451
 30
0.0
  0
SPLINE
  5
4C4
100
AcDbEntity
  8
0
100
AcDbSpline
 62
7
  6
CONTINUOUS
 70
0
 71
3
 72
10
 73
6
 74
0
 42
0.0000001
 43
0.0000001
 44
0.0000000001
 40
0.0
 40
0.0
 40
0.0
 40
0.0
 40
0.2334701421
 40
0.558012622
 40
1.0
 40
1.0
 40
1.0
 40
1.0
 10
129.72640897
 20
298.1602403317
 30
0.0
 10
129.3728106535
 20
298.2682997583
 30
0.0
 10
128.5093098855
 20
298.4707525576
 30
0.0
 10
126.9209884026
 20
298.5754041096
 30
0.0
 10
125.7042611464
 20
298.380304783
 30
0.0
 10
125.0354962302
 20
298.1736534462
 30
0.0
  0
LINE
  5
4C5
100
AcDbEntity
  8
0
100
AcDbLine
 62
7
  6
CONTINUOUS
 10
124.9060604163
 20
298.1321061474
 11
124.8615140104
 21
298.1168796352
  0
SPLINE
  5
4C6
100
AcDbEntity
  8
0
100
AcDbSpline
 62
7
  6
CONTINUOUS
 70
0
 71
3
 72
9
 73
5
 74
0
 42
0.0000001
 43
0.0000001
 44
0.0000000001
 40
0.0
 40
0.0
 40
0.0
 40
0.0
 40
0.4943559088
 40
1.0
 40
1.0
 40
1.0
 40
1.0
 10
124.7339422839
 20
298.1560556748
 30
0.0
 10
124.2017558301
 20
298.3166920439
 30
0.0
 10
123.0916408554
 20
298.5418223092
 30
0.0
 10
121.9571795812
 20
298.5289083853
 30
0.0
 10
121.3925450245
 20
298.4619150826
 30
0.0
  0
SPLINE
  5
4C7
100
AcDbEntity
  8
0
100
AcDbSpline
 62
7
  6
CONTINUOUS
 70
0
 71
3
 72
8
 73
4
 74
0
 42
0.0000001
 43
0.0000001
 44
0.0000000001
 40
0.0
 40
0.0
 40
0.0
 40
0.0
 40
1.0
 40
1.0
 40
1.0
 40
1.0
 10
121.3987256945
 20
298.4477838595
 30
0.0
 10
121.3796506457
 20
298.4454565095
 30
0.0
 10
121.3594520145
 20
298.448516089
 30
0.0
 10
121.3416188222
 20
298.4556750899
 30
0.0
  0
SPLINE
  5
4C8
100
AcDbEntity
  8
0
100
AcDbSpline
 62
7
  6
CONTINUOUS
 70
0
 71
3
 72
9
 73
5
 74
0
 42
0.0000001
 43
0.0000001
 44
0.0000000001
 40
0.0
 40
0.0
 40
0.0
 40
0.0
 40
0.3706096924
 40
1.0
 40
1.0
 40
1.0
 40
1.0
 10
121.3416231286
 20
298.4556756135
 30
0.0
 10
121.242872838
 20
298.4445934575
 30
0.0
 10
120.9770275908
 20
298.409519248
 30
0.0
 10
120.712642888
 20
298.3632848784
 30
0.0
 10
120.5478173239
 20
298.32707518
 30
0.0
  0
SPLINE
  5
4C9
100
AcDbEntity
  8
0
100
AcDbSpline
 62
7
  6
CONTINUOUS
 70
0
 71
3
 72
8
 73
4
 74
0
 42
0.0000001
 43
0.0000001
 44
0.0000000001
 40
0.0
 40
0.0
 40
0.0
 40
0.0
 40
1.0
 40
1.0
 40
1.0
 40
1.0
 10
120.5911050346
 20
298.3073311393
 30
0.0
 10
120.5563757996
 20
298.2994470213
 30
0.0
 10
120.5181700562
 20
298.3013818339
 30
0.0
 10
120.4844009055
 20
298.312692163
 30
0.0
  0
SPLINE
  5
4CA
100
AcDbEntity
  8
0
100
AcDbSpline
 62
7
  6
CONTINUOUS
 70
0
 71
3
 72
9
 73
5
 74
0
 42
0.0000001
 43
0.0000001
 44
0.0000000001
 40
0.0
 40
0.0
 40
0.0
 40
0.0
 40
0.3506107392
 40
1.0
 40
1.0
 40
1.0
 40
1.0
 10
120.4844009508
 20
298.3126922095
 30
0.0
 10
120.430204824
 20
298.2992814815
 30
0.0
 10
120.2760924856
 20
298.2591798304
 30
0.0
 10
120.1234116344
 20
298.2135807333
 30
0.0
 10
120.0253407225
 20
298.1807896495
 30
0.0
  0
SPLINE
  5
4CB
100
AcDbEntity
  8
0
100
AcDbSpline
 62
7
  6
CONTINUOUS
 70
0
 71
3
 72
8
 73
4
 74
0
 42
0.0000001
 43
0.0000001
 44
0.0000000001
 40
0.0
 40
0.0
 40
0.0
 40
0.0
 40
1.0
 40
1.0
 40
1.0
 40
1.0
 10
144.1406421157
 20
298.307333315
 30
0.0
 10
144.1753705958
 20
298.2994391973
 30
0.0
 10
144.2135786532
 20
298.3013638474
 30
0.0
 10
144.2473521085
 20
298.3126659775
 30
0.0
  0
SPLINE
  5
4CC
100
AcDbEntity
  8
0
100
AcDbSpline
 62
7
  6
CONTINUOUS
 70
0
 71
3
 72
9
 73
5
 74
0
 42
0.0000001
 43
0.0000001
 44
0.0000000001
 40
0.0
 40
0.0
 40
0.0
 40
0.0
 40
0.1440815929
 40
1.0
 40
1.0
 40
1.0
 40
1.0
 10
144.1837578937
 20
298.3271141898
 30
0.0
 10
144.1460377801
 20
298.3353986907
 30
0.0
 10
143.8835567659
 20
298.3897089227
 30
0.0
 10
143.6181153577
 20
298.4300823886
 30
0.0
 10
143.3901298603
 20
298.4556763695
 30
0.0
  0
SPLINE
  5
4CD
100
AcDbEntity
  8
0
100
AcDbSpline
 62
7
  6
CONTINUOUS
 70
0
 71
3
 72
8
 73
4
 74
0
 42
0.0000001
 43
0.0000001
 44
0.0000000001
 40
0.0
 40
0.0
 40
0.0
 40
0.0
 40
1.0
 40
1.0
 40
1.0
 40
1.0
 10
143.3330233275
 20
298.4477753462
 30
0.0
 10
143.3521028181
 20
298.4454574957
 30
0.0
 10
143.3723042157
 20
298.4485344033
 30
0.0
 10
143.390133959
 20
298.4557107288
 30
0.0
  0
SPLINE
  5
4CE
100
AcDbEntity
  8
0
100
AcDbSpline
 62
7
  6
CONTINUOUS
 70
0
 71
3
 72
8
 73
4
 74
0
 42
0.0000001
 43
0.0000001
 44
0.0000000001
 40
0.0
 40
0.0
 40
0.0
 40
0.0
 40
1.0
 40
1.0
 40
1.0
 40
1.0
 10
139.9267509302
 20
298.1260827718
 30
0.0
 10
139.9091064901
 20
298.1204447777
 30
0.0
 10
139.8904286573
 20
298.1169407887
 30
0.0
 10
139.871906343
 20
298.1171334453
 30
0.0
  0
SPLINE
  5
4CF
100
AcDbEntity
  8
0
100
AcDbSpline
 62
7
  6
CONTINUOUS
 70
0
 71
3
 72
8
 73
4
 74
0
 42
0.0000001
 43
0.0000001
 44
0.0000000001
 40
0.0
 40
0.0
 40
0.0
 40
0.0
 40
1.0
 40
1.0
 40
1.0
 40
1.0
 10
139.8532535741
 20
298.117149447
 30
0.0
 10
139.859461925
 20
298.1168105845
 30
0.0
 10
139.8656962545
 20
298.1168280759
 30
0.0
 10
139.871906343
 20
298.1171334453
 30
0.0
  0
SPLINE
  5
4D0
100
AcDbEntity
  8
0
100
AcDbSpline
 62
7
  6
CONTINUOUS
 70
0
 71
3
 72
11
 73
7
 74
0
 42
0.0000001
 43
0.0000001
 44
0.0000000001
 40
0.0
 40
0.0
 40
0.0
 40
0.0
 40
0.1797336583
 40
0.4999912504
 40
0.8202278069
 40
1.0
 40
1.0
 40
1.0
 40
1.0
 10
134.8371143596
 20
298.1269095836
 30
0.0
 10
134.5515430144
 20
298.2208796925
 30
0.0
 10
133.7404916379
 20
298.4326426203
 30
0.0
 10
132.3660085451
 20
298.5716318611
 30
0.0
 10
130.9914590344
 20
298.4326796945
 30
0.0
 10
130.1803717516
 20
298.2209327989
 30
0.0
 10
129.8947385659
 20
298.1269444096
 30
0.0
  0
SPLINE
  5
4D1
100
AcDbEntity
  8
0
100
AcDbSpline
 62
7
  6
CONTINUOUS
 70
0
 71
3
 72
14
 73
10
 74
0
 42
0.0000001
 43
0.0000001
 44
0.0000000001
 40
0.0
 40
0.0
 40
0.0
 40
0.0
 40
0.3896621499
 40
0.5477351924
 40
0.6805985013
 40
0.7890343115
 40
0.8752849722
 40
0.943251872
 40
1.0
 40
1.0
 40
1.0
 40
1.0
 10
146.1216301493
 20
303.8047306238
 30
0.0
 10
146.1554820665
 20
303.5327868465
 30
0.0
 10
146.2213305498
 20
303.1517194657
 30
0.0
 10
146.3571072962
 20
302.6922453292
 30
0.0
 10
146.4610319216
 20
302.4307824257
 30
0.0
 10
146.5712800455
 20
302.2276624184
 30
0.0
 10
146.6860619343
 20
302.0814379154
 30
0.0
 10
146.8056270361
 20
301.9895741785
 30
0.0
 10
146.893871232
 20
301.9667597348
 30
0.0
 10
146.9337812078
 20
301.9667594669
 30
0.0
  0
SPLINE
  5
4D2
100
AcDbEntity
  8
0
100
AcDbSpline
 62
7
  6
CONTINUOUS
 70
0
 71
3
 72
14
 73
10
 74
0
 42
0.0000001
 43
0.0000001
 44
0.0000000001
 40
0.0
 40
0.0
 40
0.0
 40
0.0
 40
0.0567481754
 40
0.1247151082
 40
0.2109657836
 40
0.3194015905
 40
0.452264881
 40
0.6103378959
 40
1.0
 40
1.0
 40
1.0
 40
1.0
 10
117.7979632962
 20
301.9667594717
 30
0.0
 10
117.8378732222
 20
301.9667597377
 30
0.0
 10
117.9261172931
 20
301.9895741149
 30
0.0
 10
118.0456822585
 20
302.081437622
 30
0.0
 10
118.1604640235
 20
302.2276617707
 30
0.0
 10
118.27071204
 20
302.4307812828
 30
0.0
 10
118.3746365849
 20
302.69224355
 30
0.0
 10
118.5104132819
 20
303.1517165924
 30
0.0
 10
118.5762618184
 20
303.5327830933
 30
0.0
 10
118.6101138103
 20
303.804726253
 30
0.0
  0
LINE
  5
4D3
100
AcDbEntity
  8
0
100
AcDbLine
 62
7
  6
CONTINUOUS
 10
677.1658722518
 20
322.5063587539
 11
677.1274524319
 21
322.594309668
  0
SPLINE
  5
4D4
100
AcDbEntity
  8
0
100
AcDbSpline
 62
7
  6
CONTINUOUS
 70
0
 71
3
 72
8
 73
4
 74
0
 42
0.0000001
 43
0.0000001
 44
0.0000000001
 40
0.0
 40
0.0
 40
0.0
 40
0.0
 40
1.0
 40
1.0
 40
1.0
 40
1.0
 10
677.1274524319
 20
322.594309668
 30
0.0
 10
677.0651150354
 20
322.7368211805
 30
0.0
 10
677.002364989
 20
322.8792009297
 30
0.0
 10
676.935664486
 20
323.0197232592
 30
0.0
  0
SPLINE
  5
4D5
100
AcDbEntity
  8
0
100
AcDbSpline
 62
7
  6
CONTINUOUS
 70
0
 71
3
 72
9
 73
5
 74
0
 42
0.0000001
 43
0.0000001
 44
0.0000000001
 40
0.0
 40
0.0
 40
0.0
 40
0.0
 40
0.2884372443
 40
1.0
 40
1.0
 40
1.0
 40
1.0
 10
676.935664486
 20
323.0197232592
 30
0.0
 10
676.9062654305
 20
323.0816601799
 30
0.0
 10
676.8011369662
 20
323.2942647343
 30
0.0
 10
676.682960764
 20
323.504546688
 30
0.0
 10
676.5716505634
 20
323.631891339
 30
0.0
  0
SPLINE
  5
4D6
100
AcDbEntity
  8
0
100
AcDbSpline
 62
7
  6
CONTINUOUS
 70
0
 71
3
 72
8
 73
4
 74
0
 42
0.0000001
 43
0.0000001
 44
0.0000000001
 40
0.0
 40
0.0
 40
0.0
 40
0.0
 40
1.0
 40
1.0
 40
1.0
 40
1.0
 10
676.5716505634
 20
323.631891339
 30
0.0
 10
676.54401445
 20
323.6635084882
 30
0.0
 10
676.5142793031
 20
323.6935854636
 30
0.0
 10
676.4817588174
 20
323.7201526784
 30
0.0
  0
SPLINE
  5
4D7
100
AcDbEntity
  8
0
100
AcDbSpline
 62
7
  6
CONTINUOUS
 70
0
 71
3
 72
8
 73
4
 74
0
 42
0.0000001
 43
0.0000001
 44
0.0000000001
 40
0.0
 40
0.0
 40
0.0
 40
0.0
 40
1.0
 40
1.0
 40
1.0
 40
1.0
 10
676.4817588174
 20
323.7201526784
 30
0.0
 10
676.4237744915
 20
323.7675222674
 30
0.0
 10
676.3492124543
 20
323.8063683663
 30
0.0
 10
676.2743388279
 20
323.8063587578
 30
0.0
  0
LINE
  5
4D8
100
AcDbEntity
  8
0
100
AcDbLine
 62
7
  6
CONTINUOUS
 10
83.5658722518
 20
322.5063587539
 11
83.604168612
 21
322.5940296194
  0
SPLINE
  5
4D9
100
AcDbEntity
  8
0
100
AcDbSpline
 62
7
  6
CONTINUOUS
 70
0
 71
3
 72
8
 73
4
 74
0
 42
0.0000001
 43
0.0000001
 44
0.0000000001
 40
0.0
 40
0.0
 40
0.0
 40
0.0
 40
1.0
 40
1.0
 40
1.0
 40
1.0
 10
83.604168612
 20
322.5940296194
 30
0.0
 10
83.6662474672
 20
322.7359585644
 30
0.0
 10
83.7287302173
 20
322.877758791
 30
0.0
 10
83.795125324
 20
323.0177205697
 30
0.0
  0
SPLINE
  5
4DA
100
AcDbEntity
  8
0
100
AcDbSpline
 62
7
  6
CONTINUOUS
 70
0
 71
3
 72
9
 73
5
 74
0
 42
0.0000001
 43
0.0000001
 44
0.0000000001
 40
0.0
 40
0.0
 40
0.0
 40
0.0
 40
0.2876620001
 40
1.0
 40
1.0
 40
1.0
 40
1.0
 10
83.795125324
 20
323.0177205697
 30
0.0
 10
83.8242481255
 20
323.0791118272
 30
0.0
 10
83.928638028
 20
323.290461755
 30
0.0
 10
84.0458109852
 20
323.4993785184
 30
0.0
 10
84.1557096379
 20
323.6267920551
 30
0.0
  0
SPLINE
  5
4DB
100
AcDbEntity
  8
0
100
AcDbSpline
 62
7
  6
CONTINUOUS
 70
0
 71
3
 72
8
 73
4
 74
0
 42
0.0000001
 43
0.0000001
 44
0.0000000001
 40
0.0
 40
0.0
 40
0.0
 40
0.0
 40
1.0
 40
1.0
 40
1.0
 40
1.0
 10
84.1557096379
 20
323.6267920551
 30
0.0
 10
84.1821647736
 20
323.6574634266
 30
0.0
 10
84.2105196948
 20
323.686734722
 30
0.0
 10
84.2413942719
 20
323.7129524206
 30
0.0
  0
SPLINE
  5
4DC
100
AcDbEntity
  8
0
100
AcDbSpline
 62
7
  6
CONTINUOUS
 70
0
 71
3
 72
8
 73
4
 74
0
 42
0.0000001
 43
0.0000001
 44
0.0000000001
 40
0.0
 40
0.0
 40
0.0
 40
0.0
 40
1.0
 40
1.0
 40
1.0
 40
1.0
 10
84.2413942719
 20
323.7129524206
 30
0.0
 10
84.3011850305
 20
323.7637248115
 30
0.0
 10
84.3789412522
 20
323.8063713909
 30
0.0
 10
84.4573808489
 20
323.8063586997
 30
0.0
  0
SPLINE
  5
4DD
100
AcDbEntity
  8
0
100
AcDbSpline
 62
7
  6
CONTINUOUS
 70
0
 71
3
 72
8
 73
4
 74
0
 42
0.0000001
 43
0.0000001
 44
0.0000000001
 40
0.0
 40
0.0
 40
0.0
 40
0.0
 40
1.0
 40
1.0
 40
1.0
 40
1.0
 10
668.3337674866
 20
304.3287729738
 30
0.0
 10
668.474881059
 20
304.4674412819
 30
0.0
 10
668.6044534858
 20
304.6180087252
 30
0.0
 10
668.7271879819
 20
304.7731801898
 30
0.0
  0
SPLINE
  5
4DE
100
AcDbEntity
  8
0
100
AcDbSpline
 62
7
  6
CONTINUOUS
 70
0
 71
3
 72
8
 73
4
 74
0
 42
0.0000001
 43
0.0000001
 44
0.0000000001
 40
0.0
 40
0.0
 40
0.0
 40
0.0
 40
1.0
 40
1.0
 40
1.0
 40
1.0
 10
668.7937704625
 20
304.8587150884
 30
0.0
 10
668.9411422205
 20
305.0509712251
 30
0.0
 10
669.0796673792
 20
305.250026063
 30
0.0
 10
669.2142396476
 20
305.451448906
 30
0.0
  0
SPLINE
  5
4DF
100
AcDbEntity
  8
0
100
AcDbSpline
 62
7
  6
CONTINUOUS
 70
0
 71
3
 72
8
 73
4
 74
0
 42
0.0000001
 43
0.0000001
 44
0.0000000001
 40
0.0
 40
0.0
 40
0.0
 40
0.0
 40
1.0
 40
1.0
 40
1.0
 40
1.0
 10
669.2142396476
 20
305.451448906
 30
0.0
 10
669.3806008209
 20
305.7004522178
 30
0.0
 10
669.540901138
 20
305.9534681037
 30
0.0
 10
669.7012913132
 20
306.2063587539
 30
0.0
  0
SPLINE
  5
4E0
100
AcDbEntity
  8
0
100
AcDbSpline
 62
7
  6
CONTINUOUS
 70
0
 71
3
 72
8
 73
4
 74
0
 42
0.0000001
 43
0.0000001
 44
0.0000000001
 40
0.0
 40
0.0
 40
0.0
 40
0.0
 40
1.0
 40
1.0
 40
1.0
 40
1.0
 10
91.0304531904
 20
306.2063587539
 30
0.0
 10
91.1908433657
 20
305.9534681037
 30
0.0
 10
91.3511436827
 20
305.7004522178
 30
0.0
 10
91.517504856
 20
305.451448906
 30
0.0
  0
SPLINE
  5
4E1
100
AcDbEntity
  8
0
100
AcDbSpline
 62
7
  6
CONTINUOUS
 70
0
 71
3
 72
8
 73
4
 74
0
 42
0.0000001
 43
0.0000001
 44
0.0000000001
 40
0.0
 40
0.0
 40
0.0
 40
0.0
 40
1.0
 40
1.0
 40
1.0
 40
1.0
 10
91.517504856
 20
305.451448906
 30
0.0
 10
91.672132056
 20
305.2200085759
 30
0.0
 10
91.8318836891
 20
304.9914879777
 30
0.0
 10
92.0045565217
 20
304.7731801898
 30
0.0
  0
SPLINE
  5
4E2
100
AcDbEntity
  8
0
100
AcDbSpline
 62
7
  6
CONTINUOUS
 70
0
 71
3
 72
8
 73
4
 74
0
 42
0.0000001
 43
0.0000001
 44
0.0000000001
 40
0.0
 40
0.0
 40
0.0
 40
0.0
 40
1.0
 40
1.0
 40
1.0
 40
1.0
 10
92.1516904988
 20
304.5941606403
 30
0.0
 10
92.2301999247
 20
304.5025005842
 30
0.0
 10
92.3118960239
 20
304.4133623258
 30
0.0
 10
92.3979770169
 20
304.3287729738
 30
0.0
  0
SPLINE
  5
4E3
100
AcDbEntity
  8
0
100
AcDbSpline
 62
7
  6
CONTINUOUS
 70
0
 71
3
 72
9
 73
5
 74
0
 42
0.0000001
 43
0.0000001
 44
0.0000000001
 40
0.0
 40
0.0
 40
0.0
 40
0.0
 40
0.313803102
 40
1.0
 40
1.0
 40
1.0
 40
1.0
 10
92.4916081874
 20
304.2403938476
 30
0.0
 10
92.5404718177
 20
304.1752734114
 30
0.0
 10
92.7008463798
 20
303.9778051734
 30
0.0
 10
92.9445592458
 20
303.8063587539
 30
0.0
 10
93.1225893451
 20
303.8063587539
 30
0.0
  0
SPLINE
  5
4E4
100
AcDbEntity
  8
0
100
AcDbSpline
 62
7
  6
CONTINUOUS
 70
0
 71
3
 72
9
 73
5
 74
0
 42
0.0000001
 43
0.0000001
 44
0.0000000001
 40
0.0
 40
0.0
 40
0.0
 40
0.0
 40
0.2043650434
 40
1.0
 40
1.0
 40
1.0
 40
1.0
 10
667.6091551585
 20
303.8063587539
 30
0.0
 10
667.6625479096
 20
303.8063587539
 30
0.0
 10
667.9252079686
 20
303.857893048
 30
0.0
 10
668.115376894
 20
304.0741272815
 30
0.0
 10
668.2401363162
 20
304.2403938476
 30
0.0
  0
SPLINE
  5
4E5
100
AcDbEntity
  8
0
100
AcDbSpline
 62
7
  6
CONTINUOUS
 70
0
 71
3
 72
8
 73
4
 74
0
 42
0.0000001
 43
0.0000001
 44
0.0000000001
 40
0.0
 40
0.0
 40
0.0
 40
0.0
 40
1.0
 40
1.0
 40
1.0
 40
1.0
 10
660.3459853219
 20
620.8307565164
 30
0.0
 10
660.5054668185
 20
620.9869761955
 30
0.0
 10
660.6648892831
 20
621.1434325273
 30
0.0
 10
660.8305296825
 20
621.2931061521
 30
0.0
  0
SPLINE
  5
4E6
100
AcDbEntity
  8
0
100
AcDbSpline
 62
7
  6
CONTINUOUS
 70
0
 71
3
 72
9
 73
5
 74
0
 42
0.0000001
 43
0.0000001
 44
0.0000000001
 40
0.0
 40
0.0
 40
0.0
 40
0.0
 40
0.2659161869
 40
1.0
 40
1.0
 40
1.0
 40
1.0
 10
660.8305296825
 20
621.2931061521
 30
0.0
 10
660.8896511562
 20
621.3465286583
 30
0.0
 10
661.1149115178
 20
621.5437099486
 30
0.0
 10
661.3572311065
 20
621.7248343776
 30
0.0
 10
661.5506740032
 20
621.8295569662
 30
0.0
  0
SPLINE
  5
4E7
100
AcDbEntity
  8
0
100
AcDbSpline
 62
7
  6
CONTINUOUS
 70
0
 71
3
 72
9
 73
5
 74
0
 42
0.0000001
 43
0.0000001
 44
0.0000000001
 40
0.0
 40
0.0
 40
0.0
 40
0.0
 40
0.2660347177
 40
1.0
 40
1.0
 40
1.0
 40
1.0
 10
661.5506740032
 20
621.8295569662
 30
0.0
 10
661.6092712109
 20
621.8612792541
 30
0.0
 10
661.8344340337
 20
621.9703379219
 30
0.0
 10
662.0865480813
 20
622.0307574865
 30
0.0
 10
662.2703819687
 20
622.0307574865
 30
0.0
  0
SPLINE
  5
4E8
100
AcDbEntity
  8
0
100
AcDbSpline
 62
7
  6
CONTINUOUS
 70
0
 71
3
 72
8
 73
4
 74
0
 42
0.0000001
 43
0.0000001
 44
0.0000000001
 40
0.0
 40
0.0
 40
0.0
 40
0.0
 40
1.0
 40
1.0
 40
1.0
 40
1.0
 10
83.0146655638
 20
779.0307574865
 30
0.0
 10
82.8665880728
 20
779.0307574865
 30
0.0
 10
82.7164940173
 20
778.9904095464
 30
0.0
 10
82.582761212
 20
778.9268290455
 30
0.0
  0
SPLINE
  5
4E9
100
AcDbEntity
  8
0
100
AcDbSpline
 62
7
  6
CONTINUOUS
 70
0
 71
3
 72
9
 73
5
 74
0
 42
0.0000001
 43
0.0000001
 44
0.0000000001
 40
0.0
 40
0.0
 40
0.0
 40
0.0
 40
0.2225138537
 40
1.0
 40
1.0
 40
1.0
 40
1.0
 10
82.582761212
 20
778.9268290455
 30
0.0
 10
82.5249707311
 20
778.8993537547
 30
0.0
 10
82.2746423282
 20
778.75587201
 30
0.0
 10
82.0642683193
 20
778.552567552
 30
0.0
 10
81.9146727963
 20
778.3864004375
 30
0.0
  0
SPLINE
  5
4EA
100
AcDbEntity
  8
0
100
AcDbSpline
 62
7
  6
CONTINUOUS
 70
0
 71
3
 72
9
 73
5
 74
0
 42
0.0000001
 43
0.0000001
 44
0.0000000001
 40
0.0
 40
0.0
 40
0.0
 40
0.0
 40
0.2297921495
 40
1.0
 40
1.0
 40
1.0
 40
1.0
 10
81.9146727963
 20
778.3864004375
 30
0.0
 10
81.8478904884
 20
778.3122202536
 30
0.0
 10
81.5688542231
 20
777.978945731
 30
0.0
 10
81.3242301852
 20
777.6187830677
 30
0.0
 10
81.1410656479
 20
777.338830943
 30
0.0
  0
SPLINE
  5
4EB
100
AcDbEntity
  8
0
100
AcDbSpline
 62
7
  6
CONTINUOUS
 70
0
 71
3
 72
8
 73
4
 74
0
 42
0.0000001
 43
0.0000001
 44
0.0000000001
 40
0.0
 40
0.0
 40
0.0
 40
0.0
 40
1.0
 40
1.0
 40
1.0
 40
1.0
 10
81.1410656479
 20
777.338830943
 30
0.0
 10
81.0308571868
 20
777.1703862577
 30
0.0
 10
80.9227666575
 20
777.0005622875
 30
0.0
 10
80.8146655638
 20
776.8307574865
 30
0.0
  0
SPLINE
  5
4EC
100
AcDbEntity
  8
0
100
AcDbSpline
 62
7
  6
CONTINUOUS
 70
0
 71
3
 72
8
 73
4
 74
0
 42
0.0000001
 43
0.0000001
 44
0.0000000001
 40
0.0
 40
0.0
 40
0.0
 40
0.0
 40
1.0
 40
1.0
 40
1.0
 40
1.0
 10
680.8146655638
 20
776.8307574865
 30
0.0
 10
680.7065647692
 20
777.0005618175
 30
0.0
 10
680.5984745406
 20
777.1703853186
 30
0.0
 10
680.4882663969
 20
777.3388295459
 30
0.0
  0
SPLINE
  5
4ED
100
AcDbEntity
  8
0
100
AcDbSpline
 62
7
  6
CONTINUOUS
 70
0
 71
3
 72
9
 73
5
 74
0
 42
0.0000001
 43
0.0000001
 44
0.0000000001
 40
0.0
 40
0.0
 40
0.0
 40
0.0
 40
0.2677421965
 40
1.0
 40
1.0
 40
1.0
 40
1.0
 10
680.4882663969
 20
777.3388295459
 30
0.0
 10
680.4246091202
 20
777.4361245408
 30
0.0
 10
680.1840717225
 20
777.7974089976
 30
0.0
 10
679.9274306473
 20
778.150055618
 30
0.0
 10
679.7146727963
 20
778.3863843727
 30
0.0
  0
SPLINE
  5
4EE
100
AcDbEntity
  8
0
100
AcDbSpline
 62
7
  6
CONTINUOUS
 70
0
 71
3
 72
9
 73
5
 74
0
 42
0.0000001
 43
0.0000001
 44
0.0000000001
 40
0.0
 40
0.0
 40
0.0
 40
0.0
 40
0.2795770067
 40
1.0
 40
1.0
 40
1.0
 40
1.0
 10
679.7146727963
 20
778.3863843727
 30
0.0
 10
679.660927484
 20
778.446083992
 30
0.0
 10
679.4630074947
 20
778.6534225301
 30
0.0
 10
679.2335120933
 20
778.8379507895
 30
0.0
 10
679.0465721481
 20
778.9268279587
 30
0.0
  0
SPLINE
  5
4EF
100
AcDbEntity
  8
0
100
AcDbSpline
 62
7
  6
CONTINUOUS
 70
0
 71
3
 72
8
 73
4
 74
0
 42
0.0000001
 43
0.0000001
 44
0.0000000001
 40
0.0
 40
0.0
 40
0.0
 40
0.0
 40
1.0
 40
1.0
 40
1.0
 40
1.0
 10
679.0465721481
 20
778.9268279587
 30
0.0
 10
678.9128387326
 20
778.9904090589
 30
0.0
 10
678.762743863
 20
779.0307574865
 30
0.0
 10
678.6146655638
 20
779.0307574865
 30
0.0
  0
SPLINE
  5
4F0
100
AcDbEntity
  8
0
100
AcDbSpline
 62
7
  6
CONTINUOUS
 70
0
 71
3
 72
8
 73
4
 74
0
 42
0.0000001
 43
0.0000001
 44
0.0000000001
 40
0.0
 40
0.0
 40
0.0
 40
0.0
 40
1.0
 40
1.0
 40
1.0
 40
1.0
 10
678.6146655638
 20
622.0307574865
 30
0.0
 10
678.7627430547
 20
622.0307574865
 30
0.0
 10
678.9128371102
 20
622.0711054265
 30
0.0
 10
679.0465699156
 20
622.1346859274
 30
0.0
  0
SPLINE
  5
4F1
100
AcDbEntity
  8
0
100
AcDbSpline
 62
7
  6
CONTINUOUS
 70
0
 71
3
 72
9
 73
5
 74
0
 42
0.0000001
 43
0.0000001
 44
0.0000000001
 40
0.0
 40
0.0
 40
0.0
 40
0.0
 40
0.2225138537
 40
1.0
 40
1.0
 40
1.0
 40
1.0
 10
679.0465699156
 20
622.1346859274
 30
0.0
 10
679.1043603964
 20
622.1621612182
 30
0.0
 10
679.3546887993
 20
622.3056429629
 30
0.0
 10
679.5650628082
 20
622.508947421
 30
0.0
 10
679.7146583312
 20
622.6751145355
 30
0.0
  0
SPLINE
  5
4F2
100
AcDbEntity
  8
0
100
AcDbSpline
 62
7
  6
CONTINUOUS
 70
0
 71
3
 72
9
 73
5
 74
0
 42
0.0000001
 43
0.0000001
 44
0.0000000001
 40
0.0
 40
0.0
 40
0.0
 40
0.0
 40
0.2297921495
 40
1.0
 40
1.0
 40
1.0
 40
1.0
 10
679.7146583312
 20
622.6751145355
 30
0.0
 10
679.7814406391
 20
622.7492947194
 30
0.0
 10
680.0604769044
 20
623.082569242
 30
0.0
 10
680.3051009423
 20
623.4427319053
 30
0.0
 10
680.4882654796
 20
623.72268403
 30
0.0
  0
SPLINE
  5
4F3
100
AcDbEntity
  8
0
100
AcDbSpline
 62
7
  6
CONTINUOUS
 70
0
 71
3
 72
8
 73
4
 74
0
 42
0.0000001
 43
0.0000001
 44
0.0000000001
 40
0.0
 40
0.0
 40
0.0
 40
0.0
 40
1.0
 40
1.0
 40
1.0
 40
1.0
 10
680.4882654796
 20
623.72268403
 30
0.0
 10
680.5984739407
 20
623.8911287153
 30
0.0
 10
680.70656447
 20
624.0609526855
 30
0.0
 10
680.8146655638
 20
624.2307574865
 30
0.0
  0
SPLINE
  5
4F4
100
AcDbEntity
  8
0
100
AcDbSpline
 62
7
  6
CONTINUOUS
 70
0
 71
3
 72
8
 73
4
 74
0
 42
0.0000001
 43
0.0000001
 44
0.0000000001
 40
0.0
 40
0.0
 40
0.0
 40
0.0
 40
1.0
 40
1.0
 40
1.0
 40
1.0
 10
80.8146655638
 20
624.2307574865
 30
0.0
 10
80.9227663583
 20
624.0609531554
 30
0.0
 10
81.0308565869
 20
623.8911296543
 30
0.0
 10
81.1410647306
 20
623.7226854271
 30
0.0
  0
SPLINE
  5
4F5
100
AcDbEntity
  8
0
100
AcDbSpline
 62
7
  6
CONTINUOUS
 70
0
 71
3
 72
9
 73
5
 74
0
 42
0.0000001
 43
0.0000001
 44
0.0000000001
 40
0.0
 40
0.0
 40
0.0
 40
0.0
 40
0.2677421965
 40
1.0
 40
1.0
 40
1.0
 40
1.0
 10
81.1410647306
 20
623.7226854271
 30
0.0
 10
81.2047220073
 20
623.6253904322
 30
0.0
 10
81.445259405
 20
623.2641059754
 30
0.0
 10
81.7019004802
 20
622.9114593549
 30
0.0
 10
81.9146583312
 20
622.6751306003
 30
0.0
  0
SPLINE
  5
4F6
100
AcDbEntity
  8
0
100
AcDbSpline
 62
7
  6
CONTINUOUS
 70
0
 71
3
 72
9
 73
5
 74
0
 42
0.0000001
 43
0.0000001
 44
0.0000000001
 40
0.0
 40
0.0
 40
0.0
 40
0.0
 40
0.273927725
 40
1.0
 40
1.0
 40
1.0
 40
1.0
 10
82.0506431731
 20
622.5316841847
 30
0.0
 10
82.0936640789
 20
622.4887702506
 30
0.0
 10
82.2548239269
 20
622.3367536489
 30
0.0
 10
82.4372978376
 20
622.2038438469
 30
0.0
 10
82.5827589795
 20
622.1346870143
 30
0.0
  0
SPLINE
  5
4F7
100
AcDbEntity
  8
0
100
AcDbSpline
 62
7
  6
CONTINUOUS
 70
0
 71
3
 72
8
 73
4
 74
0
 42
0.0000001
 43
0.0000001
 44
0.0000000001
 40
0.0
 40
0.0
 40
0.0
 40
0.0
 40
1.0
 40
1.0
 40
1.0
 40
1.0
 10
82.5827589795
 20
622.1346870143
 30
0.0
 10
82.7164923949
 20
622.0711059141
 30
0.0
 10
82.8665872645
 20
622.0307574865
 30
0.0
 10
83.0146655638
 20
622.0307574865
 30
0.0
  0
SPLINE
  5
4F8
100
AcDbEntity
  8
0
100
AcDbSpline
 62
7
  6
CONTINUOUS
 70
0
 71
3
 72
9
 73
5
 74
0
 42
0.0000001
 43
0.0000001
 44
0.0000000001
 40
0.0
 40
0.0
 40
0.0
 40
0.0
 40
0.7389023352
 40
1.0
 40
1.0
 40
1.0
 40
1.0
 10
98.3884715556
 20
622.0307574865
 30
0.0
 10
98.6124086897
 20
622.0307574865
 30
0.0
 10
98.9172889089
 20
621.9724697033
 30
0.0
 10
99.1991212874
 20
621.861440392
 30
0.0
 10
99.2715075087
 20
621.8294745073
 30
0.0
  0
SPLINE
  5
4F9
100
AcDbEntity
  8
0
100
AcDbSpline
 62
7
  6
CONTINUOUS
 70
0
 71
3
 72
9
 73
5
 74
0
 42
0.0000001
 43
0.0000001
 44
0.0000000001
 40
0.0
 40
0.0
 40
0.0
 40
0.0
 40
0.2377316485
 40
1.0
 40
1.0
 40
1.0
 40
1.0
 10
99.2715075087
 20
621.8294745073
 30
0.0
 10
99.3464931553
 20
621.7963607118
 30
0.0
 10
99.655948761
 20
621.6434313988
 30
0.0
 10
99.9429122028
 20
621.4490945502
 30
0.0
 10
100.1545434617
 20
621.2932257586
 30
0.0
  0
SPLINE
  5
4FA
100
AcDbEntity
  8
0
100
AcDbSpline
 62
7
  6
CONTINUOUS
 70
0
 71
3
 72
8
 73
4
 74
0
 42
0.0000001
 43
0.0000001
 44
0.0000000001
 40
0.0
 40
0.0
 40
0.0
 40
0.0
 40
1.0
 40
1.0
 40
1.0
 40
1.0
 10
100.1545434617
 20
621.2932257586
 30
0.0
 10
100.3000823284
 20
621.1860347538
 30
0.0
 10
100.4425063136
 20
621.0746310867
 30
0.0
 10
100.5840815172
 20
620.9622570017
 30
0.0
  0
SPLINE
  5
4FB
100
AcDbEntity
  8
0
100
AcDbSpline
 62
7
  6
CONTINUOUS
 70
0
 71
3
 72
9
 73
5
 74
0
 42
0.0000001
 43
0.0000001
 44
0.0000000001
 40
0.0
 40
0.0
 40
0.0
 40
0.0
 40
0.2396456247
 40
1.0
 40
1.0
 40
1.0
 40
1.0
 10
98.7552689078
 20
330.0166553653
 30
0.0
 10
98.8838493775
 20
330.0166553653
 30
0.0
 10
99.4209213967
 20
329.9764379603
 30
0.0
 10
99.93527768
 20
329.776239535
 30
0.0
 10
100.2953186796
 20
329.5843935472
 30
0.0
  0
SPLINE
  5
4FC
100
AcDbEntity
  8
0
100
AcDbSpline
 62
7
  6
CONTINUOUS
 70
0
 71
3
 72
8
 73
4
 74
0
 42
0.0000001
 43
0.0000001
 44
0.0000000001
 40
0.0
 40
0.0
 40
0.0
 40
0.0
 40
1.0
 40
1.0
 40
1.0
 40
1.0
 10
100.3878134143
 20
329.5339435022
 30
0.0
 10
100.5979078746
 20
329.4167546914
 30
0.0
 10
100.8008407135
 20
329.286552059
 30
0.0
 10
100.999082662
 20
329.1502691566
 30
0.0
  0
SPLINE
  5
4FD
100
AcDbEntity
  8
0
100
AcDbSpline
 62
7
  6
CONTINUOUS
 70
0
 71
3
 72
8
 73
4
 74
0
 42
0.0000001
 43
0.0000001
 44
0.0000000001
 40
0.0
 40
0.0
 40
0.0
 40
0.0
 40
1.0
 40
1.0
 40
1.0
 40
1.0
 10
660.1314551536
 20
329.1502691566
 30
0.0
 10
660.3585904512
 20
329.3064150068
 30
0.0
 10
660.5919667552
 20
329.454777772
 30
0.0
 10
660.835219136
 20
329.5843935472
 30
0.0
  0
SPLINE
  5
4FE
100
AcDbEntity
  8
0
100
AcDbSpline
 62
7
  6
CONTINUOUS
 70
0
 71
3
 72
8
 73
4
 74
0
 42
0.0000001
 43
0.0000001
 44
0.0000000001
 40
0.0
 40
0.0
 40
0.0
 40
0.0
 40
1.0
 40
1.0
 40
1.0
 40
1.0
 10
660.835219136
 20
329.5843935472
 30
0.0
 10
661.0805373512
 20
329.7151100916
 30
0.0
 10
661.3381780362
 20
329.8274911136
 30
0.0
 10
661.6053186796
 20
329.9043267716
 30
0.0
  0
SPLINE
  5
4FF
100
AcDbEntity
  8
0
100
AcDbSpline
 62
7
  6
CONTINUOUS
 70
0
 71
3
 72
8
 73
4
 74
0
 42
0.0000001
 43
0.0000001
 44
0.0000000001
 40
0.0
 40
0.0
 40
0.0
 40
0.0
 40
1.0
 40
1.0
 40
1.0
 40
1.0
 10
661.6053186796
 20
329.9043267716
 30
0.0
 10
661.8545802117
 20
329.976019995
 30
0.0
 10
662.1159019291
 20
330.0166553653
 30
0.0
 10
662.3752689078
 20
330.0166553653
 30
0.0
  0
ENDSEC
  0
SECTION
  2
OBJECTS
  0
DICTIONARY
  5
C
100
AcDbDictionary
280
0
281
1
  3
ACAD_GROUP
350
D
  3
ACAD_MLINESTYLE
350
17
  3
ACAD_LAYOUT
350
1A
  3
ACAD_PLOTSETTINGS
350
19
  3
ACAD_PLOTSTYLENAME
350
E
  0
DICTIONARY
  5
D
102
{ACAD_REACTORS
330
C
102
}
100
AcDbDictionary
280
0
281
1
  0
ACDBDICTIONARYWDFLT
  5
E
102
{ACAD_REACTORS
330
C
102
}
100
AcDbDictionary
281
1
  3
Normal
350
F
100
AcDbDictionaryWithDefault
340
F
  0
DICTIONARY
  5
17
102
{ACAD_REACTORS
330
C
102
}
100
AcDbDictionary
280
0
281
1
  3
Standard
350
18
  0
DICTIONARY
  5
19
102
{ACAD_REACTORS
330
C
102
}
100
AcDbDictionary
281
1
  0
DICTIONARY
  5
1A
102
{ACAD_REACTORS
330
C
102
}
100
AcDbDictionary
281
1
  3
Model
350
500
  3
Layout1
350
501
  0
ACDBPLACEHOLDER
  5
F
102
{ACAD_REACTORS
330
E
102
}
  0
MLINESTYLE
  5
18
102
{ACAD_REACTORS
330
17
102
}
100
AcDbMlineStyle
  2
STANDARD
 70
0
  3

 62
256
 51
90.0
 52
90.0
 71
2
 49
0.5
 62
256
  6
BYLAYER
 49
-0.5
 62
256
  6
BYLAYER
  0
LAYOUT
  5
500
102
{ACAD_REACTORS
330
1A
102
}
100
AcDbPlotSettings
  1

  2
none_device
  4

  6

 40
0.0
 41
0.0
 42
0.0
 43
0.0
 44
210.0
 45
297.0
 46
0.0
 47
0.0
 48
0.0
 49
0.0
140
0.0
141
0.0
142
1.0
143
1.0
 70
1024
 72
1
 73
0
 74
0
  7

 75
0
147
1.0
148
0.0
149
0.0
100
AcDbLayout
  1
Model
 70
0
 71
0
 10
0.0
 20
0.0
 11
210.0
 21
297.0
 12
0.0
 22
0.0
 32
0.0
 14
0.0
 24
0.0
 34
0.0
 15
0.0
 25
0.0
 35
0.0
146
0.0
 13
0.0
 23
0.0
 33
0.0
 16
1.0
 26
0.0
 36
0.0
 17
0.0
 27
1.0
 37
0.0
 76
0
330
210
345
0
346
0
  0
LAYOUT
  5
501
102
{ACAD_REACTORS
330
1A
102
}
100
AcDbPlotSettings
  1

  2
none_device
  4

  6

 40
0.0
 41
0.0
 42
0.0
 43
0.0
 44
210.0
 45
297.0
 46
0.0
 47
0.0
 48
0.0
 49
0.0
140
0.0
141
0.0
142
1.0
143
1.0
 70
0
 72
1
 73
0
 74
0
  7

 75
0
147
1.0
148
0.0
149
0.0
100
AcDbLayout
  1
Layout1
 70
0
 71
1
 10
0.0
 20
0.0
 11
210.0
 21
297.0
 12
0.0
 22
0.0
 32
0.0
 14
0.0
 24
0.0
 34
0.0
 15
0.0
 25
0.0
 35
0.0
146
0.0
 13
0.0
 23
0.0
 33
0.0
 16
1.0
 26
0.0
 36
0.0
 17
0.0
 27
1.0
 37
0.0
 76
0
330
211
345
0
346
0
  0
ENDSEC
  0
EOF
