999
DXF file: C:\Users\sesa63760\Dev\_Creo\CAD\MCADPD0004373_3D-CAD\drw0001_5.dxf
999
Pro/ENGINEER 2019471 by Parametric Technology Corporation
  0
SECTION
  2
HEADER
  9
$ACADVER
  1
AC1024
  9
$DWGCODEPAGE
  3
ANSI_1252
  9
$EXTMAX
 10
49.7931344054
 20
70.421718659
 30
0.0
  9
$EXTMIN
 10
0.0
 20
0.0
 30
0.0
  9
$LIMMIN
 10
0.0
 20
0.0
  9
$LIMMAX
 10
49.7931344054
 20
70.421718659
  9
$VIEWCTR
 10
24.8965672027
 20
35.2108593295
  9
$VIEWSIZE
 40
70.421718659
  9
$CLAYER
  8
0
  9
$LTSCALE
 40
4.5904527718
  9
$CELTYPE
  6
BYLAYER
  9
$DIMSCALE
 40
1.0
  9
$DIMASZ
 40
0.5927754096
  9
$DIMEXO
 40
1.0
  9
$DIMDLI
 40
3.1715855515
  9
$DIMEXE
 40
1.0
  9
$DIMCEN
 40
0.751164999
  9
$DIMLFAC
 40
1.0
  9
$DIMBLK
  1
_FILLED
  9
$DIMALT
 70
0
  9
$DIMALTF
 40
0.0393700787
  9
$DIMTXT
 40
0.8298855734
  9
$DIMTOL
 70
1
  9
$DIMLIM
 70
0
  9
$DIMTFAC
 40
1.0
  9
$DIMTP
 40
0.01
  9
$DIMTM
 40
0.01
  9
$DIMGAP
 40
0.625
  9
$DIMDSEP
 70
46
  9
$AUNITS
 70
0
  9
$PDMODE
 70
3
  9
$PDSIZE
 40
0.3125
  9
$HANDSEED
  5
24C
  9
$TILEMODE
 70
1
  9
$MEASUREMENT
 70
1
  9
$INSUNITS
 70
4
  0
ENDSEC
  0
SECTION
  2
CLASSES
  0
CLASS
  1
ACDBDICTIONARYWDFLT
  2
AcDbDictionaryWithDefault
  3
AutoCAD 2000
 90
0
 91
1
280
0
281
0
  0
CLASS
  1
ACDBPLACEHOLDER
  2
AcDbPlaceHolder
  3
AutoCAD 2000
 90
0
 91
1
280
0
281
0
  0
CLASS
  1
LAYOUT
  2
AcDbLayout
  3
AutoCAD 2000
 90
0
 91
0
280
0
281
0
  0
ENDSEC
  0
SECTION
  2
TABLES
  0
TABLE
  2
VPORT
  5
8
100
AcDbSymbolTable
 70
2
  0
VPORT
  5
1F4
100
AcDbSymbolTableRecord
100
AcDbViewportTableRecord
  2
*ACTIVE
 70
0
 10
0.0
 20
0.0
 11
1.0
 21
1.0
 12
24.8965672027
 22
35.2108593295
 13
0.0
 23
0.0
 14
1.0
 24
1.0
 15
0.0
 25
0.0
 16
0.0
 26
0.0
 36
1.0
 17
0.0
 27
0.0
 37
0.0
 40
70.421718659
 41
0.7070707071
 42
50.0
 43
0.0
 44
0.0
 50
0.0
 51
0.0
 71
0
 72
100
 73
1
 74
1
 75
0
 76
0
 77
0
 78
0
  0
ENDTAB
  0
TABLE
  2
LTYPE
  5
5
100
AcDbSymbolTable
 70
6
  0
LTYPE
  5
14
100
AcDbSymbolTableRecord
100
AcDbLinetypeTableRecord
  2
BYBLOCK
 70
0
  3

 72
65
 73
0
 40
0.0
  0
LTYPE
  5
15
100
AcDbSymbolTableRecord
100
AcDbLinetypeTableRecord
  2
BYLAYER
 70
0
  3

 72
65
 73
0
 40
0.0
  0
LTYPE
  5
16
100
AcDbSymbolTableRecord
100
AcDbLinetypeTableRecord
  2
CONTINUOUS
 70
64
  3
Solid line
 72
65
 73
0
 40
0.0
  0
LTYPE
  5
1F5
100
AcDbSymbolTableRecord
100
AcDbLinetypeTableRecord
  2
CENTER
 70
64
  3
____ _ ____ _ ____ _ ____ _ ____ _ ____ _ ____
 72
65
 73
4
 40
0.6
 49
0.375
 74
0
 49
-0.075
 74
0
 49
0.075
 74
0
 49
-0.075
 74
0
  0
LTYPE
  5
1F6
100
AcDbSymbolTableRecord
100
AcDbLinetypeTableRecord
  2
HIDDEN
 70
64
  3
- - - - - - - - - - - - - - - - - - - -
 72
65
 73
2
 40
0.2
 49
0.1
 74
0
 49
-0.1
 74
0
  0
LTYPE
  5
1F7
100
AcDbSymbolTableRecord
100
AcDbLinetypeTableRecord
  2
PHANTOM
 70
64
  3
_____ _ _ _____ _ _ _____ _ _ _____
 72
65
 73
6
 40
0.8
 49
0.45
 74
0
 49
-0.05
 74
0
 49
0.1
 74
0
 49
-0.05
 74
0
 49
0.1
 74
0
 49
-0.05
 74
0
  0
LTYPE
  5
1F8
100
AcDbSymbolTableRecord
100
AcDbLinetypeTableRecord
  2
DOT
 70
64
  3
. . . . . . . . . . . . . . . . . . . .
 72
65
 73
2
 40
0.2
 49
0.1
 74
0
 49
-0.1
 74
0
  0
LTYPE
  5
1F9
100
AcDbSymbolTableRecord
100
AcDbLinetypeTableRecord
  2
DASHED
 70
64
  3
- - - - - - - - - - - - - - - - - - - -
 72
65
 73
2
 40
0.2
 49
0.1
 74
0
 49
-0.1
 74
0
  0
ENDTAB
  0
TABLE
  2
LAYER
  5
2
100
AcDbSymbolTable
 70
36
  0
LAYER
  5
10
100
AcDbSymbolTableRecord
100
AcDbLayerTableRecord
  2
0
 70
0
 62
7
  6
CONTINUOUS
370
-3
390
F
  0
LAYER
  5
1FA
100
AcDbSymbolTableRecord
100
AcDbLayerTableRecord
  2
DEFAULT_1
 70
0
 62
7
  6
CENTER
370
-3
390
F
  0
LAYER
  5
1FB
100
AcDbSymbolTableRecord
100
AcDbLayerTableRecord
  2
DEFAULT_2
 70
0
 62
7
  6
HIDDEN
370
-3
390
F
  0
LAYER
  5
1FC
100
AcDbSymbolTableRecord
100
AcDbLayerTableRecord
  2
DEFAULT_3
 70
0
 62
7
  6
PHANTOM
370
-3
390
F
  0
LAYER
  5
1FD
100
AcDbSymbolTableRecord
100
AcDbLayerTableRecord
  2
00_COMPONENTS
 70
0
 62
7
  6
CONTINUOUS
370
-3
390
F
  0
LAYER
  5
1FE
100
AcDbSymbolTableRecord
100
AcDbLayerTableRecord
  2
00_COMPONENTS_1
 70
0
 62
7
  6
CONTINUOUS
370
-3
390
F
  0
LAYER
  5
1FF
100
AcDbSymbolTableRecord
100
AcDbLayerTableRecord
  2
01_1_DEFAULT_DATUMS
 70
0
 62
7
  6
CONTINUOUS
370
-3
390
F
  0
LAYER
  5
200
100
AcDbSymbolTableRecord
100
AcDbLayerTableRecord
  2
01_PLANES
 70
0
 62
7
  6
CONTINUOUS
370
-3
390
F
  0
LAYER
  5
201
100
AcDbSymbolTableRecord
100
AcDbLayerTableRecord
  2
02_COORD_SYS
 70
0
 62
7
  6
CONTINUOUS
370
-3
390
F
  0
LAYER
  5
202
100
AcDbSymbolTableRecord
100
AcDbLayerTableRecord
  2
03_AXES
 70
0
 62
7
  6
CONTINUOUS
370
-3
390
F
  0
LAYER
  5
203
100
AcDbSymbolTableRecord
100
AcDbLayerTableRecord
  2
03_AXES_1
 70
0
 62
7
  6
CONTINUOUS
370
-3
390
F
  0
LAYER
  5
204
100
AcDbSymbolTableRecord
100
AcDbLayerTableRecord
  2
04_POINTS
 70
0
 62
7
  6
CONTINUOUS
370
-3
390
F
  0
LAYER
  5
205
100
AcDbSymbolTableRecord
100
AcDbLayerTableRecord
  2
05_CURVES
 70
0
 62
7
  6
CONTINUOUS
370
-3
390
F
  0
LAYER
  5
206
100
AcDbSymbolTableRecord
100
AcDbLayerTableRecord
  2
06_SURFS
 70
0
 62
7
  6
CONTINUOUS
370
-3
390
F
  0
LAYER
  5
207
100
AcDbSymbolTableRecord
100
AcDbLayerTableRecord
  2
07_COSMETICS
 70
0
 62
7
  6
CONTINUOUS
370
-3
390
F
  0
LAYER
  5
208
100
AcDbSymbolTableRecord
100
AcDbLayerTableRecord
  2
10_NOTES
 70
0
 62
7
  6
CONTINUOUS
370
-3
390
F
  0
LAYER
  5
209
100
AcDbSymbolTableRecord
100
AcDbLayerTableRecord
  2
11_NOTES_PUB
 70
0
 62
7
  6
CONTINUOUS
370
-3
390
F
  0
LAYER
  5
20A
100
AcDbSymbolTableRecord
100
AcDbLayerTableRecord
  2
13_REF_GTOL
 70
0
 62
7
  6
CONTINUOUS
370
-3
390
F
  0
LAYER
  5
20B
100
AcDbSymbolTableRecord
100
AcDbLayerTableRecord
  2
16_MISC
 70
0
 62
7
  6
CONTINUOUS
370
-3
390
F
  0
LAYER
  5
20C
100
AcDbSymbolTableRecord
100
AcDbLayerTableRecord
  2
17_NO_PRINT
 70
0
 62
7
  6
CONTINUOUS
370
-3
390
F
  0
LAYER
  5
20D
100
AcDbSymbolTableRecord
100
AcDbLayerTableRecord
  2
18_DATUM_CAMS_JOINTS
 70
0
 62
7
  6
CONTINUOUS
370
-3
390
F
  0
LAYER
  5
20E
100
AcDbSymbolTableRecord
100
AcDbLayerTableRecord
  2
19_DATUM_FUNCTIONAL
 70
0
 62
7
  6
CONTINUOUS
370
-3
390
F
  0
LAYER
  5
20F
100
AcDbSymbolTableRecord
100
AcDbLayerTableRecord
  2
20_DATUM_KINEMATIC_SCHEME
 70
0
 62
7
  6
CONTINUOUS
370
-3
390
F
  0
LAYER
  5
210
100
AcDbSymbolTableRecord
100
AcDbLayerTableRecord
  2
INTFCLR_35
 70
0
 62
7
  6
CONTINUOUS
370
-3
390
F
  0
LAYER
  5
211
100
AcDbSymbolTableRecord
100
AcDbLayerTableRecord
  2
INTFCLR_39
 70
0
 62
7
  6
CONTINUOUS
370
-3
390
F
  0
LAYER
  5
212
100
AcDbSymbolTableRecord
100
AcDbLayerTableRecord
  2
INTF_BLANK
 70
0
 62
7
  6
CONTINUOUS
370
-3
390
F
  0
LAYER
  5
213
100
AcDbSymbolTableRecord
100
AcDbLayerTableRecord
  2
_BLACK_HOLE
 70
0
 62
7
  6
CONTINUOUS
370
-3
390
F
  0
ENDTAB
  0
TABLE
  2
STYLE
  5
3
100
AcDbSymbolTable
 70
1
  0
STYLE
  5
11
100
AcDbSymbolTableRecord
100
AcDbTextStyleTableRecord
  2
STANDARD
 70
0
 40
0.0
 41
1.0
 50
0.0
 71
0
 42
0.2
  3
ARIAL.TTF
  4

  0
STYLE
  5
214
100
AcDbSymbolTableRecord
100
AcDbTextStyleTableRecord
  2
TEXTSTYLE_1
 70
0
 40
0.0
 41
0.8
 50
0.0
 71
0
 42
0.2
  3
gdt
  4

  0
ENDTAB
  0
TABLE
  2
VIEW
  5
6
100
AcDbSymbolTable
 70
0
  0
ENDTAB
  0
TABLE
  2
UCS
  5
7
100
AcDbSymbolTable
 70
0
  0
ENDTAB
  0
TABLE
  2
APPID
  5
9
100
AcDbSymbolTable
 70
1
  0
APPID
  5
215
100
AcDbSymbolTableRecord
100
AcDbRegAppTableRecord
  2
ACAD
 70
0
  0
ENDTAB
  0
TABLE
  2
BLOCK_RECORD
  5
1
100
AcDbSymbolTable
 70
0
  0
BLOCK_RECORD
  5
216
100
AcDbSymbolTableRecord
100
AcDbBlockTableRecord
  2
*Model_Space
  0
BLOCK_RECORD
  5
217
100
AcDbSymbolTableRecord
100
AcDbBlockTableRecord
  2
*Paper_Space
  0
BLOCK_RECORD
  5
218
100
AcDbSymbolTableRecord
100
AcDbBlockTableRecord
  2
_FILLED
  0
ENDTAB
  0
TABLE
  2
DIMSTYLE
  5
A
100
AcDbSymbolTable
 70
1
100
AcDbDimStyleTable
 71
0
  0
DIMSTYLE
105
219
100
AcDbSymbolTableRecord
100
AcDbDimStyleTableRecord
  2
STANDARD
 70
0
  3

  4

 40
1.0
 41
0.5927754096
 42
1.0
 43
0.38
 44
1.0
 45
0.0
 46
0.0
 47
0.01
 48
0.01
140
0.8298855734
141
0.09
142
0.0
143
25.4
144
1.0
145
0.0
146
1.0
147
0.625
 71
1
 72
0
 73
0
 74
0
 75
0
 76
0
 77
1
 78
8
 79
2
170
0
171
1
172
0
173
0
174
0
175
0
176
0
177
0
178
0
270
2
179
2
271
2
272
2
273
2
274
2
275
0
280
0
281
0
282
0
283
1
284
8
285
0
286
0
287
3
288
0
340
11
278
46
341
218
342
218
343
218
344
218
  0
ENDTAB
  0
ENDSEC
  0
SECTION
  2
BLOCKS
  0
BLOCK
  5
20
100
AcDbEntity
  8
0
100
AcDbBlockBegin
  2
*Model_Space
 70
0
 10
0.0
 20
0.0
 30
0.0
  3
*Model_Space
  1

  0
ENDBLK
  5
21
100
AcDbEntity
  8
0
100
AcDbBlockEnd
  0
BLOCK
  5
1C
100
AcDbEntity
  8
0
100
AcDbBlockBegin
  2
*Paper_Space
 70
0
 10
0.0
 20
0.0
 30
0.0
  3
*Paper_Space
  1

  0
ENDBLK
  5
1D
100
AcDbEntity
  8
0
100
AcDbBlockEnd
  0
BLOCK
  5
21A
100
AcDbEntity
  8
0
100
AcDbBlockBegin
  2
_FILLED
 70
64
 10
0.0
 20
0.0
  3
_FILLED
  1

  0
SOLID
  5
21B
100
AcDbEntity
  8
0
  6
BYBLOCK
 62
0
100
AcDbTrace
 10
0.0
 20
0.0
 11
-1.0
 21
0.25
 12
-1.0
 22
-0.25
 13
-1.0
 23
-0.25
  0
ENDBLK
  5
21C
100
AcDbEntity
  8
0
  6
BYBLOCK
 62
0
100
AcDbBlockEnd
  0
ENDSEC
  0
SECTION
  2
ENTITIES
  0
LINE
  5
21D
100
AcDbEntity
  8
00_COMPONENTS_1
100
AcDbLine
 62
7
  6
BYLAYER
 10
7.2134545484
 20
56.3536939571
 11
8.9633238289
 21
57.5789656963
  0
LINE
  5
21E
100
AcDbEntity
  8
00_COMPONENTS_1
100
AcDbLine
 62
7
  6
BYLAYER
 10
40.9679961719
 20
11.7970544156
 11
14.6679961696
 21
11.7970544156
  0
LINE
  5
21F
100
AcDbEntity
  8
00_COMPONENTS_1
100
AcDbLine
 62
7
  6
BYLAYER
 10
42.9679961815
 20
15.1470544156
 11
44.9784020701
 21
15.1470544156
  0
LINE
  5
220
100
AcDbEntity
  8
00_COMPONENTS_1
100
AcDbLine
 62
7
  6
BYLAYER
 10
7.6673954681
 20
48.2966999615
 11
7.0021454311
 21
55.9005400574
  0
LINE
  5
221
100
AcDbEntity
  8
00_COMPONENTS_1
100
AcDbLine
 62
7
  6
BYLAYER
 10
7.958957564
 20
19.2938628054
 11
7.9534890368
 21
30.7938615052
  0
LINE
  5
222
100
AcDbEntity
  8
00_COMPONENTS_1
100
AcDbLine
 62
7
  6
BYLAYER
 10
7.9679970605
 20
30.7938684041
 11
7.9679964469
 21
51.2938684041
  0
LINE
  5
223
100
AcDbEntity
  8
00_COMPONENTS_1
100
AcDbLine
 62
7
  6
BYLAYER
 10
7.958957564
 20
19.2938628054
 11
14.659046822
 21
19.2970488597
  0
LINE
  5
224
100
AcDbEntity
  8
00_COMPONENTS_1
100
AcDbLine
 62
7
  6
BYLAYER
 10
11.2195572343
 20
51.2954145998
 11
10.6568548112
 21
57.7271305096
  0
LINE
  5
225
100
AcDbEntity
  8
00_COMPONENTS_1
100
AcDbLine
 62
7
  6
BYLAYER
 10
13.6589562086
 20
19.2965732924
 11
13.6534876815
 21
30.7965719922
  0
LINE
  5
226
100
AcDbEntity
  8
00_COMPONENTS_1
100
AcDbLine
 62
7
  6
BYLAYER
 10
14.6537618251
 20
30.7970476467
 11
14.6592303523
 21
19.2970489469
  0
LINE
  5
227
100
AcDbEntity
  8
00_COMPONENTS_1
100
AcDbLine
 62
7
  6
BYLAYER
 10
14.6679956894
 20
51.2970544156
 11
14.6679962223
 21
58.7970544156
  0
LINE
  5
228
100
AcDbEntity
  8
00_COMPONENTS_1
100
AcDbLine
 62
7
  6
BYLAYER
 10
14.6679961696
 20
11.7970544156
 11
14.667996303
 21
30.7970544156
  0
LINE
  5
229
100
AcDbEntity
  8
00_COMPONENTS_1
100
AcDbLine
 62
7
  6
BYLAYER
 10
7.9534890368
 20
30.7938615052
 11
14.667996303
 21
30.7970544156
  0
LINE
  5
22A
100
AcDbEntity
  8
00_COMPONENTS_1
100
AcDbLine
 62
7
  6
BYLAYER
 10
44.9783923661
 20
31.0470553947
 11
44.3415400244
 21
31.0470553756
  0
LINE
  5
22B
100
AcDbEntity
  8
00_COMPONENTS_1
100
AcDbLine
 62
7
  6
BYLAYER
 10
44.3415400244
 20
31.2970553756
 11
45.3679970454
 21
31.2970554064
  0
LINE
  5
22C
100
AcDbEntity
  8
00_COMPONENTS_1
100
AcDbLine
 62
7
  6
BYLAYER
 10
7.9679966314
 20
45.1298887293
 11
5.8042652651
 21
46.644949646
  0
LINE
  5
22D
100
AcDbEntity
  8
00_COMPONENTS_1
100
AcDbLine
 62
7
  6
BYLAYER
 10
44.3415400244
 20
39.2970553756
 11
45.367996806
 21
39.2970554064
  0
LINE
  5
22E
100
AcDbEntity
  8
00_COMPONENTS_1
100
AcDbLine
 62
7
  6
BYLAYER
 10
44.3415400244
 20
39.5470553756
 11
44.9783923661
 21
39.5470553947
  0
LINE
  5
22F
100
AcDbEntity
  8
00_COMPONENTS_1
100
AcDbLine
 62
7
  6
BYLAYER
 10
7.9679964469
 20
51.2938684041
 11
14.6679956894
 21
51.2970544156
  0
LINE
  5
230
100
AcDbEntity
  8
00_COMPONENTS_1
100
AcDbLine
 62
7
  6
BYLAYER
 10
11.1662642065
 20
51.9045564848
 11
7.3519075025
 21
51.902742666
  0
LINE
  5
231
100
AcDbEntity
  8
00_COMPONENTS_1
100
AcDbLine
 62
7
  6
BYLAYER
 10
42.96799622
 20
56.7970544133
 11
42.9679962191
 21
55.4470544156
  0
LINE
  5
232
100
AcDbEntity
  8
00_COMPONENTS_1
100
AcDbLine
 62
7
  6
BYLAYER
 10
42.9679961815
 20
15.1470544156
 11
42.9679961719
 21
13.7970544133
  0
LINE
  5
233
100
AcDbEntity
  8
00_COMPONENTS_1
100
AcDbLine
 62
7
  6
BYLAYER
 10
43.2949645897
 20
15.1470544156
 11
43.2949645897
 21
55.4470544156
  0
LINE
  5
234
100
AcDbEntity
  8
00_COMPONENTS_1
100
AcDbLine
 62
7
  6
BYLAYER
 10
44.2865270735
 20
15.1470544156
 11
44.2865270735
 21
55.4470544156
  0
LINE
  5
235
100
AcDbEntity
  8
00_COMPONENTS_1
100
AcDbLine
 62
7
  6
BYLAYER
 10
7.2647517299
 20
52.8989373615
 11
11.0791084339
 21
52.9007511802
  0
LINE
  5
236
100
AcDbEntity
  8
00_COMPONENTS_1
100
AcDbLine
 62
7
  6
BYLAYER
 10
44.3415400244
 20
31.0470553756
 11
44.3415400244
 21
39.5470553756
  0
LINE
  5
237
100
AcDbEntity
  8
00_COMPONENTS_1
100
AcDbLine
 62
7
  6
BYLAYER
 10
44.9461409641
 20
31.0470553937
 11
44.9461409641
 21
31.2970553937
  0
LINE
  5
238
100
AcDbEntity
  8
00_COMPONENTS_1
100
AcDbLine
 62
7
  6
BYLAYER
 10
44.9461409641
 20
39.2970553937
 11
44.9461409641
 21
39.5470553937
  0
LINE
  5
239
100
AcDbEntity
  8
00_COMPONENTS_1
100
AcDbLine
 62
7
  6
BYLAYER
 10
44.9784034084
 20
55.4470544156
 11
44.9784034084
 21
39.5470553947
  0
LINE
  5
23A
100
AcDbEntity
  8
00_COMPONENTS_1
100
AcDbLine
 62
7
  6
BYLAYER
 10
44.9784034084
 20
31.0470553947
 11
44.9784034084
 21
15.1470544156
  0
LINE
  5
23B
100
AcDbEntity
  8
00_COMPONENTS_1
100
AcDbLine
 62
7
  6
BYLAYER
 10
45.367996806
 20
39.2970554064
 11
45.3679970454
 21
31.2970554064
  0
LINE
  5
23C
100
AcDbEntity
  8
00_COMPONENTS_1
100
AcDbLine
 62
7
  6
BYLAYER
 10
44.9784020701
 20
55.4470544156
 11
42.9679962191
 21
55.4470544156
  0
LINE
  5
23D
100
AcDbEntity
  8
00_COMPONENTS_1
100
AcDbLine
 62
7
  6
BYLAYER
 10
8.9633238289
 20
57.5789656963
 11
10.6568548112
 21
57.7271305096
  0
LINE
  5
23E
100
AcDbEntity
  8
00_COMPONENTS_1
100
AcDbLine
 62
7
  6
BYLAYER
 10
14.6679962223
 20
58.7970544156
 11
40.96799622
 21
58.7970544156
  0
ARC
  5
23F
100
AcDbEntity
  8
00_COMPONENTS_1
100
AcDbCircle
 62
7
  6
BYLAYER
 10
27.5679969257
 20
35.2970548017
 40
20.0
100
AcDbArc
 50
172.634115886
 51
186.1827530096
  0
ARC
  5
240
100
AcDbEntity
  8
00_COMPONENTS_1
100
AcDbCircle
 62
7
  6
BYLAYER
 10
10.9679967042
 20
42.6970543048
 40
6.5
100
AcDbArc
 50
120.5163890813
 51
142.6005283507
  0
ARC
  5
241
100
AcDbEntity
  8
00_COMPONENTS_1
100
AcDbCircle
 62
7
  6
BYLAYER
 10
40.9679961719
 20
13.7970544156
 40
2.0
100
AcDbArc
 50
270.0
 51
359.9999999358
  0
ARC
  5
242
100
AcDbEntity
  8
00_COMPONENTS_1
100
AcDbCircle
 62
7
  6
BYLAYER
 10
40.96799622
 20
56.7970544156
 40
2.0
100
AcDbArc
 50
359.9999999359
 51
90.0
  0
ARC
  5
243
100
AcDbEntity
  8
00_COMPONENTS_1
100
AcDbCircle
 62
7
  6
BYLAYER
 10
8.6785117833
 20
33.2507530023
 40
1.0
100
AcDbArc
 50
186.1827530117
 51
224.680834056
  0
ARC
  5
244
100
AcDbEntity
  8
00_COMPONENTS_1
100
AcDbCircle
 62
7
  6
BYLAYER
 10
8.2289172451
 20
37.7970542228
 40
0.5
100
AcDbArc
 50
122.106406622
 51
172.6341158847
  0
ARC
  5
245
100
AcDbEntity
  8
00_COMPONENTS_1
100
AcDbCircle
 62
7
  6
BYLAYER
 10
7.5002427788
 20
55.9441179436
 40
0.5
100
AcDbArc
 50
125.000001714
 51
185.0000017012
  0
SPLINE
  5
246
100
AcDbEntity
  8
00_COMPONENTS_1
100
AcDbSpline
 62
7
  6
BYLAYER
 70
0
 71
3
 72
41
 73
37
 74
0
 42
0.0000001
 43
0.0000001
 44
0.0000000001
 40
0.0
 40
0.0
 40
0.0
 40
0.0
 40
0.001703326
 40
0.0028078161
 40
0.0041374131
 40
0.0075508117
 40
0.0120388877
 40
0.0176344463
 40
0.0243451549
 40
0.0321634031
 40
0.0410767289
 40
0.0621257653
 40
0.0873204017
 40
0.1164287614
 40
0.1491925799
 40
0.2244161185
 40
0.310176713
 40
0.4032251914
 40
0.5000002114
 40
0.596775215
 40
0.6898236511
 40
0.7755842168
 40
0.8508076859
 40
0.8835714825
 40
0.9126798432
 40
0.9378744403
 40
0.9589234021
 40
0.9678366407
 40
0.9756547923
 40
0.9823654236
 40
0.9879609517
 40
0.992449033
 40
0.9958624716
 40
0.9971921002
 40
0.9982966258
 40
1.0
 40
1.0
 40
1.0
 40
1.0
 10
44.8069436618
 20
18.5470553896
 30
0.0
 10
44.8032175519
 20
18.5470553895
 30
0.0
 10
44.7971620768
 20
18.5498486883
 30
0.0
 10
44.7906616221
 20
18.5560950347
 30
0.0
 10
44.7827868292
 20
18.566254536
 30
0.0
 10
44.7732560426
 20
18.584157874
 30
0.0
 10
44.7622358691
 20
18.6115728614
 30
0.0
 10
44.7509936041
 20
18.646575654
 30
0.0
 10
44.7395493363
 20
18.6890954971
 30
0.0
 10
44.7279640251
 20
18.7390596791
 30
0.0
 10
44.711466275
 20
18.8200506378
 30
0.0
 10
44.6912893667
 20
18.9390401176
 30
0.0
 10
44.6683341113
 20
19.1022834833
 30
0.0
 10
44.645939267
 20
19.2914386807
 30
0.0
 10
44.6159917593
 20
19.5898553638
 30
0.0
 10
44.5835001093
 20
20.0125004556
 30
0.0
 10
44.5542541587
 20
20.5674835603
 30
0.0
 10
44.5357310488
 20
21.1700985599
 30
0.0
 10
44.5292525895
 20
21.7970571971
 30
0.0
 10
44.535710922
 20
22.4240161923
 30
0.0
 10
44.5542525069
 20
23.026630521
 30
0.0
 10
44.5835001645
 20
23.5816130697
 30
0.0
 10
44.6159893326
 20
24.0042581551
 30
0.0
 10
44.6459408401
 20
24.3026742503
 30
0.0
 10
44.6683378935
 20
24.4918290493
 30
0.0
 10
44.6912942044
 20
24.6550720022
 30
0.0
 10
44.7114694534
 20
24.7740612819
 30
0.0
 10
44.7279647794
 20
24.8550521536
 30
0.0
 10
44.7395484193
 20
24.9050161366
 30
0.0
 10
44.7509914297
 20
24.9475358605
 30
0.0
 10
44.7622332948
 20
24.982538563
 30
0.0
 10
44.7732539305
 20
25.0099534231
 30
0.0
 10
44.7827854844
 20
25.0278565637
 30
0.0
 10
44.7906608811
 20
25.0380158975
 30
0.0
 10
44.797161801
 20
25.0442621179
 30
0.0
 10
44.8032174463
 20
25.0470553895
 30
0.0
 10
44.8069436618
 20
25.0470553896
 30
0.0
  0
SPLINE
  5
247
100
AcDbEntity
  8
00_COMPONENTS_1
100
AcDbSpline
 62
7
  6
BYLAYER
 70
0
 71
3
 72
41
 73
37
 74
0
 42
0.0000001
 43
0.0000001
 44
0.0000000001
 40
0.0
 40
0.0
 40
0.0
 40
0.0
 40
0.001703326
 40
0.0028078161
 40
0.0041374131
 40
0.0075508117
 40
0.0120388877
 40
0.0176344463
 40
0.0243451549
 40
0.0321634031
 40
0.0410767289
 40
0.0621257653
 40
0.0873204017
 40
0.1164287614
 40
0.1491925799
 40
0.2244161185
 40
0.310176713
 40
0.4032251914
 40
0.5000002114
 40
0.596775215
 40
0.6898236511
 40
0.7755842168
 40
0.8508076859
 40
0.8835714825
 40
0.9126798432
 40
0.9378744403
 40
0.9589234021
 40
0.9678366407
 40
0.9756547923
 40
0.9823654236
 40
0.9879609517
 40
0.992449033
 40
0.9958624716
 40
0.9971921002
 40
0.9982966258
 40
1.0
 40
1.0
 40
1.0
 40
1.0
 10
44.8069436618
 20
45.5470553896
 30
0.0
 10
44.8032175519
 20
45.5470553895
 30
0.0
 10
44.7971620768
 20
45.5498486883
 30
0.0
 10
44.7906616221
 20
45.5560950347
 30
0.0
 10
44.7827868292
 20
45.566254536
 30
0.0
 10
44.7732560426
 20
45.584157874
 30
0.0
 10
44.7622358691
 20
45.6115728614
 30
0.0
 10
44.7509936041
 20
45.646575654
 30
0.0
 10
44.7395493363
 20
45.6890954971
 30
0.0
 10
44.7279640251
 20
45.7390596791
 30
0.0
 10
44.711466275
 20
45.8200506378
 30
0.0
 10
44.6912893667
 20
45.9390401176
 30
0.0
 10
44.6683341113
 20
46.1022834833
 30
0.0
 10
44.645939267
 20
46.2914386807
 30
0.0
 10
44.6159917593
 20
46.5898553638
 30
0.0
 10
44.5835001093
 20
47.0125004556
 30
0.0
 10
44.5542541587
 20
47.5674835603
 30
0.0
 10
44.5357310488
 20
48.1700985599
 30
0.0
 10
44.5292525895
 20
48.7970571971
 30
0.0
 10
44.535710922
 20
49.4240161923
 30
0.0
 10
44.5542525069
 20
50.026630521
 30
0.0
 10
44.5835001645
 20
50.5816130697
 30
0.0
 10
44.6159893326
 20
51.0042581551
 30
0.0
 10
44.6459408401
 20
51.3026742503
 30
0.0
 10
44.6683378935
 20
51.4918290493
 30
0.0
 10
44.6912942044
 20
51.6550720022
 30
0.0
 10
44.7114694534
 20
51.7740612819
 30
0.0
 10
44.7279647794
 20
51.8550521536
 30
0.0
 10
44.7395484193
 20
51.9050161366
 30
0.0
 10
44.7509914297
 20
51.9475358605
 30
0.0
 10
44.7622332948
 20
51.982538563
 30
0.0
 10
44.7732539305
 20
52.0099534231
 30
0.0
 10
44.7827854844
 20
52.0278565637
 30
0.0
 10
44.7906608811
 20
52.0380158975
 30
0.0
 10
44.797161801
 20
52.0442621179
 30
0.0
 10
44.8032174463
 20
52.0470553895
 30
0.0
 10
44.8069436618
 20
52.0470553896
 30
0.0
  0
SPLINE
  5
248
100
AcDbEntity
  8
00_COMPONENTS_1
100
AcDbSpline
 62
7
  6
BYLAYER
 70
0
 71
3
 72
37
 73
33
 74
0
 42
0.0000001
 43
0.0000001
 44
0.0000000001
 40
0.0
 40
0.0
 40
0.0
 40
0.0
 40
0.0038776883
 40
0.0054057447
 40
0.0071939404
 40
0.01158209
 40
0.0170829892
 40
0.023707133
 40
0.0314480456
 40
0.0402937815
 40
0.0612384721
 40
0.0863748103
 40
0.1482567055
 40
0.2236285747
 40
0.3096241365
 40
0.4029467127
 40
0.4999920224
 40
0.5970401941
 40
0.6903639546
 40
0.776360139
 40
0.8517366852
 40
0.913624443
 40
0.9387627281
 40
0.9597083732
 40
0.9685539437
 40
0.9762945532
 40
0.9829185034
 40
0.9884193732
 40
0.9928071321
 40
0.9945950513
 40
0.9961228251
 40
1.0
 40
1.0
 40
1.0
 40
1.0
 10
44.8069436618
 20
25.0470553896
 30
0.0
 10
44.8153926444
 20
25.0470553898
 30
0.0
 10
44.8249154286
 20
25.0357210363
 30
0.0
 10
44.8320159102
 20
25.0222758282
 30
0.0
 10
44.8387559
 20
25.0067368596
 30
0.0
 10
44.8465010938
 20
24.9825388697
 30
0.0
 10
44.8550530516
 20
24.9475406392
 30
0.0
 10
44.8632173925
 20
24.9050296954
 30
0.0
 10
44.8710329178
 20
24.8550532789
 30
0.0
 10
44.8815334337
 20
24.7739484964
 30
0.0
 10
44.893165466
 20
24.6548105239
 30
0.0
 10
44.9100500532
 20
24.4201672304
 30
0.0
 10
44.9257985723
 20
24.0666383502
 30
0.0
 10
44.938728259
 20
23.5803725008
 30
0.0
 10
44.947113701
 20
23.0254885659
 30
0.0
 10
44.9517743892
 20
22.4233436583
 30
0.0
 10
44.9532902788
 20
21.7971002777
 30
0.0
 10
44.9517829076
 20
21.170854263
 30
0.0
 10
44.9471116955
 20
20.568699259
 30
0.0
 10
44.9387285326
 20
20.0138011959
 30
0.0
 10
44.9258008094
 20
19.5275109354
 30
0.0
 10
44.9100494021
 20
19.1739549476
 30
0.0
 10
44.8931645704
 20
18.9392925514
 30
0.0
 10
44.8815330199
 20
18.8201485176
 30
0.0
 10
44.8710314475
 20
18.7390427989
 30
0.0
 10
44.8632154953
 20
18.6890679076
 30
0.0
 10
44.8550509787
 20
18.6465581779
 30
0.0
 10
44.8465004349
 20
18.6115610147
 30
0.0
 10
44.8387555875
 20
18.5873643931
 30
0.0
 10
44.8320156507
 20
18.5718277592
 30
0.0
 10
44.824915159
 20
18.5583847685
 30
0.0
 10
44.8153915256
 20
18.5470553898
 30
0.0
 10
44.8069436618
 20
18.5470553896
 30
0.0
  0
SPLINE
  5
249
100
AcDbEntity
  8
00_COMPONENTS_1
100
AcDbSpline
 62
7
  6
BYLAYER
 70
0
 71
3
 72
37
 73
33
 74
0
 42
0.0000001
 43
0.0000001
 44
0.0000000001
 40
0.0
 40
0.0
 40
0.0
 40
0.0
 40
0.0038776883
 40
0.0054057447
 40
0.0071939404
 40
0.01158209
 40
0.0170829892
 40
0.023707133
 40
0.0314480456
 40
0.0402937815
 40
0.0612384721
 40
0.0863748103
 40
0.1482567055
 40
0.2236285747
 40
0.3096241365
 40
0.4029467127
 40
0.4999920224
 40
0.5970401941
 40
0.6903639546
 40
0.776360139
 40
0.8517366852
 40
0.913624443
 40
0.9387627281
 40
0.9597083732
 40
0.9685539437
 40
0.9762945532
 40
0.9829185034
 40
0.9884193732
 40
0.9928071321
 40
0.9945950513
 40
0.9961228251
 40
1.0
 40
1.0
 40
1.0
 40
1.0
 10
44.8069436618
 20
52.0470553896
 30
0.0
 10
44.8153926444
 20
52.0470553898
 30
0.0
 10
44.8249154286
 20
52.0357210363
 30
0.0
 10
44.8320159102
 20
52.0222758282
 30
0.0
 10
44.8387559
 20
52.0067368596
 30
0.0
 10
44.8465010938
 20
51.9825388697
 30
0.0
 10
44.8550530516
 20
51.9475406392
 30
0.0
 10
44.8632173925
 20
51.9050296954
 30
0.0
 10
44.8710329178
 20
51.8550532789
 30
0.0
 10
44.8815334337
 20
51.7739484964
 30
0.0
 10
44.893165466
 20
51.6548105239
 30
0.0
 10
44.9100500532
 20
51.4201672304
 30
0.0
 10
44.9257985723
 20
51.0666383502
 30
0.0
 10
44.938728259
 20
50.5803725008
 30
0.0
 10
44.947113701
 20
50.0254885659
 30
0.0
 10
44.9517743892
 20
49.4233436583
 30
0.0
 10
44.9532902788
 20
48.7971002777
 30
0.0
 10
44.9517829076
 20
48.170854263
 30
0.0
 10
44.9471116955
 20
47.568699259
 30
0.0
 10
44.9387285326
 20
47.0138011959
 30
0.0
 10
44.9258008094
 20
46.5275109354
 30
0.0
 10
44.9100494021
 20
46.1739549476
 30
0.0
 10
44.8931645704
 20
45.9392925514
 30
0.0
 10
44.8815330199
 20
45.8201485176
 30
0.0
 10
44.8710314475
 20
45.7390427989
 30
0.0
 10
44.8632154953
 20
45.6890679076
 30
0.0
 10
44.8550509787
 20
45.6465581779
 30
0.0
 10
44.8465004349
 20
45.6115610147
 30
0.0
 10
44.8387555875
 20
45.5873643931
 30
0.0
 10
44.8320156507
 20
45.5718277592
 30
0.0
 10
44.824915159
 20
45.5583847685
 30
0.0
 10
44.8153915256
 20
45.5470553898
 30
0.0
 10
44.8069436618
 20
45.5470553896
 30
0.0
  0
ENDSEC
  0
SECTION
  2
OBJECTS
  0
DICTIONARY
  5
C
100
AcDbDictionary
280
0
281
1
  3
ACAD_GROUP
350
D
  3
ACAD_MLINESTYLE
350
17
  3
ACAD_LAYOUT
350
1A
  3
ACAD_PLOTSETTINGS
350
19
  3
ACAD_PLOTSTYLENAME
350
E
  0
DICTIONARY
  5
D
102
{ACAD_REACTORS
330
C
102
}
100
AcDbDictionary
280
0
281
1
  0
ACDBDICTIONARYWDFLT
  5
E
102
{ACAD_REACTORS
330
C
102
}
100
AcDbDictionary
281
1
  3
Normal
350
F
100
AcDbDictionaryWithDefault
340
F
  0
DICTIONARY
  5
17
102
{ACAD_REACTORS
330
C
102
}
100
AcDbDictionary
280
0
281
1
  3
Standard
350
18
  0
DICTIONARY
  5
19
102
{ACAD_REACTORS
330
C
102
}
100
AcDbDictionary
281
1
  0
DICTIONARY
  5
1A
102
{ACAD_REACTORS
330
C
102
}
100
AcDbDictionary
281
1
  3
Model
350
24A
  3
Layout1
350
24B
  0
ACDBPLACEHOLDER
  5
F
102
{ACAD_REACTORS
330
E
102
}
  0
MLINESTYLE
  5
18
102
{ACAD_REACTORS
330
17
102
}
100
AcDbMlineStyle
  2
STANDARD
 70
0
  3

 62
256
 51
90.0
 52
90.0
 71
2
 49
0.5
 62
256
  6
BYLAYER
 49
-0.5
 62
256
  6
BYLAYER
  0
LAYOUT
  5
24A
102
{ACAD_REACTORS
330
1A
102
}
100
AcDbPlotSettings
  1

  2
none_device
  4

  6

 40
0.0
 41
0.0
 42
0.0
 43
0.0
 44
210.0
 45
297.0
 46
0.0
 47
0.0
 48
0.0
 49
0.0
140
0.0
141
0.0
142
1.0
143
1.0
 70
1024
 72
1
 73
0
 74
0
  7

 75
0
147
1.0
148
0.0
149
0.0
100
AcDbLayout
  1
Model
 70
0
 71
0
 10
0.0
 20
0.0
 11
210.0
 21
297.0
 12
0.0
 22
0.0
 32
0.0
 14
0.0
 24
0.0
 34
0.0
 15
0.0
 25
0.0
 35
0.0
146
0.0
 13
0.0
 23
0.0
 33
0.0
 16
1.0
 26
0.0
 36
0.0
 17
0.0
 27
1.0
 37
0.0
 76
0
330
216
345
0
346
0
  0
LAYOUT
  5
24B
102
{ACAD_REACTORS
330
1A
102
}
100
AcDbPlotSettings
  1

  2
none_device
  4

  6

 40
0.0
 41
0.0
 42
0.0
 43
0.0
 44
210.0
 45
297.0
 46
0.0
 47
0.0
 48
0.0
 49
0.0
140
0.0
141
0.0
142
1.0
143
1.0
 70
0
 72
1
 73
0
 74
0
  7

 75
0
147
1.0
148
0.0
149
0.0
100
AcDbLayout
  1
Layout1
 70
0
 71
1
 10
0.0
 20
0.0
 11
210.0
 21
297.0
 12
0.0
 22
0.0
 32
0.0
 14
0.0
 24
0.0
 34
0.0
 15
0.0
 25
0.0
 35
0.0
146
0.0
 13
0.0
 23
0.0
 33
0.0
 16
1.0
 26
0.0
 36
0.0
 17
0.0
 27
1.0
 37
0.0
 76
0
330
217
345
0
346
0
  0
ENDSEC
  0
EOF
