999
DXF file: C:\Users\sesa63760\Dev\_Creo\CAD\MCADID0004047_3D-CAD\drw0001_1.dxf
999
Pro/ENGINEER 2019471 by Parametric Technology Corporation
  0
SECTION
  2
HEADER
  9
$ACADVER
  1
AC1024
  9
$DWGCODEPAGE
  3
ANSI_1252
  9
$EXTMAX
 10
84.4746451887
 20
119.4712839098
 30
0.0
  9
$EXTMIN
 10
0.0
 20
0.0
 30
0.0
  9
$LIMMIN
 10
0.0
 20
0.0
  9
$LIMMAX
 10
84.4746451887
 20
119.4712839098
  9
$VIEWCTR
 10
42.2373225944
 20
59.7356419549
  9
$VIEWSIZE
 40
119.4712839098
  9
$CLAYER
  8
0
  9
$LTSCALE
 40
7.787757766
  9
$CELTYPE
  6
BYLAYER
  9
$DIMSCALE
 40
1.0
  9
$DIMASZ
 40
1.005650538
  9
$DIMEXO
 40
1.0
  9
$DIMDLI
 40
5.3806326383
  9
$DIMEXE
 40
1.0
  9
$DIMCEN
 40
1.2743603617
  9
$DIMLFAC
 40
1.0
  9
$DIMBLK
  1
_FILLED
  9
$DIMALT
 70
0
  9
$DIMALTF
 40
0.0393700787
  9
$DIMTXT
 40
1.4079107531
  9
$DIMTOL
 70
1
  9
$DIMLIM
 70
0
  9
$DIMTFAC
 40
1.0
  9
$DIMTP
 40
0.01
  9
$DIMTM
 40
0.01
  9
$DIMGAP
 40
0.625
  9
$DIMDSEP
 70
46
  9
$AUNITS
 70
0
  9
$PDMODE
 70
3
  9
$PDSIZE
 40
0.3125
  9
$HANDSEED
  5
3DA
  9
$TILEMODE
 70
1
  9
$MEASUREMENT
 70
1
  9
$INSUNITS
 70
4
  0
ENDSEC
  0
SECTION
  2
CLASSES
  0
CLASS
  1
ACDBDICTIONARYWDFLT
  2
AcDbDictionaryWithDefault
  3
AutoCAD 2000
 90
0
 91
1
280
0
281
0
  0
CLASS
  1
ACDBPLACEHOLDER
  2
AcDbPlaceHolder
  3
AutoCAD 2000
 90
0
 91
1
280
0
281
0
  0
CLASS
  1
LAYOUT
  2
AcDbLayout
  3
AutoCAD 2000
 90
0
 91
0
280
0
281
0
  0
ENDSEC
  0
SECTION
  2
TABLES
  0
TABLE
  2
VPORT
  5
8
100
AcDbSymbolTable
 70
2
  0
VPORT
  5
1F4
100
AcDbSymbolTableRecord
100
AcDbViewportTableRecord
  2
*ACTIVE
 70
0
 10
0.0
 20
0.0
 11
1.0
 21
1.0
 12
42.2373225944
 22
59.7356419549
 13
0.0
 23
0.0
 14
1.0
 24
1.0
 15
0.0
 25
0.0
 16
0.0
 26
0.0
 36
1.0
 17
0.0
 27
0.0
 37
0.0
 40
119.4712839098
 41
0.7070707071
 42
50.0
 43
0.0
 44
0.0
 50
0.0
 51
0.0
 71
0
 72
100
 73
1
 74
1
 75
0
 76
0
 77
0
 78
0
  0
ENDTAB
  0
TABLE
  2
LTYPE
  5
5
100
AcDbSymbolTable
 70
6
  0
LTYPE
  5
14
100
AcDbSymbolTableRecord
100
AcDbLinetypeTableRecord
  2
BYBLOCK
 70
0
  3

 72
65
 73
0
 40
0.0
  0
LTYPE
  5
15
100
AcDbSymbolTableRecord
100
AcDbLinetypeTableRecord
  2
BYLAYER
 70
0
  3

 72
65
 73
0
 40
0.0
  0
LTYPE
  5
16
100
AcDbSymbolTableRecord
100
AcDbLinetypeTableRecord
  2
CONTINUOUS
 70
64
  3
Solid line
 72
65
 73
0
 40
0.0
  0
LTYPE
  5
1F5
100
AcDbSymbolTableRecord
100
AcDbLinetypeTableRecord
  2
CENTER
 70
64
  3
____ _ ____ _ ____ _ ____ _ ____ _ ____ _ ____
 72
65
 73
4
 40
0.6
 49
0.375
 74
0
 49
-0.075
 74
0
 49
0.075
 74
0
 49
-0.075
 74
0
  0
LTYPE
  5
1F6
100
AcDbSymbolTableRecord
100
AcDbLinetypeTableRecord
  2
HIDDEN
 70
64
  3
- - - - - - - - - - - - - - - - - - - -
 72
65
 73
2
 40
0.2
 49
0.1
 74
0
 49
-0.1
 74
0
  0
LTYPE
  5
1F7
100
AcDbSymbolTableRecord
100
AcDbLinetypeTableRecord
  2
PHANTOM
 70
64
  3
_____ _ _ _____ _ _ _____ _ _ _____
 72
65
 73
6
 40
0.8
 49
0.45
 74
0
 49
-0.05
 74
0
 49
0.1
 74
0
 49
-0.05
 74
0
 49
0.1
 74
0
 49
-0.05
 74
0
  0
LTYPE
  5
1F8
100
AcDbSymbolTableRecord
100
AcDbLinetypeTableRecord
  2
DOT
 70
64
  3
. . . . . . . . . . . . . . . . . . . .
 72
65
 73
2
 40
0.2
 49
0.1
 74
0
 49
-0.1
 74
0
  0
LTYPE
  5
1F9
100
AcDbSymbolTableRecord
100
AcDbLinetypeTableRecord
  2
DASHED
 70
64
  3
- - - - - - - - - - - - - - - - - - - -
 72
65
 73
2
 40
0.2
 49
0.1
 74
0
 49
-0.1
 74
0
  0
ENDTAB
  0
TABLE
  2
LAYER
  5
2
100
AcDbSymbolTable
 70
36
  0
LAYER
  5
10
100
AcDbSymbolTableRecord
100
AcDbLayerTableRecord
  2
0
 70
0
 62
7
  6
CONTINUOUS
370
-3
390
F
  0
LAYER
  5
1FA
100
AcDbSymbolTableRecord
100
AcDbLayerTableRecord
  2
DEFAULT_1
 70
0
 62
7
  6
CENTER
370
-3
390
F
  0
LAYER
  5
1FB
100
AcDbSymbolTableRecord
100
AcDbLayerTableRecord
  2
DEFAULT_2
 70
0
 62
7
  6
HIDDEN
370
-3
390
F
  0
LAYER
  5
1FC
100
AcDbSymbolTableRecord
100
AcDbLayerTableRecord
  2
DEFAULT_3
 70
0
 62
7
  6
PHANTOM
370
-3
390
F
  0
LAYER
  5
1FD
100
AcDbSymbolTableRecord
100
AcDbLayerTableRecord
  2
00_COMPONENTS
 70
0
 62
7
  6
CONTINUOUS
370
-3
390
F
  0
LAYER
  5
1FE
100
AcDbSymbolTableRecord
100
AcDbLayerTableRecord
  2
01_1_DEFAULT_DATUMS
 70
0
 62
7
  6
CONTINUOUS
370
-3
390
F
  0
LAYER
  5
1FF
100
AcDbSymbolTableRecord
100
AcDbLayerTableRecord
  2
01_PLANES
 70
0
 62
7
  6
CONTINUOUS
370
-3
390
F
  0
LAYER
  5
200
100
AcDbSymbolTableRecord
100
AcDbLayerTableRecord
  2
02_COORD_SYS
 70
0
 62
7
  6
CONTINUOUS
370
-3
390
F
  0
LAYER
  5
201
100
AcDbSymbolTableRecord
100
AcDbLayerTableRecord
  2
03_AXES
 70
0
 62
7
  6
CONTINUOUS
370
-3
390
F
  0
LAYER
  5
202
100
AcDbSymbolTableRecord
100
AcDbLayerTableRecord
  2
04_POINTS
 70
0
 62
7
  6
CONTINUOUS
370
-3
390
F
  0
LAYER
  5
203
100
AcDbSymbolTableRecord
100
AcDbLayerTableRecord
  2
05_CURVES
 70
0
 62
7
  6
CONTINUOUS
370
-3
390
F
  0
LAYER
  5
204
100
AcDbSymbolTableRecord
100
AcDbLayerTableRecord
  2
06_SURFS
 70
0
 62
7
  6
CONTINUOUS
370
-3
390
F
  0
LAYER
  5
205
100
AcDbSymbolTableRecord
100
AcDbLayerTableRecord
  2
07_COSMETICS
 70
0
 62
7
  6
CONTINUOUS
370
-3
390
F
  0
LAYER
  5
206
100
AcDbSymbolTableRecord
100
AcDbLayerTableRecord
  2
10_NOTES
 70
0
 62
7
  6
CONTINUOUS
370
-3
390
F
  0
LAYER
  5
207
100
AcDbSymbolTableRecord
100
AcDbLayerTableRecord
  2
11_NOTES_PUB
 70
0
 62
7
  6
CONTINUOUS
370
-3
390
F
  0
LAYER
  5
208
100
AcDbSymbolTableRecord
100
AcDbLayerTableRecord
  2
13_REF_GTOL
 70
0
 62
7
  6
CONTINUOUS
370
-3
390
F
  0
LAYER
  5
209
100
AcDbSymbolTableRecord
100
AcDbLayerTableRecord
  2
16_MISC
 70
0
 62
7
  6
CONTINUOUS
370
-3
390
F
  0
LAYER
  5
20A
100
AcDbSymbolTableRecord
100
AcDbLayerTableRecord
  2
17_NO_PRINT
 70
0
 62
7
  6
CONTINUOUS
370
-3
390
F
  0
LAYER
  5
20B
100
AcDbSymbolTableRecord
100
AcDbLayerTableRecord
  2
18_DATUM_CAMS_JOINTS
 70
0
 62
7
  6
CONTINUOUS
370
-3
390
F
  0
LAYER
  5
20C
100
AcDbSymbolTableRecord
100
AcDbLayerTableRecord
  2
19_DATUM_FUNCTIONAL
 70
0
 62
7
  6
CONTINUOUS
370
-3
390
F
  0
LAYER
  5
20D
100
AcDbSymbolTableRecord
100
AcDbLayerTableRecord
  2
20_DATUM_KINEMATIC_SCHEME
 70
0
 62
7
  6
CONTINUOUS
370
-3
390
F
  0
ENDTAB
  0
TABLE
  2
STYLE
  5
3
100
AcDbSymbolTable
 70
1
  0
STYLE
  5
11
100
AcDbSymbolTableRecord
100
AcDbTextStyleTableRecord
  2
STANDARD
 70
0
 40
0.0
 41
1.0
 50
0.0
 71
0
 42
0.2
  3
ARIAL.TTF
  4

  0
STYLE
  5
20E
100
AcDbSymbolTableRecord
100
AcDbTextStyleTableRecord
  2
TEXTSTYLE_1
 70
0
 40
0.0
 41
0.8
 50
0.0
 71
0
 42
0.2
  3
gdt
  4

  0
ENDTAB
  0
TABLE
  2
VIEW
  5
6
100
AcDbSymbolTable
 70
0
  0
ENDTAB
  0
TABLE
  2
UCS
  5
7
100
AcDbSymbolTable
 70
0
  0
ENDTAB
  0
TABLE
  2
APPID
  5
9
100
AcDbSymbolTable
 70
1
  0
APPID
  5
20F
100
AcDbSymbolTableRecord
100
AcDbRegAppTableRecord
  2
ACAD
 70
0
  0
ENDTAB
  0
TABLE
  2
BLOCK_RECORD
  5
1
100
AcDbSymbolTable
 70
0
  0
BLOCK_RECORD
  5
210
100
AcDbSymbolTableRecord
100
AcDbBlockTableRecord
  2
*Model_Space
  0
BLOCK_RECORD
  5
211
100
AcDbSymbolTableRecord
100
AcDbBlockTableRecord
  2
*Paper_Space
  0
BLOCK_RECORD
  5
212
100
AcDbSymbolTableRecord
100
AcDbBlockTableRecord
  2
_FILLED
  0
ENDTAB
  0
TABLE
  2
DIMSTYLE
  5
A
100
AcDbSymbolTable
 70
1
100
AcDbDimStyleTable
 71
0
  0
DIMSTYLE
105
213
100
AcDbSymbolTableRecord
100
AcDbDimStyleTableRecord
  2
STANDARD
 70
0
  3

  4

 40
1.0
 41
1.005650538
 42
1.0
 43
0.38
 44
1.0
 45
0.0
 46
0.0
 47
0.01
 48
0.01
140
1.4079107531
141
0.09
142
0.0
143
25.4
144
1.0
145
0.0
146
1.0
147
0.625
 71
1
 72
0
 73
0
 74
0
 75
0
 76
0
 77
1
 78
8
 79
2
170
0
171
1
172
0
173
0
174
0
175
0
176
0
177
0
178
0
270
2
179
2
271
2
272
2
273
2
274
2
275
0
280
0
281
0
282
0
283
1
284
8
285
0
286
0
287
3
288
0
340
11
278
46
341
212
342
212
343
212
344
212
  0
ENDTAB
  0
ENDSEC
  0
SECTION
  2
BLOCKS
  0
BLOCK
  5
20
100
AcDbEntity
  8
0
100
AcDbBlockBegin
  2
*Model_Space
 70
0
 10
0.0
 20
0.0
 30
0.0
  3
*Model_Space
  1

  0
ENDBLK
  5
21
100
AcDbEntity
  8
0
100
AcDbBlockEnd
  0
BLOCK
  5
1C
100
AcDbEntity
  8
0
100
AcDbBlockBegin
  2
*Paper_Space
 70
0
 10
0.0
 20
0.0
 30
0.0
  3
*Paper_Space
  1

  0
ENDBLK
  5
1D
100
AcDbEntity
  8
0
100
AcDbBlockEnd
  0
BLOCK
  5
214
100
AcDbEntity
  8
0
100
AcDbBlockBegin
  2
_FILLED
 70
64
 10
0.0
 20
0.0
  3
_FILLED
  1

  0
SOLID
  5
215
100
AcDbEntity
  8
0
  6
BYBLOCK
 62
0
100
AcDbTrace
 10
0.0
 20
0.0
 11
-1.0
 21
0.25
 12
-1.0
 22
-0.25
 13
-1.0
 23
-0.25
  0
ENDBLK
  5
216
100
AcDbEntity
  8
0
  6
BYBLOCK
 62
0
100
AcDbBlockEnd
  0
ENDSEC
  0
SECTION
  2
ENTITIES
  0
LINE
  5
217
100
AcDbEntity
  8
0
100
AcDbLine
 62
7
  6
BYLAYER
 10
11.2280007098
 20
42.7679521589
 11
10.8345666634
 21
42.9950962729
  0
LWPOLYLINE
  5
218
100
AcDbEntity
  8
0
100
AcDbPolyline
 62
7
  6
BYLAYER
 90
3
 70
0
 10
13.5967862524
 20
52.7493778489
 10
13.7403091248
 20
50.7621190276
 10
14.1800401954
 20
48.9918636261
  0
LINE
  5
219
100
AcDbEntity
  8
0
100
AcDbLine
 62
7
  6
BYLAYER
 10
10.8345666634
 20
43.9748991734
 11
11.2280007098
 21
43.7477550595
  0
LINE
  5
21A
100
AcDbEntity
  8
0
100
AcDbLine
 62
7
  6
BYLAYER
 10
23.4255943042
 20
43.0333859537
 11
23.4255981314
 21
42.5026751826
  0
LINE
  5
21B
100
AcDbEntity
  8
0
100
AcDbLine
 62
7
  6
BYLAYER
 10
32.1707815776
 20
36.6359646543
 11
32.1846930901
 21
36.6392709217
  0
LINE
  5
21C
100
AcDbEntity
  8
0
100
AcDbLine
 62
7
  6
BYLAYER
 10
19.6426541485
 20
49.5856696169
 11
19.1830484241
 21
49.8510306928
  0
LINE
  5
21D
100
AcDbEntity
  8
0
100
AcDbLine
 62
7
  6
BYLAYER
 10
18.4847932386
 20
60.3683351867
 11
18.4687959953
 21
60.3528361829
  0
LINE
  5
21E
100
AcDbEntity
  8
0
100
AcDbLine
 62
7
  6
BYLAYER
 10
34.7056343847
 20
76.9467646897
 11
32.8394032167
 21
75.869302054
  0
LINE
  5
21F
100
AcDbEntity
  8
0
100
AcDbLine
 62
7
  6
BYLAYER
 10
38.4962339151
 20
79.1352552854
 11
40.3624650847
 21
80.2127179219
  0
LWPOLYLINE
  5
220
100
AcDbEntity
  8
0
100
AcDbPolyline
 62
7
  6
BYLAYER
 90
3
 70
0
 10
44.0729418591
 20
79.398650346
 10
41.4369265009
 20
78.5849221753
 10
40.4617736956
 20
77.6804695299
  0
LINE
  5
221
100
AcDbEntity
  8
0
100
AcDbLine
 62
7
  6
BYLAYER
 10
37.5534182554
 20
72.8786985265
 11
21.1581647759
 21
63.4129510195
  0
LINE
  5
222
100
AcDbEntity
  8
0
100
AcDbLine
 62
7
  6
BYLAYER
 10
46.8212344625
 20
78.0290687958
 11
44.9550032767
 21
76.9516061499
  0
LINE
  5
223
100
AcDbEntity
  8
0
100
AcDbLine
 62
7
  6
BYLAYER
 10
50.6118339821
 20
80.2175593853
 11
52.4780651627
 21
81.2950220283
  0
LINE
  5
224
100
AcDbEntity
  8
0
100
AcDbLine
 62
7
  6
BYLAYER
 10
10.5678369374
 20
45.9022720057
 11
11.3590637315
 21
46.6217047241
  0
LINE
  5
225
100
AcDbEntity
  8
0
100
AcDbLine
 62
7
  6
BYLAYER
 10
47.2927426797
 20
77.8172631156
 11
45.463295035
 21
76.7610373302
  0
LINE
  5
226
100
AcDbEntity
  8
0
100
AcDbLine
 62
7
  6
BYLAYER
 10
51.1201257325
 20
80.0269905611
 11
52.9495733785
 21
81.0832163472
  0
LINE
  5
227
100
AcDbEntity
  8
0
100
AcDbLine
 62
7
  6
BYLAYER
 10
58.7268249345
 20
84.2370734911
 11
53.0630205012
 21
80.967093996
  0
LINE
  5
228
100
AcDbEntity
  8
0
100
AcDbLine
 62
7
  6
BYLAYER
 10
20.8889268775
 20
61.7563989145
 11
18.466092083
 21
60.3575023149
  0
LINE
  5
229
100
AcDbEntity
  8
0
100
AcDbLine
 62
7
  6
BYLAYER
 10
18.4140634473
 20
60.327544376
 11
16.4341727031
 21
59.1844607451
  0
LINE
  5
22A
100
AcDbEntity
  8
0
100
AcDbLine
 62
7
  6
BYLAYER
 10
18.5151403808
 20
60.3857279654
 11
18.4847826017
 21
60.3683536097
  0
LWPOLYLINE
  5
22B
100
AcDbEntity
  8
0
100
AcDbPolyline
 62
7
  6
BYLAYER
 90
3
 70
0
 10
29.9791316778
 20
55.6391362339
 10
27.1264937562
 20
58.4624434705
 10
24.1038438874
 20
60.3098612494
  0
LINE
  5
22C
100
AcDbEntity
  8
0
100
AcDbLine
 62
7
  6
BYLAYER
 10
29.9427275404
 20
55.6325738126
 11
29.9621813547
 21
55.613094872
  0
LINE
  5
22D
100
AcDbEntity
  8
0
100
AcDbLine
 62
7
  6
BYLAYER
 10
29.9441776948
 20
55.6348173255
 11
29.9621813547
 21
55.613094872
  0
LINE
  5
22E
100
AcDbEntity
  8
0
100
AcDbLine
 62
7
  6
BYLAYER
 10
29.9791316778
 20
55.6391362339
 11
29.9650306093
 21
55.6561549203
  0
LINE
  5
22F
100
AcDbEntity
  8
0
100
AcDbLine
 62
7
  6
BYLAYER
 10
60.5536789614
 20
81.4054922754
 11
65.0084331358
 21
83.9774304448
  0
LINE
  5
230
100
AcDbEntity
  8
0
100
AcDbLine
 62
7
  6
BYLAYER
 10
66.6951529376
 20
83.0036243437
 11
62.2403987632
 21
80.4316861743
  0
LINE
  5
231
100
AcDbEntity
  8
0
100
AcDbLine
 62
7
  6
BYLAYER
 10
11.6746457751
 20
46.8525628283
 11
11.3590637315
 21
46.6217047241
  0
LINE
  5
232
100
AcDbEntity
  8
0
100
AcDbLine
 62
7
  6
BYLAYER
 10
18.2438246583
 20
59.7826158839
 11
16.4341727031
 21
59.1844607451
  0
LINE
  5
233
100
AcDbEntity
  8
0
100
AcDbLine
 62
7
  6
BYLAYER
 10
16.1829532113
 20
50.1482390924
 11
12.2938821066
 21
47.9028962461
  0
LINE
  5
234
100
AcDbEntity
  8
0
100
AcDbLine
 62
7
  6
BYLAYER
 10
20.4677332447
 20
51.8714890015
 11
17.8381942246
 21
50.3533330026
  0
LINE
  5
235
100
AcDbEntity
  8
0
100
AcDbLine
 62
7
  6
BYLAYER
 10
11.6746457751
 20
46.8525628283
 11
11.819888658
 21
46.9364029907
  0
LINE
  5
236
100
AcDbEntity
  8
0
100
AcDbLine
 62
7
  6
BYLAYER
 10
24.1038438874
 20
60.3098612494
 11
21.1749900932
 21
61.0076984426
  0
LINE
  5
237
100
AcDbEntity
  8
0
100
AcDbLine
 62
7
  6
BYLAYER
 10
10.8345666634
 20
43.9748991734
 11
13.113426857
 21
45.290591866
  0
LINE
  5
238
100
AcDbEntity
  8
0
100
AcDbLine
 62
7
  6
BYLAYER
 10
13.5190151763
 20
45.1171132163
 11
13.0286135552
 21
44.8339813984
  0
LINE
  5
239
100
AcDbEntity
  8
0
100
AcDbLine
 62
7
  6
BYLAYER
 10
12.9163089319
 20
44.7224944476
 11
11.2280007098
 21
43.7477550595
  0
LINE
  5
23A
100
AcDbEntity
  8
0
100
AcDbLine
 62
7
  6
BYLAYER
 10
14.3638904073
 20
44.4502004314
 11
13.5286113168
 21
43.9679547023
  0
LINE
  5
23B
100
AcDbEntity
  8
0
100
AcDbLine
 62
7
  6
BYLAYER
 10
11.5279993667
 20
42.7382375915
 11
14.4176207911
 21
44.4065513403
  0
LINE
  5
23C
100
AcDbEntity
  8
0
100
AcDbLine
 62
7
  6
BYLAYER
 10
11.8160898895
 20
46.9341712086
 11
11.8201008443
 21
46.9360347667
  0
LINE
  5
23D
100
AcDbEntity
  8
0
100
AcDbLine
 62
7
  6
BYLAYER
 10
58.3500859052
 20
66.5360425295
 11
58.4409457928
 21
66.5716209426
  0
LINE
  5
23E
100
AcDbEntity
  8
0
100
AcDbLine
 62
7
  6
BYLAYER
 10
59.0985314497
 20
66.3618607688
 11
58.8365674935
 21
66.2592823691
  0
LINE
  5
23F
100
AcDbEntity
  8
0
100
AcDbLine
 62
7
  6
BYLAYER
 10
56.1180971268
 20
70.0417484618
 11
56.1861285458
 21
70.1146612023
  0
LINE
  5
240
100
AcDbEntity
  8
0
100
AcDbLine
 62
7
  6
BYLAYER
 10
56.9170704341
 20
68.9174448527
 11
56.9933109322
 21
68.9783446506
  0
LINE
  5
241
100
AcDbEntity
  8
0
100
AcDbLine
 62
7
  6
BYLAYER
 10
57.6821218293
 20
68.8151405769
 11
57.4623079703
 21
68.6395564726
  0
LINE
  5
242
100
AcDbEntity
  8
0
100
AcDbLine
 62
7
  6
BYLAYER
 10
57.5349884078
 20
68.1407764521
 11
57.4587479097
 21
68.0798766543
  0
LINE
  5
243
100
AcDbEntity
  8
0
100
AcDbLine
 62
7
  6
BYLAYER
 10
17.2209489428
 20
37.5848331222
 11
17.2160409692
 21
37.5811257625
  0
LINE
  5
244
100
AcDbEntity
  8
0
100
AcDbLine
 62
7
  6
BYLAYER
 10
15.3169751131
 20
43.2974012135
 11
13.0286135552
 21
41.9762229384
  0
LINE
  5
245
100
AcDbEntity
  8
0
100
AcDbLine
 62
7
  6
BYLAYER
 10
57.6629589141
 20
67.7459041646
 11
57.7468282551
 21
67.7943275357
  0
LINE
  5
246
100
AcDbEntity
  8
0
100
AcDbLine
 62
7
  6
BYLAYER
 10
58.4212475293
 20
67.6063533674
 11
58.1794384652
 21
67.4667408475
  0
LINE
  5
247
100
AcDbEntity
  8
0
100
AcDbLine
 62
7
  6
BYLAYER
 10
15.8189420039
 20
42.4325113879
 11
13.5286113168
 21
41.1101962423
  0
LINE
  5
248
100
AcDbEntity
  8
0
100
AcDbLine
 62
7
  6
BYLAYER
 10
58.2468303368
 20
66.9283033338
 11
58.1629609958
 21
66.8798799627
  0
LINE
  5
249
100
AcDbEntity
  8
0
100
AcDbLine
 62
7
  6
BYLAYER
 10
16.3260261739
 20
41.0222645604
 11
15.5034975932
 21
40.5473802976
  0
LINE
  5
24A
100
AcDbEntity
  8
0
100
AcDbLine
 62
7
  6
BYLAYER
 10
58.8954671628
 20
65.6837317045
 11
58.8046072752
 21
65.6481532913
  0
LINE
  5
24B
100
AcDbEntity
  8
0
100
AcDbLine
 62
7
  6
BYLAYER
 10
59.4759623679
 20
64.4165335057
 11
59.3788034324
 21
64.3940708236
  0
LINE
  5
24C
100
AcDbEntity
  8
0
100
AcDbLine
 62
7
  6
BYLAYER
 10
59.7088190509
 20
65.0911341215
 11
59.4286939065
 21
65.0263705254
  0
LINE
  5
24D
100
AcDbEntity
  8
0
100
AcDbLine
 62
7
  6
BYLAYER
 10
58.9732219561
 20
65.2970677249
 11
59.0703808916
 21
65.319530407
  0
LINE
  5
24E
100
AcDbEntity
  8
0
100
AcDbLine
 62
7
  6
BYLAYER
 10
59.983898033
 20
63.1363528809
 11
59.8811794877
 21
63.1271768845
  0
LINE
  5
24F
100
AcDbEntity
  8
0
100
AcDbLine
 62
7
  6
BYLAYER
 10
60.2474656758
 20
63.8038444225
 11
59.9513112647
 21
63.7773885201
  0
LINE
  5
250
100
AcDbEntity
  8
0
100
AcDbLine
 62
7
  6
BYLAYER
 10
59.5276246252
 20
64.0384090973
 11
59.6303431705
 21
64.0475850937
  0
LINE
  5
251
100
AcDbEntity
  8
0
100
AcDbLine
 62
7
  6
BYLAYER
 10
60.4154084611
 20
61.8529327778
 11
60.3079120562
 21
61.8571133019
  0
LINE
  5
252
100
AcDbEntity
  8
0
100
AcDbLine
 62
7
  6
BYLAYER
 10
52.5180386118
 20
73.9021965124
 11
52.5487369212
 21
74.0167649586
  0
LINE
  5
253
100
AcDbEntity
  8
0
100
AcDbLine
 62
7
  6
BYLAYER
 10
53.4652145848
 20
73.04785553
 11
53.5057813066
 21
73.1531337149
  0
LINE
  5
254
100
AcDbEntity
  8
0
100
AcDbLine
 62
7
  6
BYLAYER
 10
54.2258434147
 20
73.1147711936
 11
54.1088829033
 21
72.8112369217
  0
LINE
  5
255
100
AcDbEntity
  8
0
100
AcDbLine
 62
7
  6
BYLAYER
 10
54.3855764379
 20
72.1148425493
 11
54.4357028347
 21
72.2100292424
  0
LINE
  5
256
100
AcDbEntity
  8
0
100
AcDbLine
 62
7
  6
BYLAYER
 10
55.1520391243
 20
72.1370500506
 11
55.0075165019
 21
71.8626112047
  0
LINE
  5
257
100
AcDbEntity
  8
0
100
AcDbLine
 62
7
  6
BYLAYER
 10
55.0765618849
 20
71.4949686354
 11
55.0264354881
 21
71.3997819423
  0
LINE
  5
258
100
AcDbEntity
  8
0
100
AcDbLine
 62
7
  6
BYLAYER
 10
55.2721196616
 20
71.1102583625
 11
55.3314242414
 21
71.1946291356
  0
LINE
  5
259
100
AcDbEntity
  8
0
100
AcDbLine
 62
7
  6
BYLAYER
 10
56.0412737043
 20
71.0891421812
 11
55.8702888753
 21
70.8458874065
  0
LINE
  5
25A
100
AcDbEntity
  8
0
100
AcDbLine
 62
7
  6
BYLAYER
 10
55.9437992266
 20
70.4328310627
 11
55.8844946469
 21
70.3484602897
  0
LINE
  5
25B
100
AcDbEntity
  8
0
100
AcDbLine
 62
7
  6
BYLAYER
 10
56.8867795426
 20
69.979022797
 11
56.6906338049
 21
69.7688034092
  0
LINE
  5
25C
100
AcDbEntity
  8
0
100
AcDbLine
 62
7
  6
BYLAYER
 10
56.7653589227
 20
69.3119234069
 11
56.6973275037
 21
69.2390106665
  0
LINE
  5
25D
100
AcDbEntity
  8
0
100
AcDbLine
 62
7
  6
BYLAYER
 10
16.4932476055
 20
39.9641105074
 11
16.0034953548
 21
39.6813536015
  0
LINE
  5
25E
100
AcDbEntity
  8
0
100
AcDbLine
 62
7
  6
BYLAYER
 10
11.4864735643
 20
45.3005486812
 11
12.0346528062
 21
45.4817416612
  0
LINE
  5
25F
100
AcDbEntity
  8
0
100
AcDbLine
 62
7
  6
BYLAYER
 10
13.1018350047
 20
44.8565841567
 11
13.0286135552
 21
44.8339813984
  0
LINE
  5
260
100
AcDbEntity
  8
0
100
AcDbLine
 62
7
  6
BYLAYER
 10
60.7103718984
 20
62.5097887236
 11
60.4004421345
 21
62.5218418603
  0
LINE
  5
261
100
AcDbEntity
  8
0
100
AcDbLine
 62
7
  6
BYLAYER
 10
60.0090745733
 20
62.7696457988
 11
60.1165703174
 21
62.7654653003
  0
LINE
  5
262
100
AcDbEntity
  8
0
100
AcDbLine
 62
7
  6
BYLAYER
 10
60.7672095973
 20
60.5760407981
 11
60.6557534453
 21
60.5935460265
  0
LINE
  5
263
100
AcDbEntity
  8
0
100
AcDbLine
 62
7
  6
BYLAYER
 10
61.0940147227
 20
61.2188155702
 11
60.7726683586
 21
61.2692860143
  0
LINE
  5
264
100
AcDbEntity
  8
0
100
AcDbLine
 62
7
  6
BYLAYER
 10
60.4139076758
 20
61.5004338841
 11
60.5253638278
 21
61.4829286557
  0
LINE
  5
265
100
AcDbEntity
  8
0
100
AcDbLine
 62
7
  6
BYLAYER
 10
61.0366240225
 20
59.315394861
 11
60.922056372
 21
59.3460915682
  0
LINE
  5
266
100
AcDbEntity
  8
0
100
AcDbLine
 62
7
  6
BYLAYER
 10
61.3954743953
 20
59.9407500474
 11
61.0651570709
 21
60.0292536883
  0
LINE
  5
267
100
AcDbEntity
  8
0
100
AcDbLine
 62
7
  6
BYLAYER
 10
60.7390429082
 20
60.2404328224
 11
60.8536105586
 21
60.2097361152
  0
LINE
  5
268
100
AcDbEntity
  8
0
100
AcDbLine
 62
7
  6
BYLAYER
 10
61.2216013301
 20
58.0805892431
 11
61.1047941102
 21
58.1242438088
  0
LINE
  5
269
100
AcDbEntity
  8
0
100
AcDbLine
 62
7
  6
BYLAYER
 10
61.6124566259
 20
58.6853190055
 11
61.2756822555
 21
58.8111822772
  0
LINE
  5
26A
100
AcDbEntity
  8
0
100
AcDbLine
 62
7
  6
BYLAYER
 10
60.9820057951
 20
58.9992319826
 11
61.098813015
 21
58.955577417
  0
LINE
  5
26B
100
AcDbEntity
  8
0
100
AcDbLine
 62
7
  6
BYLAYER
 10
61.3207337313
 20
56.8810215609
 11
61.2025759155
 21
56.9373017473
  0
LINE
  5
26C
100
AcDbEntity
  8
0
100
AcDbLine
 62
7
  6
BYLAYER
 10
61.3332667686
 20
55.7258212486
 11
61.2146576091
 21
55.7942987297
  0
LINE
  5
26D
100
AcDbEntity
  8
0
100
AcDbLine
 62
7
  6
BYLAYER
 10
48.6026433178
 20
76.4764736407
 11
48.5969291299
 21
76.5551903739
  0
LINE
  5
26E
100
AcDbEntity
  8
0
100
AcDbLine
 62
7
  6
BYLAYER
 10
49.3013480891
 20
76.2196659734
 11
49.3116855584
 21
76.0772604668
  0
LINE
  5
26F
100
AcDbEntity
  8
0
100
AcDbLine
 62
7
  6
BYLAYER
 10
49.5884018368
 20
76.0684111121
 11
49.5884018368
 21
75.931452643
  0
LINE
  5
270
100
AcDbEntity
  8
0
100
AcDbLine
 62
7
  6
BYLAYER
 10
50.295511562
 20
75.5232118885
 11
50.295508618
 21
76.1841373645
  0
LINE
  5
271
100
AcDbEntity
  8
0
100
AcDbLine
 62
7
  6
BYLAYER
 10
50.5722278404
 20
75.3495025051
 11
50.5825653098
 21
75.4799716002
  0
LINE
  5
272
100
AcDbEntity
  8
0
100
AcDbLine
 62
7
  6
BYLAYER
 10
51.2970614655
 20
75.5554098875
 11
51.267256846
 21
75.1792460905
  0
LINE
  5
273
100
AcDbEntity
  8
0
100
AcDbLine
 62
7
  6
BYLAYER
 10
51.286984269
 20
75.0021214504
 11
51.2766467996
 21
74.8716523553
  0
LINE
  5
274
100
AcDbEntity
  8
0
100
AcDbLine
 62
7
  6
BYLAYER
 10
51.5512571
 20
74.6713634456
 11
51.5718533644
 21
74.7943502181
  0
LINE
  5
275
100
AcDbEntity
  8
0
100
AcDbLine
 62
7
  6
BYLAYER
 10
52.2909918911
 20
74.8304799017
 11
52.2316094832
 21
74.4758888679
  0
LINE
  5
276
100
AcDbEntity
  8
0
100
AcDbLine
 62
7
  6
BYLAYER
 10
52.268220504
 20
74.2505274011
 11
52.2476242396
 21
74.1275406287
  0
LINE
  5
277
100
AcDbEntity
  8
0
100
AcDbLine
 62
7
  6
BYLAYER
 10
53.269735484
 20
74.014864562
 11
53.1812272237
 21
73.6845449433
  0
LINE
  5
278
100
AcDbEntity
  8
0
100
AcDbLine
 62
7
  6
BYLAYER
 10
53.2317524668
 20
73.4111082945
 11
53.2010541574
 21
73.2965398483
  0
LINE
  5
279
100
AcDbEntity
  8
0
100
AcDbLine
 62
7
  6
BYLAYER
 10
54.1702470974
 20
72.4902526167
 11
54.1296803756
 21
72.3849744317
  0
LINE
  5
27A
100
AcDbEntity
  8
0
100
AcDbLine
 62
7
  6
BYLAYER
 10
59.6532927451
 20
62.4406663543
 11
57.8238450935
 21
61.384440565
  0
LINE
  5
27B
100
AcDbEntity
  8
0
100
AcDbLine
 62
7
  6
BYLAYER
 10
63.4806757946
 20
64.650393798
 11
65.3101234421
 21
65.7066195849
  0
LINE
  5
27C
100
AcDbEntity
  8
0
100
AcDbLine
 62
7
  6
BYLAYER
 10
25.8177092934
 20
42.6050033528
 11
23.1879371913
 21
41.0867127848
  0
LINE
  5
27D
100
AcDbEntity
  8
0
100
AcDbLine
 62
7
  6
BYLAYER
 10
17.2213228199
 20
37.5841872344
 11
17.0746216
 21
37.49947451
  0
LINE
  5
27E
100
AcDbEntity
  8
0
100
AcDbLine
 62
7
  6
BYLAYER
 10
59.8553970002
 20
61.8144941479
 11
57.9891658295
 21
60.7370315107
  0
LINE
  5
27F
100
AcDbEntity
  8
0
100
AcDbLine
 62
7
  6
BYLAYER
 10
63.6459965194
 20
64.0029847372
 11
65.5122277057
 21
65.0804473833
  0
LINE
  5
280
100
AcDbEntity
  8
0
100
AcDbLine
 62
7
  6
BYLAYER
 10
22.18292635
 20
39.7559187386
 11
18.2938552453
 21
37.5105758923
  0
LINE
  5
281
100
AcDbEntity
  8
0
100
AcDbLine
 62
7
  6
BYLAYER
 10
13.1018350047
 20
41.9988256967
 11
13.0286135552
 21
41.9762229384
  0
LINE
  5
282
100
AcDbEntity
  8
0
100
AcDbLine
 62
7
  6
BYLAYER
 10
21.1749900932
 20
61.0076984426
 11
18.4847932386
 21
60.3683351867
  0
LINE
  5
283
100
AcDbEntity
  8
0
100
AcDbLine
 62
7
  6
BYLAYER
 10
61.7433100489
 20
57.4620770329
 11
61.4026416888
 21
57.6243420398
  0
LINE
  5
284
100
AcDbEntity
  8
0
100
AcDbLine
 62
7
  6
BYLAYER
 10
61.1409472422
 20
57.7862776524
 11
61.259105058
 21
57.729997466
  0
LINE
  5
285
100
AcDbEntity
  8
0
100
AcDbLine
 62
7
  6
BYLAYER
 10
61.2146576091
 20
56.6108011468
 11
61.7870387906
 21
56.2803337395
  0
LINE
  5
286
100
AcDbEntity
  8
0
100
AcDbLine
 62
7
  6
BYLAYER
 10
61.259105058
 20
54.6237800783
 11
61.1409472422
 21
54.7039336989
  0
LINE
  5
287
100
AcDbEntity
  8
0
100
AcDbLine
 62
7
  6
BYLAYER
 10
61.2025759155
 20
55.4817485517
 11
61.3207337313
 21
55.401594931
  0
LINE
  5
288
100
AcDbEntity
  8
0
100
AcDbLine
 62
7
  6
BYLAYER
 10
61.098813015
 20
53.5832852486
 11
60.9820057951
 21
53.6745049914
  0
LINE
  5
289
100
AcDbEntity
  8
0
100
AcDbLine
 62
7
  6
BYLAYER
 10
61.1047941102
 20
54.4077126391
 11
61.2216013301
 21
54.3164928963
  0
LINE
  5
28A
100
AcDbEntity
  8
0
100
AcDbLine
 62
7
  6
BYLAYER
 10
60.8536105586
 20
52.6122555535
 11
60.7390429082
 21
52.7138471811
  0
LINE
  5
28B
100
AcDbEntity
  8
0
100
AcDbLine
 62
7
  6
BYLAYER
 10
60.922056372
 20
53.3968674708
 11
61.0366240225
 21
53.2952758432
  0
LINE
  5
28C
100
AcDbEntity
  8
0
100
AcDbLine
 62
7
  6
BYLAYER
 10
60.5253638278
 20
51.7180811152
 11
60.4139076758
 21
51.8292714541
  0
LINE
  5
28D
100
AcDbEntity
  8
0
100
AcDbLine
 62
7
  6
BYLAYER
 10
60.6557534453
 20
52.4569061889
 11
60.7672095973
 21
52.3457158501
  0
LINE
  5
28E
100
AcDbEntity
  8
0
100
AcDbLine
 62
7
  6
BYLAYER
 10
60.3079120562
 20
51.5949824664
 11
60.4154084611
 21
51.4750396419
  0
LINE
  5
28F
100
AcDbEntity
  8
0
100
AcDbLine
 62
7
  6
BYLAYER
 10
32.1846930901
 20
36.6392709217
 11
32.1934308227
 21
36.6477365146
  0
LINE
  5
290
100
AcDbEntity
  8
0
100
AcDbLine
 62
7
  6
BYLAYER
 10
32.1797423331
 20
36.661690252
 11
32.1711094488
 21
36.6533963643
  0
LINE
  5
291
100
AcDbEntity
  8
0
100
AcDbLine
 62
7
  6
BYLAYER
 10
32.1225757346
 20
36.6067684753
 11
32.1139580524
 21
36.5984891927
  0
LINE
  5
292
100
AcDbEntity
  8
0
100
AcDbLine
 62
7
  6
BYLAYER
 10
16.7169007791
 20
37.3416033445
 11
17.0746216
 21
37.49947451
  0
LINE
  5
293
100
AcDbEntity
  8
0
100
AcDbLine
 62
7
  6
BYLAYER
 10
15.5767190427
 20
40.5699830559
 11
15.5034975932
 21
40.5473802976
  0
LINE
  5
294
100
AcDbEntity
  8
0
100
AcDbLine
 62
7
  6
BYLAYER
 10
15.6364549852
 20
38.1125271032
 11
15.0882757433
 21
37.9313341232
  0
LINE
  5
295
100
AcDbEntity
  8
0
100
AcDbLine
 62
7
  6
BYLAYER
 10
15.698238689
 20
37.0161024658
 11
16.7169007791
 21
37.3416033445
  0
LINE
  5
296
100
AcDbEntity
  8
0
100
AcDbLine
 62
7
  6
BYLAYER
 10
32.1903831789
 20
36.6435329355
 11
32.1803947551
 21
36.6375211703
  0
LINE
  5
297
100
AcDbEntity
  8
0
100
AcDbLine
 62
7
  6
BYLAYER
 10
32.124035682
 20
36.6042448023
 11
30.1341113698
 21
35.4553292708
  0
LINE
  5
298
100
AcDbEntity
  8
0
100
AcDbLine
 62
7
  6
BYLAYER
 10
72.976761139
 20
59.555312651
 11
65.938391278
 21
55.4917321734
  0
LINE
  5
299
100
AcDbEntity
  8
0
100
AcDbLine
 62
7
  6
BYLAYER
 10
52.5534791246
 20
46.8979715555
 11
36.1580976227
 21
37.4321501352
  0
LINE
  5
29A
100
AcDbEntity
  8
0
100
AcDbLine
 62
7
  6
BYLAYER
 10
32.172824999
 20
36.6324172735
 11
34.5888655443
 21
38.0272674402
  0
LINE
  5
29B
100
AcDbEntity
  8
0
100
AcDbLine
 62
7
  6
BYLAYER
 10
61.966353454
 20
56.3401050142
 11
61.498555334
 21
52.8564114565
  0
LINE
  5
29C
100
AcDbEntity
  8
0
100
AcDbLine
 62
7
  6
BYLAYER
 10
55.802845908
 20
46.0181583142
 11
56.6735055896
 21
47.9426435028
  0
LINE
  5
29D
100
AcDbEntity
  8
0
100
AcDbLine
 62
7
  6
BYLAYER
 10
28.3244594146
 20
34.857174132
 11
30.1341113698
 21
35.4553292708
  0
LWPOLYLINE
  5
29E
100
AcDbEntity
  8
0
100
AcDbPolyline
 62
7
  6
BYLAYER
 90
3
 70
0
 10
51.1440903867
 20
43.328337829
 10
53.7801041276
 20
44.1420671023
 10
55.802845908
 20
46.0181583142
  0
LINE
  5
29F
100
AcDbEntity
  8
0
100
AcDbLine
 62
7
  6
BYLAYER
 10
47.7227237207
 20
77.3771426688
 11
48.7950156017
 21
77.1217814903
  0
LWPOLYLINE
  5
2A0
100
AcDbEntity
  8
0
100
AcDbPolyline
 62
7
  6
BYLAYER
 90
7
 70
0
 10
48.7950156017
 20
77.1217814903
 10
52.0762521331
 20
75.2278316515
 10
55.2225636684
 20
72.3455702343
 10
57.9801002849
 20
68.7098536593
 10
60.129973331
 20
64.6088930973
 10
61.4963918605
 20
60.3736916356
 10
61.966353454
 20
56.3401050142
  0
LINE
  5
2A1
100
AcDbEntity
  8
0
100
AcDbLine
 62
7
  6
BYLAYER
 10
61.498555334
 20
52.8564114565
 11
60.2956170168
 21
50.5098445582
  0
LINE
  5
2A2
100
AcDbEntity
  8
0
100
AcDbLine
 62
7
  6
BYLAYER
 10
59.855397008
 20
45.6603125178
 11
57.9891658217
 21
44.5828498717
  0
LINE
  5
2A3
100
AcDbEntity
  8
0
100
AcDbLine
 62
7
  6
BYLAYER
 10
63.6459965272
 20
47.8488031071
 11
65.5122276979
 21
48.9262657443
  0
LINE
  5
2A4
100
AcDbEntity
  8
0
100
AcDbLine
 62
7
  6
BYLAYER
 10
59.6532927412
 20
45.2250315754
 11
57.8238450965
 21
44.16880579
  0
LINE
  5
2A5
100
AcDbEntity
  8
0
100
AcDbLine
 62
7
  6
BYLAYER
 10
63.480675794
 20
47.4347590208
 11
65.31012344
 21
48.4909848069
  0
LWPOLYLINE
  5
2A6
100
AcDbEntity
  8
0
100
AcDbPolyline
 62
7
  6
BYLAYER
 90
3
 70
0
 10
54.227757042
 20
79.7748914786
 10
55.6174474252
 20
79.3788939907
 10
56.6597147615
 20
78.8363985139
  0
LINE
  5
2A7
100
AcDbEntity
  8
0
100
AcDbLine
 62
7
  6
BYLAYER
 10
65.7807727097
 20
83.6374751091
 11
65.769117739
 21
83.6439084984
  0
LINE
  5
2A8
100
AcDbEntity
  8
0
100
AcDbLine
 62
7
  6
BYLAYER
 10
70.6826351036
 20
79.3179812324
 11
70.7038127783
 21
79.2923571385
  0
LINE
  5
2A9
100
AcDbEntity
  8
0
100
AcDbLine
 62
7
  6
BYLAYER
 10
70.6826351036
 20
79.3179812324
 11
70.7030430102
 21
79.2911837708
  0
ARC
  5
2AA
100
AcDbEntity
  8
0
100
AcDbCircle
 62
7
  6
BYLAYER
 10
-17.1565948259
 20
38.7438382022
 40
86.7626140796
100
AcDbArc
 50
17.6708233233
 51
18.1053373267
  0
ARC
  5
2AB
100
AcDbEntity
  8
0
100
AcDbCircle
 62
7
  6
BYLAYER
 10
-22.7706856032
 20
35.4916797709
 40
86.7177034096
100
AcDbArc
 50
17.6707108064
 51
18.1054498436
  0
ARC
  5
2AC
100
AcDbEntity
  8
0
100
AcDbCircle
 62
7
  6
BYLAYER
 10
16.1716997469
 20
39.0630029982
 40
1.8055163266
100
AcDbArc
 50
300.0059982561
 51
305.1288343698
  0
ARC
  5
2AD
100
AcDbEntity
  8
0
100
AcDbCircle
 62
7
  6
BYLAYER
 10
11.680363356
 20
41.8400258643
 40
3.7594481385
100
AcDbArc
 50
60.6153201532
 51
61.8690809778
  0
ARC
  5
2AE
100
AcDbEntity
  8
0
100
AcDbCircle
 62
7
  6
BYLAYER
 10
14.3516419602
 20
45.5120945582
 40
3.2623387666
100
AcDbArc
 50
159.7039452547
 51
161.0326388643
  0
ARC
  5
2AF
100
AcDbEntity
  8
0
100
AcDbCircle
 62
7
  6
BYLAYER
 10
12.7408670853
 20
45.3164424838
 40
1.8639888837
100
AcDbArc
 50
108.3515712294
 51
109.8767093714
  0
ARC
  5
2B0
100
AcDbEntity
  8
0
100
AcDbCircle
 62
7
  6
BYLAYER
 10
12.7226662324
 20
45.3632030905
 40
1.8138261424
100
AcDbArc
 50
109.838232135
 51
119.8492716851
  0
ARC
  5
2B1
100
AcDbEntity
  8
0
100
AcDbCircle
 62
7
  6
BYLAYER
 10
12.5772190412
 20
45.2888666289
 40
1.8054872761
100
AcDbArc
 50
114.8710363571
 51
119.9937571579
  0
ARC
  5
2B2
100
AcDbEntity
  8
0
100
AcDbCircle
 62
7
  6
BYLAYER
 10
15.753496474
 20
42.9721254095
 40
0.5
100
AcDbArc
 50
145.0767472594
 51
275.3152558573
  0
ARC
  5
2B3
100
AcDbEntity
  8
0
100
AcDbCircle
 62
7
  6
BYLAYER
 10
13.278612436
 20
44.4009680503
 40
0.5
100
AcDbArc
 50
119.9998519061
 51
299.9998519061
  0
ARC
  5
2B4
100
AcDbEntity
  8
0
100
AcDbCircle
 62
7
  6
BYLAYER
 10
13.278612436
 20
41.5432095904
 40
0.5
100
AcDbArc
 50
119.9998519061
 51
299.9998519061
  0
ARC
  5
2B5
100
AcDbEntity
  8
0
100
AcDbCircle
 62
7
  6
BYLAYER
 10
15.753496474
 20
40.1143669496
 40
0.5
100
AcDbArc
 50
119.9998519061
 51
299.9998519061
  0
ARC
  5
2B6
100
AcDbEntity
  8
0
100
AcDbCircle
 62
7
  6
BYLAYER
 10
26.2715210624
 20
22.3249709944
 40
64.5309993128
100
AcDbArc
 50
65.5804889246
 51
66.0394318856
  0
ARC
  5
2B7
100
AcDbEntity
  8
0
100
AcDbCircle
 62
7
  6
BYLAYER
 10
20.65364496
 20
19.145735985
 40
64.4359342547
100
AcDbArc
 50
65.5801503738
 51
66.0397704364
  0
ARC
  5
2B8
100
AcDbEntity
  8
0
100
AcDbCircle
 62
7
  6
BYLAYER
 10
16.3032788088
 20
39.1597923901
 40
1.8235504964
100
AcDbArc
 50
300.2276961624
 51
311.6950923029
  0
ARC
  5
2B9
100
AcDbEntity
  8
0
100
AcDbCircle
 62
7
  6
BYLAYER
 10
29.4502461632
 20
47.1407269166
 40
12.6153062483
100
AcDbArc
 50
239.9993904267
 51
240.7561428274
  0
ARC
  5
2BA
100
AcDbEntity
  8
0
100
AcDbCircle
 62
7
  6
BYLAYER
 10
20.3376465877
 20
45.6141412311
 40
5.714556625
100
AcDbArc
 50
213.0173237207
 51
215.0202966194
  0
ARC
  5
2BB
100
AcDbEntity
  8
0
100
AcDbCircle
 62
7
  6
BYLAYER
 10
19.6879229505
 20
45.3750699373
 40
5.0229414214
100
AcDbArc
 50
196.8630652324
 51
197.3222863936
  0
ARC
  5
2BC
100
AcDbEntity
  8
0
100
AcDbCircle
 62
7
  6
BYLAYER
 10
29.8294697962
 20
40.5548338328
 40
4.5686088318
100
AcDbArc
 50
300.5633913988
 51
300.9695353063
  0
ARC
  5
2BD
100
AcDbEntity
  8
0
100
AcDbCircle
 62
7
  6
BYLAYER
 10
29.8302035346
 20
40.5535919317
 40
4.567166372
100
AcDbArc
 50
300.1485767111
 51
300.56338761
  0
ARC
  5
2BE
100
AcDbEntity
  8
0
100
AcDbCircle
 62
7
  6
BYLAYER
 10
29.9022303065
 20
40.5921520007
 40
4.5645481011
100
AcDbArc
 50
299.5378938085
 51
299.8308609536
  0
ARC
  5
2BF
100
AcDbEntity
  8
0
100
AcDbCircle
 62
7
  6
BYLAYER
 10
17.2555029254
 20
40.5058094595
 40
3.2803872102
100
AcDbArc
 50
258.9643869559
 51
260.2893809543
  0
ARC
  5
2C0
100
AcDbEntity
  8
0
100
AcDbCircle
 62
7
  6
BYLAYER
 10
33.8722202812
 20
53.4318699976
 40
27.8617179686
100
AcDbArc
 50
28.1385904214
 51
28.973679964
  0
ARC
  5
2C1
100
AcDbEntity
  8
0
100
AcDbCircle
 62
7
  6
BYLAYER
 10
33.8713742187
 20
53.4334194355
 40
27.861675953
100
AcDbArc
 50
31.0265957916
 51
31.8616861738
  0
ARC
  5
2C2
100
AcDbEntity
  8
0
100
AcDbCircle
 62
7
  6
BYLAYER
 10
34.0393322077
 20
53.5283615878
 40
27.5719514874
100
AcDbArc
 50
28.149397214
 51
28.9628731713
  0
ARC
  5
2C3
100
AcDbEntity
  8
0
100
AcDbCircle
 62
7
  6
BYLAYER
 10
34.0384944762
 20
53.5298957224
 40
27.5719099085
100
AcDbArc
 50
31.0374025952
 51
31.8508793703
  0
ARC
  5
2C4
100
AcDbEntity
  8
0
100
AcDbCircle
 62
7
  6
BYLAYER
 10
34.2612364121
 20
53.6286295214
 40
27.4257326852
100
AcDbArc
 50
25.2313858187
 51
26.0754552111
  0
ARC
  5
2C5
100
AcDbEntity
  8
0
100
AcDbCircle
 62
7
  6
BYLAYER
 10
34.236350414
 20
53.6719849689
 40
27.4256066247
100
AcDbArc
 50
33.9248255021
 51
34.7688975014
  0
ARC
  5
2C6
100
AcDbEntity
  8
0
100
AcDbCircle
 62
7
  6
BYLAYER
 10
34.411023367
 20
53.7166962324
 40
27.1552316034
100
AcDbArc
 50
25.2425318449
 51
26.0643091849
  0
ARC
  5
2C7
100
AcDbEntity
  8
0
100
AcDbCircle
 62
7
  6
BYLAYER
 10
34.3875097751
 20
53.7576682033
 40
27.1551087559
100
AcDbArc
 50
33.9359715925
 51
34.757751411
  0
ARC
  5
2C8
100
AcDbEntity
  8
0
100
AcDbCircle
 62
7
  6
BYLAYER
 10
34.8710184365
 20
54.1316943223
 40
26.6418683515
100
AcDbArc
 50
36.8641070452
 51
37.724232304
  0
ARC
  5
2C9
100
AcDbEntity
  8
0
100
AcDbCircle
 62
7
  6
BYLAYER
 10
35.0216320608
 20
53.9672208224
 40
26.5932774648
100
AcDbArc
 50
22.2752746712
 51
23.1369737344
  0
ARC
  5
2CA
100
AcDbEntity
  8
0
100
AcDbCircle
 62
7
  6
BYLAYER
 10
35.1328343805
 20
54.0397502204
 40
26.3643503697
100
AcDbArc
 50
22.2871843468
 51
23.1250640587
  0
ARC
  5
2CB
100
AcDbEntity
  8
0
100
AcDbCircle
 62
7
  6
BYLAYER
 10
35.0656658964
 20
54.2497946747
 40
26.3171173407
100
AcDbArc
 50
36.8744789615
 51
37.7138603878
  0
ARC
  5
2CC
100
AcDbEntity
  8
0
100
AcDbCircle
 62
7
  6
BYLAYER
 10
35.7906643453
 20
54.8710193549
 40
25.4617661129
100
AcDbArc
 50
39.8741024371
 51
40.7604956362
  0
ARC
  5
2CD
100
AcDbEntity
  8
0
100
AcDbCircle
 62
7
  6
BYLAYER
 10
36.1504742663
 20
54.4015914281
 40
25.383619641
100
AcDbArc
 50
19.2383614943
 51
20.1274861833
  0
ARC
  5
2CE
100
AcDbEntity
  8
0
100
AcDbCircle
 62
7
  6
BYLAYER
 10
36.221635782
 20
54.4621060539
 40
25.1963779314
100
AcDbArc
 50
19.2512757315
 51
20.1147504339
  0
ARC
  5
2CF
100
AcDbEntity
  8
0
100
AcDbCircle
 62
7
  6
BYLAYER
 10
35.9864056062
 20
54.99377343
 40
25.1332419956
100
AcDbArc
 50
39.8844786412
 51
40.7501194321
  0
ARC
  5
2D0
100
AcDbEntity
  8
0
100
AcDbCircle
 62
7
  6
BYLAYER
 10
26.1554456289
 20
52.7496765012
 40
12.5586958939
100
AcDbArc
 50
179.2366861547
 51
180.0012663431
  0
ARC
  5
2D1
100
AcDbEntity
  8
0
100
AcDbCircle
 62
7
  6
BYLAYER
 10
20.699511959
 20
56.3686084994
 40
4.5712437465
100
AcDbArc
 50
118.9263492168
 51
119.2444393666
  0
ARC
  5
2D2
100
AcDbEntity
  8
0
100
AcDbCircle
 62
7
  6
BYLAYER
 10
20.6988121779
 20
56.3698563547
 40
4.56981307
100
AcDbArc
 50
119.2444272491
 51
119.9975732647
  0
ARC
  5
2D3
100
AcDbEntity
  8
0
100
AcDbCircle
 62
7
  6
BYLAYER
 10
36.9035188292
 20
55.8676277521
 40
23.9677191755
100
AcDbArc
 50
42.9884180348
 51
43.9111635223
  0
ARC
  5
2D4
100
AcDbEntity
  8
0
100
AcDbCircle
 62
7
  6
BYLAYER
 10
43.3385338923
 20
59.1666385565
 40
23.8930923558
100
AcDbArc
 50
39.4747448454
 51
39.6148121625
  0
ARC
  5
2D5
100
AcDbEntity
  8
0
100
AcDbCircle
 62
7
  6
BYLAYER
 10
37.5716389671
 20
54.8630331731
 40
23.8892549314
100
AcDbArc
 50
16.0876562733
 51
17.0134367625
  0
ARC
  5
2D6
100
AcDbEntity
  8
0
100
AcDbCircle
 62
7
  6
BYLAYER
 10
37.6265134053
 20
54.9227167034
 40
23.7177507565
100
AcDbArc
 50
16.1010996601
 51
16.9999933757
  0
ARC
  5
2D7
100
AcDbEntity
  8
0
100
AcDbCircle
 62
7
  6
BYLAYER
 10
37.0949824506
 20
55.9917257114
 40
23.6414791627
100
AcDbArc
 50
42.998895931
 51
43.9006856261
  0
ARC
  5
2D8
100
AcDbEntity
  8
0
100
AcDbCircle
 62
7
  6
BYLAYER
 10
38.1354396338
 20
57.1007941468
 40
22.2244236989
100
AcDbArc
 50
46.24335243
 51
47.2136264318
  0
ARC
  5
2D9
100
AcDbEntity
  8
0
100
AcDbCircle
 62
7
  6
BYLAYER
 10
39.2666022669
 20
55.3113107657
 40
22.1357967531
100
AcDbArc
 50
12.7847986231
 51
13.758962844
  0
ARC
  5
2DA
100
AcDbEntity
  8
0
100
AcDbCircle
 62
7
  6
BYLAYER
 10
39.2930129523
 20
55.3682975962
 40
21.9924965052
100
AcDbArc
 50
12.7992804408
 51
13.7444810262
  0
ARC
  5
2DB
100
AcDbEntity
  8
0
100
AcDbCircle
 62
7
  6
BYLAYER
 10
38.3178041296
 20
57.222434221
 40
21.9063461834
100
AcDbArc
 50
46.2540331268
 51
47.202945735
  0
ARC
  5
2DC
100
AcDbEntity
  8
0
100
AcDbCircle
 62
7
  6
BYLAYER
 10
39.3836272975
 20
58.5041064929
 40
20.3460729399
100
AcDbArc
 50
49.6797716196
 51
50.5328734783
  0
ARC
  5
2DD
100
AcDbEntity
  8
0
100
AcDbCircle
 62
7
  6
BYLAYER
 10
41.0973022292
 20
55.683788999
 40
20.2673410863
100
AcDbArc
 50
9.4658726726
 51
10.3222987194
  0
ARC
  5
2DE
100
AcDbEntity
  8
0
100
AcDbCircle
 62
7
  6
BYLAYER
 10
41.1532473241
 20
55.7507420354
 40
20.0930920825
100
AcDbArc
 50
9.3039571558
 51
10.3077098257
  0
ARC
  5
2DF
100
AcDbEntity
  8
0
100
AcDbCircle
 62
7
  6
BYLAYER
 10
41.3412069583
 20
55.724726847
 40
20.0200247876
100
AcDbArc
 50
9.28706044
 51
9.4651061678
  0
ARC
  5
2E0
100
AcDbEntity
  8
0
100
AcDbCircle
 62
7
  6
BYLAYER
 10
39.591781311
 20
58.7555761128
 40
20.0196310166
100
AcDbArc
 50
50.5353053083
 51
50.713358018
  0
ARC
  5
2E1
100
AcDbEntity
  8
0
100
AcDbCircle
 62
7
  6
BYLAYER
 10
39.5792863502
 20
58.6505330806
 40
20.0006136787
100
AcDbArc
 50
49.6903844947
 51
50.698771895
  0
ARC
  5
2E2
100
AcDbEntity
  8
0
100
AcDbCircle
 62
7
  6
BYLAYER
 10
40.6254918945
 20
60.0857827119
 40
18.3347971768
100
AcDbArc
 50
53.3427615283
 51
54.2328771924
  0
ARC
  5
2E3
100
AcDbEntity
  8
0
100
AcDbCircle
 62
7
  6
BYLAYER
 10
43.1550870756
 20
55.970664696
 40
18.1893023204
100
AcDbArc
 50
5.5505253054
 51
6.6611973851
  0
ARC
  5
2E4
100
AcDbEntity
  8
0
100
AcDbCircle
 62
7
  6
BYLAYER
 10
43.1301753561
 20
56.0305346147
 40
18.0961470359
100
AcDbArc
 50
5.5677689492
 51
6.6439537413
  0
ARC
  5
2E5
100
AcDbEntity
  8
0
100
AcDbCircle
 62
7
  6
BYLAYER
 10
40.8069448149
 20
60.2285488256
 40
18.0009761021
100
AcDbArc
 50
53.3536683006
 51
54.435535042
  0
ARC
  5
2E6
100
AcDbEntity
  8
0
100
AcDbCircle
 62
7
  6
BYLAYER
 10
40.821678145
 20
60.3566285118
 40
18.0003637653
100
AcDbArc
 50
54.2356723531
 51
54.4513406825
  0
ARC
  5
2E7
100
AcDbEntity
  8
0
100
AcDbCircle
 62
7
  6
BYLAYER
 10
45.1881815903
 20
56.1144784203
 40
16.1507531393
100
AcDbArc
 50
1.5179846205
 51
2.7203804167
  0
ARC
  5
2E8
100
AcDbEntity
  8
0
100
AcDbCircle
 62
7
  6
BYLAYER
 10
45.1424735583
 20
56.1795465067
 40
16.0779687998
100
AcDbArc
 50
1.5370122245
 51
2.7013528128
  0
ARC
  5
2E9
100
AcDbEntity
  8
0
100
AcDbCircle
 62
7
  6
BYLAYER
 10
52.9995301661
 20
60.4654866501
 40
14.2665549313
100
AcDbArc
 50
0.0001018429
 51
0.6280911832
  0
ARC
  5
2EA
100
AcDbEntity
  8
0
100
AcDbCircle
 62
7
  6
BYLAYER
 10
47.1719465062
 20
56.1108747042
 40
14.1665541942
100
AcDbArc
 50
357.1301606253
 51
358.4424825567
  0
ARC
  5
2EB
100
AcDbEntity
  8
0
100
AcDbCircle
 62
7
  6
BYLAYER
 10
47.1096717607
 20
56.1830213596
 40
14.110341281
100
AcDbArc
 50
357.1512714947
 51
358.4213716873
  0
ARC
  5
2EC
100
AcDbEntity
  8
0
100
AcDbCircle
 62
7
  6
BYLAYER
 10
49.0314386846
 20
55.9602077773
 40
12.3004822643
100
AcDbArc
 50
352.32058636
 51
353.7625924666
  0
ARC
  5
2ED
100
AcDbEntity
  8
0
100
AcDbCircle
 62
7
  6
BYLAYER
 10
48.9572057787
 20
56.0406159386
 40
12.2568460649
100
AcDbArc
 50
352.3440780885
 51
353.7391007381
  0
ARC
  5
2EE
100
AcDbEntity
  8
0
100
AcDbCircle
 62
7
  6
BYLAYER
 10
46.6379658112
 20
51.6239098378
 40
10.8042462481
100
AcDbArc
 50
344.1480847354
 51
344.3494570252
  0
ARC
  5
2EF
100
AcDbEntity
  8
0
100
AcDbCircle
 62
7
  6
BYLAYER
 10
50.7025664249
 20
55.6773962239
 40
10.6050574698
100
AcDbArc
 50
347.0193975964
 51
348.6113338889
  0
ARC
  5
2F0
100
AcDbEntity
  8
0
100
AcDbCircle
 62
7
  6
BYLAYER
 10
50.6210460232
 20
55.7664243258
 40
10.5700337699
100
AcDbArc
 50
347.0455213968
 51
348.5852100885
  0
ARC
  5
2F1
100
AcDbEntity
  8
0
100
AcDbCircle
 62
7
  6
BYLAYER
 10
47.3496959141
 20
51.4087893034
 40
10.0608298081
100
AcDbArc
 50
339.3148358048
 51
344.2194377147
  0
ARC
  5
2F2
100
AcDbEntity
  8
0
100
AcDbCircle
 62
7
  6
BYLAYER
 10
52.1359805573
 20
55.2908709097
 40
9.1198713295
100
AcDbArc
 50
341.1592903256
 51
342.9196825971
  0
ARC
  5
2F3
100
AcDbEntity
  8
0
100
AcDbCircle
 62
7
  6
BYLAYER
 10
52.0515900945
 20
55.3879840265
 40
9.0897109007
100
AcDbArc
 50
341.1881749971
 51
342.8907979256
  0
ARC
  5
2F4
100
AcDbEntity
  8
0
100
AcDbCircle
 62
7
  6
BYLAYER
 10
53.2999463572
 20
54.8405677699
 40
7.8712502522
100
AcDbArc
 50
334.6864130185
 51
336.6282629079
  0
ARC
  5
2F5
100
AcDbEntity
  8
0
100
AcDbCircle
 62
7
  6
BYLAYER
 10
53.2165576555
 20
54.9443319664
 40
7.8425409983
100
AcDbArc
 50
334.7179548699
 51
336.5967210566
  0
ARC
  5
2F6
100
AcDbEntity
  8
0
100
AcDbCircle
 62
7
  6
BYLAYER
 10
55.1921753043
 20
54.2478067981
 40
6.3901782439
100
AcDbArc
 50
322.3051301281
 51
323.6199502033
  0
ARC
  5
2F7
100
AcDbEntity
  8
0
100
AcDbCircle
 62
7
  6
BYLAYER
 10
-11.565471299
 20
78.5570073881
 40
78.6329000045
100
AcDbArc
 50
334.9193538563
 51
335.2690418504
  0
ARC
  5
2F8
100
AcDbEntity
  8
0
100
AcDbCircle
 62
7
  6
BYLAYER
 10
-5.4981008209
 20
81.6323438636
 40
78.1802679907
100
AcDbArc
 50
334.9183415774
 51
335.2700541294
  0
ARC
  5
2F9
100
AcDbEntity
  8
0
100
AcDbCircle
 62
7
  6
BYLAYER
 10
41.8009612702
 20
61.8097517646
 40
16.247814618
100
AcDbArc
 50
57.2837415477
 51
58.4789443315
  0
ARC
  5
2FA
100
AcDbEntity
  8
0
100
AcDbCircle
 62
7
  6
BYLAYER
 10
41.9362322738
 20
61.8997562465
 40
15.9836195477
100
AcDbArc
 50
57.2957408798
 51
58.4669449994
  0
ARC
  5
2FB
100
AcDbEntity
  8
0
100
AcDbCircle
 62
7
  6
BYLAYER
 10
49.5278369367
 20
66.4838299262
 40
14.2635698552
100
AcDbArc
 50
59.3496671742
 51
59.9995691093
  0
ARC
  5
2FC
100
AcDbEntity
  8
0
100
AcDbCircle
 62
7
  6
BYLAYER
 10
42.7980210105
 20
63.5295392617
 40
14.2594733089
100
AcDbArc
 50
61.5623995727
 51
62.866157907
  0
ARC
  5
2FD
100
AcDbEntity
  8
0
100
AcDbCircle
 62
7
  6
BYLAYER
 10
42.9147918361
 20
63.6016573984
 40
14.0200185883
100
AcDbArc
 50
61.5751429741
 51
62.8534145056
  0
ARC
  5
2FE
100
AcDbEntity
  8
0
100
AcDbCircle
 62
7
  6
BYLAYER
 10
43.5652185721
 20
65.1226425004
 40
12.4908471297
100
AcDbArc
 50
66.2446716225
 51
66.861540921
  0
ARC
  5
2FF
100
AcDbEntity
  8
0
100
AcDbCircle
 62
7
  6
BYLAYER
 10
132.2592281147
 20
-24.2726462248
 40
139.5875824565
100
AcDbArc
 50
132.199524075
 51
132.3591865436
  0
ARC
  5
300
100
AcDbEntity
  8
0
100
AcDbCircle
 62
7
  6
BYLAYER
 10
126.1339203775
 20
-27.0233770913
 40
138.891217699
100
AcDbArc
 50
132.1991238215
 51
132.3595867971
  0
ARC
  5
301
100
AcDbEntity
  8
0
100
AcDbCircle
 62
7
  6
BYLAYER
 10
116.4273826305
 20
21.0094417554
 40
63.0137346457
100
AcDbArc
 50
158.0313311627
 51
158.4367058017
  0
ARC
  5
302
100
AcDbEntity
  8
0
100
AcDbCircle
 62
7
  6
BYLAYER
 10
121.8992903367
 20
24.3492315764
 40
62.8146169492
100
AcDbArc
 50
158.0306886562
 51
158.4373483083
  0
ARC
  5
303
100
AcDbEntity
  8
0
100
AcDbCircle
 62
7
  6
BYLAYER
 10
148.0942655112
 20
67.1612694379
 40
110.5082487904
100
AcDbArc
 50
173.9160362925
 51
174.6748895269
  0
ARC
  5
304
100
AcDbEntity
  8
0
100
AcDbCircle
 62
7
  6
BYLAYER
 10
145.9515574631
 20
83.5436962535
 40
90.8709320969
100
AcDbArc
 50
194.1141288319
 51
194.5354317752
  0
ARC
  5
305
100
AcDbEntity
  8
0
100
AcDbCircle
 62
7
  6
BYLAYER
 10
151.392931763
 20
86.7546310875
 40
90.648563454
100
AcDbArc
 50
194.1136120836
 51
194.5359485236
  0
ARC
  5
306
100
AcDbEntity
  8
0
100
AcDbCircle
 62
7
  6
BYLAYER
 10
77.1654263463
 20
150.2690697686
 40
74.915334715
100
AcDbArc
 50
249.2403811419
 51
249.6555511459
  0
ARC
  5
307
100
AcDbEntity
  8
0
100
AcDbCircle
 62
7
  6
BYLAYER
 10
71.3952352734
 20
146.7007578176
 40
74.592426066
100
AcDbArc
 50
249.2394825079
 51
249.6564497798
  0
SPLINE
  5
308
100
AcDbEntity
  8
0
100
AcDbSpline
 62
7
  6
BYLAYER
 70
0
 71
3
 72
13
 73
9
 74
0
 42
0.0000001
 43
0.0000001
 44
0.0000000001
 40
0.0
 40
0.0
 40
0.0
 40
0.0
 40
0.2893749469
 40
0.5483113081
 40
0.667741162
 40
0.7817666403
 40
0.8919062543
 40
1.0
 40
1.0
 40
1.0
 40
1.0
 10
11.2280007098
 20
42.7679521589
 30
0.0
 10
11.2543347025
 20
42.7527485651
 30
0.0
 10
11.3066739618
 20
42.727823926
 30
0.0
 10
11.3755877399
 20
42.7112180886
 30
0.0
 10
11.4274556693
 20
42.709416742
 30
0.0
 10
11.4634794544
 20
42.713440714
 30
0.0
 10
11.4972768712
 20
42.7227750665
 30
0.0
 10
11.5181605408
 20
42.7325618188
 30
0.0
 10
11.5279973132
 20
42.7382411484
 30
0.0
  0
SPLINE
  5
309
100
AcDbEntity
  8
0
100
AcDbSpline
 62
7
  6
BYLAYER
 70
0
 71
3
 72
9
 73
5
 74
0
 42
0.0000001
 43
0.0000001
 44
0.0000000001
 40
0.0
 40
0.0
 40
0.0
 40
0.0
 40
0.4819042337
 40
1.0
 40
1.0
 40
1.0
 40
1.0
 10
10.8345666634
 20
43.9748991734
 30
0.0
 10
10.8132365091
 20
43.8186461533
 30
0.0
 10
10.7935216818
 20
43.490823938
 30
0.0
 10
10.8147109309
 20
43.1634753931
 30
0.0
 10
10.8345666634
 20
42.9950962729
 30
0.0
  0
SPLINE
  5
30A
100
AcDbEntity
  8
0
100
AcDbSpline
 62
7
  6
BYLAYER
 70
0
 71
3
 72
9
 73
5
 74
0
 42
0.0000001
 43
0.0000001
 44
0.0000000001
 40
0.0
 40
0.0
 40
0.0
 40
0.0
 40
0.4911327536
 40
1.0
 40
1.0
 40
1.0
 40
1.0
 10
14.3336006131
 20
44.3786318971
 30
0.0
 10
14.3861472991
 20
44.146836764
 30
0.0
 10
14.5232634772
 20
43.6813808274
 30
0.0
 10
14.7116341069
 20
43.2344657749
 30
0.0
 10
14.8191484568
 20
43.0129164453
 30
0.0
  0
SPLINE
  5
30B
100
AcDbEntity
  8
0
100
AcDbSpline
 62
7
  6
BYLAYER
 70
0
 71
3
 72
10
 73
6
 74
0
 42
0.0000001
 43
0.0000001
 44
0.0000000001
 40
0.0
 40
0.0
 40
0.0
 40
0.0
 40
0.5093112637
 40
0.7576486596
 40
1.0
 40
1.0
 40
1.0
 40
1.0
 10
15.3223796022
 20
42.1414735296
 30
0.0
 10
15.4658788243
 20
41.9297120497
 30
0.0
 10
15.6969943956
 20
41.6260027843
 30
0.0
 10
16.0355793988
 20
41.2547624092
 30
0.0
 10
16.212724198
 20
41.0831191361
 30
0.0
 10
16.3029055131
 20
41.0013668501
 30
0.0
  0
SPLINE
  5
30C
100
AcDbEntity
  8
0
100
AcDbSpline
 62
7
  6
BYLAYER
 70
0
 71
3
 72
12
 73
8
 74
0
 42
0.0000001
 43
0.0000001
 44
0.0000000001
 40
0.0
 40
0.0
 40
0.0
 40
0.0
 40
0.1081588022
 40
0.2183521463
 40
0.4513532897
 40
0.710426048
 40
1.0
 40
1.0
 40
1.0
 40
1.0
 10
13.5286117208
 20
43.9679540025
 30
0.0
 10
13.536809088
 20
43.9726870092
 30
0.0
 10
13.5525700151
 20
43.9836865205
 30
0.0
 10
13.5808403166
 20
44.0114993487
 30
0.0
 10
13.608845998
 20
44.0571482676
 30
0.0
 10
13.6283255379
 20
44.1233185974
 30
0.0
 10
13.6321672986
 20
44.1715053035
 30
0.0
 10
13.6321672986
 20
44.1968476731
 30
0.0
  0
SPLINE
  5
30D
100
AcDbEntity
  8
0
100
AcDbSpline
 62
7
  6
BYLAYER
 70
0
 71
3
 72
10
 73
6
 74
0
 42
0.0000001
 43
0.0000001
 44
0.0000000001
 40
0.0
 40
0.0
 40
0.0
 40
0.0
 40
0.2417759099
 40
0.4899686663
 40
1.0
 40
1.0
 40
1.0
 40
1.0
 10
14.3735560325
 20
44.4032402707
 30
0.0
 10
14.3981018931
 20
44.2886241798
 30
0.0
 10
14.4555982523
 20
44.0579362579
 30
0.0
 10
14.601702131
 20
43.5954635026
 30
0.0
 10
14.7435026664
 20
43.2551583687
 30
0.0
 10
14.8509494055
 20
43.032455939
 30
0.0
  0
SPLINE
  5
30E
100
AcDbEntity
  8
0
100
AcDbSpline
 62
7
  6
BYLAYER
 70
0
 71
3
 72
10
 73
6
 74
0
 42
0.0000001
 43
0.0000001
 44
0.0000000001
 40
0.0
 40
0.0
 40
0.0
 40
0.0
 40
0.5102620239
 40
0.7584335568
 40
1.0
 40
1.0
 40
1.0
 40
1.0
 10
15.3550421298
 20
42.1594830083
 30
0.0
 10
15.4960742871
 20
41.9523707988
 30
0.0
 10
15.7231083247
 20
41.6557226179
 30
0.0
 10
16.0555953063
 20
41.2940679235
 30
0.0
 10
16.2292850887
 20
41.1274219717
 30
0.0
 10
16.317614049
 20
41.048240617
 30
0.0
  0
SPLINE
  5
30F
100
AcDbEntity
  8
0
100
AcDbSpline
 62
7
  6
BYLAYER
 70
0
 71
3
 72
9
 73
5
 74
0
 42
0.0000001
 43
0.0000001
 44
0.0000000001
 40
0.0
 40
0.0
 40
0.0
 40
0.0
 40
0.2464580839
 40
1.0
 40
1.0
 40
1.0
 40
1.0
 10
16.088816483
 20
41.7950061014
 30
0.0
 10
16.0505797498
 20
41.8369687867
 30
0.0
 10
15.898294127
 20
42.0098212337
 30
0.0
 10
15.7573296686
 20
42.1926008281
 30
0.0
 10
15.6577172539
 20
42.3347481697
 30
0.0
  0
SPLINE
  5
310
100
AcDbEntity
  8
0
100
AcDbSpline
 62
7
  6
BYLAYER
 70
0
 71
3
 72
9
 73
5
 74
0
 42
0.0000001
 43
0.0000001
 44
0.0000000001
 40
0.0
 40
0.0
 40
0.0
 40
0.0
 40
0.2534308131
 40
1.0
 40
1.0
 40
1.0
 40
1.0
 10
15.1536958084
 20
43.2077241396
 30
0.0
 10
15.1279769161
 20
43.2629323979
 30
0.0
 10
15.0300067436
 20
43.4823882798
 30
0.0
 10
14.9462162765
 20
43.7082283043
 30
0.0
 10
14.8927967506
 20
43.8795080867
 30
0.0
  0
SPLINE
  5
311
100
AcDbEntity
  8
0
100
AcDbSpline
 62
7
  6
BYLAYER
 70
0
 71
3
 72
16
 73
12
 74
0
 42
0.0000001
 43
0.0000001
 44
0.0000000001
 40
0.0
 40
0.0
 40
0.0
 40
0.0
 40
0.1231953902
 40
0.258047113
 40
0.3992090347
 40
0.5403668036
 40
0.6752254164
 40
0.7984154772
 40
0.8545637439
 40
0.9067961684
 40
1.0
 40
1.0
 40
1.0
 40
1.0
 10
16.1070513366
 20
39.9102465723
 30
0.0
 10
16.1070513366
 20
39.9480020963
 30
0.0
 10
16.0977072139
 20
40.0271753764
 30
0.0
 10
16.062036994
 20
40.1447154753
 30
0.0
 10
16.0062847891
 20
40.260318734
 30
0.0
 10
15.9340513034
 20
40.3664014841
 30
0.0
 10
15.8500638705
 20
40.4560650171
 30
0.0
 10
15.7723435501
 20
40.5141040728
 30
0.0
 10
15.7088622475
 20
40.5462847624
 30
0.0
 10
15.6505832903
 20
40.5669352019
 30
0.0
 10
15.6051698
 20
40.5725246033
 30
0.0
 10
15.5767190427
 20
40.5699830559
 30
0.0
  0
SPLINE
  5
312
100
AcDbEntity
  8
0
100
AcDbSpline
 62
7
  6
BYLAYER
 70
0
 71
3
 72
12
 73
8
 74
0
 42
0.0000001
 43
0.0000001
 44
0.0000000001
 40
0.0
 40
0.0
 40
0.0
 40
0.0
 40
0.1081588022
 40
0.2183521463
 40
0.4513532897
 40
0.710426048
 40
1.0
 40
1.0
 40
1.0
 40
1.0
 10
13.5286117208
 20
41.1101955426
 30
0.0
 10
13.536809088
 20
41.1149285492
 30
0.0
 10
13.5525700151
 20
41.1259280606
 30
0.0
 10
13.5808403166
 20
41.1537408887
 30
0.0
 10
13.608845998
 20
41.1993898077
 30
0.0
 10
13.6283255379
 20
41.2655601374
 30
0.0
 10
13.6321672986
 20
41.3137468436
 30
0.0
 10
13.6321672986
 20
41.3390892131
 30
0.0
  0
SPLINE
  5
313
100
AcDbEntity
  8
0
100
AcDbSpline
 62
7
  6
BYLAYER
 70
0
 71
3
 72
16
 73
12
 74
0
 42
0.0000001
 43
0.0000001
 44
0.0000000001
 40
0.0
 40
0.0
 40
0.0
 40
0.0
 40
0.1231953902
 40
0.258047113
 40
0.3992090347
 40
0.5403668036
 40
0.6752254164
 40
0.7984154772
 40
0.8545637439
 40
0.9067961684
 40
1.0
 40
1.0
 40
1.0
 40
1.0
 10
13.6321672986
 20
41.3390892131
 30
0.0
 10
13.6321672986
 20
41.3768447372
 30
0.0
 10
13.6228231758
 20
41.4560180172
 30
0.0
 10
13.5871529559
 20
41.5735581161
 30
0.0
 10
13.5314007511
 20
41.6891613748
 30
0.0
 10
13.4591672654
 20
41.795244125
 30
0.0
 10
13.3751798325
 20
41.8849076579
 30
0.0
 10
13.297459512
 20
41.9429467136
 30
0.0
 10
13.2339782095
 20
41.9751274033
 30
0.0
 10
13.1756992523
 20
41.9957778427
 30
0.0
 10
13.130285762
 20
42.0013672441
 30
0.0
 10
13.1018350047
 20
41.9988256967
 30
0.0
  0
SPLINE
  5
314
100
AcDbEntity
  8
0
100
AcDbSpline
 62
7
  6
BYLAYER
 70
0
 71
3
 72
16
 73
12
 74
0
 42
0.0000001
 43
0.0000001
 44
0.0000000001
 40
0.0
 40
0.0
 40
0.0
 40
0.0
 40
0.1231953902
 40
0.258047113
 40
0.3992090347
 40
0.5403668036
 40
0.6752254164
 40
0.7984154772
 40
0.8545637439
 40
0.9067961684
 40
1.0
 40
1.0
 40
1.0
 40
1.0
 10
13.6321672986
 20
44.1968476731
 30
0.0
 10
13.6321672986
 20
44.2346031971
 30
0.0
 10
13.6228231758
 20
44.3137764772
 30
0.0
 10
13.5871529559
 20
44.431316576
 30
0.0
 10
13.5314007511
 20
44.5469198347
 30
0.0
 10
13.4591672654
 20
44.6530025849
 30
0.0
 10
13.3751798325
 20
44.7426661179
 30
0.0
 10
13.297459512
 20
44.8007051735
 30
0.0
 10
13.2339782095
 20
44.8328858632
 30
0.0
 10
13.1756992523
 20
44.8535363027
 30
0.0
 10
13.130285762
 20
44.8591257041
 30
0.0
 10
13.1018350047
 20
44.8565841567
 30
0.0
  0
SPLINE
  5
315
100
AcDbEntity
  8
0
100
AcDbSpline
 62
7
  6
BYLAYER
 70
0
 71
3
 72
12
 73
8
 74
0
 42
0.0000001
 43
0.0000001
 44
0.0000000001
 40
0.0
 40
0.0
 40
0.0
 40
0.0
 40
0.1081588022
 40
0.2183521463
 40
0.4513532897
 40
0.710426048
 40
1.0
 40
1.0
 40
1.0
 40
1.0
 10
16.0034957588
 20
39.6813529018
 30
0.0
 10
16.011693126
 20
39.6860859084
 30
0.0
 10
16.0274540531
 20
39.6970854198
 30
0.0
 10
16.0557243546
 20
39.7248982479
 30
0.0
 10
16.083730036
 20
39.7705471668
 30
0.0
 10
16.1032095759
 20
39.8367174966
 30
0.0
 10
16.1070513366
 20
39.8849042027
 30
0.0
 10
16.1070513366
 20
39.9102465723
 30
0.0
  0
SPLINE
  5
316
100
AcDbEntity
  8
0
100
AcDbSpline
 62
7
  6
BYLAYER
 70
0
 71
3
 72
20
 73
16
 74
0
 42
0.0000001
 43
0.0000001
 44
0.0000000001
 40
0.0
 40
0.0
 40
0.0
 40
0.0
 40
0.042830643
 40
0.0874315975
 40
0.1352355152
 40
0.1871658285
 40
0.2436371251
 40
0.3046207164
 40
0.3697449191
 40
0.4383825597
 40
0.5826342201
 40
0.7296952553
 40
0.8711913078
 40
0.9376006195
 40
1.0
 40
1.0
 40
1.0
 40
1.0
 10
11.5279973132
 20
42.7382411484
 30
0.0
 10
11.5427889957
 20
42.7467812302
 30
0.0
 10
11.5708305326
 20
42.7682411096
 30
0.0
 10
11.6045756809
 20
42.8109110745
 30
0.0
 10
11.6297872184
 20
42.8630964587
 30
0.0
 10
11.6461199497
 20
42.9235182205
 30
0.0
 10
11.6533878273
 20
42.9909081077
 30
0.0
 10
11.6515279045
 20
43.0638758931
 30
0.0
 10
11.6406285321
 20
43.1409249355
 30
0.0
 10
11.6139010784
 20
43.2486804144
 30
0.0
 10
11.559784241
 20
43.3825303327
 30
0.0
 10
11.4690173927
 20
43.5301748135
 30
0.0
 10
11.3749769009
 20
43.6371784393
 30
0.0
 10
11.2923771886
 20
43.7066852434
 30
0.0
 10
11.2495506955
 20
43.735313451
 30
0.0
 10
11.2280007098
 20
43.7477550595
 30
0.0
  0
SPLINE
  5
317
100
AcDbEntity
  8
0
100
AcDbSpline
 62
7
  6
BYLAYER
 70
0
 71
3
 72
11
 73
7
 74
0
 42
0.0000001
 43
0.0000001
 44
0.0000000001
 40
0.0
 40
0.0
 40
0.0
 40
0.0
 40
0.224337825
 40
0.4643547528
 40
0.7225623719
 40
1.0
 40
1.0
 40
1.0
 40
1.0
 10
12.0346528062
 20
45.4817416612
 30
0.0
 10
12.144216593
 20
45.4955656579
 30
0.0
 10
12.3743487145
 20
45.5008827241
 30
0.0
 10
12.7273422679
 20
45.4464133379
 30
0.0
 10
13.0927494576
 20
45.3314120198
 30
0.0
 10
13.3324566941
 20
45.2197675665
 30
0.0
 10
13.4528974476
 20
45.1553800234
 30
0.0
  0
SPLINE
  5
318
100
AcDbEntity
  8
0
100
AcDbSpline
 62
7
  6
BYLAYER
 70
0
 71
3
 72
17
 73
13
 74
0
 42
0.0000001
 43
0.0000001
 44
0.0000000001
 40
0.0
 40
0.0
 40
0.0
 40
0.0
 40
0.1534057443
 40
0.300583071
 40
0.4398844105
 40
0.5700999004
 40
0.6905909282
 40
0.7472403521
 40
0.8015785101
 40
0.903910721
 40
0.9525759586
 40
1.0
 40
1.0
 40
1.0
 40
1.0
 10
11.7024725921
 20
38.9522208394
 30
0.0
 10
11.8550845547
 20
38.7678419535
 30
0.0
 10
12.169978887
 20
38.4192900511
 30
0.0
 10
12.6766447813
 20
37.9547877365
 30
0.0
 10
13.1997699318
 20
37.5665279384
 30
0.0
 10
13.7286710652
 20
37.2626087338
 30
0.0
 10
14.1746830601
 20
37.081247426
 30
0.0
 10
14.5237616724
 20
36.9869426807
 30
0.0
 10
14.8516545773
 20
36.9283421889
 30
0.0
 10
15.1745058216
 20
36.91630031
 30
0.0
 10
15.4819843549
 20
36.9567351401
 30
0.0
 10
15.627754196
 20
36.9935902758
 30
0.0
 10
15.6982358076
 20
37.01610842
 30
0.0
  0
SPLINE
  5
319
100
AcDbEntity
  8
0
100
AcDbSpline
 62
7
  6
BYLAYER
 70
0
 71
3
 72
15
 73
11
 74
0
 42
0.0000001
 43
0.0000001
 44
0.0000000001
 40
0.0
 40
0.0
 40
0.0
 40
0.0
 40
0.1293680428
 40
0.2605084581
 40
0.3918456448
 40
0.5218333429
 40
0.6489532947
 40
0.771803696
 40
0.8891499372
 40
1.0
 40
1.0
 40
1.0
 40
1.0
 10
14.9131264808
 20
43.8848583985
 30
0.0
 10
15.0334296364
 20
43.7395135552
 30
0.0
 10
15.2637436982
 20
43.4367464499
 30
0.0
 10
15.5735067659
 20
42.9558611699
 30
0.0
 10
15.8458426928
 20
42.4517638732
 30
0.0
 10
16.0759234909
 20
41.9334314957
 30
0.0
 10
16.2596827888
 20
41.4099874886
 30
0.0
 10
16.3938839904
 20
40.89063382
 30
0.0
 10
16.4761408842
 20
40.384567194
 30
0.0
 10
16.4959698684
 20
40.0515640713
 30
0.0
 10
16.4959675058
 20
39.8898970009
 30
0.0
  0
SPLINE
  5
31A
100
AcDbEntity
  8
0
100
AcDbSpline
 62
7
  6
BYLAYER
 70
0
 71
3
 72
23
 73
19
 74
0
 42
0.0000001
 43
0.0000001
 44
0.0000000001
 40
0.0
 40
0.0
 40
0.0
 40
0.0
 40
0.0723040239
 40
0.145555632
 40
0.2191558892
 40
0.292546183
 40
0.3651475937
 40
0.43640777
 40
0.5058070095
 40
0.5728729769
 40
0.6371985302
 40
0.6984603062
 40
0.7564402117
 40
0.8110490298
 40
0.8623534835
 40
0.9106050932
 40
0.9562632261
 40
1.0
 40
1.0
 40
1.0
 40
1.0
 10
16.3466893435
 20
45.0701345927
 30
0.0
 10
16.4690712002
 20
44.9222783565
 30
0.0
 10
16.7055755004
 20
44.6163250584
 30
0.0
 10
17.0315232263
 20
44.1340102889
 30
0.0
 10
17.3280639447
 20
43.6297054573
 30
0.0
 10
17.5917272357
 20
43.1093978104
 30
0.0
 10
17.8194250916
 20
42.5791138411
 30
0.0
 10
18.0085004562
 20
42.0450665104
 30
0.0
 10
18.1567514728
 20
41.5134817957
 30
0.0
 10
18.2624415852
 20
40.9905448093
 30
0.0
 10
18.3243195314
 20
40.4823221221
 30
0.0
 10
18.3416349122
 20
39.9946837938
 30
0.0
 10
18.3141259342
 20
39.53323343
 30
0.0
 10
18.2419794725
 20
39.1032498329
 30
0.0
 10
18.1258099572
 20
38.709679193
 30
0.0
 10
17.9665879124
 20
38.3570966433
 30
0.0
 10
17.7658761481
 20
38.0499414155
 30
0.0
 10
17.6030008257
 20
37.8753094036
 30
0.0
 10
17.516243325
 20
37.7981560601
 30
0.0
  0
SPLINE
  5
31B
100
AcDbEntity
  8
0
100
AcDbSpline
 62
7
  6
BYLAYER
 70
0
 71
3
 72
19
 73
15
 74
0
 42
0.0000001
 43
0.0000001
 44
0.0000000001
 40
0.0
 40
0.0
 40
0.0
 40
0.0
 40
0.0475027777
 40
0.0956095984
 40
0.1448869445
 40
0.1958344732
 40
0.2488620931
 40
0.3042861736
 40
0.4229850417
 40
0.4865483697
 40
0.5528697061
 40
0.6932956806
 40
0.8429971453
 40
1.0
 40
1.0
 40
1.0
 40
1.0
 10
20.4677370722
 20
51.8714823609
 30
0.0
 10
20.5394697145
 20
51.9128932034
 30
0.0
 10
20.6898808879
 20
51.9862473465
 30
0.0
 10
20.9307452465
 20
52.0648626216
 30
0.0
 10
21.1857938766
 20
52.1120024838
 30
0.0
 10
21.4532127304
 20
52.1273714787
 30
0.0
 10
21.7312576447
 20
52.1110687396
 30
0.0
 10
22.1225320467
 20
52.0458276362
 30
0.0
 10
22.5192439732
 20
51.9171425719
 30
0.0
 10
22.9131431101
 20
51.7357265196
 30
0.0
 10
23.3258478813
 20
51.50722765
 30
0.0
 10
23.837006346
 20
51.1504384983
 30
0.0
 10
24.4208349283
 20
50.6315598176
 30
0.0
 10
24.7818523214
 20
50.2355595847
 30
0.0
 10
24.9564058345
 20
50.024671908
 30
0.0
  0
SPLINE
  5
31C
100
AcDbEntity
  8
0
100
AcDbSpline
 62
7
  6
BYLAYER
 70
0
 71
3
 72
23
 73
19
 74
0
 42
0.0000001
 43
0.0000001
 44
0.0000000001
 40
0.0
 40
0.0
 40
0.0
 40
0.0
 40
0.0738426053
 40
0.1486709363
 40
0.2237980298
 40
0.2985664717
 40
0.3723076341
 40
0.4443891629
 40
0.5142237029
 40
0.5812929248
 40
0.6451703453
 40
0.7055472634
 40
0.7622633662
 40
0.8153419272
 40
0.8650275101
 40
0.9118181608
 40
0.9564770264
 40
1.0
 40
1.0
 40
1.0
 40
1.0
 10
24.9564058345
 20
50.024671908
 30
0.0
 10
25.0859883301
 20
49.8681161848
 30
0.0
 10
25.3357300902
 20
49.5435163844
 30
0.0
 10
25.6775320093
 20
49.0306003769
 30
0.0
 10
25.9855663807
 20
48.4937513742
 30
0.0
 10
26.2557254561
 20
47.9402097664
 30
0.0
 10
26.4844055875
 20
47.3772966444
 30
0.0
 10
26.6685641754
 20
46.812518615
 30
0.0
 10
26.8057483755
 20
46.2533680429
 30
0.0
 10
26.8941289895
 20
45.7072464329
 30
0.0
 10
26.9325064653
 20
45.1813464152
 30
0.0
 10
26.9203025511
 20
44.6825537377
 30
0.0
 10
26.857532493
 20
44.2173652164
 30
0.0
 10
26.7447502874
 20
43.7918358309
 30
0.0
 10
26.5830303832
 20
43.4116056429
 30
0.0
 10
26.3738968966
 20
43.0819511158
 30
0.0
 10
26.1198047108
 20
42.8080452687
 30
0.0
 10
25.9214427676
 20
42.664896776
 30
0.0
 10
25.8177078907
 20
42.6050057822
 30
0.0
  0
SPLINE
  5
31D
100
AcDbEntity
  8
0
100
AcDbSpline
 62
7
  6
BYLAYER
 70
0
 71
3
 72
15
 73
11
 74
0
 42
0.0000001
 43
0.0000001
 44
0.0000000001
 40
0.0
 40
0.0
 40
0.0
 40
0.0
 40
0.1486058177
 40
0.2895003741
 40
0.4227225657
 40
0.5486426469
 40
0.6680011788
 40
0.7819384642
 40
0.8919873012
 40
1.0
 40
1.0
 40
1.0
 40
1.0
 10
23.4255935208
 20
42.5026778444
 30
0.0
 10
23.4255946219
 20
42.3463941707
 30
0.0
 10
23.4130150612
 20
42.0417253624
 30
0.0
 10
23.3530266636
 20
41.6005216877
 30
0.0
 10
23.2528463866
 20
41.1910262406
 30
0.0
 10
23.113245099
 20
40.8171604879
 30
0.0
 10
22.9352875709
 20
40.4825613793
 30
0.0
 10
22.7203459918
 20
40.1906538165
 30
0.0
 10
22.4704368658
 20
39.9446996904
 30
0.0
 10
22.2813011261
 20
39.8127151763
 30
0.0
 10
22.1829263499
 20
39.7559187388
 30
0.0
  0
SPLINE
  5
31E
100
AcDbEntity
  8
0
100
AcDbSpline
 62
7
  6
BYLAYER
 70
0
 71
3
 72
11
 73
7
 74
0
 42
0.0000001
 43
0.0000001
 44
0.0000000001
 40
0.0
 40
0.0
 40
0.0
 40
0.0
 40
0.2365849857
 40
0.4789112104
 40
0.73205943
 40
1.0
 40
1.0
 40
1.0
 40
1.0
 10
12.2938821067
 20
47.9028962459
 30
0.0
 10
12.1818442045
 20
47.8382114359
 30
0.0
 10
11.9673359199
 20
47.6846508862
 30
0.0
 10
11.6904277855
 20
47.3925608696
 30
0.0
 10
11.4599884645
 20
47.0421541905
 30
0.0
 10
11.3426790965
 20
46.781123155
 30
0.0
 10
11.2918526027
 20
46.6437054965
 30
0.0
  0
SPLINE
  5
31F
100
AcDbEntity
  8
0
100
AcDbSpline
 62
7
  6
BYLAYER
 70
0
 71
3
 72
15
 73
11
 74
0
 42
0.0000001
 43
0.0000001
 44
0.0000000001
 40
0.0
 40
0.0
 40
0.0
 40
0.0
 40
0.1080127572
 40
0.21806165
 40
0.3319990073
 40
0.4513576276
 40
0.5772777375
 40
0.7105000912
 40
0.8513948522
 40
1.0
 40
1.0
 40
1.0
 40
1.0
 10
16.1829532113
 20
50.1482390922
 30
0.0
 10
16.2813280277
 20
50.2050355528
 30
0.0
 10
16.4901985642
 20
50.3028383459
 30
0.0
 10
16.8281561919
 20
50.3962874285
 30
0.0
 10
17.1884267736
 20
50.4364765804
 30
0.0
 10
17.5671769204
 20
50.4232905067
 30
0.0
 10
17.9607547321
 20
50.3572540785
 30
0.0
 10
18.3654780468
 20
50.2392625898
 30
0.0
 10
18.7775642206
 20
50.070609424
 30
0.0
 10
19.0477043224
 20
49.9291692621
 30
0.0
 10
19.183048424
 20
49.8510262258
 30
0.0
  0
SPLINE
  5
320
100
AcDbEntity
  8
0
100
AcDbSpline
 62
7
  6
BYLAYER
 70
0
 71
3
 72
15
 73
11
 74
0
 42
0.0000001
 43
0.0000001
 44
0.0000000001
 40
0.0
 40
0.0
 40
0.0
 40
0.0
 40
0.147398144
 40
0.2873519624
 40
0.4199884334
 40
0.5457304785
 40
0.6653321231
 40
0.7799054112
 40
0.8908919953
 40
1.0
 40
1.0
 40
1.0
 40
1.0
 10
16.4939289761
 20
39.8872820006
 30
0.0
 10
16.4906042467
 20
39.7862570872
 30
0.0
 10
16.4760681843
 20
39.5894408654
 30
0.0
 10
16.4282604782
 20
39.3049781222
 30
0.0
 10
16.3553656831
 20
39.0411618596
 30
0.0
 10
16.2578897029
 20
38.8003000048
 30
0.0
 10
16.1365153811
 20
38.5845418985
 30
0.0
 10
15.9921529774
 20
38.3958782284
 30
0.0
 10
15.8260215836
 20
38.2362464147
 30
0.0
 10
15.7012526763
 20
38.1499378072
 30
0.0
 10
15.6364549411
 20
38.1125271797
 30
0.0
  0
SPLINE
  5
321
100
AcDbEntity
  8
0
100
AcDbSpline
 62
7
  6
BYLAYER
 70
0
 71
3
 72
11
 73
7
 74
0
 42
0.0000001
 43
0.0000001
 44
0.0000000001
 40
0.0
 40
0.0
 40
0.0
 40
0.0
 40
0.2679430956
 40
0.5210918705
 40
0.7634170082
 40
1.0
 40
1.0
 40
1.0
 40
1.0
 10
16.702193243
 20
37.2724228999
 30
0.0
 10
16.8466275024
 20
37.2477208115
 30
0.0
 10
17.1313691658
 20
37.2187805659
 30
0.0
 10
17.5500922795
 20
37.2431281599
 30
0.0
 10
17.9415427766
 20
37.3368898514
 30
0.0
 10
18.1818075931
 20
37.4458854534
 30
0.0
 10
18.2938552452
 20
37.5105758925
 30
0.0
  0
SPLINE
  5
322
100
AcDbEntity
  8
0
100
AcDbSpline
 62
7
  6
BYLAYER
 70
0
 71
3
 72
11
 73
7
 74
0
 42
0.0000001
 43
0.0000001
 44
0.0000000001
 40
0.0
 40
0.0
 40
0.0
 40
0.0
 40
0.2325810675
 40
0.4780121557
 40
0.7345771936
 40
1.0
 40
1.0
 40
1.0
 40
1.0
 10
13.4554765652
 20
45.1562123589
 30
0.0
 10
13.5859671125
 20
45.0808739145
 30
0.0
 10
13.8456918536
 20
44.9110464715
 30
0.0
 10
14.217768804
 20
44.6133575816
 30
0.0
 10
14.5779869682
 20
44.2698687366
 30
0.0
 10
14.8034846597
 20
44.0173226986
 30
0.0
 10
14.9131264808
 20
43.8848583985
 30
0.0
  0
SPLINE
  5
323
100
AcDbEntity
  8
0
100
AcDbSpline
 62
7
  6
BYLAYER
 70
0
 71
3
 72
23
 73
19
 74
0
 42
0.0000001
 43
0.0000001
 44
0.0000000001
 40
0.0
 40
0.0
 40
0.0
 40
0.0
 40
0.0437751883
 40
0.0895057233
 40
0.1378466969
 40
0.1892418399
 40
0.243931657
 40
0.3019759779
 40
0.3632800717
 40
0.4276229062
 40
0.4946816121
 40
0.5640509894
 40
0.635260594
 40
0.7077953693
 40
0.7811061445
 40
0.8546191198
 40
0.9277848752
 40
1.0
 40
1.0
 40
1.0
 40
1.0
 10
10.5678424479
 20
45.9022638869
 30
0.0
 10
10.4857304896
 20
45.8276000959
 30
0.0
 10
10.3317257199
 20
45.6590282205
 30
0.0
 10
10.1423829751
 20
45.3635759725
 30
0.0
 10
9.9925546053
 20
45.0251589987
 30
0.0
 10
9.88368107
 20
44.6479960602
 30
0.0
 10
9.8166698539
 20
44.2364266191
 30
0.0
 10
9.7921109377
 20
43.7951445896
 30
0.0
 10
9.8101534514
 20
43.3291661166
 30
0.0
 10
9.8705219019
 20
42.8438078213
 30
0.0
 10
9.9724974925
 20
42.3446333909
 30
0.0
 10
10.1148972298
 20
41.8373948477
 30
0.0
 10
10.2960518543
 20
41.327946029
 30
0.0
 10
10.5138676979
 20
40.8221843421
 30
0.0
 10
10.7658216159
 20
40.3259908146
 30
0.0
 10
11.0489957881
 20
39.8450657659
 30
0.0
 10
11.360093434
 20
39.3850881516
 30
0.0
 10
11.5857330524
 20
39.0932602828
 30
0.0
 10
11.7024725921
 20
38.9522208394
 30
0.0
  0
SPLINE
  5
324
100
AcDbEntity
  8
0
100
AcDbSpline
 62
7
  6
BYLAYER
 70
0
 71
3
 72
17
 73
13
 74
0
 42
0.0000001
 43
0.0000001
 44
0.0000000001
 40
0.0
 40
0.0
 40
0.0
 40
0.0
 40
0.0474021529
 40
0.0960194544
 40
0.1982149472
 40
0.2524843261
 40
0.3090725805
 40
0.4294830913
 40
0.5596927618
 40
0.6990691413
 40
0.8463919704
 40
1.0
 40
1.0
 40
1.0
 40
1.0
 10
12.1539959731
 20
47.0856335013
 30
0.0
 10
12.227614304
 20
47.1100559426
 30
0.0
 10
12.3799762788
 20
47.1502817971
 30
0.0
 10
12.7017120735
 20
47.1956717322
 30
0.0
 10
13.0400388426
 20
47.1855918329
 30
0.0
 10
13.3838529696
 20
47.1262366195
 30
0.0
 10
13.7501185576
 20
47.0292448749
 30
0.0
 10
14.2183870183
 20
46.8408315183
 30
0.0
 10
14.7738614248
 20
46.5234424046
 30
0.0
 10
15.3234105368
 20
46.116858039
 30
0.0
 10
15.8556997859
 20
45.6296592161
 30
0.0
 10
16.1864244954
 20
45.2637593494
 30
0.0
 10
16.3466893435
 20
45.0701345927
 30
0.0
  0
SPLINE
  5
325
100
AcDbEntity
  8
0
100
AcDbSpline
 62
7
  6
BYLAYER
 70
0
 71
3
 72
11
 73
7
 74
0
 42
0.0000001
 43
0.0000001
 44
0.0000000001
 40
0.0
 40
0.0
 40
0.0
 40
0.0
 40
0.2654284957
 40
0.5219849272
 40
0.7674199866
 40
1.0
 40
1.0
 40
1.0
 40
1.0
 10
21.4562418403
 20
48.0038633463
 30
0.0
 10
21.3198240125
 20
48.1686772092
 30
0.0
 10
21.0392668403
 20
48.4828923792
 30
0.0
 10
20.5910839875
 20
48.9102530775
 30
0.0
 10
20.1281596099
 20
49.2806379436
 30
0.0
 10
19.8050067778
 20
49.4919288012
 30
0.0
 10
19.6426541485
 20
49.5856656339
 30
0.0
  0
SPLINE
  5
326
100
AcDbEntity
  8
0
100
AcDbSpline
 62
7
  6
BYLAYER
 70
0
 71
3
 72
11
 73
7
 74
0
 42
0.0000001
 43
0.0000001
 44
0.0000000001
 40
0.0
 40
0.0
 40
0.0
 40
0.0
 40
0.2325800134
 40
0.4780150728
 40
0.7345715043
 40
1.0
 40
1.0
 40
1.0
 40
1.0
 10
19.183048424
 20
49.8510262258
 30
0.0
 10
19.3651261391
 20
49.745900806
 30
0.0
 10
19.7275405303
 20
49.5089390965
 30
0.0
 10
20.2467080565
 20
49.0935542
 30
0.0
 10
20.7493430317
 20
48.6142711738
 30
0.0
 10
21.0639865893
 20
48.261880329
 30
0.0
 10
21.2169785456
 20
48.0770423519
 30
0.0
  0
SPLINE
  5
327
100
AcDbEntity
  8
0
100
AcDbSpline
 62
7
  6
BYLAYER
 70
0
 71
3
 72
18
 73
14
 74
0
 42
0.0000001
 43
0.0000001
 44
0.0000000001
 40
0.0
 40
0.0
 40
0.0
 40
0.0
 40
0.1555687892
 40
0.3042849943
 40
0.4443175958
 40
0.5743611099
 40
0.6938605199
 40
0.7498045664
 40
0.8033683773
 40
0.8547993957
 40
0.9044273809
 40
0.9526665538
 40
1.0
 40
1.0
 40
1.0
 40
1.0
 10
16.2052685761
 20
44.9884857619
 30
0.0
 10
16.0360281212
 20
45.1929544416
 30
0.0
 10
15.6863425269
 20
45.5779642344
 30
0.0
 10
15.1219574597
 20
46.0860725907
 30
0.0
 10
14.5396411597
 20
46.5031059372
 30
0.0
 10
13.9527246701
 20
46.8192390505
 30
0.0
 10
13.4596244704
 20
46.996098087
 30
0.0
 10
13.0767431118
 20
47.0765902915
 30
0.0
 10
12.8032962244
 20
47.106479095
 30
0.0
 10
12.5389462334
 20
47.1070067858
 30
0.0
 10
12.2852551701
 20
47.0780023033
 30
0.0
 10
12.0438479016
 20
47.0196262822
 30
0.0
 10
11.8911387822
 20
46.9608756024
 30
0.0
 10
11.8178721877
 20
46.926907123
 30
0.0
  0
SPLINE
  5
328
100
AcDbEntity
  8
0
100
AcDbSpline
 62
7
  6
BYLAYER
 70
0
 71
3
 72
15
 73
11
 74
0
 42
0.0000001
 43
0.0000001
 44
0.0000000001
 40
0.0
 40
0.0
 40
0.0
 40
0.0
 40
0.1108498626
 40
0.2281958599
 40
0.3510459644
 40
0.478166297
 40
0.6081537931
 40
0.7394929966
 40
0.8706298908
 40
1.0
 40
1.0
 40
1.0
 40
1.0
 10
23.4255901931
 20
43.0333883271
 30
0.0
 10
23.425588776
 20
43.234531916
 30
0.0
 10
23.400926396
 20
43.6488491134
 30
0.0
 10
23.2985818553
 20
44.2784891299
 30
0.0
 10
23.1316130982
 20
44.9246620427
 30
0.0
 10
22.9029807333
 20
45.5759231518
 30
0.0
 10
22.6167182537
 20
46.2208300215
 30
0.0
 10
22.2778777786
 20
46.8480153594
 30
0.0
 10
21.8924779091
 20
47.4463293191
 30
0.0
 10
21.6059237676
 20
47.8230243968
 30
0.0
 10
21.4562418403
 20
48.0038633463
 30
0.0
  0
SPLINE
  5
329
100
AcDbEntity
  8
0
100
AcDbSpline
 62
7
  6
BYLAYER
 70
0
 71
3
 72
25
 73
21
 74
0
 42
0.0000001
 43
0.0000001
 44
0.0000000001
 40
0.0
 40
0.0
 40
0.0
 40
0.0
 40
0.0217138071
 40
0.0435725641
 40
0.0657165095
 40
0.0882769213
 40
0.1350626641
 40
0.1847430283
 40
0.2378160406
 40
0.2945262911
 40
0.3548970282
 40
0.4187678601
 40
0.4858300668
 40
0.5556572121
 40
0.6277311721
 40
0.701464955
 40
0.7762256584
 40
0.8513447474
 40
0.9261651408
 40
1.0
 40
1.0
 40
1.0
 40
1.0
 10
18.2938552452
 20
37.5105758925
 30
0.0
 10
18.3519029412
 20
37.5440895884
 30
0.0
 10
18.4650720455
 20
37.6172734874
 30
0.0
 10
18.6238173145
 20
37.7440760045
 30
0.0
 10
18.7712582041
 20
37.8876611642
 30
0.0
 10
18.9542400382
 20
38.1032562816
 30
0.0
 10
19.1521972149
 20
38.4152075566
 30
0.0
 10
19.3335185806
 20
38.84159006
 30
0.0
 10
19.4600171762
 20
39.3188324164
 30
0.0
 10
19.5304095582
 20
39.8405360545
 30
0.0
 10
19.5440971761
 20
40.3999318365
 30
0.0
 10
19.501056415
 20
40.9897266477
 30
0.0
 10
19.4019377855
 20
41.602199586
 30
0.0
 10
19.2480861677
 20
42.2292839372
 30
0.0
 10
19.04155289
 20
42.8626805227
 30
0.0
 10
18.7850882777
 20
43.4939859274
 30
0.0
 10
18.4821057598
 20
44.1147810509
 30
0.0
 10
18.1366464655
 20
44.7168540293
 30
0.0
 10
17.7533176068
 20
45.2920862119
 30
0.0
 10
17.4732335707
 20
45.6561230341
 30
0.0
 10
17.3279074409
 20
45.8316995056
 30
0.0
  0
SPLINE
  5
32A
100
AcDbEntity
  8
0
100
AcDbSpline
 62
7
  6
BYLAYER
 70
0
 71
3
 72
23
 73
19
 74
0
 42
0.0000001
 43
0.0000001
 44
0.0000000001
 40
0.0
 40
0.0
 40
0.0
 40
0.0
 40
0.0738409047
 40
0.1486720199
 40
0.2237981394
 40
0.2985669637
 40
0.3723087692
 40
0.4443901324
 40
0.5142247372
 40
0.5812942875
 40
0.6451720501
 40
0.7055488424
 40
0.7622647555
 40
0.8153435146
 40
0.8650294053
 40
0.9118200412
 40
0.9564793857
 40
1.0
 40
1.0
 40
1.0
 40
1.0
 10
12.1545874623
 20
39.5451048487
 30
0.0
 10
12.0540724872
 20
39.6665425054
 30
0.0
 10
11.8603479867
 20
39.9183381488
 30
0.0
 10
11.5952087684
 20
40.3162059053
 30
0.0
 10
11.3562651389
 20
40.7326451392
 30
0.0
 10
11.1467006176
 20
41.1620271957
 30
0.0
 10
10.9693139121
 20
41.5986819618
 30
0.0
 10
10.8264648994
 20
42.0367830606
 30
0.0
 10
10.7200496346
 20
42.470516878
 30
0.0
 10
10.6514899503
 20
42.8941451584
 30
0.0
 10
10.6217192281
 20
43.3020876634
 30
0.0
 10
10.6311921227
 20
43.6890017675
 30
0.0
 10
10.6798870983
 20
44.0498479874
 30
0.0
 10
10.7673707782
 20
44.3799325713
 30
0.0
 10
10.8928131997
 20
44.6748800832
 30
0.0
 10
11.0550397183
 20
44.9305961614
 30
0.0
 10
11.252150647
 20
45.1430480792
 30
0.0
 10
11.4060106357
 20
45.2540937357
 30
0.0
 10
11.4864736084
 20
45.3005486047
 30
0.0
  0
SPLINE
  5
32B
100
AcDbEntity
  8
0
100
AcDbSpline
 62
7
  6
BYLAYER
 70
0
 71
3
 72
15
 73
11
 74
0
 42
0.0000001
 43
0.0000001
 44
0.0000000001
 40
0.0
 40
0.0
 40
0.0
 40
0.0
 40
0.0978732236
 40
0.2027962828
 40
0.3158983789
 40
0.4376101796
 40
0.567737491
 40
0.7055930234
 40
0.8501394348
 40
1.0
 40
1.0
 40
1.0
 40
1.0
 10
15.0882757433
 20
37.9313341232
 30
0.0
 10
14.9757448684
 20
37.91713576
 30
0.0
 10
14.7390369524
 20
37.9123239025
 30
0.0
 10
14.3760599483
 20
37.9708469402
 30
0.0
 10
14.0003394124
 20
38.0930246225
 30
0.0
 10
13.6180513702
 20
38.2763787216
 30
0.0
 10
13.2352838131
 20
38.5176926402
 30
0.0
 10
12.8582645509
 20
38.8128528698
 30
0.0
 10
12.4932978306
 20
39.1568831396
 30
0.0
 10
12.2653235646
 20
39.4113184875
 30
0.0
 10
12.1545874623
 20
39.5451048487
 30
0.0
  0
SPLINE
  5
32C
100
AcDbEntity
  8
0
100
AcDbSpline
 62
7
  6
BYLAYER
 70
0
 71
3
 72
21
 73
17
 74
0
 42
0.0000001
 43
0.0000001
 44
0.0000000001
 40
0.0
 40
0.0
 40
0.0
 40
0.0
 40
0.1600288348
 40
0.3116366194
 40
0.3835711445
 40
0.4525931619
 40
0.5185598003
 40
0.5814069301
 40
0.6411644102
 40
0.6979705526
 40
0.7520838667
 40
0.8038953351
 40
0.853922853
 40
0.9028006008
 40
0.9512437837
 40
1.0
 40
1.0
 40
1.0
 40
1.0
 10
15.2083248063
 20
44.3383816989
 30
0.0
 10
15.0236056438
 20
44.5615510546
 30
0.0
 10
14.6407984588
 20
44.9777052284
 30
0.0
 10
14.1132099049
 20
45.4321209557
 30
0.0
 10
13.6788429768
 20
45.7358299694
 30
0.0
 10
13.3569039305
 20
45.9280333147
 30
0.0
 10
13.0356215214
 20
46.0871839561
 30
0.0
 10
12.7173911873
 20
46.2120061387
 30
0.0
 10
12.4046174114
 20
46.3015055807
 30
0.0
 10
12.099650144
 20
46.3549124414
 30
0.0
 10
11.8048004691
 20
46.371651604
 30
0.0
 10
11.5223592203
 20
46.3514689441
 30
0.0
 10
11.2546204342
 20
46.2942790682
 30
0.0
 10
11.0038447875
 20
46.2004140181
 30
0.0
 10
10.7723076457
 20
46.0706120106
 30
0.0
 10
10.6331453195
 20
45.9616433007
 30
0.0
 10
10.5678424479
 20
45.9022638869
 30
0.0
  0
SPLINE
  5
32D
100
AcDbEntity
  8
0
100
AcDbSpline
 62
7
  6
BYLAYER
 70
0
 71
3
 72
18
 73
14
 74
0
 42
0.0000001
 43
0.0000001
 44
0.0000000001
 40
0.0
 40
0.0
 40
0.0
 40
0.0
 40
0.15174953
 40
0.2931405855
 40
0.424498716
 40
0.546959092
 40
0.6055275785
 40
0.662712011
 40
0.7188988954
 40
0.7745093852
 40
0.8299966409
 40
0.8858234245
 40
1.0
 40
1.0
 40
1.0
 40
1.0
 10
16.4959675058
 20
39.8898970009
 30
0.0
 10
16.4959653899
 20
39.7451069186
 30
0.0
 10
16.4810585262
 20
39.4650586585
 30
0.0
 10
16.4085940122
 20
39.0653302418
 30
0.0
 10
16.287631147
 20
38.7065938377
 30
0.0
 10
16.1451549572
 20
38.442703631
 30
0.0
 10
16.0087731619
 20
38.2604553478
 30
0.0
 10
15.8973800186
 20
38.1396016425
 30
0.0
 10
15.7758900294
 20
38.033123898
 30
0.0
 10
15.6447928784
 20
37.9415139706
 30
0.0
 10
15.5046186932
 20
37.8651660805
 30
0.0
 10
15.3051773454
 20
37.7836066516
 30
0.0
 10
15.1454794741
 20
37.7472815573
 30
0.0
 10
15.0373961245
 20
37.7336443519
 30
0.0
  0
SPLINE
  5
32E
100
AcDbEntity
  8
0
100
AcDbSpline
 62
7
  6
BYLAYER
 70
0
 71
3
 72
26
 73
22
 74
0
 42
0.0000001
 43
0.0000001
 44
0.0000000001
 40
0.0
 40
0.0
 40
0.0
 40
0.0
 40
0.0223122615
 40
0.0444531662
 40
0.0665907976
 40
0.0888935826
 40
0.111523402
 40
0.1346307981
 40
0.1827466229
 40
0.2341369708
 40
0.2893114686
 40
0.3484746198
 40
0.4115723052
 40
0.4783405999
 40
0.5483497385
 40
0.6210414032
 40
0.6957601586
 40
0.7717862598
 40
0.8483500049
 40
0.9246867946
 40
1.0
 40
1.0
 40
1.0
 40
1.0
 10
15.6982358076
 20
37.01610842
 30
0.0
 10
15.7574301154
 20
37.0350203877
 30
0.0
 10
15.8735100151
 20
37.0788483307
 30
0.0
 10
16.0393480505
 20
37.1626343643
 30
0.0
 10
16.1952435072
 20
37.2637150244
 30
0.0
 10
16.3405025978
 20
37.3817080768
 30
0.0
 10
16.4745959495
 20
37.5160881651
 30
0.0
 10
16.639936984
 20
37.7190297653
 30
0.0
 10
16.8158911198
 20
38.0141357746
 30
0.0
 10
16.9712502584
 20
38.4177988083
 30
0.0
 10
17.0723606566
 20
38.8696527837
 30
0.0
 10
17.1181224367
 20
39.3628687103
 30
0.0
 10
17.1081699276
 20
39.8902005528
 30
0.0
 10
17.042786756
 20
40.443835546
 30
0.0
 10
16.9230195891
 20
41.0155217857
 30
0.0
 10
16.7506933831
 20
41.5966759042
 30
0.0
 10
16.528425301
 20
42.1785437512
 30
0.0
 10
16.2595749186
 20
42.7523056985
 30
0.0
 10
15.9482228734
 20
43.3093273203
 30
0.0
 10
15.5990911339
 20
43.8410679253
 30
0.0
 10
15.3420696905
 20
44.1767971657
 30
0.0
 10
15.2083248063
 20
44.3383816989
 30
0.0
  0
SPLINE
  5
32F
100
AcDbEntity
  8
0
100
AcDbSpline
 62
7
  6
BYLAYER
 70
0
 71
3
 72
23
 73
19
 74
0
 42
0.0000001
 43
0.0000001
 44
0.0000000001
 40
0.0
 40
0.0
 40
0.0
 40
0.0
 40
0.0734801829
 40
0.1479373134
 40
0.2227064319
 40
0.2971549931
 40
0.3706364926
 40
0.4425375779
 40
0.5122873424
 40
0.579378196
 40
0.6433871544
 40
0.7039996331
 40
0.76103773
 40
0.8144930169
 40
0.86456112
 40
0.9116736087
 40
0.9565143738
 40
1.0
 40
1.0
 40
1.0
 40
1.0
 10
16.6479357472
 20
45.2278031
 30
0.0
 10
16.7755079231
 20
45.0736761544
 30
0.0
 10
17.0215368082
 20
44.7542645715
 30
0.0
 10
17.3588281875
 20
44.2498276548
 30
0.0
 10
17.6635054365
 20
43.7219720298
 30
0.0
 10
17.9316288719
 20
43.1776054048
 30
0.0
 10
18.15972988
 20
42.6237075375
 30
0.0
 10
18.3448628959
 20
42.0674436781
 30
0.0
 10
18.4846407472
 20
41.5159738732
 30
0.0
 10
18.5772563781
 20
40.9763790749
 30
0.0
 10
18.6214952096
 20
40.4555575491
 30
0.0
 10
18.6167287025
 20
39.9601317647
 30
0.0
 10
18.5628932175
 20
39.496369
 30
0.0
 10
18.4604529247
 20
39.0701220095
 30
0.0
 10
18.3103629579
 20
38.686842832
 30
0.0
 10
18.1139903481
 20
38.3516136252
 30
0.0
 10
17.8735248058
 20
38.0694037282
 30
0.0
 10
17.6840465858
 20
37.9183472477
 30
0.0
 10
17.5845600768
 20
37.8541445445
 30
0.0
  0
SPLINE
  5
330
100
AcDbEntity
  8
0
100
AcDbSpline
 62
7
  6
BYLAYER
 70
0
 71
3
 72
11
 73
7
 74
0
 42
0.0000001
 43
0.0000001
 44
0.0000000001
 40
0.0
 40
0.0
 40
0.0
 40
0.0
 40
0.2224605835
 40
0.4617902292
 40
0.7206799047
 40
1.0
 40
1.0
 40
1.0
 40
1.0
 10
11.8734012739
 20
45.5569581864
 30
0.0
 10
11.9954289159
 20
45.5723547856
 30
0.0
 10
12.2527681436
 20
45.5763271618
 30
0.0
 10
12.6471779994
 20
45.5079278234
 30
0.0
 10
13.0552041617
 20
45.3677850141
 30
0.0
 10
13.3217344825
 20
45.2334280705
 30
0.0
 10
13.4554765652
 20
45.1562123589
 30
0.0
  0
SPLINE
  5
331
100
AcDbEntity
  8
0
100
AcDbSpline
 62
7
  6
BYLAYER
 70
0
 71
3
 72
19
 73
15
 74
0
 42
0.0000001
 43
0.0000001
 44
0.0000000001
 40
0.0
 40
0.0
 40
0.0
 40
0.0
 40
0.1569986078
 40
0.3066953435
 40
0.4471181793
 40
0.5769104817
 40
0.6376876102
 40
0.6957230253
 40
0.7511452353
 40
0.8041717831
 40
0.855117365
 40
0.9043935906
 40
0.9524987045
 40
1.0
 40
1.0
 40
1.0
 40
1.0
 10
17.3279074409
 20
45.8316995056
 30
0.0
 10
17.1321462857
 20
46.0682092986
 30
0.0
 10
16.7272906677
 20
46.5123049279
 30
0.0
 10
16.0724313523
 20
47.0942952272
 30
0.0
 10
15.397408277
 20
47.5654531966
 30
0.0
 10
14.8191627311
 20
47.86217523
 30
0.0
 10
14.3621368173
 20
48.029485233
 30
0.0
 10
14.0325870748
 20
48.117959417
 30
0.0
 10
13.7109009889
 20
48.1715817827
 30
0.0
 10
13.3990907928
 20
48.1898804177
 30
0.0
 10
13.0991798929
 20
48.1726215175
 30
0.0
 10
12.8131404818
 20
48.119781305
 30
0.0
 10
12.5430224948
 20
48.0315852717
 30
0.0
 10
12.3743278236
 20
47.9493413847
 30
0.0
 10
12.2938821067
 20
47.9028962459
 30
0.0
  0
SPLINE
  5
332
100
AcDbEntity
  8
0
100
AcDbSpline
 62
7
  6
BYLAYER
 70
0
 71
3
 72
14
 73
10
 74
0
 42
0.0000001
 43
0.0000001
 44
0.0000000001
 40
0.0
 40
0.0
 40
0.0
 40
0.0
 40
0.1453015966
 40
0.2844524794
 40
0.543780744
 40
0.6647828738
 40
0.7805914055
 40
0.8919940685
 40
1.0
 40
1.0
 40
1.0
 40
1.0
 10
10.4148268811
 20
43.4007365136
 30
0.0
 10
10.4148268811
 20
43.4942348005
 30
0.0
 10
10.4211689763
 20
43.6773901905
 30
0.0
 10
10.4599986992
 20
44.0253115099
 30
0.0
 10
10.5379953316
 20
44.3527331477
 30
0.0
 10
10.659211728
 20
44.6486523304
 30
0.0
 10
10.7668879925
 20
44.8457487855
 30
0.0
 10
10.8926909699
 20
45.0216246532
 30
0.0
 10
10.9893884834
 20
45.1251832789
 30
0.0
 10
11.0402190177
 20
45.1725796855
 30
0.0
  0
SPLINE
  5
333
100
AcDbEntity
  8
0
100
AcDbSpline
 62
7
  6
BYLAYER
 70
0
 71
3
 72
11
 73
7
 74
0
 42
0.0000001
 43
0.0000001
 44
0.0000000001
 40
0.0
 40
0.0
 40
0.0
 40
0.0
 40
0.2485532177
 40
0.4952903941
 40
0.7444947395
 40
1.0
 40
1.0
 40
1.0
 40
1.0
 10
11.0402190177
 20
45.1725796855
 30
0.0
 10
11.0967015079
 20
45.2252462
 30
0.0
 10
11.2175825684
 20
45.3217024837
 30
0.0
 10
11.4200695238
 20
45.4355471799
 30
0.0
 10
11.6401719476
 20
45.5162429798
 30
0.0
 10
11.7946385343
 20
45.5470204516
 30
0.0
 10
11.8734012739
 20
45.5569581864
 30
0.0
  0
SPLINE
  5
334
100
AcDbEntity
  8
0
100
AcDbSpline
 62
7
  6
BYLAYER
 70
0
 71
3
 72
15
 73
11
 74
0
 42
0.0000001
 43
0.0000001
 44
0.0000000001
 40
0.0
 40
0.0
 40
0.0
 40
0.0
 40
0.1293701092
 40
0.2605070034
 40
0.3918462069
 40
0.521833703
 40
0.6489540356
 40
0.7718041401
 40
0.8891501374
 40
1.0
 40
1.0
 40
1.0
 40
1.0
 10
21.2169785456
 20
48.0770423519
 30
0.0
 10
21.3848461277
 20
47.8742323151
 30
0.0
 10
21.7062152584
 20
47.4517705457
 30
0.0
 10
22.138439411
 20
46.7807642358
 30
0.0
 10
22.5184474205
 20
46.07737881
 30
0.0
 10
22.8394894537
 20
45.3541187693
 30
0.0
 10
23.0958995825
 20
44.6237324787
 30
0.0
 10
23.2831542634
 20
43.8990525765
 30
0.0
 10
23.3979331876
 20
43.1929142403
 30
0.0
 10
23.4255919315
 20
42.7282594394
 30
0.0
 10
23.4255935208
 20
42.5026778444
 30
0.0
  0
SPLINE
  5
335
100
AcDbEntity
  8
0
100
AcDbSpline
 62
7
  6
BYLAYER
 70
0
 71
3
 72
19
 73
15
 74
0
 42
0.0000001
 43
0.0000001
 44
0.0000000001
 40
0.0
 40
0.0
 40
0.0
 40
0.0
 40
0.0475026022
 40
0.0956090393
 40
0.1448866204
 40
0.1958336036
 40
0.24886161
 40
0.3042853446
 40
0.4229841923
 40
0.4865476576
 40
0.5528695216
 40
0.6932962201
 40
0.8429970735
 40
1.0
 40
1.0
 40
1.0
 40
1.0
 10
12.1592631575
 20
47.0746201934
 30
0.0
 10
12.2309939217
 20
47.1160337755
 30
0.0
 10
12.3814133862
 20
47.1893679045
 30
0.0
 10
12.6222683654
 20
47.268009384
 30
0.0
 10
12.8773210329
 20
47.3151251773
 30
0.0
 10
13.1447382156
 20
47.3305146097
 30
0.0
 10
13.4227823337
 20
47.31419735
 30
0.0
 10
13.8140582212
 20
47.2489681463
 30
0.0
 10
14.2107684524
 20
47.1202752343
 30
0.0
 10
14.6046708088
 20
46.938863527
 30
0.0
 10
15.0173752753
 20
46.7103581087
 30
0.0
 10
15.5285359262
 20
46.35357025
 30
0.0
 10
16.1123652973
 20
45.8346908973
 30
0.0
 10
16.4733820504
 20
45.4386909988
 30
0.0
 10
16.6479357472
 20
45.2278031
 30
0.0
  0
SPLINE
  5
336
100
AcDbEntity
  8
0
100
AcDbSpline
 62
7
  6
BYLAYER
 70
0
 71
3
 72
24
 73
20
 74
0
 42
0.0000001
 43
0.0000001
 44
0.0000000001
 40
0.0
 40
0.0
 40
0.0
 40
0.0
 40
0.0216442698
 40
0.0435453815
 40
0.0885603994
 40
0.1359470249
 40
0.1863273584
 40
0.2400822616
 40
0.2973705643
 40
0.3581603717
 40
0.4222614805
 40
0.4893556281
 40
0.559023276
 40
0.6307657217
 40
0.7040252535
 40
0.7782043223
 40
0.8526741762
 40
0.9268218916
 40
1.0
 40
1.0
 40
1.0
 40
1.0
 10
17.210624385
 20
37.5863429825
 30
0.0
 10
17.2588528694
 20
37.6202713519
 30
0.0
 10
17.3526146849
 20
37.6933205678
 30
0.0
 10
17.5281338813
 20
37.8592976221
 30
0.0
 10
17.7232530814
 20
38.1043564979
 30
0.0
 10
17.9111058781
 20
38.4468314397
 30
0.0
 10
18.0532839689
 20
38.8358653744
 30
0.0
 10
18.148388953
 20
39.2663920724
 30
0.0
 10
18.1955906308
 20
39.7330824448
 30
0.0
 10
18.1944837559
 20
40.2301857391
 30
0.0
 10
18.1451903578
 20
40.75156578
 30
0.0
 10
18.0483830412
 20
41.2907509995
 30
0.0
 10
17.9052968901
 20
41.8410151905
 30
0.0
 10
17.7177358288
 20
42.3954667524
 30
0.0
 10
17.4880559018
 20
42.9471448505
 30
0.0
 10
17.2191490241
 20
43.4890892102
 30
0.0
 10
16.9144079692
 20
44.0145273375
 30
0.0
 10
16.577674523
 20
44.5167505464
 30
0.0
 10
16.3323881784
 20
44.8349055953
 30
0.0
 10
16.2052685761
 20
44.9884857619
 30
0.0
  0
SPLINE
  5
337
100
AcDbEntity
  8
0
100
AcDbSpline
 62
7
  6
BYLAYER
 70
0
 71
3
 72
23
 73
19
 74
0
 42
0.0000001
 43
0.0000001
 44
0.0000000001
 40
0.0
 40
0.0
 40
0.0
 40
0.0
 40
0.0447080383
 40
0.092679262
 40
0.1444347575
 40
0.2001672838
 40
0.2597749723
 40
0.3229312743
 40
0.3891319188
 40
0.457740311
 40
0.5280243219
 40
0.5991896202
 40
0.6704105807
 40
0.740858934
 40
0.8097359129
 40
0.8762959645
 40
0.9398961376
 40
1.0
 40
1.0
 40
1.0
 40
1.0
 10
15.0373961245
 20
37.7336443519
 30
0.0
 10
14.9194438245
 20
37.7187619509
 30
0.0
 10
14.6711722665
 20
37.7140192263
 30
0.0
 10
14.2905114219
 20
37.7765521636
 30
0.0
 10
13.8965228905
 20
37.9064770018
 30
0.0
 10
13.4958236782
 20
38.1011100273
 30
0.0
 10
13.0949171937
 20
38.3569616554
 30
0.0
 10
12.7005096982
 20
38.6695788178
 30
0.0
 10
12.3192766933
 20
39.0335930415
 30
0.0
 10
11.9577387536
 20
39.4427401679
 30
0.0
 10
11.6221172195
 20
39.8899682704
 30
0.0
 10
11.318204139
 20
40.3675517776
 30
0.0
 10
11.0512560048
 20
40.8672324217
 30
0.0
 10
10.8258808185
 20
41.3803723486
 30
0.0
 10
10.6459886102
 20
41.8981003398
 30
0.0
 10
10.5146557106
 20
42.4115347906
 30
0.0
 10
10.4342023503
 20
42.9117659728
 30
0.0
 10
10.4148268811
 20
43.2409085161
 30
0.0
 10
10.4148268811
 20
43.4007365136
 30
0.0
  0
SPLINE
  5
338
100
AcDbEntity
  8
0
100
AcDbSpline
 62
7
  6
BYLAYER
 70
0
 71
3
 72
11
 73
7
 74
0
 42
0.0000001
 43
0.0000001
 44
0.0000000001
 40
0.0
 40
0.0
 40
0.0
 40
0.0
 40
0.2437723439
 40
0.4913812317
 40
0.7433442837
 40
1.0
 40
1.0
 40
1.0
 40
1.0
 10
65.5122276979
 20
65.0804473788
 30
0.0
 10
65.5875936223
 20
64.4496143182
 30
0.0
 10
65.7240892956
 20
63.1761060766
 30
0.0
 10
65.8770622477
 20
61.2445778184
 30
0.0
 10
65.9722148234
 20
59.2756769318
 30
0.0
 10
65.993319787
 20
57.9500092873
 30
0.0
 10
65.993319787
 20
57.2811135507
 30
0.0
  0
SPLINE
  5
339
100
AcDbEntity
  8
0
100
AcDbSpline
 62
7
  6
BYLAYER
 70
0
 71
3
 72
10
 73
6
 74
0
 42
0.0000001
 43
0.0000001
 44
0.0000000001
 40
0.0
 40
0.0
 40
0.0
 40
0.0
 40
0.2518831696
 40
0.5024896748
 40
1.0
 40
1.0
 40
1.0
 40
1.0
 10
59.6293280627
 20
73.6832985564
 30
0.0
 10
60.1446937377
 20
73.0421807469
 30
0.0
 10
61.1529167878
 20
71.7470388699
 30
0.0
 10
63.0795544255
 20
69.1097323891
 30
0.0
 10
64.4367843083
 20
67.0766594847
 30
0.0
 10
65.3101234421
 20
65.7066195849
 30
0.0
  0
SPLINE
  5
33A
100
AcDbEntity
  8
0
100
AcDbSpline
 62
7
  6
BYLAYER
 70
0
 71
3
 72
10
 73
6
 74
0
 42
0.0000001
 43
0.0000001
 44
0.0000000001
 40
0.0
 40
0.0
 40
0.0
 40
0.0
 40
0.2441325353
 40
0.4924923685
 40
1.0
 40
1.0
 40
1.0
 40
1.0
 10
65.993319787
 20
57.2811135507
 30
0.0
 10
65.993319787
 20
56.5998173908
 30
0.0
 10
65.9710478563
 20
55.2253338649
 30
0.0
 10
65.8420300136
 20
52.4373313809
 30
0.0
 10
65.6601076162
 20
50.3348164415
 30
0.0
 10
65.5122276979
 20
48.9262657443
 30
0.0
  0
SPLINE
  5
33B
100
AcDbEntity
  8
0
100
AcDbSpline
 62
7
  6
BYLAYER
 70
0
 71
3
 72
9
 73
5
 74
0
 42
0.0000001
 43
0.0000001
 44
0.0000000001
 40
0.0
 40
0.0
 40
0.0
 40
0.0
 40
0.2442388972
 40
1.0
 40
1.0
 40
1.0
 40
1.0
 10
59.9579539601
 20
46.9380700918
 30
0.0
 10
60.2453071451
 20
46.9743710306
 30
0.0
 10
61.4212199133
 20
47.1278474485
 30
0.0
 10
62.594808572
 20
47.2988051599
 30
0.0
 10
63.480675795
 20
47.4347590214
 30
0.0
  0
SPLINE
  5
33C
100
AcDbEntity
  8
0
100
AcDbSpline
 62
7
  6
BYLAYER
 70
0
 71
3
 72
10
 73
6
 74
0
 42
0.0000001
 43
0.0000001
 44
0.0000000001
 40
0.0
 40
0.0
 40
0.0
 40
0.0
 40
0.5017004551
 40
0.7513723571
 40
1.0
 40
1.0
 40
1.0
 40
1.0
 10
52.9495733783
 20
81.0832163471
 30
0.0
 10
54.1261689214
 20
79.9011718379
 30
0.0
 10
55.8542324347
 20
78.0958907251
 30
0.0
 10
58.0533392922
 20
75.6024003399
 30
0.0
 10
59.1114930843
 20
74.3274882005
 30
0.0
 10
59.6293280627
 20
73.6832985564
 30
0.0
  0
SPLINE
  5
33D
100
AcDbEntity
  8
0
100
AcDbSpline
 62
7
  6
BYLAYER
 70
0
 71
3
 72
9
 73
5
 74
0
 42
0.0000001
 43
0.0000001
 44
0.0000000001
 40
0.0
 40
0.0
 40
0.0
 40
0.0
 40
0.5220649667
 40
1.0
 40
1.0
 40
1.0
 40
1.0
 10
46.9013530101
 20
81.0316265742
 30
0.0
 10
47.8692771707
 20
81.1180926976
 30
0.0
 10
49.7269449798
 20
81.2465819106
 30
0.0
 10
51.5884373166
 20
81.2915747094
 30
0.0
 10
52.4780651627
 20
81.2950220283
 30
0.0
  0
SPLINE
  5
33E
100
AcDbEntity
  8
0
100
AcDbSpline
 62
7
  6
BYLAYER
 70
0
 71
3
 72
9
 73
5
 74
0
 42
0.0000001
 43
0.0000001
 44
0.0000000001
 40
0.0
 40
0.0
 40
0.0
 40
0.0
 40
0.5173175624
 40
1.0
 40
1.0
 40
1.0
 40
1.0
 10
40.3624650854
 20
80.2127179223
 30
0.0
 10
41.4859611916
 20
80.3841883542
 30
0.0
 10
43.6610866277
 20
80.6944571671
 30
0.0
 10
45.8451437326
 20
80.9372738106
 30
0.0
 10
46.9013530101
 20
81.0316265742
 30
0.0
  0
SPLINE
  5
33F
100
AcDbEntity
  8
0
100
AcDbSpline
 62
7
  6
BYLAYER
 70
0
 71
3
 72
15
 73
11
 74
0
 42
0.0000001
 43
0.0000001
 44
0.0000000001
 40
0.0
 40
0.0
 40
0.0
 40
0.0
 40
0.1108410466
 40
0.2280578217
 40
0.3507094054
 40
0.4776259773
 40
0.6074737905
 40
0.7388131852
 40
0.870152484
 40
1.0
 40
1.0
 40
1.0
 40
1.0
 10
63.1649044381
 20
55.6481369352
 30
0.0
 10
63.1649044381
 20
56.3095389313
 30
0.0
 10
63.0856827014
 20
57.6711601606
 30
0.0
 10
62.756288473
 20
59.7407191125
 30
0.0
 10
62.2185033123
 20
61.8651442743
 30
0.0
 10
61.4814482485
 20
64.0084170263
 30
0.0
 10
60.5575832276
 20
66.1345250795
 30
0.0
 10
59.4624903275
 20
68.2075645588
 30
0.0
 10
58.2148117765
 20
70.1923300537
 30
0.0
 10
57.2863547017
 20
71.4464297512
 30
0.0
 10
56.8009127391
 20
72.0503219555
 30
0.0
  0
SPLINE
  5
340
100
AcDbEntity
  8
0
100
AcDbSpline
 62
7
  6
BYLAYER
 70
0
 71
3
 72
15
 73
11
 74
0
 42
0.0000001
 43
0.0000001
 44
0.0000000001
 40
0.0
 40
0.0
 40
0.0
 40
0.0
 40
0.1077143025
 40
0.2184130358
 40
0.3334172855
 40
0.4537806095
 40
0.5802627347
 40
0.7133430463
 40
0.8532816947
 40
1.0
 40
1.0
 40
1.0
 40
1.0
 10
60.1186667528
 20
47.8663811544
 30
0.0
 10
60.3639174594
 20
48.0566254852
 30
0.0
 10
60.8323375826
 20
48.4811023372
 30
0.0
 10
61.4450018809
 20
49.2250954227
 30
0.0
 10
61.9702612712
 20
50.0761457695
 30
0.0
 10
62.4042939122
 20
51.0269003646
 30
0.0
 10
62.7443162867
 20
52.0697614694
 30
0.0
 10
62.9881207383
 20
53.1967046229
 30
0.0
 10
63.1340610434
 20
54.3988793491
 30
0.0
 10
63.1649044381
 20
55.225355328
 30
0.0
 10
63.1649044381
 20
55.6481369352
 30
0.0
  0
SPLINE
  5
341
100
AcDbEntity
  8
0
100
AcDbSpline
 62
7
  6
BYLAYER
 70
0
 71
3
 72
15
 73
11
 74
0
 42
0.0000001
 43
0.0000001
 44
0.0000000001
 40
0.0
 40
0.0
 40
0.0
 40
0.0
 40
0.1491363321
 40
0.2932607248
 40
0.4309986171
 40
0.5612444539
 40
0.6832502543
 40
0.7967301416
 40
0.9019803493
 40
1.0
 40
1.0
 40
1.0
 40
1.0
 10
56.8009127391
 20
72.0503219555
 30
0.0
 10
56.3264306839
 20
72.6405802355
 30
0.0
 10
55.3477405179
 20
73.7655508298
 30
0.0
 10
53.7769514618
 20
75.2933545143
 30
0.0
 10
52.1491450082
 20
76.6135140089
 30
0.0
 10
50.4914161063
 20
77.703683277
 30
0.0
 10
48.8309526734
 20
78.5454510187
 30
0.0
 10
47.1942201982
 20
79.1240491054
 30
0.0
 10
45.6081308218
 20
79.4283503883
 30
0.0
 10
44.5687170669
 20
79.4429390187
 30
0.0
 10
44.0729418591
 20
79.398650346
 30
0.0
  0
SPLINE
  5
342
100
AcDbEntity
  8
0
100
AcDbSpline
 62
7
  6
BYLAYER
 70
0
 71
3
 72
10
 73
6
 74
0
 42
0.0000001
 43
0.0000001
 44
0.0000000001
 40
0.0
 40
0.0
 40
0.0
 40
0.0
 40
0.2441325353
 40
0.4924923685
 40
1.0
 40
1.0
 40
1.0
 40
1.0
 10
63.1649044381
 20
55.6481369352
 30
0.0
 10
63.1649044381
 20
56.3294330952
 30
0.0
 10
63.1871763688
 20
57.703916621
 30
0.0
 10
63.3161942115
 20
60.4919191051
 30
0.0
 10
63.4981166089
 20
62.5944340445
 30
0.0
 10
63.6459965272
 20
64.0029847417
 30
0.0
  0
SPLINE
  5
343
100
AcDbEntity
  8
0
100
AcDbSpline
 62
7
  6
BYLAYER
 70
0
 71
3
 72
10
 73
6
 74
0
 42
0.0000001
 43
0.0000001
 44
0.0000000001
 40
0.0
 40
0.0
 40
0.0
 40
0.0
 40
0.5017004583
 40
0.7513723597
 40
1.0
 40
1.0
 40
1.0
 40
1.0
 10
63.4806757946
 20
64.650393798
 30
0.0
 10
62.3040786891
 20
65.832439877
 30
0.0
 10
60.5760129219
 20
67.6377234231
 30
0.0
 10
58.3769034151
 20
70.1312173306
 30
0.0
 10
57.3187483698
 20
71.4061312641
 30
0.0
 10
56.8009128487
 20
72.0503218625
 30
0.0
  0
SPLINE
  5
344
100
AcDbEntity
  8
0
100
AcDbSpline
 62
7
  6
BYLAYER
 70
0
 71
3
 72
10
 73
6
 74
0
 42
0.0000001
 43
0.0000001
 44
0.0000000001
 40
0.0
 40
0.0
 40
0.0
 40
0.0
 40
0.2518833026
 40
0.5024896861
 40
1.0
 40
1.0
 40
1.0
 40
1.0
 10
56.8009128487
 20
72.0503218625
 30
0.0
 10
56.2855476675
 20
72.6914392414
 30
0.0
 10
55.2773149695
 20
73.9865710037
 30
0.0
 10
53.3506953669
 20
76.6238856064
 30
0.0
 10
51.9934637013
 20
78.6569524904
 30
0.0
 10
51.1201257335
 20
80.0269905617
 30
0.0
  0
SPLINE
  5
345
100
AcDbEntity
  8
0
100
AcDbSpline
 62
7
  6
BYLAYER
 70
0
 71
3
 72
9
 73
5
 74
0
 42
0.0000001
 43
0.0000001
 44
0.0000000001
 40
0.0
 40
0.0
 40
0.0
 40
0.0
 40
0.5173169979
 40
1.0
 40
1.0
 40
1.0
 40
1.0
 10
50.6118339821
 20
80.2175593853
 30
0.0
 10
49.4883377027
 20
80.0460889273
 30
0.0
 10
47.3132091082
 20
79.7358231412
 30
0.0
 10
45.1291496681
 20
79.4930028561
 30
0.0
 10
44.0729378283
 20
79.398649997
 30
0.0
  0
SPLINE
  5
346
100
AcDbEntity
  8
0
100
AcDbSpline
 62
7
  6
BYLAYER
 70
0
 71
3
 72
9
 73
5
 74
0
 42
0.0000001
 43
0.0000001
 44
0.0000000001
 40
0.0
 40
0.0
 40
0.0
 40
0.0
 40
0.5220650339
 40
1.0
 40
1.0
 40
1.0
 40
1.0
 10
44.0729378283
 20
79.398649997
 30
0.0
 10
43.1050149661
 20
79.3121840854
 30
0.0
 10
41.2473499279
 20
79.1836946109
 30
0.0
 10
39.3858603226
 20
79.1387025988
 30
0.0
 10
38.4962339173
 20
79.1352552867
 30
0.0
  0
SPLINE
  5
347
100
AcDbEntity
  8
0
100
AcDbSpline
 62
7
  6
BYLAYER
 70
0
 71
3
 72
11
 73
7
 74
0
 42
0.0000001
 43
0.0000001
 44
0.0000000001
 40
0.0
 40
0.0
 40
0.0
 40
0.0
 40
0.2437723439
 40
0.4913812317
 40
0.7433442837
 40
1.0
 40
1.0
 40
1.0
 40
1.0
 10
63.6459965272
 20
47.8488031071
 30
0.0
 10
63.5706306028
 20
48.4796361677
 30
0.0
 10
63.4341349295
 20
49.7531444093
 30
0.0
 10
63.2811619774
 20
51.6846726676
 30
0.0
 10
63.1860094017
 20
53.6535735542
 30
0.0
 10
63.1649044381
 20
54.9792411987
 30
0.0
 10
63.1649044381
 20
55.6481369352
 30
0.0
  0
SPLINE
  5
348
100
AcDbEntity
  8
0
100
AcDbSpline
 62
7
  6
BYLAYER
 70
0
 71
3
 72
25
 73
21
 74
0
 42
0.0000001
 43
0.0000001
 44
0.0000000001
 40
0.0
 40
0.0
 40
0.0
 40
0.0
 40
0.0734442116
 40
0.1478472194
 40
0.2225451182
 40
0.2968859372
 40
0.3702159961
 40
0.4419162252
 40
0.5114157823
 40
0.5782157423
 40
0.6419123385
 40
0.7022238424
 40
0.7590202376
 40
0.8123551263
 40
0.862496169
 40
0.9099453132
 40
0.9329063339
 40
0.9554874128
 40
0.9778100079
 40
1.0
 40
1.0
 40
1.0
 40
1.0
 10
70.7689034241
 20
79.3413405055
 30
0.0
 10
71.1128334875
 20
78.9258197245
 30
0.0
 10
71.7755437632
 20
78.0643744532
 30
0.0
 10
72.6822726207
 20
76.7031125091
 30
0.0
 10
73.4991239174
 20
75.278414929
 30
0.0
 10
74.2152580748
 20
73.8092916786
 30
0.0
 10
74.8211835232
 20
72.3150572953
 30
0.0
 10
75.3088644894
 20
70.8154127466
 30
0.0
 10
75.6717840597
 20
69.3299765457
 30
0.0
 10
75.9050182632
 20
67.8780478065
 30
0.0
 10
76.0052195371
 20
66.4782968643
 30
0.0
 10
75.9705443435
 20
65.1485122611
 30
0.0
 10
75.8005293035
 20
63.9054677196
 30
0.0
 10
75.4957999852
 20
62.7648462947
 30
0.0
 10
75.0583410344
 20
61.7418770008
 30
0.0
 10
74.5799642077
 20
60.9910675254
 30
0.0
 10
74.1367735663
 20
60.4703114957
 30
0.0
 10
73.7787865769
 20
60.1223676019
 30
0.0
 10
73.3929854893
 20
59.8146176373
 30
0.0
 10
73.1178967497
 20
59.6367968474
 30
0.0
 10
72.976761139
 20
59.555312651
 30
0.0
  0
SPLINE
  5
349
100
AcDbEntity
  8
0
100
AcDbSpline
 62
7
  6
BYLAYER
 70
0
 71
3
 72
9
 73
5
 74
0
 42
0.0000001
 43
0.0000001
 44
0.0000000001
 40
0.0
 40
0.0
 40
0.0
 40
0.0
 40
0.2421786136
 40
1.0
 40
1.0
 40
1.0
 40
1.0
 10
60.5536789614
 20
81.4054922754
 30
0.0
 10
60.6954739559
 20
81.3373808598
 30
0.0
 10
61.275316604
 20
81.0444256603
 30
0.0
 10
61.832280324
 20
80.7068898556
 30
0.0
 10
62.2403987632
 20
80.4316861743
 30
0.0
  0
SPLINE
  5
34A
100
AcDbEntity
  8
0
100
AcDbSpline
 62
7
  6
BYLAYER
 70
0
 71
3
 72
11
 73
7
 74
0
 42
0.0000001
 43
0.0000001
 44
0.0000000001
 40
0.0
 40
0.0
 40
0.0
 40
0.0
 40
0.2365724749
 40
0.4830510295
 40
0.7380646674
 40
1.0
 40
1.0
 40
1.0
 40
1.0
 10
66.6951529376
 20
83.0036243437
 30
0.0
 10
67.0512873013
 20
82.763474724
 30
0.0
 10
67.7579023895
 20
82.2420697078
 30
0.0
 10
68.7737505095
 20
81.3663486011
 30
0.0
 10
69.7580509624
 20
80.3888826553
 30
0.0
 10
70.3793880489
 20
79.6843506383
 30
0.0
 10
70.6826351036
 20
79.3179812324
 30
0.0
  0
SPLINE
  5
34B
100
AcDbEntity
  8
0
100
AcDbSpline
 62
7
  6
BYLAYER
 70
0
 71
3
 72
25
 73
21
 74
0
 42
0.0000001
 43
0.0000001
 44
0.0000000001
 40
0.0
 40
0.0
 40
0.0
 40
0.0
 40
0.0738803227
 40
0.1487258203
 40
0.2238622635
 40
0.2986277164
 40
0.372357481
 40
0.4444206674
 40
0.5142323652
 40
0.5812765488
 40
0.6451286792
 40
0.7054821189
 40
0.7621785194
 40
0.815242674
 40
0.8649197585
 40
0.9117076395
 40
0.9342706308
 40
0.9564183962
 40
0.9782814726
 40
1.0
 40
1.0
 40
1.0
 40
1.0
 10
70.7038127783
 20
79.2923571385
 30
0.0
 10
71.0480428716
 20
78.8752318327
 30
0.0
 10
71.7113689165
 20
78.0106353203
 30
0.0
 10
72.6190236093
 20
76.6448365996
 30
0.0
 10
73.4367692189
 20
75.2158291448
 30
0.0
 10
74.1537112796
 20
73.7427643687
 30
0.0
 10
74.760320724
 20
72.2451214954
 30
0.0
 10
75.2485531902
 20
70.7428086605
 30
0.0
 10
75.6119173452
 20
69.2557046243
 30
0.0
 10
75.8455704016
 20
67.803440519
 30
0.0
 10
75.9463455214
 20
66.4050972933
 30
0.0
 10
75.9127259594
 20
65.0789343301
 30
0.0
 10
75.7447919551
 20
63.8421942901
 30
0.0
 10
75.4439805979
 20
62.7108764678
 30
0.0
 10
75.0133161293
 20
61.7001231534
 30
0.0
 10
74.5434713431
 20
60.9606100769
 30
0.0
 10
74.1092586738
 20
60.44950972
 30
0.0
 10
73.759469127
 20
60.1090517436
 30
0.0
 10
73.3828875879
 20
59.8083634515
 30
0.0
 10
73.1144408911
 20
59.634813868
 30
0.0
 10
72.9767585046
 20
59.5553172137
 30
0.0
  0
SPLINE
  5
34C
100
AcDbEntity
  8
0
100
AcDbSpline
 62
7
  6
BYLAYER
 70
0
 71
3
 72
11
 73
7
 74
0
 42
0.0000001
 43
0.0000001
 44
0.0000000001
 40
0.0
 40
0.0
 40
0.0
 40
0.0
 40
0.2440710868
 40
0.4905836371
 40
0.741859319
 40
1.0
 40
1.0
 40
1.0
 40
1.0
 10
58.7268275688
 20
84.2370689283
 30
0.0
 10
58.89596255
 20
84.3347260469
 30
0.0
 10
59.2484690468
 20
84.5101256322
 30
0.0
 10
59.809573486
 20
84.7081400445
 30
0.0
 10
60.401125054
 20
84.8406740925
 30
0.0
 10
60.8073745148
 20
84.8843442248
 30
0.0
 10
61.0136278747
 20
84.8956342242
 30
0.0
  0
SPLINE
  5
34D
100
AcDbEntity
  8
0
100
AcDbSpline
 62
7
  6
BYLAYER
 70
0
 71
3
 72
9
 73
5
 74
0
 42
0.0000001
 43
0.0000001
 44
0.0000000001
 40
0.0
 40
0.0
 40
0.0
 40
0.0
 40
0.2466954013
 40
1.0
 40
1.0
 40
1.0
 40
1.0
 10
61.0136278747
 20
84.8956342242
 30
0.0
 10
61.0672339087
 20
84.8985685381
 30
0.0
 10
61.2846854579
 20
84.9075027526
 30
0.0
 10
61.5025927527
 20
84.9047184354
 30
0.0
 10
61.6663230874
 20
84.8965200761
 30
0.0
  0
SPLINE
  5
34E
100
AcDbEntity
  8
0
100
AcDbSpline
 62
7
  6
BYLAYER
 70
0
 71
3
 72
10
 73
6
 74
0
 42
0.0000001
 43
0.0000001
 44
0.0000000001
 40
0.0
 40
0.0
 40
0.0
 40
0.0
 40
0.4750522299
 40
0.7311871991
 40
1.0
 40
1.0
 40
1.0
 40
1.0
 10
61.6663230874
 20
84.8965200761
 30
0.0
 10
62.2174885045
 20
84.8689219395
 30
0.0
 10
63.062635045
 20
84.7196551048
 30
0.0
 10
64.1662453196
 20
84.3550468845
 30
0.0
 10
64.7269505043
 20
84.1126410041
 30
0.0
 10
65.0084331358
 20
83.9774304448
 30
0.0
  0
SPLINE
  5
34F
100
AcDbEntity
  8
0
100
AcDbSpline
 62
7
  6
BYLAYER
 70
0
 71
3
 72
29
 73
25
 74
0
 42
0.0000001
 43
0.0000001
 44
0.0000000001
 40
0.0
 40
0.0
 40
0.0
 40
0.0
 40
0.0068171294
 40
0.0125968942
 40
0.0184984718
 40
0.0246615295
 40
0.0310494303
 40
0.0376165383
 40
0.0511531358
 40
0.0650877924
 40
0.0793118872
 40
0.0937585036
 40
0.1083831463
 40
0.1380491373
 40
0.1681458296
 40
0.1985739028
 40
0.229268407
 40
0.2912863864
 40
0.3539609325
 40
0.4807534147
 40
0.6089889557
 40
0.7383525295
 40
0.8686997365
 40
1.0
 40
1.0
 40
1.0
 40
1.0
 10
66.6951529376
 20
83.0036243437
 30
0.0
 10
66.6973792289
 20
83.0049096858
 30
0.0
 10
66.7010073357
 20
83.0087192166
 30
0.0
 10
66.7012523699
 20
83.016025174
 30
0.0
 10
66.6993155202
 20
83.0224940988
 30
0.0
 10
66.6962382462
 20
83.0287629703
 30
0.0
 10
66.6924086347
 20
83.0348782183
 30
0.0
 10
66.6865346469
 20
83.0429658624
 30
0.0
 10
66.6782366487
 20
83.0527773816
 30
0.0
 10
66.6674036404
 20
83.0641790798
 30
0.0
 10
66.655876354
 20
83.075375257
 30
0.0
 10
66.6438334678
 20
83.0864013924
 30
0.0
 10
66.6271567356
 20
83.1009804887
 30
0.0
 10
66.605533691
 20
83.1188574407
 30
0.0
 10
66.578775537
 20
83.1398542609
 30
0.0
 10
66.5513063554
 20
83.1605618088
 30
0.0
 10
66.5137998649
 20
83.1879414535
 30
0.0
 10
66.4658278995
 20
83.2215973341
 30
0.0
 10
66.3872222243
 20
83.2746552409
 30
0.0
 10
66.2865366844
 20
83.3396034663
 30
0.0
 10
66.1632660403
 20
83.4158720705
 30
0.0
 10
66.0377277406
 20
83.4909913838
 30
0.0
 10
65.9102352647
 20
83.5650693006
 30
0.0
 10
65.8243140594
 20
83.6135777965
 30
0.0
 10
65.7810386997
 20
83.6376345995
 30
0.0
  0
SPLINE
  5
350
100
AcDbEntity
  8
0
100
AcDbSpline
 62
7
  6
BYLAYER
 70
0
 71
3
 72
24
 73
20
 74
0
 42
0.0000001
 43
0.0000001
 44
0.0000000001
 40
0.0
 40
0.0
 40
0.0
 40
0.0
 40
0.1198419377
 40
0.2403854953
 40
0.3617522873
 40
0.4841367344
 40
0.5458050903
 40
0.6078665235
 40
0.6704068811
 40
0.7335541039
 40
0.797515454
 40
0.8299099038
 40
0.8626764226
 40
0.8959397473
 40
0.9299158969
 40
0.9472907591
 40
0.9650145293
 40
0.9830666189
 40
1.0
 40
1.0
 40
1.0
 40
1.0
 10
65.7694148949
 20
83.6440871801
 30
0.0
 10
65.7401627362
 20
83.6603026155
 30
0.0
 10
65.6813398178
 20
83.6925635792
 30
0.0
 10
65.5923354973
 20
83.7402223823
 30
0.0
 10
65.5021500645
 20
83.7871651969
 30
0.0
 10
65.4259834549
 20
83.8254382492
 30
0.0
 10
65.3641828715
 20
83.8554159892
 30
0.0
 10
65.3171598266
 20
83.8775834648
 30
0.0
 10
65.2694663004
 20
83.8992873539
 30
0.0
 10
65.220923576
 20
83.920388527
 30
0.0
 10
65.1797033204
 20
83.9372120565
 30
0.0
 10
65.1460098644
 20
83.9499972438
 30
0.0
 10
65.1201214915
 20
83.9591903885
 30
0.0
 10
65.0935575578
 20
83.9677605164
 30
0.0
 10
65.0707755143
 20
83.9740536619
 30
0.0
 10
65.0519387362
 20
83.9781279567
 30
0.0
 10
65.0372339962
 20
83.9804251961
 30
0.0
 10
65.0226470817
 20
83.981248881
 30
0.0
 10
65.0125258292
 20
83.9797933483
 30
0.0
 10
65.0084331358
 20
83.9774304448
 30
0.0
  0
SPLINE
  5
351
100
AcDbEntity
  8
0
100
AcDbSpline
 62
7
  6
BYLAYER
 70
0
 71
3
 72
9
 73
5
 74
0
 42
0.0000001
 43
0.0000001
 44
0.0000000001
 40
0.0
 40
0.0
 40
0.0
 40
0.0
 40
0.2534132489
 40
1.0
 40
1.0
 40
1.0
 40
1.0
 10
32.5516074843
 20
75.6076175811
 30
0.0
 10
32.4989054974
 20
75.1127935422
 30
0.0
 10
32.3033316871
 20
73.1589142852
 30
0.0
 10
32.1644241136
 20
71.1989083784
 30
0.0
 10
32.1060541637
 20
69.7340129067
 30
0.0
  0
SPLINE
  5
352
100
AcDbEntity
  8
0
100
AcDbSpline
 62
7
  6
BYLAYER
 70
0
 71
3
 72
9
 73
5
 74
0
 42
0.0000001
 43
0.0000001
 44
0.0000000001
 40
0.0
 40
0.0
 40
0.0
 40
0.0
 40
0.4792635519
 40
1.0
 40
1.0
 40
1.0
 40
1.0
 10
45.9179923022
 20
43.0672264977
 30
0.0
 10
46.7540632432
 20
43.0748937765
 30
0.0
 10
48.4984370307
 20
43.1247292962
 30
0.0
 10
50.2392354303
 20
43.2475057837
 30
0.0
 10
51.144090412
 20
43.3283378436
 30
0.0
  0
SPLINE
  5
353
100
AcDbEntity
  8
0
100
AcDbSpline
 62
7
  6
BYLAYER
 70
0
 71
3
 72
9
 73
5
 74
0
 42
0.0000001
 43
0.0000001
 44
0.0000000001
 40
0.0
 40
0.0
 40
0.0
 40
0.0
 40
0.5173170029
 40
1.0
 40
1.0
 40
1.0
 40
1.0
 10
34.7056343847
 20
76.9467646897
 30
0.0
 10
35.8291292885
 20
77.1182349382
 30
0.0
 10
38.0042551682
 20
77.4285005697
 30
0.0
 10
40.1883119185
 20
77.6713204972
 30
0.0
 10
41.2445224339
 20
77.7656733553
 30
0.0
  0
SPLINE
  5
354
100
AcDbEntity
  8
0
100
AcDbSpline
 62
7
  6
BYLAYER
 70
0
 71
3
 72
9
 73
5
 74
0
 42
0.0000001
 43
0.0000001
 44
0.0000000001
 40
0.0
 40
0.0
 40
0.0
 40
0.0
 40
0.5220650213
 40
1.0
 40
1.0
 40
1.0
 40
1.0
 10
41.2445224339
 20
77.7656733553
 30
0.0
 10
42.2124466733
 20
77.8521394974
 30
0.0
 10
44.0701144207
 20
77.9806290933
 30
0.0
 10
45.93160673
 20
78.0256214736
 30
0.0
 10
46.8212344548
 20
78.0290687914
 30
0.0
  0
SPLINE
  5
355
100
AcDbEntity
  8
0
100
AcDbSpline
 62
7
  6
BYLAYER
 70
0
 71
3
 72
10
 73
6
 74
0
 42
0.0000001
 43
0.0000001
 44
0.0000000001
 40
0.0
 40
0.0
 40
0.0
 40
0.0
 40
0.5017004551
 40
0.7513723571
 40
1.0
 40
1.0
 40
1.0
 40
1.0
 10
47.2927426797
 20
77.8172631156
 30
0.0
 10
48.4693382516
 20
76.6352185776
 30
0.0
 10
50.1974018152
 20
74.829937427
 30
0.0
 10
52.3965087005
 20
72.3364469599
 30
0.0
 10
53.4546625592
 20
71.061534822
 30
0.0
 10
53.9724975187
 20
70.4173451369
 30
0.0
  0
SPLINE
  5
356
100
AcDbEntity
  8
0
100
AcDbSpline
 62
7
  6
BYLAYER
 70
0
 71
3
 72
10
 73
6
 74
0
 42
0.0000001
 43
0.0000001
 44
0.0000000001
 40
0.0
 40
0.0
 40
0.0
 40
0.0
 40
0.2518832828
 40
0.5024896894
 40
1.0
 40
1.0
 40
1.0
 40
1.0
 10
53.9724975187
 20
70.4173451369
 30
0.0
 10
54.4878634422
 20
69.7762270482
 30
0.0
 10
55.4960958963
 20
68.4810923592
 30
0.0
 10
57.4227210299
 20
65.8437765073
 30
0.0
 10
58.7799536298
 20
63.810706218
 30
0.0
 10
59.6532927418
 20
62.4406663524
 30
0.0
  0
SPLINE
  5
357
100
AcDbEntity
  8
0
100
AcDbSpline
 62
7
  6
BYLAYER
 70
0
 71
3
 72
11
 73
7
 74
0
 42
0.0000001
 43
0.0000001
 44
0.0000000001
 40
0.0
 40
0.0
 40
0.0
 40
0.0
 40
0.2437723439
 40
0.4913812317
 40
0.7433442837
 40
1.0
 40
1.0
 40
1.0
 40
1.0
 10
59.8553970002
 20
61.8144941479
 30
0.0
 10
59.9307629246
 20
61.1836610873
 30
0.0
 10
60.0672585979
 20
59.9101528457
 30
0.0
 10
60.22023155
 20
57.9786245874
 30
0.0
 10
60.3153841257
 20
56.0097237008
 30
0.0
 10
60.3364890893
 20
54.6840560563
 30
0.0
 10
60.3364890893
 20
54.0151603198
 30
0.0
  0
SPLINE
  5
358
100
AcDbEntity
  8
0
100
AcDbSpline
 62
7
  6
BYLAYER
 70
0
 71
3
 72
9
 73
5
 74
0
 42
0.0000001
 43
0.0000001
 44
0.0000000001
 40
0.0
 40
0.0
 40
0.0
 40
0.0
 40
0.4824504973
 40
1.0
 40
1.0
 40
1.0
 40
1.0
 10
51.144090412
 20
43.3283378436
 30
0.0
 10
52.2226165946
 20
43.4246842096
 30
0.0
 10
54.4538008324
 20
43.673776143
 30
0.0
 10
56.6756897577
 20
43.992598625
 30
0.0
 10
57.8238450965
 20
44.16880579
 30
0.0
  0
SPLINE
  5
359
100
AcDbEntity
  8
0
100
AcDbSpline
 62
7
  6
BYLAYER
 70
0
 71
3
 72
10
 73
6
 74
0
 42
0.0000001
 43
0.0000001
 44
0.0000000001
 40
0.0
 40
0.0
 40
0.0
 40
0.0
 40
0.2441325353
 40
0.4924923685
 40
1.0
 40
1.0
 40
1.0
 40
1.0
 10
60.3364890893
 20
54.0151603198
 30
0.0
 10
60.3364890893
 20
53.3338641599
 30
0.0
 10
60.3142171586
 20
51.959380634
 30
0.0
 10
60.1851993159
 20
49.1713781499
 30
0.0
 10
60.0032769185
 20
47.0688632105
 30
0.0
 10
59.8553970002
 20
45.6603125133
 30
0.0
  0
SPLINE
  5
35A
100
AcDbEntity
  8
0
100
AcDbSpline
 62
7
  6
BYLAYER
 70
0
 71
3
 72
9
 73
5
 74
0
 42
0.0000001
 43
0.0000001
 44
0.0000000001
 40
0.0
 40
0.0
 40
0.0
 40
0.0
 40
0.5173169186
 40
1.0
 40
1.0
 40
1.0
 40
1.0
 10
44.9550032741
 20
76.9516061484
 30
0.0
 10
43.8315071499
 20
76.7801357144
 30
0.0
 10
41.6563784772
 20
76.4698702622
 30
0.0
 10
39.4723190424
 20
76.2270496455
 30
0.0
 10
38.416107014
 20
76.1326967569
 30
0.0
  0
SPLINE
  5
35B
100
AcDbEntity
  8
0
100
AcDbSpline
 62
7
  6
BYLAYER
 70
0
 71
3
 72
10
 73
6
 74
0
 42
0.0000001
 43
0.0000001
 44
0.0000000001
 40
0.0
 40
0.0
 40
0.0
 40
0.0
 40
0.2518833659
 40
0.5024896761
 40
1.0
 40
1.0
 40
1.0
 40
1.0
 10
51.1440820666
 20
68.7843687391
 30
0.0
 10
50.6287167762
 20
69.4254862901
 30
0.0
 10
49.6204772978
 20
70.7206128043
 30
0.0
 10
47.6938704084
 20
73.3579367843
 30
0.0
 10
46.3366330159
 20
75.3909992384
 30
0.0
 10
45.463295035
 20
76.7610373302
 30
0.0
  0
SPLINE
  5
35C
100
AcDbEntity
  8
0
100
AcDbSpline
 62
7
  6
BYLAYER
 70
0
 71
3
 72
9
 73
5
 74
0
 42
0.0000001
 43
0.0000001
 44
0.0000000001
 40
0.0
 40
0.0
 40
0.0
 40
0.0
 40
0.5220657161
 40
1.0
 40
1.0
 40
1.0
 40
1.0
 10
38.416107014
 20
76.1326967569
 30
0.0
 10
37.448182891
 20
76.0462307474
 30
0.0
 10
35.5905180737
 20
75.9177374812
 30
0.0
 10
33.7290283471
 20
75.8727493614
 30
0.0
 10
32.8394032167
 20
75.869302054
 30
0.0
  0
SPLINE
  5
35D
100
AcDbEntity
  8
0
100
AcDbSpline
 62
7
  6
BYLAYER
 70
0
 71
3
 72
10
 73
6
 74
0
 42
0.0000001
 43
0.0000001
 44
0.0000000001
 40
0.0
 40
0.0
 40
0.0
 40
0.0
 40
0.5017004583
 40
0.7513723598
 40
1.0
 40
1.0
 40
1.0
 40
1.0
 10
57.8238450941
 20
61.3844405654
 30
0.0
 10
56.6472479726
 20
62.5664866607
 30
0.0
 10
54.919182193
 20
64.371770241
 30
0.0
 10
52.7200726367
 20
66.8652641669
 30
0.0
 10
51.6619176231
 20
68.140178155
 30
0.0
 10
51.1440820666
 20
68.7843687391
 30
0.0
  0
SPLINE
  5
35E
100
AcDbEntity
  8
0
100
AcDbSpline
 62
7
  6
BYLAYER
 70
0
 71
3
 72
10
 73
6
 74
0
 42
0.0000001
 43
0.0000001
 44
0.0000000001
 40
0.0
 40
0.0
 40
0.0
 40
0.0
 40
0.2441325353
 40
0.4924923685
 40
1.0
 40
1.0
 40
1.0
 40
1.0
 10
57.5080737404
 20
52.3821837043
 30
0.0
 10
57.5080737404
 20
53.0634798642
 30
0.0
 10
57.530345671
 20
54.4379633901
 30
0.0
 10
57.6593635138
 20
57.2259658741
 30
0.0
 10
57.8412859112
 20
59.3284808135
 30
0.0
 10
57.9891658295
 20
60.7370315107
 30
0.0
  0
SPLINE
  5
35F
100
AcDbEntity
  8
0
100
AcDbSpline
 62
7
  6
BYLAYER
 70
0
 71
3
 72
15
 73
11
 74
0
 42
0.0000001
 43
0.0000001
 44
0.0000000001
 40
0.0
 40
0.0
 40
0.0
 40
0.0
 40
0.1491363321
 40
0.2932607248
 40
0.4309986171
 40
0.5612444539
 40
0.6832502543
 40
0.7967301416
 40
0.9019803493
 40
1.0
 40
1.0
 40
1.0
 40
1.0
 10
51.1440820414
 20
68.7843687245
 30
0.0
 10
50.6695999419
 20
69.3746269689
 30
0.0
 10
49.6909098401
 20
70.4995976148
 30
0.0
 10
48.1201207591
 20
72.0274012792
 30
0.0
 10
46.4923143117
 20
73.3475607791
 30
0.0
 10
44.8345854084
 20
74.437730045
 30
0.0
 10
43.1741219756
 20
75.2794977905
 30
0.0
 10
41.5373895013
 20
75.8580958654
 30
0.0
 10
39.9513001214
 20
76.1623971874
 30
0.0
 10
38.9118863746
 20
76.1769857274
 30
0.0
 10
38.4161111614
 20
76.1326971151
 30
0.0
  0
SPLINE
  5
360
100
AcDbEntity
  8
0
100
AcDbSpline
 62
7
  6
BYLAYER
 70
0
 71
3
 72
15
 73
11
 74
0
 42
0.0000001
 43
0.0000001
 44
0.0000000001
 40
0.0
 40
0.0
 40
0.0
 40
0.0
 40
0.1214977238
 40
0.2393439366
 40
0.3559133541
 40
0.4737685984
 40
0.5953083996
 40
0.7225805658
 40
0.8571403581
 40
1.0
 40
1.0
 40
1.0
 40
1.0
 10
38.4161111614
 20
76.1326971151
 30
0.0
 10
38.0391576665
 20
76.099023098
 30
0.0
 10
37.3000425919
 20
75.9739470788
 30
0.0
 10
36.2502165673
 20
75.6002510385
 30
0.0
 10
35.294943965
 20
75.0478346932
 30
0.0
 10
34.4470555099
 20
74.3241791782
 30
0.0
 10
33.7166341798
 20
73.439169924
 30
0.0
 10
33.1112349531
 20
72.4044315288
 30
0.0
 10
32.6364250136
 20
71.2326428085
 30
0.0
 10
32.4162967855
 20
70.3944899616
 30
0.0
 10
32.3270945783
 20
69.9585271514
 30
0.0
  0
SPLINE
  5
361
100
AcDbEntity
  8
0
100
AcDbSpline
 62
7
  6
BYLAYER
 70
0
 71
3
 72
11
 73
7
 74
0
 42
0.0000001
 43
0.0000001
 44
0.0000000001
 40
0.0
 40
0.0
 40
0.0
 40
0.0
 40
0.2667712538
 40
0.5217107599
 40
0.7657365428
 40
1.0
 40
1.0
 40
1.0
 40
1.0
 10
47.4112646784
 20
43.831886768
 30
0.0
 10
47.7311136909
 20
43.7252573955
 30
0.0
 10
48.365757754
 20
43.5427123759
 30
0.0
 10
49.318244201
 20
43.3630326799
 30
0.0
 10
50.2433291288
 20
43.2852157226
 30
0.0
 10
50.8491945892
 20
43.3019941812
 30
0.0
 10
51.1440903867
 20
43.328337829
 30
0.0
  0
SPLINE
  5
362
100
AcDbEntity
  8
0
100
AcDbSpline
 62
7
  6
BYLAYER
 70
0
 71
3
 72
11
 73
7
 74
0
 42
0.0000001
 43
0.0000001
 44
0.0000000001
 40
0.0
 40
0.0
 40
0.0
 40
0.0
 40
0.2437723439
 40
0.4913812317
 40
0.7433442837
 40
1.0
 40
1.0
 40
1.0
 40
1.0
 10
57.9891658295
 20
44.5828498762
 30
0.0
 10
57.9137999051
 20
45.2136829368
 30
0.0
 10
57.7773042318
 20
46.4871911784
 30
0.0
 10
57.6243312797
 20
48.4187194366
 30
0.0
 10
57.529178704
 20
50.3876203232
 30
0.0
 10
57.5080737404
 20
51.7132879677
 30
0.0
 10
57.5080737404
 20
52.3821837043
 30
0.0
  0
SPLINE
  5
363
100
AcDbEntity
  8
0
100
AcDbSpline
 62
7
  6
BYLAYER
 70
0
 71
3
 72
9
 73
5
 74
0
 42
0.0000001
 43
0.0000001
 44
0.0000000001
 40
0.0
 40
0.0
 40
0.0
 40
0.0
 40
0.4811712871
 40
1.0
 40
1.0
 40
1.0
 40
1.0
 10
57.0416442708
 20
48.7092552273
 30
0.0
 10
57.2022138084
 20
49.2823949573
 30
0.0
 10
57.4383461272
 20
50.5019190825
 30
0.0
 10
57.5080737404
 20
51.7403942956
 30
0.0
 10
57.5080737404
 20
52.3821837043
 30
0.0
  0
SPLINE
  5
364
100
AcDbEntity
  8
0
100
AcDbSpline
 62
7
  6
BYLAYER
 70
0
 71
3
 72
15
 73
11
 74
0
 42
0.0000001
 43
0.0000001
 44
0.0000000001
 40
0.0
 40
0.0
 40
0.0
 40
0.0
 40
0.1108410466
 40
0.2280578217
 40
0.3507094054
 40
0.4776259773
 40
0.6074737905
 40
0.7388131852
 40
0.870152484
 40
1.0
 40
1.0
 40
1.0
 40
1.0
 10
57.5080737404
 20
52.3821837043
 30
0.0
 10
57.5080737404
 20
53.0435857004
 30
0.0
 10
57.4288520037
 20
54.4052069296
 30
0.0
 10
57.0994577752
 20
56.4747658815
 30
0.0
 10
56.5616726148
 20
58.5991910435
 30
0.0
 10
55.8246175502
 20
60.7424637948
 30
0.0
 10
54.9007525324
 20
62.8685718504
 30
0.0
 10
53.8056596206
 20
64.9416113204
 30
0.0
 10
52.557981113
 20
66.9263768503
 30
0.0
 10
51.6295239312
 20
68.1804764617
 30
0.0
 10
51.1440820414
 20
68.7843687245
 30
0.0
  0
SPLINE
  5
365
100
AcDbEntity
  8
0
100
AcDbSpline
 62
7
  6
BYLAYER
 70
0
 71
3
 72
15
 73
11
 74
0
 42
0.0000001
 43
0.0000001
 44
0.0000000001
 40
0.0
 40
0.0
 40
0.0
 40
0.0
 40
0.1080062682
 40
0.2180569067
 40
0.3319963044
 40
0.4513541534
 40
0.5772746929
 40
0.7104991659
 40
0.8513935136
 40
1.0
 40
1.0
 40
1.0
 40
1.0
 10
16.4341728489
 20
59.1844604926
 30
0.0
 10
16.2095637057
 20
59.0547835993
 30
0.0
 10
15.7777229953
 20
58.7534151389
 30
0.0
 10
15.2070679334
 20
58.1918573634
 30
0.0
 10
14.7163163139
 20
57.5253009566
 30
0.0
 10
14.3099528094
 20
56.7613138113
 30
0.0
 10
13.9911755709
 20
55.9076535074
 30
0.0
 10
13.7624688881
 20
54.9726246816
 30
0.0
 10
13.6254645397
 20
53.965208936
 30
0.0
 10
13.5967477214
 20
53.2695471812
 30
0.0
 10
13.5967423938
 20
52.9126981245
 30
0.0
  0
SPLINE
  5
366
100
AcDbEntity
  8
0
100
AcDbSpline
 62
7
  6
BYLAYER
 70
0
 71
3
 72
9
 73
5
 74
0
 42
0.0000001
 43
0.0000001
 44
0.0000000001
 40
0.0
 40
0.0
 40
0.0
 40
0.0
 40
0.5164816297
 40
1.0
 40
1.0
 40
1.0
 40
1.0
 10
20.1128096549
 20
38.5347172264
 30
0.0
 10
20.5866191269
 20
38.0780491014
 30
0.0
 10
21.5507780745
 20
37.2407236299
 30
0.0
 10
22.6089530268
 20
36.5236471744
 30
0.0
 10
23.1424768058
 20
36.2156183372
 30
0.0
  0
SPLINE
  5
367
100
AcDbEntity
  8
0
100
AcDbSpline
 62
7
  6
BYLAYER
 70
0
 71
3
 72
18
 73
14
 74
0
 42
0.0000001
 43
0.0000001
 44
0.0000000001
 40
0.0
 40
0.0
 40
0.0
 40
0.0
 40
0.0474540343
 40
0.0955794842
 40
0.1449252847
 40
0.1959731169
 40
0.2491153179
 40
0.3046531466
 40
0.4235344096
 40
0.553399964
 40
0.6937629894
 40
0.8432779583
 40
1.0
 40
1.0
 40
1.0
 40
1.0
 10
18.4884701959
 20
60.3695538517
 30
0.0
 10
18.6727239017
 20
60.4713779719
 30
0.0
 10
19.0585777814
 20
60.6509659879
 30
0.0
 10
19.6747303311
 20
60.8408659534
 30
0.0
 10
20.3260810017
 20
60.9514549884
 30
0.0
 10
21.0081064105
 20
60.9820319546
 30
0.0
 10
21.7164332156
 20
60.9329099512
 30
0.0
 10
22.7122212529
 20
60.7577460679
 30
0.0
 10
24.0008321562
 20
60.330434738
 30
0.0
 10
25.5382565468
 20
59.5332198493
 30
0.0
 10
27.066515477
 20
58.4608193222
 30
0.0
 10
28.5484413595
 20
57.1401803108
 30
0.0
 10
29.4651094407
 20
56.133901193
 30
0.0
 10
29.908421294
 20
55.5983118185
 30
0.0
  0
SPLINE
  5
368
100
AcDbEntity
  8
0
100
AcDbSpline
 62
7
  6
BYLAYER
 70
0
 71
3
 72
11
 73
7
 74
0
 42
0.0000001
 43
0.0000001
 44
0.0000000001
 40
0.0
 40
0.0
 40
0.0
 40
0.0
 40
0.2656571855
 40
0.5183336573
 40
0.7616332453
 40
1.0
 40
1.0
 40
1.0
 40
1.0
 10
32.5286110041
 20
36.7850069884
 30
0.0
 10
32.8580463166
 20
36.743893949
 30
0.0
 10
33.5072475605
 20
36.705829631
 30
0.0
 10
34.4588894748
 20
36.793846567
 30
0.0
 10
35.3505041093
 20
37.028656427
 30
0.0
 10
35.9001079225
 20
37.2832292619
 30
0.0
 10
36.1580884399
 20
37.4321660405
 30
0.0
  0
SPLINE
  5
369
100
AcDbEntity
  8
0
100
AcDbSpline
 62
7
  6
BYLAYER
 70
0
 71
3
 72
15
 73
11
 74
0
 42
0.0000001
 43
0.0000001
 44
0.0000000001
 40
0.0
 40
0.0
 40
0.0
 40
0.0
 40
0.1293679685
 40
0.2605083039
 40
0.3918454734
 40
0.521833142
 40
0.6489531403
 40
0.7718036284
 40
0.8891499081
 40
1.0
 40
1.0
 40
1.0
 40
1.0
 10
61.8181595407
 20
74.3789110446
 30
0.0
 10
62.2322259786
 20
73.8786546611
 30
0.0
 10
63.0249344448
 20
72.8365732025
 30
0.0
 10
64.0910952992
 20
71.1814339318
 30
0.0
 10
65.0284374386
 20
69.4464020362
 30
0.0
 10
65.8203437002
 20
67.662374427
 30
0.0
 10
66.4528177835
 20
65.860752717
 30
0.0
 10
66.9147200658
 20
64.0732090856
 30
0.0
 10
67.1978369717
 20
62.3313976051
 30
0.0
 10
67.2660856273
 20
61.1852469846
 30
0.0
 10
67.266077506
 20
60.6288113392
 30
0.0
  0
SPLINE
  5
36A
100
AcDbEntity
  8
0
100
AcDbSpline
 62
7
  6
BYLAYER
 70
0
 71
3
 72
11
 73
7
 74
0
 42
0.0000001
 43
0.0000001
 44
0.0000000001
 40
0.0
 40
0.0
 40
0.0
 40
0.0
 40
0.2386531245
 40
0.4821096114
 40
0.7347122411
 40
1.0
 40
1.0
 40
1.0
 40
1.0
 10
21.1581739586
 20
63.4129351142
 30
0.0
 10
20.9038362945
 20
63.2661014201
 30
0.0
 10
20.415362875
 20
62.9230934002
 30
0.0
 10
19.7734790877
 20
62.2805178506
 30
0.0
 10
19.2257886626
 20
61.5157658095
 30
0.0
 10
18.9347995088
 20
60.9459996058
 30
0.0
 10
18.8055491042
 20
60.6462204258
 30
0.0
  0
SPLINE
  5
36B
100
AcDbEntity
  8
0
100
AcDbSpline
 62
7
  6
BYLAYER
 70
0
 71
3
 72
11
 73
7
 74
0
 42
0.0000001
 43
0.0000001
 44
0.0000000001
 40
0.0
 40
0.0
 40
0.0
 40
0.0
 40
0.2325810675
 40
0.4780121557
 40
0.7345771936
 40
1.0
 40
1.0
 40
1.0
 40
1.0
 10
56.8011319245
 20
78.7547339779
 30
0.0
 10
57.2502621803
 20
78.4954295646
 30
0.0
 10
58.1441984982
 20
77.9109072028
 30
0.0
 10
59.424835444
 20
76.8863035817
 30
0.0
 10
60.6646561022
 20
75.7040629058
 30
0.0
 10
61.4407876914
 20
74.834834682
 30
0.0
 10
61.8181595407
 20
74.3789110446
 30
0.0
  0
SPLINE
  5
36C
100
AcDbEntity
  8
0
100
AcDbSpline
 62
7
  6
BYLAYER
 70
0
 71
3
 72
11
 73
7
 74
0
 42
0.0000001
 43
0.0000001
 44
0.0000000001
 40
0.0
 40
0.0
 40
0.0
 40
0.0
 40
0.2763418085
 40
0.5345937895
 40
0.7752268542
 40
1.0
 40
1.0
 40
1.0
 40
1.0
 10
67.2660850974
 20
60.4655120088
 30
0.0
 10
67.2660778464
 20
59.9798279108
 30
0.0
 10
67.2179130367
 20
59.0391877137
 30
0.0
 10
66.9844942332
 20
57.6930338137
 30
0.0
 10
66.5949652954
 20
56.4776882609
 30
0.0
 10
66.2220491394
 20
55.7442767498
 30
0.0
 10
66.0107712099
 20
55.4104715898
 30
0.0
  0
SPLINE
  5
36D
100
AcDbEntity
  8
0
100
AcDbSpline
 62
7
  6
BYLAYER
 70
0
 71
3
 72
23
 73
19
 74
0
 42
0.0000001
 43
0.0000001
 44
0.0000000001
 40
0.0
 40
0.0
 40
0.0
 40
0.0
 40
0.0736965039
 40
0.1483855844
 40
0.2233711954
 40
0.2980148775
 40
0.3716550222
 40
0.4436668849
 40
0.5134713814
 40
0.5805518513
 40
0.6444829122
 40
0.704954197
 40
0.7617984314
 40
0.8150253162
 40
0.864859856
 40
0.9117739416
 40
0.95649911
 40
1.0
 40
1.0
 40
1.0
 40
1.0
 10
29.908421294
 20
55.5983118185
 30
0.0
 10
30.2382074196
 20
55.1998791049
 30
0.0
 10
30.8739923259
 20
54.3738630115
 30
0.0
 10
31.7447522761
 20
53.0689634246
 30
0.0
 10
32.5301995301
 20
51.7032504936
 30
0.0
 10
33.2199801623
 20
50.2950112456
 30
0.0
 10
33.8050117773
 20
48.8625912699
 30
0.0
 10
34.2776090057
 20
47.424871069
 30
0.0
 10
34.631590863
 20
46.0007106469
 30
0.0
 10
34.8622306784
 20
44.6087274656
 30
0.0
 10
34.9664395575
 20
43.2670619495
 30
0.0
 10
34.9427262128
 20
41.9930795674
 30
0.0
 10
34.7910586218
 20
40.8031768245
 30
0.0
 10
34.5127155735
 20
39.7126640471
 30
0.0
 10
34.110344097
 20
38.7357957793
 30
0.0
 10
33.587707895
 20
37.885872175
 30
0.0
 10
32.9508094599
 20
37.1759169474
 30
0.0
 10
32.4517537733
 20
36.8012994094
 30
0.0
 10
32.1903831789
 20
36.6435329355
 30
0.0
  0
SPLINE
  5
36E
100
AcDbEntity
  8
0
100
AcDbSpline
 62
7
  6
BYLAYER
 70
0
 71
3
 72
11
 73
7
 74
0
 42
0.0000001
 43
0.0000001
 44
0.0000000001
 40
0.0
 40
0.0
 40
0.0
 40
0.0
 40
0.2793201813
 40
0.5382098047
 40
0.7775393751
 40
1.0
 40
1.0
 40
1.0
 40
1.0
 10
23.2838939673
 20
36.1339627694
 30
0.0
 10
23.710002458
 20
35.8879498319
 30
0.0
 10
24.5591804731
 20
35.4598826311
 30
0.0
 10
25.859171103
 20
35.013382979
 30
0.0
 10
27.1157793322
 20
34.7954623032
 30
0.0
 10
27.9356736878
 20
34.8081198527
 30
0.0
 10
28.3244594146
 20
34.857174132
 30
0.0
  0
SPLINE
  5
36F
100
AcDbEntity
  8
0
100
AcDbSpline
 62
7
  6
BYLAYER
 70
0
 71
3
 72
25
 73
21
 74
0
 42
0.0000001
 43
0.0000001
 44
0.0000000001
 40
0.0
 40
0.0
 40
0.0
 40
0.0
 40
0.0217137578
 40
0.0435725838
 40
0.0657165398
 40
0.0882767627
 40
0.1350625397
 40
0.1847432461
 40
0.2378164165
 40
0.2945263656
 40
0.3548967858
 40
0.4187677868
 40
0.4858302176
 40
0.5556573906
 40
0.6277310665
 40
0.7014649944
 40
0.7762258215
 40
0.8513438992
 40
0.9261670015
 40
1.0
 40
1.0
 40
1.0
 40
1.0
 10
36.1580884399
 20
37.4321660405
 30
0.0
 10
36.3032092094
 20
37.515946863
 30
0.0
 10
36.5861625793
 20
37.6988620148
 30
0.0
 10
36.9829861784
 20
38.0159206926
 30
0.0
 10
37.3516040461
 20
38.3748626766
 30
0.0
 10
37.8090695702
 20
38.9138415434
 30
0.0
 10
38.3039669064
 20
39.6937196982
 30
0.0
 10
38.7572505869
 20
40.759689631
 30
0.0
 10
39.0734846616
 20
41.9527991252
 30
0.0
 10
39.2494769838
 20
43.2570522951
 30
0.0
 10
39.2837152869
 20
44.6555382811
 30
0.0
 10
39.176106597
 20
46.1300260172
 30
0.0
 10
38.9282986508
 20
47.6612096784
 30
0.0
 10
38.543663782
 20
49.2289184911
 30
0.0
 10
38.0273415676
 20
50.8124123345
 30
0.0
 10
37.3861850505
 20
52.3906781908
 30
0.0
 10
36.6287238985
 20
53.942657069
 30
0.0
 10
35.7650738453
 20
55.4478547448
 30
0.0
 10
34.8067415077
 20
56.8859268481
 30
0.0
 10
34.1065342733
 20
57.7960290601
 30
0.0
 10
33.7432281117
 20
58.2349591683
 30
0.0
  0
SPLINE
  5
370
100
AcDbEntity
  8
0
100
AcDbSpline
 62
7
  6
BYLAYER
 70
0
 71
3
 72
24
 73
20
 74
0
 42
0.0000001
 43
0.0000001
 44
0.0000000001
 40
0.0
 40
0.0
 40
0.0
 40
0.0
 40
0.0217131607
 40
0.0435724831
 40
0.0882294058
 40
0.1350175043
 40
0.1847007006
 40
0.2377765812
 40
0.2944894187
 40
0.3548629369
 40
0.4187372354
 40
0.4858031487
 40
0.5556339664
 40
0.6277114207
 40
0.7014492273
 40
0.7762139969
 40
0.8513360425
 40
0.9261630996
 40
1.0
 40
1.0
 40
1.0
 40
1.0
 10
30.1341112241
 20
35.4553295232
 30
0.0
 10
30.2666430334
 20
35.531846058
 30
0.0
 10
30.5250610468
 20
35.6989341673
 30
0.0
 10
31.0115746345
 20
36.0875624094
 30
0.0
 10
31.5585456501
 20
36.6767118941
 30
0.0
 10
32.0938525636
 20
37.5207621929
 30
0.0
 10
32.508032663
 20
38.4944796525
 30
0.0
 10
32.7968138518
 20
39.5841460496
 30
0.0
 10
32.9575719559
 20
40.7753764097
 30
0.0
 10
32.9888421518
 20
42.052658209
 30
0.0
 10
32.8905634159
 20
43.3993602367
 30
0.0
 10
32.664233707
 20
44.7978438814
 30
0.0
 10
32.3129351643
 20
46.2296880713
 30
0.0
 10
31.8413613033
 20
47.6759495237
 30
0.0
 10
31.2557714595
 20
49.1174363436
 30
0.0
 10
30.5639560509
 20
50.5349144574
 30
0.0
 10
29.77515419
 20
51.9096656637
 30
0.0
 10
28.8998753249
 20
53.2231086188
 30
0.0
 10
28.26035107
 20
54.0543376103
 30
0.0
 10
27.9285305498
 20
54.4552281877
 30
0.0
  0
SPLINE
  5
371
100
AcDbEntity
  8
0
100
AcDbSpline
 62
7
  6
BYLAYER
 70
0
 71
3
 72
37
 73
33
 74
0
 42
0.0000001
 43
0.0000001
 44
0.0000000001
 40
0.0
 40
0.0
 40
0.0
 40
0.0
 40
0.0232484833
 40
0.0459122914
 40
0.0683854748
 40
0.0911053604
 40
0.1144791766
 40
0.1388563862
 40
0.1645112595
 40
0.1916334554
 40
0.2203321744
 40
0.2506428138
 40
0.2825394683
 40
0.3159427496
 40
0.3507286843
 40
0.3867384827
 40
0.4237830169
 40
0.4616509204
 40
0.5001136658
 40
0.5389302552
 40
0.6166017201
 40
0.6927183456
 40
0.7296226295
 40
0.7654629462
 40
0.8000539552
 40
0.8332409466
 40
0.8649065006
 40
0.8949791101
 40
0.9234400283
 40
0.9503356831
 40
0.9757945345
 40
1.0
 40
1.0
 40
1.0
 40
1.0
 10
28.1094573716
 20
34.9574628323
 30
0.0
 10
28.371146095
 20
34.9904808955
 30
0.0
 10
28.88409121
 20
35.0949276343
 30
0.0
 10
29.6120397722
 20
35.3733829152
 30
0.0
 10
30.2771090833
 20
35.7686868588
 30
0.0
 10
30.871504782
 20
36.2761380446
 30
0.0
 10
31.3893167043
 20
36.8896756883
 30
0.0
 10
31.8255985472
 20
37.6024878568
 30
0.0
 10
32.1768126643
 20
38.4069845256
 30
0.0
 10
32.4403090925
 20
39.2951852731
 30
0.0
 10
32.6139558615
 20
40.2586148432
 30
0.0
 10
32.6965880778
 20
41.2881551009
 30
0.0
 10
32.6875817435
 20
42.3741359216
 30
0.0
 10
32.5871208137
 20
43.506313069
 30
0.0
 10
32.3963161484
 20
44.6739909569
 30
0.0
 10
32.1169232639
 20
45.8660675035
 30
0.0
 10
31.7516736118
 20
47.0712094119
 30
0.0
 10
31.3040832142
 20
48.2779184196
 30
0.0
 10
30.7783469364
 20
49.4746850524
 30
0.0
 10
29.9799653135
 20
51.0418081113
 30
0.0
 10
28.824515241
 20
52.9022799198
 30
0.0
 10
27.4783174795
 20
54.6028376031
 30
0.0
 10
26.3115142422
 20
55.8252234873
 30
0.0
 10
25.4148770402
 20
56.6506052805
 30
0.0
 10
24.4963703411
 20
57.3859294081
 30
0.0
 10
23.564722552
 20
58.0242775212
 30
0.0
 10
22.6286756054
 20
58.5595157734
 30
0.0
 10
21.6969475687
 20
58.9864159528
 30
0.0
 10
20.7782795157
 20
59.3009210256
 30
0.0
 10
19.8809461788
 20
59.4996435763
 30
0.0
 10
19.0136913295
 20
59.5800743342
 30
0.0
 10
18.4484458381
 20
59.5534067149
 30
0.0
 10
18.1759851664
 20
59.5190295221
 30
0.0
  0
SPLINE
  5
372
100
AcDbEntity
  8
0
100
AcDbSpline
 62
7
  6
BYLAYER
 70
0
 71
3
 72
15
 73
11
 74
0
 42
0.0000001
 43
0.0000001
 44
0.0000000001
 40
0.0
 40
0.0
 40
0.0
 40
0.0
 40
0.1292243714
 40
0.2601650303
 40
0.3913015777
 40
0.5211379763
 40
0.6482024473
 40
0.7711334354
 40
0.888725681
 40
1.0
 40
1.0
 40
1.0
 40
1.0
 10
61.7817285407
 20
74.3563862004
 30
0.0
 10
62.1938106815
 20
73.8560419926
 30
0.0
 10
62.983073827
 20
72.8147801803
 30
0.0
 10
64.0461309316
 20
71.1626714501
 30
0.0
 10
64.9826523958
 20
69.4320549035
 30
0.0
 10
65.776550842
 20
67.6527877788
 30
0.0
 10
66.4142225555
 20
65.8552337381
 30
0.0
 10
66.8847785738
 20
64.07003855
 30
0.0
 10
67.1801146535
 20
62.3278534119
 30
0.0
 10
67.2591186395
 20
61.1800000286
 30
0.0
 10
67.2652278921
 20
60.6218771901
 30
0.0
  0
SPLINE
  5
373
100
AcDbEntity
  8
0
100
AcDbSpline
 62
7
  6
BYLAYER
 70
0
 71
3
 72
14
 73
10
 74
0
 42
0.0000001
 43
0.0000001
 44
0.0000000001
 40
0.0
 40
0.0
 40
0.0
 40
0.0
 40
0.2104462877
 40
0.3263348162
 40
0.4492274538
 40
0.5787577338
 40
0.7142920012
 40
0.8550524424
 40
1.0
 40
1.0
 40
1.0
 40
1.0
 10
21.6376799824
 20
60.9335039075
 30
0.0
 10
22.3412481245
 20
60.8641915414
 30
0.0
 10
23.4181411278
 20
60.5836904785
 30
0.0
 10
24.7958759959
 20
59.9657133651
 30
0.0
 10
25.8696317595
 20
59.3461503735
 30
0.0
 10
26.9356016731
 20
58.5936824007
 30
0.0
 10
27.9818624201
 20
57.7173109855
 30
0.0
 10
28.9952574495
 20
56.7278518195
 30
0.0
 10
29.6332075541
 20
56.0095246602
 30
0.0
 10
29.9441776948
 20
55.6348173255
 30
0.0
  0
SPLINE
  5
374
100
AcDbEntity
  8
0
100
AcDbSpline
 62
7
  6
BYLAYER
 70
0
 71
3
 72
11
 73
7
 74
0
 42
0.0000001
 43
0.0000001
 44
0.0000000001
 40
0.0
 40
0.0
 40
0.0
 40
0.0
 40
0.2332368442
 40
0.47883455
 40
0.7351501377
 40
1.0
 40
1.0
 40
1.0
 40
1.0
 10
56.7993671692
 20
78.7547008444
 30
0.0
 10
57.242027875
 20
78.4924031269
 30
0.0
 10
58.1225144845
 20
77.9051314137
 30
0.0
 10
59.3844578836
 20
76.8833314023
 30
0.0
 10
60.6062037815
 20
75.7108300884
 30
0.0
 10
61.371990714
 20
74.8515249748
 30
0.0
 10
61.7445400654
 20
74.4014276617
 30
0.0
  0
SPLINE
  5
375
100
AcDbEntity
  8
0
100
AcDbSpline
 62
7
  6
BYLAYER
 70
0
 71
3
 72
23
 73
19
 74
0
 42
0.0000001
 43
0.0000001
 44
0.0000000001
 40
0.0
 40
0.0
 40
0.0
 40
0.0
 40
0.0738383392
 40
0.1486725296
 40
0.2237975382
 40
0.2985659881
 40
0.3723078206
 40
0.4443888126
 40
0.5142235647
 40
0.5812930499
 40
0.6451702255
 40
0.7055469736
 40
0.7622633463
 40
0.815342079
 40
0.8650274776
 40
0.9118180837
 40
0.9564770308
 40
1.0
 40
1.0
 40
1.0
 40
1.0
 10
32.3832847243
 20
57.0271663571
 30
0.0
 10
32.7150936861
 20
56.626289744
 30
0.0
 10
33.3546121754
 20
55.7950521689
 30
0.0
 10
34.2299011191
 20
54.4816214162
 30
0.0
 10
35.0187086432
 20
53.1068603859
 30
0.0
 10
35.7105190454
 20
51.6893913628
 30
0.0
 10
36.2960998032
 20
50.2479064279
 30
0.0
 10
36.7676761216
 20
48.8016478762
 30
0.0
 10
37.1189915689
 20
47.3698101491
 30
0.0
 10
37.3453216165
 20
45.9713292835
 30
0.0
 10
37.4435775264
 20
44.62463105
 30
0.0
 10
37.4123169707
 20
43.3473507754
 30
0.0
 10
37.251593619
 20
42.1561166826
 30
0.0
 10
36.9627946225
 20
41.0664383101
 30
0.0
 10
36.5486582397
 20
40.0927691265
 30
0.0
 10
36.0131199001
 20
39.2486122955
 30
0.0
 10
35.3624718513
 20
38.5471847763
 30
0.0
 10
34.8544923055
 20
38.1806541382
 30
0.0
 10
34.5888616341
 20
38.0272742126
 30
0.0
  0
SPLINE
  5
376
100
AcDbEntity
  8
0
100
AcDbSpline
 62
7
  6
BYLAYER
 70
0
 71
3
 72
19
 73
15
 74
0
 42
0.0000001
 43
0.0000001
 44
0.0000000001
 40
0.0
 40
0.0
 40
0.0
 40
0.0
 40
0.1570021645
 40
0.3067040945
 40
0.4471306283
 40
0.5134522992
 40
0.5770158524
 40
0.6957145636
 40
0.7511385831
 40
0.804166145
 40
0.8551136406
 40
0.9043907447
 40
0.952497486
 40
1.0
 40
1.0
 40
1.0
 40
1.0
 10
33.7432281117
 20
58.2349591683
 30
0.0
 10
33.2538276134
 20
58.8262307637
 30
0.0
 10
32.2416297313
 20
59.936511865
 30
0.0
 10
30.6047267343
 20
61.3913151849
 30
0.0
 10
29.171568286
 20
62.3916675523
 30
0.0
 10
28.0144425697
 20
63.0323139167
 30
0.0
 10
26.9100539754
 20
63.5409662497
 30
0.0
 10
25.7977751929
 20
63.9017633054
 30
0.0
 10
24.7007439856
 20
64.0846761774
 30
0.0
 10
23.921179531
 20
64.1303858526
 30
0.0
 10
23.1714074267
 20
64.0872986268
 30
0.0
 10
22.4563216713
 20
63.9551204262
 30
0.0
 10
21.7809987482
 20
63.7347185083
 30
0.0
 10
21.3592904523
 20
63.5290432723
 30
0.0
 10
21.1581739586
 20
63.4129351142
 30
0.0
  0
SPLINE
  5
377
100
AcDbEntity
  8
0
100
AcDbSpline
 62
7
  6
BYLAYER
 70
0
 71
3
 72
20
 73
16
 74
0
 42
0.0000001
 43
0.0000001
 44
0.0000000001
 40
0.0
 40
0.0
 40
0.0
 40
0.0
 40
0.1411248724
 40
0.2838878071
 40
0.4246352884
 40
0.493172397
 40
0.55992147
 40
0.6245167356
 40
0.6866466958
 40
0.7460619025
 40
0.8025885358
 40
0.8561484766
 40
0.9067718427
 40
0.9546197316
 40
1.0
 40
1.0
 40
1.0
 40
1.0
 10
29.9621813547
 20
55.613094872
 30
0.0
 10
30.5261941888
 20
54.9316800198
 30
0.0
 10
31.5787167231
 20
53.491025981
 30
0.0
 10
32.8986557981
 20
51.1739368795
 30
0.0
 10
33.7693173811
 20
49.1402784475
 30
0.0
 10
34.3032937205
 20
47.4936141427
 30
0.0
 10
34.6139540718
 20
46.2789644536
 30
0.0
 10
34.8351814743
 20
45.0856585623
 30
0.0
 10
34.9649204415
 20
43.9250879803
 30
0.0
 10
35.0018509997
 20
42.808316962
 30
0.0
 10
34.945449719
 20
41.7459431415
 30
0.0
 10
34.7961877838
 20
40.748040666
 30
0.0
 10
34.5550255301
 20
39.8240070452
 30
0.0
 10
34.2239779988
 20
38.9829195398
 30
0.0
 10
33.9381091963
 20
38.4706145921
 30
0.0
 10
33.7810929848
 20
38.2334415234
 30
0.0
  0
SPLINE
  5
378
100
AcDbEntity
  8
0
100
AcDbSpline
 62
7
  6
BYLAYER
 70
0
 71
3
 72
23
 73
19
 74
0
 42
0.0000001
 43
0.0000001
 44
0.0000000001
 40
0.0
 40
0.0
 40
0.0
 40
0.0
 40
0.0435197515
 40
0.0881872659
 40
0.1349941051
 40
0.1846992158
 40
0.2377975569
 40
0.2945307497
 40
0.3549198888
 40
0.4188040893
 40
0.4858750115
 40
0.5557061764
 40
0.6277776739
 40
0.701504939
 40
0.7762566754
 40
0.851363602
 40
0.9261796983
 40
1.0
 40
1.0
 40
1.0
 40
1.0
 10
32.1949170651
 20
36.6451674714
 30
0.0
 10
32.459983088
 20
36.7991362122
 30
0.0
 10
32.9667768117
 20
37.1667565499
 30
0.0
 10
33.6155920774
 20
37.8693354129
 30
0.0
 10
34.149409567
 20
38.7142714065
 30
0.0
 10
34.5619740973
 20
39.688375338
 30
0.0
 10
34.8493726724
 20
40.7781704467
 30
0.0
 10
35.0088865692
 20
41.9692288168
 30
0.0
 10
35.0391389723
 20
43.246069583
 30
0.0
 10
34.9400878989
 20
44.5920970207
 30
0.0
 10
34.7131825384
 20
45.9897156611
 30
0.0
 10
34.3615086572
 20
47.4205316047
 30
0.0
 10
33.8898015504
 20
48.8656482308
 30
0.0
 10
33.3042955247
 20
50.30591528
 30
0.0
 10
32.6127612994
 20
51.7221518138
 30
0.0
 10
31.8243984311
 20
53.0957181515
 30
0.0
 10
30.9497030026
 20
54.4080265172
 30
0.0
 10
30.3106747969
 20
55.2385808
 30
0.0
 10
29.9791316778
 20
55.6391362339
 30
0.0
  0
SPLINE
  5
379
100
AcDbEntity
  8
0
100
AcDbSpline
 62
7
  6
BYLAYER
 70
0
 71
3
 72
15
 73
11
 74
0
 42
0.0000001
 43
0.0000001
 44
0.0000000001
 40
0.0
 40
0.0
 40
0.0
 40
0.0
 40
0.1498605652
 40
0.2944069766
 40
0.432262509
 40
0.5623898204
 40
0.6841016211
 40
0.7972037172
 40
0.9021267764
 40
1.0
 40
1.0
 40
1.0
 40
1.0
 10
27.9285305498
 20
54.4552281877
 30
0.0
 10
27.5629679955
 20
54.896884368
 30
0.0
 10
26.8103782498
 20
55.7368275648
 30
0.0
 10
25.6055483539
 20
56.8725419495
 30
0.0
 10
24.3609305485
 20
57.8469263219
 30
0.0
 10
23.0973364444
 20
58.643552993
 30
0.0
 10
21.8353253172
 20
59.2488424283
 30
0.0
 10
20.5949948733
 20
59.652175982
 30
0.0
 10
19.3967334379
 20
59.8453725162
 30
0.0
 10
18.6153121251
 20
59.829487589
 30
0.0
 10
18.2438246583
 20
59.7826158839
 30
0.0
  0
SPLINE
  5
37A
100
AcDbEntity
  8
0
100
AcDbSpline
 62
7
  6
BYLAYER
 70
0
 71
3
 72
20
 73
16
 74
0
 42
0.0000001
 43
0.0000001
 44
0.0000000001
 40
0.0
 40
0.0
 40
0.0
 40
0.0
 40
0.047496928
 40
0.0955978622
 40
0.144869607
 40
0.1958105431
 40
0.2488326101
 40
0.3042493631
 40
0.3622804391
 40
0.4230510853
 40
0.4866077655
 40
0.5529214645
 40
0.6933309526
 40
0.8430175762
 40
1.0
 40
1.0
 40
1.0
 40
1.0
 10
20.8889307877
 20
61.7563921421
 30
0.0
 10
21.0726090818
 20
61.8624512915
 30
0.0
 10
21.4577999255
 20
62.0502338869
 30
0.0
 10
22.0745672155
 20
62.2516194263
 30
0.0
 10
22.7276916913
 20
62.3722580964
 30
0.0
 10
23.4124883863
 20
62.4116942675
 30
0.0
 10
24.1244488007
 20
62.3698697343
 30
0.0
 10
24.8589825902
 20
62.247487441
 30
0.0
 10
25.6114140748
 20
62.0454051167
 30
0.0
 10
26.3770520893
 20
61.7652272177
 30
0.0
 10
27.1510676584
 20
61.4086976859
 30
0.0
 10
28.2077891747
 20
60.8236670107
 30
0.0
 10
29.516809897
 20
59.9099623308
 30
0.0
 10
31.0118188792
 20
58.5812502929
 30
0.0
 10
31.9363029298
 20
57.5671895889
 30
0.0
 10
32.3832847243
 20
57.0271663571
 30
0.0
  0
SPLINE
  5
37B
100
AcDbEntity
  8
0
100
AcDbSpline
 62
7
  6
BYLAYER
 70
0
 71
3
 72
11
 73
7
 74
0
 42
0.0000001
 43
0.0000001
 44
0.0000000001
 40
0.0
 40
0.0
 40
0.0
 40
0.0
 40
0.2785583951
 40
0.5371680667
 40
0.7767747871
 40
1.0
 40
1.0
 40
1.0
 40
1.0
 10
23.2873196654
 20
36.1332617805
 30
0.0
 10
23.6957581273
 20
35.9046029445
 30
0.0
 10
24.5092618419
 20
35.50727913
 30
0.0
 10
25.7524361194
 20
35.0948936071
 30
0.0
 10
26.9537640636
 20
34.8959470868
 30
0.0
 10
27.7373011491
 20
34.9105067482
 30
0.0
 10
28.1094573716
 20
34.9574628323
 30
0.0
  0
SPLINE
  5
37C
100
AcDbEntity
  8
0
100
AcDbSpline
 62
7
  6
BYLAYER
 70
0
 71
3
 72
18
 73
14
 74
0
 42
0.0000001
 43
0.0000001
 44
0.0000000001
 40
0.0
 40
0.0
 40
0.0
 40
0.0
 40
0.1146447155
 40
0.1707041655
 40
0.2264076549
 40
0.282205717
 40
0.3385414088
 40
0.3958276
 40
0.4544445706
 40
0.5768340122
 40
0.7079041877
 40
0.8488305216
 40
1.0
 40
1.0
 40
1.0
 40
1.0
 10
18.1759851664
 20
59.5190295221
 30
0.0
 10
17.8416063475
 20
59.4768399281
 30
0.0
 10
17.3475200138
 20
59.3652076262
 30
0.0
 10
16.7295277351
 20
59.1154366891
 30
0.0
 10
16.2946617766
 20
58.8818352217
 30
0.0
 10
15.88732979
 20
58.6016901868
 30
0.0
 10
15.5091421674
 20
58.2761455189
 30
0.0
 10
15.1615647096
 20
57.906675786
 30
0.0
 10
14.7349585751
 20
57.3497354842
 30
0.0
 10
14.2863708171
 20
56.5430633856
 30
0.0
 10
13.8999763972
 20
55.4450789182
 30
0.0
 10
13.6610275821
 20
54.2204380665
 30
0.0
 10
13.603790107
 20
53.3613478199
 30
0.0
 10
13.5978642069
 20
52.9169827665
 30
0.0
  0
ELLIPSE
  5
37D
100
AcDbEntity
  8
0
100
AcDbEllipse
 62
7
  6
BYLAYER
 10
40.9577558796
 20
62.4337532417
 30
0.0
 11
25.6693976586
 21
1.074728493
 31
0.0
 40
0.5607003361
 41
1.2164194471
 42
1.242058827
  0
ELLIPSE
  5
37E
100
AcDbEntity
  8
0
100
AcDbEllipse
 62
7
  6
BYLAYER
 10
40.9399554533
 20
62.9147991979
 30
0.0
 11
25.7041710666
 21
0.000086921
 31
0.0
 40
0.5377539929
 41
1.1982675425
 42
1.2276384485
  0
ELLIPSE
  5
37F
100
AcDbEntity
  8
0
100
AcDbEllipse
 62
7
  6
BYLAYER
 10
40.9577558796
 20
63.3752914572
 30
0.0
 11
25.6714220041
 21
-0.990796206
 31
0.0
 40
0.5138422122
 41
1.1774546168
 42
1.2068255228
  0
ELLIPSE
  5
380
100
AcDbEntity
  8
0
100
AcDbEllipse
 62
7
  6
BYLAYER
 10
41.0110216864
 20
63.8117253955
 30
0.0
 11
25.5765102646
 21
-1.9046128171
 31
0.0
 40
0.4891411839
 41
1.1533697171
 42
1.1827406231
  0
ELLIPSE
  5
381
100
AcDbEntity
  8
0
100
AcDbEllipse
 62
7
  6
BYLAYER
 10
41.0993474888
 20
64.2207794871
 30
0.0
 11
25.4235744323
 21
-2.7478070601
 31
0.0
 40
0.4637735253
 41
1.1263386505
 42
1.1557095565
  0
ELLIPSE
  5
382
100
AcDbEntity
  8
0
100
AcDbEllipse
 62
7
  6
BYLAYER
 10
41.222061074
 20
64.5993405834
 30
0.0
 11
25.2158380038
 21
-3.526315637
 31
0.0
 40
0.4378168535
 41
1.0966392795
 42
1.1260101855
  0
ELLIPSE
  5
383
100
AcDbEntity
  8
0
100
AcDbEllipse
 62
7
  6
BYLAYER
 10
41.3782285177
 20
64.9445276057
 30
0.0
 11
24.9558704224
 21
-4.2454987115
 31
0.0
 40
0.4113114298
 41
1.0645001417
 42
1.0938710477
  0
ELLIPSE
  5
384
100
AcDbEntity
  8
0
100
AcDbEllipse
 62
7
  6
BYLAYER
 10
41.5666612913
 20
65.2537134724
 30
0.0
 11
24.6457923828
 21
-4.9101776717
 31
0.0
 40
0.3842666715
 41
1.0301020743
 42
1.0594729803
  0
ELLIPSE
  5
385
100
AcDbEntity
  8
0
100
AcDbEllipse
 62
7
  6
BYLAYER
 10
41.7859253076
 20
65.5245450925
 30
0.0
 11
24.2874286681
 21
-5.5247273254
 31
0.0
 40
0.3566666052
 41
0.9935809255
 42
1.0229518315
  0
ELLIPSE
  5
386
100
AcDbEntity
  8
0
100
AcDbEllipse
 62
7
  6
BYLAYER
 10
42.034351835
 20
65.7549612737
 30
0.0
 11
23.8824165252
 21
-6.0931919811
 31
0.0
 40
0.3284744764
 41
0.9550302356
 42
0.9844011416
  0
ELLIPSE
  5
387
100
AcDbEntity
  8
0
100
AcDbEllipse
 62
7
  6
BYLAYER
 10
42.3100501976
 20
65.9432084097
 30
0.0
 11
23.4322780087
 21
-6.6194089738
 31
0.0
 40
0.2996367937
 41
0.9145032477
 42
0.9438741537
  0
ELLIPSE
  5
388
100
AcDbEntity
  8
0
100
AcDbEllipse
 62
7
  6
BYLAYER
 10
42.6109221645
 20
66.0878538262
 30
0.0
 11
22.9384634115
 21
-7.1071318569
 31
0.0
 40
0.2700871321
 41
0.8720138726
 42
0.9013847787
  0
ELLIPSE
  5
389
100
AcDbEntity
  8
0
100
AcDbEllipse
 62
7
  6
BYLAYER
 10
42.9346779183
 20
66.1877966843
 30
0.0
 11
22.4023710467
 21
-7.5601506281
 31
0.0
 40
0.2397500614
 41
0.8275363612
 42
0.8569072672
  0
ELLIPSE
  5
38A
100
AcDbEntity
  8
0
100
AcDbEllipse
 62
7
  6
BYLAYER
 10
43.2788534822
 20
66.2422763584
 30
0.0
 11
21.8253467446
 21
-7.9824093347
 31
0.0
 40
0.2085456475
 41
0.7810034854
 42
0.8103743914
  0
ELLIPSE
  5
38B
100
AcDbEntity
  8
0
100
AcDbEllipse
 62
7
  6
BYLAYER
 10
43.6408294724
 20
66.2508782253
 30
0.0
 11
21.2086646264
 21
-8.3781229955
 31
0.0
 40
0.1763950854
 41
0.7323030402
 42
0.7616739462
  0
ELLIPSE
  5
38C
100
AcDbEntity
  8
0
100
AcDbEllipse
 62
7
  6
BYLAYER
 10
44.017851033
 20
66.2135368196
 30
0.0
 11
20.5534890178
 21
-8.7518963634
 31
0.0
 40
0.1432282066
 41
0.6812724776
 42
0.7106433836
  0
ELLIPSE
  5
38D
100
AcDbEntity
  8
0
100
AcDbEllipse
 62
7
  6
BYLAYER
 10
44.4070488022
 20
66.130536332
 30
0.0
 11
19.8608157951
 21
-9.1088465383
 31
0.0
 40
0.1089938613
 41
0.6276915302
 42
0.6570624363
  0
ELLIPSE
  5
38E
100
AcDbEntity
  8
0
100
AcDbEllipse
 62
7
  6
BYLAYER
 10
44.8054607502
 20
66.0025084462
 30
0.0
 11
19.1313901816
 21
-9.4547292795
 31
0.0
 40
0.0736745289
 41
0.5712728325
 42
0.6006437385
  0
ELLIPSE
  5
38F
100
AcDbEntity
  8
0
100
AcDbEllipse
 62
7
  6
BYLAYER
 10
45.2100547213
 20
65.8304275319
 30
0.0
 11
18.3655976129
 21
-9.7960637338
 31
0.0
 40
0.0373069534
 41
0.5116509495
 42
0.5410218555
  0
ELLIPSE
  5
390
100
AcDbEntity
  8
0
100
AcDbEllipse
 62
7
  6
BYLAYER
 10
45.6177515111
 20
54.8126637351
 30
0.0
 11
12.8520989679
 21
22.2604573694
 31
0.0
 40
0.5377493467
 41
-1.2276346747
 42
-1.1982637687
  0
ELLIPSE
  5
391
100
AcDbEntity
  8
0
100
AcDbEllipse
 62
7
  6
BYLAYER
 10
46.0254483009
 20
54.5978394318
 30
0.0
 11
11.9776042824
 21
22.7275228925
 31
0.0
 40
0.5138373942
 41
-1.206821066
 42
-1.17745016
  0
ELLIPSE
  5
392
100
AcDbEntity
  8
0
100
AcDbEllipse
 62
7
  6
BYLAYER
 10
46.430042272
 20
54.4257585175
 30
0.0
 11
11.1387686691
 21
23.1022219776
 31
0.0
 40
0.4891362233
 41
-1.1827355521
 42
-1.1533646461
  0
ELLIPSE
  5
393
100
AcDbEntity
  8
0
100
AcDbEllipse
 62
7
  6
BYLAYER
 10
46.82845422
 20
54.2977306318
 30
0.0
 11
10.3320806258
 21
23.3913606125
 31
0.0
 40
0.4637684418
 41
-1.1557039313
 42
-1.1263330252
  0
ELLIPSE
  5
394
100
AcDbEntity
  8
0
100
AcDbEllipse
 62
7
  6
BYLAYER
 10
47.2176519892
 20
54.2147301442
 30
0.0
 11
9.5540106162
 21
23.6006986072
 31
0.0
 40
0.4378116585
 41
-1.1260040561
 42
-1.0966331501
  0
ELLIPSE
  5
395
100
AcDbEntity
  8
0
100
AcDbEllipse
 62
7
  6
BYLAYER
 10
47.5946735498
 20
54.1773887385
 30
0.0
 11
8.8012013936
 21
23.7351411148
 31
0.0
 40
0.4113061279
 41
-1.0938644546
 42
-1.0644935486
  0
ELLIPSE
  5
396
100
AcDbEntity
  8
0
100
AcDbEllipse
 62
7
  6
BYLAYER
 10
47.95664954
 20
54.1859906054
 30
0.0
 11
8.070537932
 21
23.798935309
 31
0.0
 40
0.384261262
 41
-1.0594659548
 42
-1.0300950488
  0
ELLIPSE
  5
397
100
AcDbEntity
  8
0
100
AcDbEllipse
 62
7
  6
BYLAYER
 10
48.3008251039
 20
54.2404702795
 30
0.0
 11
7.3591439915
 21
23.7958488382
 31
0.0
 40
0.3566610828
 41
-1.0229443962
 42
-0.9935734902
  0
ELLIPSE
  5
398
100
AcDbEntity
  8
0
100
AcDbEllipse
 62
7
  6
BYLAYER
 10
48.6245808577
 20
54.3404131375
 30
0.0
 11
6.6643357711
 21
23.7293217161
 31
0.0
 40
0.3284688319
 41
-0.984393311
 42
-0.955022405
  0
ELLIPSE
  5
399
100
AcDbEntity
  8
0
100
AcDbEllipse
 62
7
  6
BYLAYER
 10
48.9254528246
 20
54.4850585541
 30
0.0
 11
5.9835511014
 21
23.6025907318
 31
0.0
 40
0.2996310152
 41
-0.9438659345
 42
-0.9144950285
  0
ELLIPSE
  5
39A
100
AcDbEntity
  8
0
100
AcDbEllipse
 62
7
  6
BYLAYER
 10
49.2011511872
 20
54.6733056901
 30
0.0
 11
5.3142644707
 21
23.4187886534
 31
0.0
 40
0.2700812053
 41
-0.9013761696
 42
-0.8720052636
  0
ELLIPSE
  5
39B
100
AcDbEntity
  8
0
100
AcDbEllipse
 62
7
  6
BYLAYER
 10
49.4495777146
 20
54.9037218713
 30
0.0
 11
4.6538927957
 21
23.1810214688
 31
0.0
 40
0.2397439709
 41
-0.8568982592
 42
-0.8275273532
  0
ELLIPSE
  5
39C
100
AcDbEntity
  8
0
100
AcDbEllipse
 62
7
  6
BYLAYER
 10
49.6688417309
 20
55.1745534913
 30
0.0
 11
3.9996933207
 21
22.8924267498
 31
0.0
 40
0.2085393773
 41
-0.8103649669
 42
-0.7809940609
  0
ELLIPSE
  5
39D
100
AcDbEntity
  8
0
100
AcDbEllipse
 62
7
  6
BYLAYER
 10
49.8572745045
 20
55.4837393581
 30
0.0
 11
3.3486527442
 21
22.5562154605
 31
0.0
 40
0.1763886204
 41
-0.7616640781
 42
-0.7322931721
  0
ELLIPSE
  5
39E
100
AcDbEntity
  8
0
100
AcDbEllipse
 62
7
  6
BYLAYER
 10
50.0134419482
 20
55.8289263804
 30
0.0
 11
2.6973653227
 21
22.1756983519
 31
0.0
 40
0.1432215345
 41
-0.7106330344
 42
-0.6812621283
  0
ELLIPSE
  5
39F
100
AcDbEntity
  8
0
100
AcDbEllipse
 62
7
  6
BYLAYER
 10
50.1361555335
 20
56.2074874766
 30
0.0
 11
2.0418973541
 21
21.7542964701
 31
0.0
 40
0.1089869747
 41
-0.6570515559
 42
-0.6276806499
  0
ELLIPSE
  5
3A0
100
AcDbEntity
  8
0
100
AcDbEllipse
 62
7
  6
BYLAYER
 10
50.2244813358
 20
56.6165415682
 30
0.0
 11
1.3776366849
 21
21.2955331191
 31
0.0
 40
0.0736674289
 41
-0.6006322628
 42
-0.5712613568
  0
ELLIPSE
  5
3A1
100
AcDbEntity
  8
0
100
AcDbEllipse
 62
7
  6
BYLAYER
 10
50.2777471427
 20
57.0529755066
 30
0.0
 11
0.6991301214
 21
20.8030017059
 31
0.0
 40
0.0372996543
 41
-0.5410097036
 42
-0.5116387976
  0
ELLIPSE
  5
3A2
100
AcDbEntity
  8
0
100
AcDbEllipse
 62
7
  6
BYLAYER
 10
50.3081043959
 20
66.404121131
 30
0.0
 11
-0.738560584
 21
19.3561636224
 31
0.0
 40
0.0378742831
 41
1.0077638622
 42
1.0375330061
  0
ELLIPSE
  5
3A3
100
AcDbEntity
  8
0
100
AcDbEllipse
 62
7
  6
BYLAYER
 10
50.3458785254
 20
66.0510015899
 30
0.0
 11
-1.5147682668
 21
18.8367283507
 31
0.0
 40
0.0756528438
 41
0.9356422756
 42
0.9589345226
  0
ELLIPSE
  5
3A4
100
AcDbEntity
  8
0
100
AcDbEllipse
 62
7
  6
BYLAYER
 10
45.2100547213
 20
55.0685964846
 30
0.0
 11
13.7653683003
 21
21.6930379501
 31
0.0
 40
0.5606959025
 41
-1.2448101526
 42
-1.2164162369
  0
ELLIPSE
  5
3A5
100
AcDbEntity
  8
0
100
AcDbEllipse
 62
7
  6
BYLAYER
 10
44.8054607502
 20
55.3636898776
 30
0.0
 11
14.719481364
 21
21.0161139063
 31
0.0
 40
0.5824385664
 41
-1.257959292
 42
-1.2303313439
  0
ELLIPSE
  5
3A6
100
AcDbEntity
  8
0
100
AcDbEllipse
 62
7
  6
BYLAYER
 10
44.4070488022
 20
55.6956980753
 30
0.0
 11
15.71445288
 21
20.2197073913
 31
0.0
 40
0.6026692941
 41
-1.2667078272
 42
-1.2403744802
  0
ELLIPSE
  5
3A7
100
AcDbEntity
  8
0
100
AcDbEllipse
 62
7
  6
BYLAYER
 10
44.017851033
 20
56.0620942947
 30
0.0
 11
16.7468455804
 21
19.2939077364
 31
0.0
 40
0.6210078725
 41
-1.2707561777
 42
-1.2450269221
  0
ELLIPSE
  5
3A8
100
AcDbEntity
  8
0
100
AcDbEllipse
 62
7
  6
BYLAYER
 10
52.2108404172
 20
62.1678213199
 30
0.0
 11
12.7728995674
 21
-12.1637800007
 31
0.0
 40
0.1802679208
 41
-0.7152556095
 42
-0.6854864656
  0
ELLIPSE
  5
3A9
100
AcDbEntity
  8
0
100
AcDbEllipse
 62
7
  6
BYLAYER
 10
52.4782100883
 20
61.8855775373
 30
0.0
 11
13.7482720826
 21
-11.6467418337
 31
0.0
 40
0.1479435082
 41
-0.8048242028
 42
-0.7750550589
  0
ELLIPSE
  5
3AA
100
AcDbEntity
  8
0
100
AcDbEllipse
 62
7
  6
BYLAYER
 10
52.7542146739
 20
61.6257429631
 30
0.0
 11
14.6749845951
 21
-11.1707553666
 31
0.0
 40
0.1126524607
 41
-0.8880574594
 42
-0.8582883155
  0
ELLIPSE
  5
3AB
100
AcDbEntity
  8
0
100
AcDbEllipse
 62
7
  6
BYLAYER
 10
53.0367536123
 20
61.3902950951
 30
0.0
 11
15.555815755
 21
-10.7301881851
 31
0.0
 40
0.075645413
 41
-0.9654261992
 42
-0.9356570553
  0
ELLIPSE
  5
3AC
100
AcDbEntity
  8
0
100
AcDbEllipse
 62
7
  6
BYLAYER
 10
53.3236766117
 20
61.1810258339
 30
0.0
 11
16.3937576474
 21
-10.3176993668
 31
0.0
 40
0.0378667741
 41
-1.0375468103
 42
-1.0077776664
  0
ELLIPSE
  5
3AD
100
AcDbEntity
  8
0
100
AcDbEllipse
 62
7
  6
BYLAYER
 10
54.1888464172
 20
68.2698035736
 30
0.0
 11
14.1404275877
 21
20.2728289326
 31
0.0
 40
0.6024229982
 41
-1.9043570977
 42
-1.8745879538
  0
ELLIPSE
  5
3AE
100
AcDbEntity
  8
0
100
AcDbEllipse
 62
7
  6
BYLAYER
 10
52.2108404172
 20
69.1110842286
 30
0.0
 11
8.5894470919
 21
22.8388025077
 31
0.0
 40
0.4249108978
 41
-1.7315422176
 42
-1.7017730738
  0
ELLIPSE
  5
3AF
100
AcDbEntity
  8
0
100
AcDbEllipse
 62
7
  6
BYLAYER
 10
51.9541405051
 20
69.1049841044
 30
0.0
 11
7.9024553998
 21
22.9069205658
 31
0.0
 40
0.3966858117
 41
-1.6959030448
 42
-1.6661339009
  0
ELLIPSE
  5
3B0
100
AcDbEntity
  8
0
100
AcDbEllipse
 62
7
  6
BYLAYER
 10
51.7100639935
 20
69.0663491454
 30
0.0
 11
7.2306756799
 21
22.9148275608
 31
0.0
 40
0.3678497859
 41
-1.6581944826
 42
-1.6284253387
  0
ELLIPSE
  5
3B1
100
AcDbEntity
  8
0
100
AcDbEllipse
 62
7
  6
BYLAYER
 10
54.4713853556
 20
68.0343557056
 30
0.0
 11
15.0860420609
 21
19.5192824082
 31
0.0
 40
0.6233201663
 41
-1.9139153407
 42
-1.8841461968
  0
ELLIPSE
  5
3B2
100
AcDbEntity
  8
0
100
AcDbEllipse
 62
7
  6
BYLAYER
 10
51.4804684518
 20
68.9954733869
 30
0.0
 11
6.5710751754
 21
22.8657625
 31
0.0
 40
0.3383778468
 41
-1.6185174929
 42
-1.5887483491
  0
ELLIPSE
  5
3B3
100
AcDbEntity
  8
0
100
AcDbEllipse
 62
7
  6
BYLAYER
 10
54.7473899412
 20
67.7745211314
 30
0.0
 11
16.0740002066
 21
18.6382543117
 31
0.0
 40
0.6422712193
 41
-1.918470146
 42
-1.8887010022
  0
ELLIPSE
  5
3B4
100
AcDbEntity
  8
0
100
AcDbEllipse
 62
7
  6
BYLAYER
 10
51.2671012409
 20
68.8928962362
 30
0.0
 11
5.9208257354
 21
22.7626851509
 31
0.0
 40
0.3082317889
 41
-1.5769309902
 42
-1.5471618463
  0
ELLIPSE
  5
3B5
100
AcDbEntity
  8
0
100
AcDbEllipse
 62
7
  6
BYLAYER
 10
51.071586214
 20
68.7593983673
 30
0.0
 11
5.277216253
 21
22.6083774188
 31
0.0
 40
0.2773641221
 41
-1.5334533421
 42
-1.5036841982
  0
ELLIPSE
  5
3B6
100
AcDbEntity
  8
0
100
AcDbEllipse
 62
7
  6
BYLAYER
 10
50.8954113586
 20
68.5959957797
 30
0.0
 11
4.6375585468
 21
22.4055220844
 31
0.0
 40
0.2457221809
 41
-1.4880624903
 42
-1.4582933464
  0
ELLIPSE
  5
3B7
100
AcDbEntity
  8
0
100
AcDbEllipse
 62
7
  6
BYLAYER
 10
50.7399174716
 20
68.4039320657
 30
0.0
 11
3.9990874935
 21
22.1567625074
 31
0.0
 40
0.2132528315
 41
-1.4406945771
 42
-1.4109254332
  0
ELLIPSE
  5
3B8
100
AcDbEntity
  8
0
100
AcDbEllipse
 62
7
  6
BYLAYER
 10
50.6062879555
 20
68.1846689461
 30
0.0
 11
3.358854402
 21
21.8647458064
 31
0.0
 40
0.1799083165
 41
-1.3912409812
 42
-1.3614718373
  0
ELLIPSE
  5
3B9
100
AcDbEntity
  8
0
100
AcDbEllipse
 62
7
  6
BYLAYER
 10
55.0147596123
 20
67.4922773488
 30
0.0
 11
17.0970456043
 21
17.6195982925
 31
0.0
 40
0.658822818
 41
-1.9114517877
 42
-1.8880356368
  0
ELLIPSE
  5
3BA
100
AcDbEntity
  8
0
100
AcDbEllipse
 62
7
  6
BYLAYER
 10
50.4955398116
 20
67.9398751458
 30
0.0
 11
2.7136118285
 21
21.5321506385
 31
0.0
 40
0.1456539223
 41
-1.3395436911
 42
-1.3097745472
  0
ELLIPSE
  5
3BB
100
AcDbEntity
  8
0
100
AcDbEllipse
 62
7
  6
BYLAYER
 10
50.4085159
 20
67.6714136932
 30
0.0
 11
2.0596883802
 21
21.1616989884
 31
0.0
 40
0.1104783762
 41
-1.2853890178
 42
-1.2556198739
  0
ELLIPSE
  5
3BC
100
AcDbEntity
  8
0
100
AcDbEllipse
 62
7
  6
BYLAYER
 10
53.9019234178
 20
60.8471824373
 30
0.0
 11
17.9503226148
 21
-9.5458470099
 31
0.0
 40
0.0375345275
 41
1.1387702134
 42
1.1685393573
  0
ELLIPSE
  5
3BD
100
AcDbEntity
  8
0
100
AcDbEllipse
 62
7
  6
BYLAYER
 10
54.1888464172
 20
60.7251490517
 30
0.0
 11
18.6718714293
 21
-9.1718501484
 31
0.0
 40
0.074415375
 41
1.1987422684
 42
1.2285114123
  0
ELLIPSE
  5
3BE
100
AcDbEntity
  8
0
100
AcDbEllipse
 62
7
  6
BYLAYER
 10
54.4713853556
 20
60.6343564359
 30
0.0
 11
19.3564995502
 21
-8.7971324392
 31
0.0
 40
0.1104854318
 41
1.2556308579
 42
1.2854000018
  0
ELLIPSE
  5
3BF
100
AcDbEntity
  8
0
100
AcDbEllipse
 62
7
  6
BYLAYER
 10
54.7473899412
 20
60.5754955765
 30
0.0
 11
20.0042764695
 21
-8.4160455158
 31
0.0
 40
0.1456607967
 41
1.3097850194
 42
1.3395541633
  0
ELLIPSE
  5
3C0
100
AcDbEntity
  8
0
100
AcDbEllipse
 62
7
  6
BYLAYER
 10
55.0147596123
 20
60.5490144401
 30
0.0
 11
20.6149282535
 21
-8.0235470724
 31
0.0
 40
0.1799150085
 41
1.3614818461
 42
1.3912509899
  0
ELLIPSE
  5
3C1
100
AcDbEntity
  8
0
100
AcDbEllipse
 62
7
  6
BYLAYER
 10
55.2714595244
 20
60.5551145643
 30
0.0
 11
21.1879332732
 21
-7.6150966827
 31
0.0
 40
0.2132593463
 41
1.410935015
 42
1.4407041589
  0
ELLIPSE
  5
3C2
100
AcDbEntity
  8
0
100
AcDbEllipse
 62
7
  6
BYLAYER
 10
55.5155360361
 20
60.5937495233
 30
0.0
 11
21.7225954581
 21
-7.1865427116
 31
0.0
 40
0.2457285267
 41
1.4583025276
 42
1.4880716714
  0
ELLIPSE
  5
3C3
100
AcDbEntity
  8
0
100
AcDbEllipse
 62
7
  6
BYLAYER
 10
55.7451315777
 20
60.6646252818
 30
0.0
 11
22.2180966816
 21
-6.7340079971
 31
0.0
 40
0.2773703094
 41
1.5036929955
 42
1.5334621394
  0
ELLIPSE
  5
3C4
100
AcDbEntity
  8
0
100
AcDbEllipse
 62
7
  6
BYLAYER
 10
55.9584987886
 20
60.7672024325
 30
0.0
 11
22.6735302925
 21
-6.2537762083
 31
0.0
 40
0.3082378281
 41
1.5471702683
 42
1.5769394122
  0
ELLIPSE
  5
3C5
100
AcDbEntity
  8
0
100
AcDbEllipse
 62
7
  6
BYLAYER
 10
56.1540138155
 20
60.9007003014
 30
0.0
 11
23.0879170304
 21
-5.7421779141
 31
0.0
 40
0.3383837481
 41
1.5887563961
 42
1.61852554
  0
ELLIPSE
  5
3C6
100
AcDbEntity
  8
0
100
AcDbEllipse
 62
7
  6
BYLAYER
 10
56.330188671
 20
61.064102889
 30
0.0
 11
23.4602032511
 21
-5.1954742436
 31
0.0
 40
0.3678555579
 41
1.6284330032
 42
1.6582021471
  0
ELLIPSE
  5
3C7
100
AcDbEntity
  8
0
100
AcDbEllipse
 62
7
  6
BYLAYER
 10
56.4856825579
 20
61.256166603
 30
0.0
 11
23.7892397943
 21
-4.6097360067
 31
0.0
 40
0.3966914607
 41
1.666141167
 42
1.6959103109
  0
ELLIPSE
  5
3C8
100
AcDbEntity
  8
0
100
AcDbEllipse
 62
7
  6
BYLAYER
 10
56.619312074
 20
61.4754297226
 30
0.0
 11
24.0737379637
 21
-3.9807171728
 31
0.0
 40
0.4249164272
 41
1.7017799172
 42
1.7315490611
  0
ELLIPSE
  5
3C9
100
AcDbEntity
  8
0
100
AcDbEllipse
 62
7
  6
BYLAYER
 10
56.730060218
 20
61.7202235229
 30
0.0
 11
24.3121969692
 21
-3.3037240113
 31
0.0
 40
0.4525380327
 41
1.7352035145
 42
1.7649726584
  0
ELLIPSE
  5
3CA
100
AcDbEntity
  8
0
100
AcDbEllipse
 62
7
  6
BYLAYER
 10
56.8170841295
 20
61.9886849755
 30
0.0
 11
24.502794857
 21
-2.5734857904
 31
0.0
 40
0.4795417348
 41
1.7662177942
 42
1.7959869381
  0
ELLIPSE
  5
3CB
100
AcDbEntity
  8
0
100
AcDbEllipse
 62
7
  6
BYLAYER
 10
56.8797215041
 20
62.2787709265
 30
0.0
 11
24.6432328068
 21
-1.7840411968
 31
0.0
 40
0.5058852725
 41
1.7945761185
 42
1.8243452623
  0
ELLIPSE
  5
3CC
100
AcDbEntity
  8
0
100
AcDbEllipse
 62
7
  6
BYLAYER
 10
56.9174956336
 20
62.5882736467
 30
0.0
 11
24.7305217616
 21
-0.9286688719
 31
0.0
 40
0.5314919031
 41
1.8199759772
 42
1.8497451211
  0
ELLIPSE
  5
3CD
100
AcDbEntity
  8
0
100
AcDbEllipse
 62
7
  6
BYLAYER
 10
56.930119034
 20
62.9148376335
 30
0.0
 11
24.7607031609
 21
0.0000861829
 31
0.0
 40
0.5562423032
 41
1.8420581444
 42
1.8718272883
  0
ELLIPSE
  5
3CE
100
AcDbEntity
  8
0
100
AcDbEllipse
 62
7
  6
BYLAYER
 10
56.9174956336
 20
63.2559775377
 30
0.0
 11
24.7285072235
 21
1.0102028488
 31
0.0
 40
0.5799651978
 41
1.8604117045
 42
1.8901808484
  0
ELLIPSE
  5
3CF
100
AcDbEntity
  8
0
100
AcDbEllipse
 62
7
  6
BYLAYER
 10
56.8797215041
 20
63.6090970788
 30
0.0
 11
24.6269820389
 21
2.1096547814
 31
0.0
 40
0.6024273025
 41
1.8745903182
 42
1.8861464276
  0
ELLIPSE
  5
3D0
100
AcDbEntity
  8
0
100
AcDbEllipse
 62
7
  6
BYLAYER
 10
50.3458785254
 20
67.3813277422
 30
0.0
 11
1.3928541488
 21
20.7561492695
 31
0.0
 40
0.0744081482
 41
-1.2284998547
 42
-1.1987307108
  0
ELLIPSE
  5
3D1
100
AcDbEntity
  8
0
100
AcDbEllipse
 62
7
  6
BYLAYER
 10
50.3081043959
 20
67.071825022
 30
0.0
 11
0.7081826227
 21
20.3182655047
 31
0.0
 40
0.0375271535
 41
-1.1685271495
 42
-1.1387580056
  0
ELLIPSE
  5
3D2
100
AcDbEntity
  8
0
100
AcDbEllipse
 62
7
  6
BYLAYER
 10
53.6128000148
 20
68.6605708239
 30
0.0
 11
12.380371053
 21
21.4433867095
 31
0.0
 40
0.5562374973
 41
-1.8718232704
 42
-1.8420541266
  0
ELLIPSE
  5
3D3
100
AcDbEntity
  8
0
100
AcDbEllipse
 62
7
  6
BYLAYER
 10
53.3236766117
 20
68.8129162314
 30
0.0
 11
11.5609645157
 21
21.8816127571
 31
0.0
 40
0.5314869125
 41
-1.8497404071
 42
-1.8199712632
  0
ELLIPSE
  5
3D4
100
AcDbEntity
  8
0
100
AcDbEllipse
 62
7
  6
BYLAYER
 10
53.0367536123
 20
68.934949617
 30
0.0
 11
10.7765541815
 21
22.2336922154
 31
0.0
 40
0.5058801257
 41
-1.8243399288
 42
-1.7945707849
  0
ELLIPSE
  5
3D5
100
AcDbEntity
  8
0
100
AcDbEllipse
 62
7
  6
BYLAYER
 10
53.9019234178
 20
68.4790728348
 30
0.0
 11
13.2390488645
 21
20.9104611346
 31
0.0
 40
0.5799606162
 41
-1.8901776123
 42
-1.8604084684
  0
ELLIPSE
  5
3D6
100
AcDbEntity
  8
0
100
AcDbEllipse
 62
7
  6
BYLAYER
 10
52.7542146739
 20
69.0257422328
 30
0.0
 11
10.0226631519
 21
22.5067805604
 31
0.0
 40
0.479536451
 41
-1.7959810505
 42
-1.7662119067
  0
ELLIPSE
  5
3D7
100
AcDbEntity
  8
0
100
AcDbEllipse
 62
7
  6
BYLAYER
 10
52.4782100883
 20
69.0846030922
 30
0.0
 11
9.2949651699
 21
22.7068268769
 31
0.0
 40
0.4525326233
 41
-1.7649662711
 42
-1.7351971272
  0
ENDSEC
  0
SECTION
  2
OBJECTS
  0
DICTIONARY
  5
C
100
AcDbDictionary
280
0
281
1
  3
ACAD_GROUP
350
D
  3
ACAD_MLINESTYLE
350
17
  3
ACAD_LAYOUT
350
1A
  3
ACAD_PLOTSETTINGS
350
19
  3
ACAD_PLOTSTYLENAME
350
E
  0
DICTIONARY
  5
D
102
{ACAD_REACTORS
330
C
102
}
100
AcDbDictionary
280
0
281
1
  0
ACDBDICTIONARYWDFLT
  5
E
102
{ACAD_REACTORS
330
C
102
}
100
AcDbDictionary
281
1
  3
Normal
350
F
100
AcDbDictionaryWithDefault
340
F
  0
DICTIONARY
  5
17
102
{ACAD_REACTORS
330
C
102
}
100
AcDbDictionary
280
0
281
1
  3
Standard
350
18
  0
DICTIONARY
  5
19
102
{ACAD_REACTORS
330
C
102
}
100
AcDbDictionary
281
1
  0
DICTIONARY
  5
1A
102
{ACAD_REACTORS
330
C
102
}
100
AcDbDictionary
281
1
  3
Model
350
3D8
  3
Layout1
350
3D9
  0
ACDBPLACEHOLDER
  5
F
102
{ACAD_REACTORS
330
E
102
}
  0
MLINESTYLE
  5
18
102
{ACAD_REACTORS
330
17
102
}
100
AcDbMlineStyle
  2
STANDARD
 70
0
  3

 62
256
 51
90.0
 52
90.0
 71
2
 49
0.5
 62
256
  6
BYLAYER
 49
-0.5
 62
256
  6
BYLAYER
  0
LAYOUT
  5
3D8
102
{ACAD_REACTORS
330
1A
102
}
100
AcDbPlotSettings
  1

  2
none_device
  4

  6

 40
0.0
 41
0.0
 42
0.0
 43
0.0
 44
210.0
 45
297.0
 46
0.0
 47
0.0
 48
0.0
 49
0.0
140
0.0
141
0.0
142
1.0
143
1.0
 70
1024
 72
1
 73
0
 74
0
  7

 75
0
147
1.0
148
0.0
149
0.0
100
AcDbLayout
  1
Model
 70
0
 71
0
 10
0.0
 20
0.0
 11
210.0
 21
297.0
 12
0.0
 22
0.0
 32
0.0
 14
0.0
 24
0.0
 34
0.0
 15
0.0
 25
0.0
 35
0.0
146
0.0
 13
0.0
 23
0.0
 33
0.0
 16
1.0
 26
0.0
 36
0.0
 17
0.0
 27
1.0
 37
0.0
 76
0
330
210
345
0
346
0
  0
LAYOUT
  5
3D9
102
{ACAD_REACTORS
330
1A
102
}
100
AcDbPlotSettings
  1

  2
none_device
  4

  6

 40
0.0
 41
0.0
 42
0.0
 43
0.0
 44
210.0
 45
297.0
 46
0.0
 47
0.0
 48
0.0
 49
0.0
140
0.0
141
0.0
142
1.0
143
1.0
 70
0
 72
1
 73
0
 74
0
  7

 75
0
147
1.0
148
0.0
149
0.0
100
AcDbLayout
  1
Layout1
 70
0
 71
1
 10
0.0
 20
0.0
 11
210.0
 21
297.0
 12
0.0
 22
0.0
 32
0.0
 14
0.0
 24
0.0
 34
0.0
 15
0.0
 25
0.0
 35
0.0
146
0.0
 13
0.0
 23
0.0
 33
0.0
 16
1.0
 26
0.0
 36
0.0
 17
0.0
 27
1.0
 37
0.0
 76
0
330
211
345
0
346
0
  0
ENDSEC
  0
EOF
