  0
SECTION
  2
HEADER
  9
$ACADVER
  1
AC1006
  9
$EXTMIN
 10
-2.272000
 20
-3.611000
  9
$EXTMAX
 10
2.274709
 20
3.606000
  9
$LTSCALE
 40
0.000394
  9
$PDMODE
 70
    35
  9
$PDSIZE
 40
0.000315
  0
ENDSEC
  0
SECTION
  2
TABLES
  0
TABLE
  2
LTYPE
 70
     9
  0
LTYPE
  2
CONTINUOUS
 70
    64
  3
Solid line
 72
    65
 73
     0
 40
0.000000
  0
LTYPE
  2
DASHED
 70
    64
  3
__ __ __ __ __ __ __ __ __ __ __ __ __ __ __
 72
    65
 73
     2
 40
0.000003
 49
0.000002
 49
-0.000001
  0
LTYPE
  2
HIDDEN
 70
    64
  3
 _ _ _ _ _ _ _ _ _ _ _ _ _ _ _ _ _ _ _ _ _ _
 72
    65
 73
     2
 40
0.000001
 49
0.000001
 49
-0.000000
  0
LTYPE
  2
CENTER
 70
    64
  3
____ _ ____ _ ____ _ ____ _ ____ _ ____ _ ____
 72
    65
 73
     4
 40
0.000008
 49
0.000005
 49
-0.000001
 49
0.000001
 49
-0.000001
  0
LTYPE
  2
PHANTOM
 70
    64
  3
_____ _ _ _____ _ _ _____ _ _ _____ _ _ ____
 72
    65
 73
     6
 40
0.000010
 49
0.000005
 49
-0.000001
 49
0.000001
 49
-0.000001
 49
0.000001
 49
-0.000001
  0
LTYPE
  2
DOT
 70
    64
  3
...............................................
 72
    65
 73
     2
 40
0.000001
 49
0.000000
 49
-0.000001
  0
LTYPE
  2
DASHDOT
 70
    64
  3
__ . __ . __ . __ . __ . __ . __ . __ . __ . __
 72
    65
 73
     4
 40
0.000004
 49
0.000002
 49
-0.000001
 49
0.000000
 49
-0.000001
  0
LTYPE
  2
BORDER
 70
    64
  3
__ __ . __ __ . __ __ . __ __ . __ __ . __ __
 72
    65
 73
     6
 40
0.000007
 49
0.000002
 49
-0.000001
 49
0.000002
 49
-0.000001
 49
0.000000
 49
-0.000001
  0
LTYPE
  2
DIVIDE
 70
    64
  3
__ . . __ . . __ . . __ . . __ . . __ . . __
 72
    65
 73
     6
 40
0.000005
 49
0.000002
 49
-0.000001
 49
0.000000
 49
-0.000001
 49
0.000000
 49
-0.000001
  0
LTYPE
  2
DOTDOT
 70
    64
  3
 . .  . .  . .  . .  . .  . . 
 72
    65
 73
     5
 40
0.000002
 49
-0.000001
 49
0.000000
 49
-0.000001
 49
0.000000
 49
-0.000001
  0
ENDTAB
  0
TABLE
  2
STYLE
 70
     0
  0
ENDTAB
  0
TABLE
  2
LAYER
 70
     3
  0
LAYER
  2
FOREGROUND
 70
    64
 62
     7
  6
CONTINUOUS
  0
LAYER
  2
BACKGROUND
 70
    65
 62
    -7
  6
CONTINUOUS
  0
LAYER
  2
PLAN_1
 70
    64
 62
     7
  6
CONTINUOUS
  0
ENDTAB
  0
ENDSEC
  0
SECTION
  2
ENTITIES
  0
POLYLINE
  8
PLAN_1
  6
CONTINUOUS
 66
     1
 40
0.003000
 41
0.003000
  0
VERTEX
  8
PLAN_1
  6
CONTINUOUS
 10
0.240417
 20
-3.576268
  0
VERTEX
  8
PLAN_1
  6
CONTINUOUS
 10
0.083449
 20
-3.576268
  0
VERTEX
  8
PLAN_1
  6
CONTINUOUS
 10
0.083449
 20
-3.553717
  0
VERTEX
  8
PLAN_1
  6
CONTINUOUS
 10
0.205685
 20
-3.400803
  0
VERTEX
  8
PLAN_1
  6
CONTINUOUS
 10
0.092469
 20
-3.400803
  0
VERTEX
  8
PLAN_1
  6
CONTINUOUS
 10
0.092469
 20
-3.376898
  0
VERTEX
  8
PLAN_1
  6
CONTINUOUS
 10
0.240417
 20
-3.376898
  0
VERTEX
  8
PLAN_1
  6
CONTINUOUS
 10
0.240417
 20
-3.400354
  0
VERTEX
  8
PLAN_1
  6
CONTINUOUS
 10
0.117728
 20
-3.552362
  0
VERTEX
  8
PLAN_1
  6
CONTINUOUS
 10
0.240417
 20
-3.552362
  0
VERTEX
  8
PLAN_1
  6
CONTINUOUS
 10
0.240417
 20
-3.576268
  0
SEQEND
  8
0
  0
POLYLINE
  8
PLAN_1
  6
CONTINUOUS
 66
     1
 40
0.003000
 41
0.003000
  0
VERTEX
  8
PLAN_1
  6
CONTINUOUS
 10
0.407764
 20
-3.436890
  0
VERTEX
  8
PLAN_1
  6
CONTINUOUS
 10
0.405957
 20
-3.430575
  0
VERTEX
  8
PLAN_1
  6
CONTINUOUS
 10
0.404154
 20
-3.425161
  0
VERTEX
  8
PLAN_1
  6
CONTINUOUS
 10
0.401449
 20
-3.420201
  0
VERTEX
  8
PLAN_1
  6
CONTINUOUS
 10
0.398740
 20
-3.415689
  0
VERTEX
  8
PLAN_1
  6
CONTINUOUS
 10
0.395134
 20
-3.412083
  0
VERTEX
  8
PLAN_1
  6
CONTINUOUS
 10
0.391976
 20
-3.408472
  0
VERTEX
  8
PLAN_1
  6
CONTINUOUS
 10
0.387917
 20
-3.405768
  0
VERTEX
  8
PLAN_1
  6
CONTINUOUS
 10
0.384307
 20
-3.403059
  0
VERTEX
  8
PLAN_1
  6
CONTINUOUS
 10
0.380248
 20
-3.401256
  0
VERTEX
  8
PLAN_1
  6
CONTINUOUS
 10
0.376189
 20
-3.399453
  0
VERTEX
  8
PLAN_1
  6
CONTINUOUS
 10
0.371677
 20
-3.398098
  0
VERTEX
  8
PLAN_1
  6
CONTINUOUS
 10
0.367618
 20
-3.397197
  0
VERTEX
  8
PLAN_1
  6
CONTINUOUS
 10
0.359500
 20
-3.395843
  0
VERTEX
  8
PLAN_1
  6
CONTINUOUS
 10
0.351831
 20
-3.395394
  0
VERTEX
  8
PLAN_1
  6
CONTINUOUS
 10
0.345063
 20
-3.395843
  0
VERTEX
  8
PLAN_1
  6
CONTINUOUS
 10
0.338748
 20
-3.396744
  0
VERTEX
  8
PLAN_1
  6
CONTINUOUS
 10
0.332433
 20
-3.398551
  0
VERTEX
  8
PLAN_1
  6
CONTINUOUS
 10
0.326571
 20
-3.400803
  0
VERTEX
  8
PLAN_1
  6
CONTINUOUS
 10
0.320709
 20
-3.403512
  0
VERTEX
  8
PLAN_1
  6
CONTINUOUS
 10
0.315295
 20
-3.406669
  0
VERTEX
  8
PLAN_1
  6
CONTINUOUS
 10
0.310335
 20
-3.410728
  0
VERTEX
  8
PLAN_1
  6
CONTINUOUS
 10
0.305823
 20
-3.415689
  0
VERTEX
  8
PLAN_1
  6
CONTINUOUS
 10
0.301764
 20
-3.420654
  0
VERTEX
  8
PLAN_1
  6
CONTINUOUS
 10
0.297705
 20
-3.426516
  0
VERTEX
  8
PLAN_1
  6
CONTINUOUS
 10
0.294547
 20
-3.433283
  0
VERTEX
  8
PLAN_1
  6
CONTINUOUS
 10
0.291839
 20
-3.440047
  0
VERTEX
  8
PLAN_1
  6
CONTINUOUS
 10
0.289583
 20
-3.447717
  0
VERTEX
  8
PLAN_1
  6
CONTINUOUS
 10
0.288232
 20
-3.456287
  0
VERTEX
  8
PLAN_1
  6
CONTINUOUS
 10
0.286878
 20
-3.465307
  0
VERTEX
  8
PLAN_1
  6
CONTINUOUS
 10
0.286878
 20
-3.474780
  0
VERTEX
  8
PLAN_1
  6
CONTINUOUS
 10
0.286878
 20
-3.483350
  0
VERTEX
  8
PLAN_1
  6
CONTINUOUS
 10
0.287327
 20
-3.491921
  0
VERTEX
  8
PLAN_1
  6
CONTINUOUS
 10
0.288681
 20
-3.499587
  0
VERTEX
  8
PLAN_1
  6
CONTINUOUS
 10
0.290035
 20
-3.507256
  0
VERTEX
  8
PLAN_1
  6
CONTINUOUS
 10
0.292291
 20
-3.514925
  0
VERTEX
  8
PLAN_1
  6
CONTINUOUS
 10
0.294547
 20
-3.521689
  0
VERTEX
  8
PLAN_1
  6
CONTINUOUS
 10
0.297705
 20
-3.528004
  0
VERTEX
  8
PLAN_1
  6
CONTINUOUS
 10
0.301311
 20
-3.533870
  0
VERTEX
  8
PLAN_1
  6
CONTINUOUS
 10
0.305370
 20
-3.539280
  0
VERTEX
  8
PLAN_1
  6
CONTINUOUS
 10
0.310335
 20
-3.543791
  0
VERTEX
  8
PLAN_1
  6
CONTINUOUS
 10
0.312587
 20
-3.546047
  0
VERTEX
  8
PLAN_1
  6
CONTINUOUS
 10
0.315744
 20
-3.547850
  0
VERTEX
  8
PLAN_1
  6
CONTINUOUS
 10
0.318453
 20
-3.549657
  0
VERTEX
  8
PLAN_1
  6
CONTINUOUS
 10
0.321610
 20
-3.551461
  0
VERTEX
  8
PLAN_1
  6
CONTINUOUS
 10
0.324768
 20
-3.552815
  0
VERTEX
  8
PLAN_1
  6
CONTINUOUS
 10
0.328374
 20
-3.554165
  0
VERTEX
  8
PLAN_1
  6
CONTINUOUS
 10
0.331984
 20
-3.555067
  0
VERTEX
  8
PLAN_1
  6
CONTINUOUS
 10
0.335591
 20
-3.555972
  0
VERTEX
  8
PLAN_1
  6
CONTINUOUS
 10
0.343713
 20
-3.557323
  0
VERTEX
  8
PLAN_1
  6
CONTINUOUS
 10
0.352732
 20
-3.557776
  0
VERTEX
  8
PLAN_1
  6
CONTINUOUS
 10
0.356343
 20
-3.557776
  0
VERTEX
  8
PLAN_1
  6
CONTINUOUS
 10
0.359949
 20
-3.557323
  0
VERTEX
  8
PLAN_1
  6
CONTINUOUS
 10
0.363559
 20
-3.556421
  0
VERTEX
  8
PLAN_1
  6
CONTINUOUS
 10
0.367618
 20
-3.555520
  0
VERTEX
  8
PLAN_1
  6
CONTINUOUS
 10
0.371677
 20
-3.554165
  0
VERTEX
  8
PLAN_1
  6
CONTINUOUS
 10
0.376189
 20
-3.552815
  0
VERTEX
  8
PLAN_1
  6
CONTINUOUS
 10
0.380248
 20
-3.550559
  0
VERTEX
  8
PLAN_1
  6
CONTINUOUS
 10
0.384307
 20
-3.547850
  0
VERTEX
  8
PLAN_1
  6
CONTINUOUS
 10
0.388366
 20
-3.544693
  0
VERTEX
  8
PLAN_1
  6
CONTINUOUS
 10
0.392425
 20
-3.540634
  0
VERTEX
  8
PLAN_1
  6
CONTINUOUS
 10
0.396035
 20
-3.536122
  0
VERTEX
  8
PLAN_1
  6
CONTINUOUS
 10
0.399193
 20
-3.531161
  0
VERTEX
  8
PLAN_1
  6
CONTINUOUS
 10
0.402350
 20
-3.525299
  0
VERTEX
  8
PLAN_1
  6
CONTINUOUS
 10
0.405508
 20
-3.518531
  0
VERTEX
  8
PLAN_1
  6
CONTINUOUS
 10
0.407764
 20
-3.511315
  0
VERTEX
  8
PLAN_1
  6
CONTINUOUS
 10
0.409567
 20
-3.503197
  0
VERTEX
  8
PLAN_1
  6
CONTINUOUS
 10
0.435728
 20
-3.503197
  0
VERTEX
  8
PLAN_1
  6
CONTINUOUS
 10
0.434374
 20
-3.509961
  0
VERTEX
  8
PLAN_1
  6
CONTINUOUS
 10
0.433024
 20
-3.516276
  0
VERTEX
  8
PLAN_1
  6
CONTINUOUS
 10
0.431217
 20
-3.522142
  0
VERTEX
  8
PLAN_1
  6
CONTINUOUS
 10
0.429413
 20
-3.528004
  0
VERTEX
  8
PLAN_1
  6
CONTINUOUS
 10
0.427157
 20
-3.533417
  0
VERTEX
  8
PLAN_1
  6
CONTINUOUS
 10
0.424902
 20
-3.538378
  0
VERTEX
  8
PLAN_1
  6
CONTINUOUS
 10
0.422197
 20
-3.542890
  0
VERTEX
  8
PLAN_1
  6
CONTINUOUS
 10
0.419488
 20
-3.546949
  0
VERTEX
  8
PLAN_1
  6
CONTINUOUS
 10
0.416783
 20
-3.551008
  0
VERTEX
  8
PLAN_1
  6
CONTINUOUS
 10
0.413626
 20
-3.554618
  0
VERTEX
  8
PLAN_1
  6
CONTINUOUS
 10
0.410469
 20
-3.557776
  0
VERTEX
  8
PLAN_1
  6
CONTINUOUS
 10
0.407311
 20
-3.560933
  0
VERTEX
  8
PLAN_1
  6
CONTINUOUS
 10
0.404154
 20
-3.563638
  0
VERTEX
  8
PLAN_1
  6
CONTINUOUS
 10
0.400547
 20
-3.566346
  0
VERTEX
  8
PLAN_1
  6
CONTINUOUS
 10
0.396937
 20
-3.568598
  0
VERTEX
  8
PLAN_1
  6
CONTINUOUS
 10
0.393780
 20
-3.570406
  0
VERTEX
  8
PLAN_1
  6
CONTINUOUS
 10
0.386563
 20
-3.574012
  0
VERTEX
  8
PLAN_1
  6
CONTINUOUS
 10
0.379795
 20
-3.576720
  0
VERTEX
  8
PLAN_1
  6
CONTINUOUS
 10
0.373031
 20
-3.578524
  0
VERTEX
  8
PLAN_1
  6
CONTINUOUS
 10
0.367165
 20
-3.579878
  0
VERTEX
  8
PLAN_1
  6
CONTINUOUS
 10
0.356343
 20
-3.581228
  0
VERTEX
  8
PLAN_1
  6
CONTINUOUS
 10
0.348673
 20
-3.581681
  0
VERTEX
  8
PLAN_1
  6
CONTINUOUS
 10
0.340102
 20
-3.581228
  0
VERTEX
  8
PLAN_1
  6
CONTINUOUS
 10
0.331984
 20
-3.580327
  0
VERTEX
  8
PLAN_1
  6
CONTINUOUS
 10
0.323413
 20
-3.578524
  0
VERTEX
  8
PLAN_1
  6
CONTINUOUS
 10
0.315744
 20
-3.575819
  0
VERTEX
  8
PLAN_1
  6
CONTINUOUS
 10
0.307626
 20
-3.572209
  0
VERTEX
  8
PLAN_1
  6
CONTINUOUS
 10
0.300409
 20
-3.568150
  0
VERTEX
  8
PLAN_1
  6
CONTINUOUS
 10
0.296799
 20
-3.565894
  0
VERTEX
  8
PLAN_1
  6
CONTINUOUS
 10
0.293193
 20
-3.563189
  0
VERTEX
  8
PLAN_1
  6
CONTINUOUS
 10
0.290035
 20
-3.560480
  0
VERTEX
  8
PLAN_1
  6
CONTINUOUS
 10
0.286878
 20
-3.557323
  0
VERTEX
  8
PLAN_1
  6
CONTINUOUS
 10
0.283720
 20
-3.554165
  0
VERTEX
  8
PLAN_1
  6
CONTINUOUS
 10
0.281016
 20
-3.550559
  0
VERTEX
  8
PLAN_1
  6
CONTINUOUS
 10
0.277858
 20
-3.546949
  0
VERTEX
  8
PLAN_1
  6
CONTINUOUS
 10
0.275602
 20
-3.542890
  0
VERTEX
  8
PLAN_1
  6
CONTINUOUS
 10
0.272894
 20
-3.538378
  0
VERTEX
  8
PLAN_1
  6
CONTINUOUS
 10
0.270638
 20
-3.533870
  0
VERTEX
  8
PLAN_1
  6
CONTINUOUS
 10
0.268386
 20
-3.529358
  0
VERTEX
  8
PLAN_1
  6
CONTINUOUS
 10
0.266579
 20
-3.524398
  0
VERTEX
  8
PLAN_1
  6
CONTINUOUS
 10
0.264776
 20
-3.519433
  0
VERTEX
  8
PLAN_1
  6
CONTINUOUS
 10
0.263421
 20
-3.513571
  0
VERTEX
  8
PLAN_1
  6
CONTINUOUS
 10
0.262071
 20
-3.508157
  0
VERTEX
  8
PLAN_1
  6
CONTINUOUS
 10
0.261165
 20
-3.502295
  0
VERTEX
  8
PLAN_1
  6
CONTINUOUS
 10
0.260264
 20
-3.495980
  0
VERTEX
  8
PLAN_1
  6
CONTINUOUS
 10
0.259362
 20
-3.489213
  0
VERTEX
  8
PLAN_1
  6
CONTINUOUS
 10
0.258913
 20
-3.482449
  0
VERTEX
  8
PLAN_1
  6
CONTINUOUS
 10
0.258913
 20
-3.475681
  0
VERTEX
  8
PLAN_1
  6
CONTINUOUS
 10
0.259362
 20
-3.464406
  0
VERTEX
  8
PLAN_1
  6
CONTINUOUS
 10
0.260717
 20
-3.453579
  0
VERTEX
  8
PLAN_1
  6
CONTINUOUS
 10
0.262520
 20
-3.443205
  0
VERTEX
  8
PLAN_1
  6
CONTINUOUS
 10
0.265228
 20
-3.433283
  0
VERTEX
  8
PLAN_1
  6
CONTINUOUS
 10
0.267031
 20
-3.428772
  0
VERTEX
  8
PLAN_1
  6
CONTINUOUS
 10
0.268835
 20
-3.424260
  0
VERTEX
  8
PLAN_1
  6
CONTINUOUS
 10
0.271091
 20
-3.419748
  0
VERTEX
  8
PLAN_1
  6
CONTINUOUS
 10
0.272894
 20
-3.415689
  0
VERTEX
  8
PLAN_1
  6
CONTINUOUS
 10
0.275602
 20
-3.411630
  0
VERTEX
  8
PLAN_1
  6
CONTINUOUS
 10
0.277858
 20
-3.408024
  0
VERTEX
  8
PLAN_1
  6
CONTINUOUS
 10
0.280563
 20
-3.403961
  0
VERTEX
  8
PLAN_1
  6
CONTINUOUS
 10
0.283720
 20
-3.400803
  0
VERTEX
  8
PLAN_1
  6
CONTINUOUS
 10
0.286878
 20
-3.397197
  0
VERTEX
  8
PLAN_1
  6
CONTINUOUS
 10
0.290035
 20
-3.394039
  0
VERTEX
  8
PLAN_1
  6
CONTINUOUS
 10
0.293642
 20
-3.391335
  0
VERTEX
  8
PLAN_1
  6
CONTINUOUS
 10
0.297252
 20
-3.388177
  0
VERTEX
  8
PLAN_1
  6
CONTINUOUS
 10
0.300862
 20
-3.385921
  0
VERTEX
  8
PLAN_1
  6
CONTINUOUS
 10
0.304469
 20
-3.383665
  0
VERTEX
  8
PLAN_1
  6
CONTINUOUS
 10
0.308528
 20
-3.381409
  0
VERTEX
  8
PLAN_1
  6
CONTINUOUS
 10
0.313039
 20
-3.379154
  0
VERTEX
  8
PLAN_1
  6
CONTINUOUS
 10
0.317098
 20
-3.377799
  0
VERTEX
  8
PLAN_1
  6
CONTINUOUS
 10
0.321610
 20
-3.375996
  0
VERTEX
  8
PLAN_1
  6
CONTINUOUS
 10
0.326571
 20
-3.374642
  0
VERTEX
  8
PLAN_1
  6
CONTINUOUS
 10
0.331083
 20
-3.373740
  0
VERTEX
  8
PLAN_1
  6
CONTINUOUS
 10
0.336043
 20
-3.372839
  0
VERTEX
  8
PLAN_1
  6
CONTINUOUS
 10
0.341457
 20
-3.372390
  0
VERTEX
  8
PLAN_1
  6
CONTINUOUS
 10
0.346417
 20
-3.371937
  0
VERTEX
  8
PLAN_1
  6
CONTINUOUS
 10
0.351831
 20
-3.371937
  0
VERTEX
  8
PLAN_1
  6
CONTINUOUS
 10
0.361303
 20
-3.371937
  0
VERTEX
  8
PLAN_1
  6
CONTINUOUS
 10
0.369874
 20
-3.373291
  0
VERTEX
  8
PLAN_1
  6
CONTINUOUS
 10
0.378445
 20
-3.375094
  0
VERTEX
  8
PLAN_1
  6
CONTINUOUS
 10
0.385661
 20
-3.377350
  0
VERTEX
  8
PLAN_1
  6
CONTINUOUS
 10
0.392878
 20
-3.380055
  0
VERTEX
  8
PLAN_1
  6
CONTINUOUS
 10
0.399193
 20
-3.383665
  0
VERTEX
  8
PLAN_1
  6
CONTINUOUS
 10
0.405508
 20
-3.387724
  0
VERTEX
  8
PLAN_1
  6
CONTINUOUS
 10
0.410921
 20
-3.391783
  0
VERTEX
  8
PLAN_1
  6
CONTINUOUS
 10
0.415429
 20
-3.396744
  0
VERTEX
  8
PLAN_1
  6
CONTINUOUS
 10
0.419941
 20
-3.401709
  0
VERTEX
  8
PLAN_1
  6
CONTINUOUS
 10
0.423551
 20
-3.407118
  0
VERTEX
  8
PLAN_1
  6
CONTINUOUS
 10
0.426709
 20
-3.412531
  0
VERTEX
  8
PLAN_1
  6
CONTINUOUS
 10
0.429413
 20
-3.418398
  0
VERTEX
  8
PLAN_1
  6
CONTINUOUS
 10
0.431217
 20
-3.424713
  0
VERTEX
  8
PLAN_1
  6
CONTINUOUS
 10
0.433024
 20
-3.430575
  0
VERTEX
  8
PLAN_1
  6
CONTINUOUS
 10
0.433925
 20
-3.436890
  0
VERTEX
  8
PLAN_1
  6
CONTINUOUS
 10
0.407764
 20
-3.436890
  0
SEQEND
  8
0
  0
POLYLINE
  8
PLAN_1
  6
CONTINUOUS
 66
     1
 40
0.003000
 41
0.003000
  0
VERTEX
  8
PLAN_1
  6
CONTINUOUS
 10
0.495268
 20
-3.576268
  0
VERTEX
  8
PLAN_1
  6
CONTINUOUS
 10
0.468205
 20
-3.576268
  0
VERTEX
  8
PLAN_1
  6
CONTINUOUS
 10
0.468205
 20
-3.376898
  0
VERTEX
  8
PLAN_1
  6
CONTINUOUS
 10
0.495268
 20
-3.376898
  0
VERTEX
  8
PLAN_1
  6
CONTINUOUS
 10
0.495268
 20
-3.473425
  0
VERTEX
  8
PLAN_1
  6
CONTINUOUS
 10
0.591795
 20
-3.376898
  0
VERTEX
  8
PLAN_1
  6
CONTINUOUS
 10
0.629232
 20
-3.376898
  0
VERTEX
  8
PLAN_1
  6
CONTINUOUS
 10
0.546240
 20
-3.457638
  0
VERTEX
  8
PLAN_1
  6
CONTINUOUS
 10
0.631488
 20
-3.576268
  0
VERTEX
  8
PLAN_1
  6
CONTINUOUS
 10
0.596307
 20
-3.576268
  0
VERTEX
  8
PLAN_1
  6
CONTINUOUS
 10
0.526843
 20
-3.476583
  0
VERTEX
  8
PLAN_1
  6
CONTINUOUS
 10
0.495268
 20
-3.506354
  0
VERTEX
  8
PLAN_1
  6
CONTINUOUS
 10
0.495268
 20
-3.576268
  0
SEQEND
  8
0
  0
POLYLINE
  8
PLAN_1
  6
CONTINUOUS
 66
     1
 40
0.003000
 41
0.003000
  0
VERTEX
  8
PLAN_1
  6
CONTINUOUS
 10
0.817780
 20
-3.576268
  0
VERTEX
  8
PLAN_1
  6
CONTINUOUS
 10
0.817780
 20
-3.458539
  0
VERTEX
  8
PLAN_1
  6
CONTINUOUS
 10
0.817780
 20
-3.455382
  0
VERTEX
  8
PLAN_1
  6
CONTINUOUS
 10
0.817780
 20
-3.450874
  0
VERTEX
  8
PLAN_1
  6
CONTINUOUS
 10
0.817780
 20
-3.445461
  0
VERTEX
  8
PLAN_1
  6
CONTINUOUS
 10
0.817780
 20
-3.438693
  0
VERTEX
  8
PLAN_1
  6
CONTINUOUS
 10
0.818228
 20
-3.431476
  0
VERTEX
  8
PLAN_1
  6
CONTINUOUS
 10
0.818228
 20
-3.423811
  0
VERTEX
  8
PLAN_1
  6
CONTINUOUS
 10
0.818228
 20
-3.416142
  0
VERTEX
  8
PLAN_1
  6
CONTINUOUS
 10
0.818228
 20
-3.408925
  0
VERTEX
  8
PLAN_1
  6
CONTINUOUS
 10
0.817780
 20
-3.408925
  0
VERTEX
  8
PLAN_1
  6
CONTINUOUS
 10
0.761394
 20
-3.576268
  0
VERTEX
  8
PLAN_1
  6
CONTINUOUS
 10
0.734783
 20
-3.576268
  0
VERTEX
  8
PLAN_1
  6
CONTINUOUS
 10
0.678850
 20
-3.409374
  0
VERTEX
  8
PLAN_1
  6
CONTINUOUS
 10
0.678402
 20
-3.409374
  0
VERTEX
  8
PLAN_1
  6
CONTINUOUS
 10
0.678402
 20
-3.416142
  0
VERTEX
  8
PLAN_1
  6
CONTINUOUS
 10
0.678402
 20
-3.423811
  0
VERTEX
  8
PLAN_1
  6
CONTINUOUS
 10
0.678402
 20
-3.431476
  0
VERTEX
  8
PLAN_1
  6
CONTINUOUS
 10
0.678402
 20
-3.438693
  0
VERTEX
  8
PLAN_1
  6
CONTINUOUS
 10
0.678850
 20
-3.445461
  0
VERTEX
  8
PLAN_1
  6
CONTINUOUS
 10
0.678850
 20
-3.450874
  0
VERTEX
  8
PLAN_1
  6
CONTINUOUS
 10
0.678850
 20
-3.455382
  0
VERTEX
  8
PLAN_1
  6
CONTINUOUS
 10
0.678850
 20
-3.458539
  0
VERTEX
  8
PLAN_1
  6
CONTINUOUS
 10
0.678850
 20
-3.576268
  0
VERTEX
  8
PLAN_1
  6
CONTINUOUS
 10
0.652689
 20
-3.576268
  0
VERTEX
  8
PLAN_1
  6
CONTINUOUS
 10
0.652689
 20
-3.376898
  0
VERTEX
  8
PLAN_1
  6
CONTINUOUS
 10
0.691480
 20
-3.376898
  0
VERTEX
  8
PLAN_1
  6
CONTINUOUS
 10
0.748315
 20
-3.545594
  0
VERTEX
  8
PLAN_1
  6
CONTINUOUS
 10
0.748764
 20
-3.545594
  0
VERTEX
  8
PLAN_1
  6
CONTINUOUS
 10
0.805598
 20
-3.376898
  0
VERTEX
  8
PLAN_1
  6
CONTINUOUS
 10
0.843941
 20
-3.376898
  0
VERTEX
  8
PLAN_1
  6
CONTINUOUS
 10
0.843941
 20
-3.576268
  0
VERTEX
  8
PLAN_1
  6
CONTINUOUS
 10
0.817780
 20
-3.576268
  0
SEQEND
  8
0
  0
POLYLINE
  8
PLAN_1
  6
CONTINUOUS
 66
     1
 40
0.003000
 41
0.003000
  0
VERTEX
  8
PLAN_1
  6
CONTINUOUS
 10
1.047370
 20
-3.422004
  0
VERTEX
  8
PLAN_1
  6
CONTINUOUS
 10
1.066315
 20
-3.422004
  0
VERTEX
  8
PLAN_1
  6
CONTINUOUS
 10
1.062256
 20
-3.436890
  0
VERTEX
  8
PLAN_1
  6
CONTINUOUS
 10
1.058193
 20
-3.451323
  0
VERTEX
  8
PLAN_1
  6
CONTINUOUS
 10
1.053685
 20
-3.465760
  0
VERTEX
  8
PLAN_1
  6
CONTINUOUS
 10
1.050075
 20
-3.478839
  0
VERTEX
  8
PLAN_1
  6
CONTINUOUS
 10
1.046469
 20
-3.490567
  0
VERTEX
  8
PLAN_1
  6
CONTINUOUS
 10
1.043760
 20
-3.500488
  0
VERTEX
  8
PLAN_1
  6
CONTINUOUS
 10
1.041957
 20
-3.508157
  0
VERTEX
  8
PLAN_1
  6
CONTINUOUS
 10
1.041504
 20
-3.512669
  0
VERTEX
  8
PLAN_1
  6
CONTINUOUS
 10
1.041504
 20
-3.514472
  0
VERTEX
  8
PLAN_1
  6
CONTINUOUS
 10
1.041504
 20
-3.515827
  0
VERTEX
  8
PLAN_1
  6
CONTINUOUS
 10
1.041957
 20
-3.517181
  0
VERTEX
  8
PLAN_1
  6
CONTINUOUS
 10
1.042858
 20
-3.518531
  0
VERTEX
  8
PLAN_1
  6
CONTINUOUS
 10
1.043311
 20
-3.519433
  0
VERTEX
  8
PLAN_1
  6
CONTINUOUS
 10
1.044661
 20
-3.519886
  0
VERTEX
  8
PLAN_1
  6
CONTINUOUS
 10
1.045563
 20
-3.520335
  0
VERTEX
  8
PLAN_1
  6
CONTINUOUS
 10
1.047370
 20
-3.520335
  0
VERTEX
  8
PLAN_1
  6
CONTINUOUS
 10
1.050976
 20
-3.520335
  0
VERTEX
  8
PLAN_1
  6
CONTINUOUS
 10
1.054587
 20
-3.518984
  0
VERTEX
  8
PLAN_1
  6
CONTINUOUS
 10
1.057744
 20
-3.517630
  0
VERTEX
  8
PLAN_1
  6
CONTINUOUS
 10
1.061350
 20
-3.515374
  0
VERTEX
  8
PLAN_1
  6
CONTINUOUS
 10
1.064961
 20
-3.512669
  0
VERTEX
  8
PLAN_1
  6
CONTINUOUS
 10
1.068118
 20
-3.509512
  0
VERTEX
  8
PLAN_1
  6
CONTINUOUS
 10
1.071276
 20
-3.505902
  0
VERTEX
  8
PLAN_1
  6
CONTINUOUS
 10
1.073980
 20
-3.501843
  0
VERTEX
  8
PLAN_1
  6
CONTINUOUS
 10
1.076689
 20
-3.497331
  0
VERTEX
  8
PLAN_1
  6
CONTINUOUS
 10
1.079394
 20
-3.492370
  0
VERTEX
  8
PLAN_1
  6
CONTINUOUS
 10
1.081197
 20
-3.487409
  0
VERTEX
  8
PLAN_1
  6
CONTINUOUS
 10
1.083004
 20
-3.482449
  0
VERTEX
  8
PLAN_1
  6
CONTINUOUS
 10
1.084807
 20
-3.477035
  0
VERTEX
  8
PLAN_1
  6
CONTINUOUS
 10
1.085709
 20
-3.471622
  0
VERTEX
  8
PLAN_1
  6
CONTINUOUS
 10
1.086610
 20
-3.466209
  0
VERTEX
  8
PLAN_1
  6
CONTINUOUS
 10
1.086610
 20
-3.460346
  0
VERTEX
  8
PLAN_1
  6
CONTINUOUS
 10
1.086161
 20
-3.452224
  0
VERTEX
  8
PLAN_1
  6
CONTINUOUS
 10
1.085260
 20
-3.444559
  0
VERTEX
  8
PLAN_1
  6
CONTINUOUS
 10
1.083004
 20
-3.437343
  0
VERTEX
  8
PLAN_1
  6
CONTINUOUS
 10
1.080295
 20
-3.430575
  0
VERTEX
  8
PLAN_1
  6
CONTINUOUS
 10
1.077138
 20
-3.424260
  0
VERTEX
  8
PLAN_1
  6
CONTINUOUS
 10
1.073079
 20
-3.418398
  0
VERTEX
  8
PLAN_1
  6
CONTINUOUS
 10
1.068571
 20
-3.412984
  0
VERTEX
  8
PLAN_1
  6
CONTINUOUS
 10
1.063606
 20
-3.408024
  0
VERTEX
  8
PLAN_1
  6
CONTINUOUS
 10
1.058193
 20
-3.403512
  0
VERTEX
  8
PLAN_1
  6
CONTINUOUS
 10
1.052331
 20
-3.399902
  0
VERTEX
  8
PLAN_1
  6
CONTINUOUS
 10
1.045563
 20
-3.396744
  0
VERTEX
  8
PLAN_1
  6
CONTINUOUS
 10
1.038799
 20
-3.394039
  0
VERTEX
  8
PLAN_1
  6
CONTINUOUS
 10
1.032031
 20
-3.391783
  0
VERTEX
  8
PLAN_1
  6
CONTINUOUS
 10
1.024815
 20
-3.389980
  0
VERTEX
  8
PLAN_1
  6
CONTINUOUS
 10
1.017150
 20
-3.389079
  0
VERTEX
  8
PLAN_1
  6
CONTINUOUS
 10
1.009028
 20
-3.389079
  0
VERTEX
  8
PLAN_1
  6
CONTINUOUS
 10
1.004520
 20
-3.389079
  0
VERTEX
  8
PLAN_1
  6
CONTINUOUS
 10
1.000008
 20
-3.389528
  0
VERTEX
  8
PLAN_1
  6
CONTINUOUS
 10
0.995949
 20
-3.389980
  0
VERTEX
  8
PLAN_1
  6
CONTINUOUS
 10
0.991437
 20
-3.390882
  0
VERTEX
  8
PLAN_1
  6
CONTINUOUS
 10
0.983319
 20
-3.393138
  0
VERTEX
  8
PLAN_1
  6
CONTINUOUS
 10
0.975201
 20
-3.395843
  0
VERTEX
  8
PLAN_1
  6
CONTINUOUS
 10
0.967980
 20
-3.399453
  0
VERTEX
  8
PLAN_1
  6
CONTINUOUS
 10
0.960764
 20
-3.403961
  0
VERTEX
  8
PLAN_1
  6
CONTINUOUS
 10
0.954449
 20
-3.409374
  0
VERTEX
  8
PLAN_1
  6
CONTINUOUS
 10
0.948587
 20
-3.414787
  0
VERTEX
  8
PLAN_1
  6
CONTINUOUS
 10
0.943173
 20
-3.421102
  0
VERTEX
  8
PLAN_1
  6
CONTINUOUS
 10
0.938661
 20
-3.427870
  0
VERTEX
  8
PLAN_1
  6
CONTINUOUS
 10
0.934602
 20
-3.435535
  0
VERTEX
  8
PLAN_1
  6
CONTINUOUS
 10
0.930996
 20
-3.443205
  0
VERTEX
  8
PLAN_1
  6
CONTINUOUS
 10
0.928287
 20
-3.451323
  0
VERTEX
  8
PLAN_1
  6
CONTINUOUS
 10
0.926484
 20
-3.459894
  0
VERTEX
  8
PLAN_1
  6
CONTINUOUS
 10
0.925130
 20
-3.468465
  0
VERTEX
  8
PLAN_1
  6
CONTINUOUS
 10
0.924681
 20
-3.477937
  0
VERTEX
  8
PLAN_1
  6
CONTINUOUS
 10
0.925130
 20
-3.486957
  0
VERTEX
  8
PLAN_1
  6
CONTINUOUS
 10
0.926484
 20
-3.495528
  0
VERTEX
  8
PLAN_1
  6
CONTINUOUS
 10
0.928740
 20
-3.504098
  0
VERTEX
  8
PLAN_1
  6
CONTINUOUS
 10
0.931445
 20
-3.512217
  0
VERTEX
  8
PLAN_1
  6
CONTINUOUS
 10
0.935055
 20
-3.519433
  0
VERTEX
  8
PLAN_1
  6
CONTINUOUS
 10
0.939567
 20
-3.526650
  0
VERTEX
  8
PLAN_1
  6
CONTINUOUS
 10
0.944075
 20
-3.533417
  0
VERTEX
  8
PLAN_1
  6
CONTINUOUS
 10
0.949941
 20
-3.539280
  0
VERTEX
  8
PLAN_1
  6
CONTINUOUS
 10
0.955803
 20
-3.545146
  0
VERTEX
  8
PLAN_1
  6
CONTINUOUS
 10
0.962571
 20
-3.550106
  0
VERTEX
  8
PLAN_1
  6
CONTINUOUS
 10
0.969787
 20
-3.554165
  0
VERTEX
  8
PLAN_1
  6
CONTINUOUS
 10
0.977004
 20
-3.557776
  0
VERTEX
  8
PLAN_1
  6
CONTINUOUS
 10
0.985122
 20
-3.560480
  0
VERTEX
  8
PLAN_1
  6
CONTINUOUS
 10
0.993693
 20
-3.562736
  0
VERTEX
  8
PLAN_1
  6
CONTINUOUS
 10
1.002264
 20
-3.564091
  0
VERTEX
  8
PLAN_1
  6
CONTINUOUS
 10
1.011283
 20
-3.564539
  0
VERTEX
  8
PLAN_1
  6
CONTINUOUS
 10
1.015795
 20
-3.564091
  0
VERTEX
  8
PLAN_1
  6
CONTINUOUS
 10
1.020756
 20
-3.563638
  0
VERTEX
  8
PLAN_1
  6
CONTINUOUS
 10
1.025717
 20
-3.563189
  0
VERTEX
  8
PLAN_1
  6
CONTINUOUS
 10
1.030228
 20
-3.562283
  0
VERTEX
  8
PLAN_1
  6
CONTINUOUS
 10
1.035189
 20
-3.560933
  0
VERTEX
  8
PLAN_1
  6
CONTINUOUS
 10
1.039701
 20
-3.559579
  0
VERTEX
  8
PLAN_1
  6
CONTINUOUS
 10
1.044213
 20
-3.557776
  0
VERTEX
  8
PLAN_1
  6
CONTINUOUS
 10
1.048720
 20
-3.555972
  0
VERTEX
  8
PLAN_1
  6
CONTINUOUS
 10
1.052783
 20
-3.553717
  0
VERTEX
  8
PLAN_1
  6
CONTINUOUS
 10
1.057291
 20
-3.551461
  0
VERTEX
  8
PLAN_1
  6
CONTINUOUS
 10
1.061350
 20
-3.548752
  0
VERTEX
  8
PLAN_1
  6
CONTINUOUS
 10
1.064961
 20
-3.546047
  0
VERTEX
  8
PLAN_1
  6
CONTINUOUS
 10
1.068571
 20
-3.542890
  0
VERTEX
  8
PLAN_1
  6
CONTINUOUS
 10
1.072177
 20
-3.539732
  0
VERTEX
  8
PLAN_1
  6
CONTINUOUS
 10
1.075335
 20
-3.536122
  0
VERTEX
  8
PLAN_1
  6
CONTINUOUS
 10
1.078492
 20
-3.532516
  0
VERTEX
  8
PLAN_1
  6
CONTINUOUS
 10
1.097437
 20
-3.532516
  0
VERTEX
  8
PLAN_1
  6
CONTINUOUS
 10
1.093827
 20
-3.538378
  0
VERTEX
  8
PLAN_1
  6
CONTINUOUS
 10
1.089768
 20
-3.543343
  0
VERTEX
  8
PLAN_1
  6
CONTINUOUS
 10
1.085709
 20
-3.548303
  0
VERTEX
  8
PLAN_1
  6
CONTINUOUS
 10
1.081197
 20
-3.553264
  0
VERTEX
  8
PLAN_1
  6
CONTINUOUS
 10
1.076236
 20
-3.557323
  0
VERTEX
  8
PLAN_1
  6
CONTINUOUS
 10
1.071276
 20
-3.561382
  0
VERTEX
  8
PLAN_1
  6
CONTINUOUS
 10
1.065862
 20
-3.564992
  0
VERTEX
  8
PLAN_1
  6
CONTINUOUS
 10
1.060449
 20
-3.568598
  0
VERTEX
  8
PLAN_1
  6
CONTINUOUS
 10
1.054587
 20
-3.571307
  0
VERTEX
  8
PLAN_1
  6
CONTINUOUS
 10
1.048720
 20
-3.574012
  0
VERTEX
  8
PLAN_1
  6
CONTINUOUS
 10
1.042858
 20
-3.576268
  0
VERTEX
  8
PLAN_1
  6
CONTINUOUS
 10
1.036543
 20
-3.578071
  0
VERTEX
  8
PLAN_1
  6
CONTINUOUS
 10
1.030228
 20
-3.579878
  0
VERTEX
  8
PLAN_1
  6
CONTINUOUS
 10
1.023913
 20
-3.580780
  0
VERTEX
  8
PLAN_1
  6
CONTINUOUS
 10
1.017150
 20
-3.581228
  0
VERTEX
  8
PLAN_1
  6
CONTINUOUS
 10
1.010835
 20
-3.581681
  0
VERTEX
  8
PLAN_1
  6
CONTINUOUS
 10
1.004969
 20
-3.581228
  0
VERTEX
  8
PLAN_1
  6
CONTINUOUS
 10
0.999555
 20
-3.581228
  0
VERTEX
  8
PLAN_1
  6
CONTINUOUS
 10
0.994142
 20
-3.580327
  0
VERTEX
  8
PLAN_1
  6
CONTINUOUS
 10
0.989181
 20
-3.579425
  0
VERTEX
  8
PLAN_1
  6
CONTINUOUS
 10
0.983768
 20
-3.578524
  0
VERTEX
  8
PLAN_1
  6
CONTINUOUS
 10
0.978807
 20
-3.576720
  0
VERTEX
  8
PLAN_1
  6
CONTINUOUS
 10
0.973846
 20
-3.575366
  0
VERTEX
  8
PLAN_1
  6
CONTINUOUS
 10
0.968886
 20
-3.573563
  0
VERTEX
  8
PLAN_1
  6
CONTINUOUS
 10
0.964374
 20
-3.571307
  0
VERTEX
  8
PLAN_1
  6
CONTINUOUS
 10
0.959862
 20
-3.569051
  0
VERTEX
  8
PLAN_1
  6
CONTINUOUS
 10
0.955350
 20
-3.566346
  0
VERTEX
  8
PLAN_1
  6
CONTINUOUS
 10
0.950843
 20
-3.563638
  0
VERTEX
  8
PLAN_1
  6
CONTINUOUS
 10
0.946783
 20
-3.560933
  0
VERTEX
  8
PLAN_1
  6
CONTINUOUS
 10
0.942724
 20
-3.557776
  0
VERTEX
  8
PLAN_1
  6
CONTINUOUS
 10
0.939114
 20
-3.554618
  0
VERTEX
  8
PLAN_1
  6
CONTINUOUS
 10
0.935504
 20
-3.551008
  0
VERTEX
  8
PLAN_1
  6
CONTINUOUS
 10
0.931898
 20
-3.547402
  0
VERTEX
  8
PLAN_1
  6
CONTINUOUS
 10
0.928740
 20
-3.543343
  0
VERTEX
  8
PLAN_1
  6
CONTINUOUS
 10
0.925583
 20
-3.539732
  0
VERTEX
  8
PLAN_1
  6
CONTINUOUS
 10
0.922425
 20
-3.535673
  0
VERTEX
  8
PLAN_1
  6
CONTINUOUS
 10
0.919717
 20
-3.531161
  0
VERTEX
  8
PLAN_1
  6
CONTINUOUS
 10
0.917012
 20
-3.526650
  0
VERTEX
  8
PLAN_1
  6
CONTINUOUS
 10
0.914756
 20
-3.522142
  0
VERTEX
  8
PLAN_1
  6
CONTINUOUS
 10
0.912953
 20
-3.517630
  0
VERTEX
  8
PLAN_1
  6
CONTINUOUS
 10
0.911150
 20
-3.512669
  0
VERTEX
  8
PLAN_1
  6
CONTINUOUS
 10
0.909343
 20
-3.507709
  0
VERTEX
  8
PLAN_1
  6
CONTINUOUS
 10
0.907992
 20
-3.502744
  0
VERTEX
  8
PLAN_1
  6
CONTINUOUS
 10
0.906638
 20
-3.497783
  0
VERTEX
  8
PLAN_1
  6
CONTINUOUS
 10
0.905736
 20
-3.492370
  0
VERTEX
  8
PLAN_1
  6
CONTINUOUS
 10
0.905283
 20
-3.486957
  0
VERTEX
  8
PLAN_1
  6
CONTINUOUS
 10
0.904835
 20
-3.481543
  0
VERTEX
  8
PLAN_1
  6
CONTINUOUS
 10
0.904382
 20
-3.476134
  0
VERTEX
  8
PLAN_1
  6
CONTINUOUS
 10
0.904835
 20
-3.470720
  0
VERTEX
  8
PLAN_1
  6
CONTINUOUS
 10
0.905283
 20
-3.465307
  0
VERTEX
  8
PLAN_1
  6
CONTINUOUS
 10
0.905736
 20
-3.460346
  0
VERTEX
  8
PLAN_1
  6
CONTINUOUS
 10
0.906638
 20
-3.454933
  0
VERTEX
  8
PLAN_1
  6
CONTINUOUS
 10
0.907992
 20
-3.449972
  0
VERTEX
  8
PLAN_1
  6
CONTINUOUS
 10
0.909343
 20
-3.445008
  0
VERTEX
  8
PLAN_1
  6
CONTINUOUS
 10
0.911150
 20
-3.440047
  0
VERTEX
  8
PLAN_1
  6
CONTINUOUS
 10
0.912953
 20
-3.435535
  0
VERTEX
  8
PLAN_1
  6
CONTINUOUS
 10
0.915209
 20
-3.430575
  0
VERTEX
  8
PLAN_1
  6
CONTINUOUS
 10
0.917465
 20
-3.426063
  0
VERTEX
  8
PLAN_1
  6
CONTINUOUS
 10
0.919717
 20
-3.422004
  0
VERTEX
  8
PLAN_1
  6
CONTINUOUS
 10
0.922425
 20
-3.417496
  0
VERTEX
  8
PLAN_1
  6
CONTINUOUS
 10
0.925583
 20
-3.413433
  0
VERTEX
  8
PLAN_1
  6
CONTINUOUS
 10
0.928740
 20
-3.409374
  0
VERTEX
  8
PLAN_1
  6
CONTINUOUS
 10
0.931898
 20
-3.405768
  0
VERTEX
  8
PLAN_1
  6
CONTINUOUS
 10
0.935504
 20
-3.402157
  0
VERTEX
  8
PLAN_1
  6
CONTINUOUS
 10
0.939114
 20
-3.398551
  0
VERTEX
  8
PLAN_1
  6
CONTINUOUS
 10
0.942724
 20
-3.395394
  0
VERTEX
  8
PLAN_1
  6
CONTINUOUS
 10
0.946783
 20
-3.392236
  0
VERTEX
  8
PLAN_1
  6
CONTINUOUS
 10
0.950843
 20
-3.389528
  0
VERTEX
  8
PLAN_1
  6
CONTINUOUS
 10
0.955350
 20
-3.386823
  0
VERTEX
  8
PLAN_1
  6
CONTINUOUS
 10
0.959413
 20
-3.384114
  0
VERTEX
  8
PLAN_1
  6
CONTINUOUS
 10
0.963921
 20
-3.381862
  0
VERTEX
  8
PLAN_1
  6
CONTINUOUS
 10
0.968886
 20
-3.380055
  0
VERTEX
  8
PLAN_1
  6
CONTINUOUS
 10
0.973394
 20
-3.377799
  0
VERTEX
  8
PLAN_1
  6
CONTINUOUS
 10
0.978358
 20
-3.376449
  0
VERTEX
  8
PLAN_1
  6
CONTINUOUS
 10
0.983319
 20
-3.375094
  0
VERTEX
  8
PLAN_1
  6
CONTINUOUS
 10
0.988280
 20
-3.373740
  0
VERTEX
  8
PLAN_1
  6
CONTINUOUS
 10
0.993240
 20
-3.372839
  0
VERTEX
  8
PLAN_1
  6
CONTINUOUS
 10
0.998654
 20
-3.372390
  0
VERTEX
  8
PLAN_1
  6
CONTINUOUS
 10
1.004067
 20
-3.371937
  0
VERTEX
  8
PLAN_1
  6
CONTINUOUS
 10
1.009028
 20
-3.371937
  0
VERTEX
  8
PLAN_1
  6
CONTINUOUS
 10
1.018953
 20
-3.371937
  0
VERTEX
  8
PLAN_1
  6
CONTINUOUS
 10
1.027972
 20
-3.373291
  0
VERTEX
  8
PLAN_1
  6
CONTINUOUS
 10
1.036996
 20
-3.375547
  0
VERTEX
  8
PLAN_1
  6
CONTINUOUS
 10
1.046016
 20
-3.378252
  0
VERTEX
  8
PLAN_1
  6
CONTINUOUS
 10
1.054134
 20
-3.381862
  0
VERTEX
  8
PLAN_1
  6
CONTINUOUS
 10
1.061803
 20
-3.385921
  0
VERTEX
  8
PLAN_1
  6
CONTINUOUS
 10
1.069472
 20
-3.390429
  0
VERTEX
  8
PLAN_1
  6
CONTINUOUS
 10
1.076236
 20
-3.396295
  0
VERTEX
  8
PLAN_1
  6
CONTINUOUS
 10
1.082551
 20
-3.402157
  0
VERTEX
  8
PLAN_1
  6
CONTINUOUS
 10
1.087965
 20
-3.408925
  0
VERTEX
  8
PLAN_1
  6
CONTINUOUS
 10
1.092925
 20
-3.415689
  0
VERTEX
  8
PLAN_1
  6
CONTINUOUS
 10
1.096984
 20
-3.423358
  0
VERTEX
  8
PLAN_1
  6
CONTINUOUS
 10
1.098791
 20
-3.427417
  0
VERTEX
  8
PLAN_1
  6
CONTINUOUS
 10
1.100142
 20
-3.431476
  0
VERTEX
  8
PLAN_1
  6
CONTINUOUS
 10
1.101496
 20
-3.435988
  0
VERTEX
  8
PLAN_1
  6
CONTINUOUS
 10
1.102850
 20
-3.440047
  0
VERTEX
  8
PLAN_1
  6
CONTINUOUS
 10
1.103752
 20
-3.444559
  0
VERTEX
  8
PLAN_1
  6
CONTINUOUS
 10
1.104205
 20
-3.449067
  0
VERTEX
  8
PLAN_1
  6
CONTINUOUS
 10
1.104654
 20
-3.453579
  0
VERTEX
  8
PLAN_1
  6
CONTINUOUS
 10
1.104654
 20
-3.458539
  0
VERTEX
  8
PLAN_1
  6
CONTINUOUS
 10
1.104654
 20
-3.463051
  0
VERTEX
  8
PLAN_1
  6
CONTINUOUS
 10
1.104205
 20
-3.467563
  0
VERTEX
  8
PLAN_1
  6
CONTINUOUS
 10
1.103752
 20
-3.472075
  0
VERTEX
  8
PLAN_1
  6
CONTINUOUS
 10
1.102850
 20
-3.476134
  0
VERTEX
  8
PLAN_1
  6
CONTINUOUS
 10
1.100594
 20
-3.484252
  0
VERTEX
  8
PLAN_1
  6
CONTINUOUS
 10
1.097890
 20
-3.491921
  0
VERTEX
  8
PLAN_1
  6
CONTINUOUS
 10
1.094280
 20
-3.499138
  0
VERTEX
  8
PLAN_1
  6
CONTINUOUS
 10
1.090220
 20
-3.505902
  0
VERTEX
  8
PLAN_1
  6
CONTINUOUS
 10
1.085709
 20
-3.511768
  0
VERTEX
  8
PLAN_1
  6
CONTINUOUS
 10
1.080748
 20
-3.517181
  0
VERTEX
  8
PLAN_1
  6
CONTINUOUS
 10
1.075787
 20
-3.522142
  0
VERTEX
  8
PLAN_1
  6
CONTINUOUS
 10
1.070374
 20
-3.526650
  0
VERTEX
  8
PLAN_1
  6
CONTINUOUS
 10
1.064508
 20
-3.530260
  0
VERTEX
  8
PLAN_1
  6
CONTINUOUS
 10
1.059098
 20
-3.532965
  0
VERTEX
  8
PLAN_1
  6
CONTINUOUS
 10
1.053685
 20
-3.535673
  0
VERTEX
  8
PLAN_1
  6
CONTINUOUS
 10
1.048272
 20
-3.537028
  0
VERTEX
  8
PLAN_1
  6
CONTINUOUS
 10
1.043311
 20
-3.538378
  0
VERTEX
  8
PLAN_1
  6
CONTINUOUS
 10
1.038346
 20
-3.538378
  0
VERTEX
  8
PLAN_1
  6
CONTINUOUS
 10
1.034740
 20
-3.538378
  0
VERTEX
  8
PLAN_1
  6
CONTINUOUS
 10
1.031583
 20
-3.537476
  0
VERTEX
  8
PLAN_1
  6
CONTINUOUS
 10
1.028874
 20
-3.536122
  0
VERTEX
  8
PLAN_1
  6
CONTINUOUS
 10
1.026169
 20
-3.534319
  0
VERTEX
  8
PLAN_1
  6
CONTINUOUS
 10
1.023913
 20
-3.532063
  0
VERTEX
  8
PLAN_1
  6
CONTINUOUS
 10
1.022110
 20
-3.528906
  0
VERTEX
  8
PLAN_1
  6
CONTINUOUS
 10
1.021209
 20
-3.525299
  0
VERTEX
  8
PLAN_1
  6
CONTINUOUS
 10
1.020756
 20
-3.521240
  0
VERTEX
  8
PLAN_1
  6
CONTINUOUS
 10
1.019854
 20
-3.521240
  0
VERTEX
  8
PLAN_1
  6
CONTINUOUS
 10
1.016697
 20
-3.524398
  0
VERTEX
  8
PLAN_1
  6
CONTINUOUS
 10
1.013087
 20
-3.527555
  0
VERTEX
  8
PLAN_1
  6
CONTINUOUS
 10
1.009480
 20
-3.530713
  0
VERTEX
  8
PLAN_1
  6
CONTINUOUS
 10
1.005421
 20
-3.532965
  0
VERTEX
  8
PLAN_1
  6
CONTINUOUS
 10
1.000909
 20
-3.535220
  0
VERTEX
  8
PLAN_1
  6
CONTINUOUS
 10
0.996398
 20
-3.537028
  0
VERTEX
  8
PLAN_1
  6
CONTINUOUS
 10
0.991437
 20
-3.538378
  0
VERTEX
  8
PLAN_1
  6
CONTINUOUS
 10
0.986925
 20
-3.538378
  0
VERTEX
  8
PLAN_1
  6
CONTINUOUS
 10
0.982417
 20
-3.538378
  0
VERTEX
  8
PLAN_1
  6
CONTINUOUS
 10
0.978358
 20
-3.537476
  0
VERTEX
  8
PLAN_1
  6
CONTINUOUS
 10
0.974295
 20
-3.536575
  0
VERTEX
  8
PLAN_1
  6
CONTINUOUS
 10
0.970236
 20
-3.535220
  0
VERTEX
  8
PLAN_1
  6
CONTINUOUS
 10
0.966630
 20
-3.532965
  0
VERTEX
  8
PLAN_1
  6
CONTINUOUS
 10
0.963472
 20
-3.530713
  0
VERTEX
  8
PLAN_1
  6
CONTINUOUS
 10
0.960315
 20
-3.528457
  0
VERTEX
  8
PLAN_1
  6
CONTINUOUS
 10
0.957606
 20
-3.525299
  0
VERTEX
  8
PLAN_1
  6
CONTINUOUS
 10
0.954902
 20
-3.522142
  0
VERTEX
  8
PLAN_1
  6
CONTINUOUS
 10
0.952646
 20
-3.518984
  0
VERTEX
  8
PLAN_1
  6
CONTINUOUS
 10
0.950390
 20
-3.515374
  0
VERTEX
  8
PLAN_1
  6
CONTINUOUS
 10
0.949035
 20
-3.511315
  0
VERTEX
  8
PLAN_1
  6
CONTINUOUS
 10
0.947685
 20
-3.507256
  0
VERTEX
  8
PLAN_1
  6
CONTINUOUS
 10
0.946783
 20
-3.503197
  0
VERTEX
  8
PLAN_1
  6
CONTINUOUS
 10
0.946331
 20
-3.498685
  0
VERTEX
  8
PLAN_1
  6
CONTINUOUS
 10
0.945882
 20
-3.494173
  0
VERTEX
  8
PLAN_1
  6
CONTINUOUS
 10
0.946331
 20
-3.486957
  0
VERTEX
  8
PLAN_1
  6
CONTINUOUS
 10
0.947232
 20
-3.480193
  0
VERTEX
  8
PLAN_1
  6
CONTINUOUS
 10
0.948587
 20
-3.472976
  0
VERTEX
  8
PLAN_1
  6
CONTINUOUS
 10
0.950390
 20
-3.466209
  0
VERTEX
  8
PLAN_1
  6
CONTINUOUS
 10
0.953098
 20
-3.459894
  0
VERTEX
  8
PLAN_1
  6
CONTINUOUS
 10
0.956256
 20
-3.453579
  0
VERTEX
  8
PLAN_1
  6
CONTINUOUS
 10
0.959413
 20
-3.447264
  0
VERTEX
  8
PLAN_1
  6
CONTINUOUS
 10
0.963472
 20
-3.441850
  0
VERTEX
  8
PLAN_1
  6
CONTINUOUS
 10
0.967980
 20
-3.436437
  0
VERTEX
  8
PLAN_1
  6
CONTINUOUS
 10
0.972945
 20
-3.431929
  0
VERTEX
  8
PLAN_1
  6
CONTINUOUS
 10
0.977906
 20
-3.427870
  0
VERTEX
  8
PLAN_1
  6
CONTINUOUS
 10
0.983768
 20
-3.424260
  0
VERTEX
  8
PLAN_1
  6
CONTINUOUS
 10
0.989634
 20
-3.421555
  0
VERTEX
  8
PLAN_1
  6
CONTINUOUS
 10
0.996398
 20
-3.419299
  0
VERTEX
  8
PLAN_1
  6
CONTINUOUS
 10
1.003165
 20
-3.417945
  0
VERTEX
  8
PLAN_1
  6
CONTINUOUS
 10
1.009929
 20
-3.417496
  0
VERTEX
  8
PLAN_1
  6
CONTINUOUS
 10
1.014894
 20
-3.417945
  0
VERTEX
  8
PLAN_1
  6
CONTINUOUS
 10
1.019854
 20
-3.418846
  0
VERTEX
  8
PLAN_1
  6
CONTINUOUS
 10
1.023913
 20
-3.420201
  0
VERTEX
  8
PLAN_1
  6
CONTINUOUS
 10
1.028425
 20
-3.422457
  0
VERTEX
  8
PLAN_1
  6
CONTINUOUS
 10
1.032031
 20
-3.425614
  0
VERTEX
  8
PLAN_1
  6
CONTINUOUS
 10
1.035642
 20
-3.429220
  0
VERTEX
  8
PLAN_1
  6
CONTINUOUS
 10
1.039248
 20
-3.433732
  0
VERTEX
  8
PLAN_1
  6
CONTINUOUS
 10
1.041957
 20
-3.439146
  0
VERTEX
  8
PLAN_1
  6
CONTINUOUS
 10
1.047370
 20
-3.422004
  0
SEQEND
  8
0
  0
POLYLINE
  8
PLAN_1
  6
CONTINUOUS
 66
     1
 40
0.003000
 41
0.003000
  0
VERTEX
  8
PLAN_1
  6
CONTINUOUS
 10
1.010835
 20
-3.437343
  0
VERTEX
  8
PLAN_1
  6
CONTINUOUS
 10
1.005870
 20
-3.437791
  0
VERTEX
  8
PLAN_1
  6
CONTINUOUS
 10
1.001811
 20
-3.438693
  0
VERTEX
  8
PLAN_1
  6
CONTINUOUS
 10
0.997752
 20
-3.440500
  0
VERTEX
  8
PLAN_1
  6
CONTINUOUS
 10
0.993693
 20
-3.442752
  0
VERTEX
  8
PLAN_1
  6
CONTINUOUS
 10
0.990083
 20
-3.445461
  0
VERTEX
  8
PLAN_1
  6
CONTINUOUS
 10
0.986476
 20
-3.448618
  0
VERTEX
  8
PLAN_1
  6
CONTINUOUS
 10
0.983319
 20
-3.452224
  0
VERTEX
  8
PLAN_1
  6
CONTINUOUS
 10
0.980610
 20
-3.455835
  0
VERTEX
  8
PLAN_1
  6
CONTINUOUS
 10
0.977906
 20
-3.459894
  0
VERTEX
  8
PLAN_1
  6
CONTINUOUS
 10
0.975650
 20
-3.464406
  0
VERTEX
  8
PLAN_1
  6
CONTINUOUS
 10
0.973394
 20
-3.468917
  0
VERTEX
  8
PLAN_1
  6
CONTINUOUS
 10
0.971591
 20
-3.473425
  0
VERTEX
  8
PLAN_1
  6
CONTINUOUS
 10
0.970236
 20
-3.477937
  0
VERTEX
  8
PLAN_1
  6
CONTINUOUS
 10
0.969335
 20
-3.482898
  0
VERTEX
  8
PLAN_1
  6
CONTINUOUS
 10
0.968886
 20
-3.487409
  0
VERTEX
  8
PLAN_1
  6
CONTINUOUS
 10
0.968886
 20
-3.491469
  0
VERTEX
  8
PLAN_1
  6
CONTINUOUS
 10
0.969335
 20
-3.497331
  0
VERTEX
  8
PLAN_1
  6
CONTINUOUS
 10
0.970236
 20
-3.502744
  0
VERTEX
  8
PLAN_1
  6
CONTINUOUS
 10
0.971138
 20
-3.505000
  0
VERTEX
  8
PLAN_1
  6
CONTINUOUS
 10
0.972492
 20
-3.507256
  0
VERTEX
  8
PLAN_1
  6
CONTINUOUS
 10
0.973846
 20
-3.509059
  0
VERTEX
  8
PLAN_1
  6
CONTINUOUS
 10
0.975201
 20
-3.510866
  0
VERTEX
  8
PLAN_1
  6
CONTINUOUS
 10
0.977004
 20
-3.512669
  0
VERTEX
  8
PLAN_1
  6
CONTINUOUS
 10
0.978358
 20
-3.514024
  0
VERTEX
  8
PLAN_1
  6
CONTINUOUS
 10
0.980610
 20
-3.515374
  0
VERTEX
  8
PLAN_1
  6
CONTINUOUS
 10
0.982417
 20
-3.516728
  0
VERTEX
  8
PLAN_1
  6
CONTINUOUS
 10
0.984673
 20
-3.517630
  0
VERTEX
  8
PLAN_1
  6
CONTINUOUS
 10
0.986925
 20
-3.518083
  0
VERTEX
  8
PLAN_1
  6
CONTINUOUS
 10
0.989634
 20
-3.518531
  0
VERTEX
  8
PLAN_1
  6
CONTINUOUS
 10
0.991890
 20
-3.518531
  0
VERTEX
  8
PLAN_1
  6
CONTINUOUS
 10
0.996398
 20
-3.518083
  0
VERTEX
  8
PLAN_1
  6
CONTINUOUS
 10
1.000457
 20
-3.517181
  0
VERTEX
  8
PLAN_1
  6
CONTINUOUS
 10
1.004520
 20
-3.515374
  0
VERTEX
  8
PLAN_1
  6
CONTINUOUS
 10
1.008579
 20
-3.513118
  0
VERTEX
  8
PLAN_1
  6
CONTINUOUS
 10
1.012185
 20
-3.509961
  0
VERTEX
  8
PLAN_1
  6
CONTINUOUS
 10
1.015343
 20
-3.506803
  0
VERTEX
  8
PLAN_1
  6
CONTINUOUS
 10
1.018500
 20
-3.503197
  0
VERTEX
  8
PLAN_1
  6
CONTINUOUS
 10
1.021657
 20
-3.499138
  0
VERTEX
  8
PLAN_1
  6
CONTINUOUS
 10
1.024366
 20
-3.495079
  0
VERTEX
  8
PLAN_1
  6
CONTINUOUS
 10
1.026622
 20
-3.490567
  0
VERTEX
  8
PLAN_1
  6
CONTINUOUS
 10
1.028425
 20
-3.485606
  0
VERTEX
  8
PLAN_1
  6
CONTINUOUS
 10
1.030228
 20
-3.481094
  0
VERTEX
  8
PLAN_1
  6
CONTINUOUS
 10
1.031583
 20
-3.476583
  0
VERTEX
  8
PLAN_1
  6
CONTINUOUS
 10
1.032484
 20
-3.471622
  0
VERTEX
  8
PLAN_1
  6
CONTINUOUS
 10
1.033386
 20
-3.467563
  0
VERTEX
  8
PLAN_1
  6
CONTINUOUS
 10
1.033386
 20
-3.463051
  0
VERTEX
  8
PLAN_1
  6
CONTINUOUS
 10
1.033386
 20
-3.460346
  0
VERTEX
  8
PLAN_1
  6
CONTINUOUS
 10
1.032933
 20
-3.458091
  0
VERTEX
  8
PLAN_1
  6
CONTINUOUS
 10
1.032484
 20
-3.455835
  0
VERTEX
  8
PLAN_1
  6
CONTINUOUS
 10
1.031583
 20
-3.453130
  0
VERTEX
  8
PLAN_1
  6
CONTINUOUS
 10
1.029327
 20
-3.449067
  0
VERTEX
  8
PLAN_1
  6
CONTINUOUS
 10
1.026622
 20
-3.445008
  0
VERTEX
  8
PLAN_1
  6
CONTINUOUS
 10
1.023012
 20
-3.441850
  0
VERTEX
  8
PLAN_1
  6
CONTINUOUS
 10
1.019402
 20
-3.439594
  0
VERTEX
  8
PLAN_1
  6
CONTINUOUS
 10
1.017150
 20
-3.438693
  0
VERTEX
  8
PLAN_1
  6
CONTINUOUS
 10
1.014894
 20
-3.438244
  0
VERTEX
  8
PLAN_1
  6
CONTINUOUS
 10
1.013087
 20
-3.437791
  0
VERTEX
  8
PLAN_1
  6
CONTINUOUS
 10
1.010835
 20
-3.437343
  0
SEQEND
  8
0
  0
SOLID
  8
PLAN_1
 10
1.145701
 20
-3.611000
 11
1.145701
 21
-3.597016
 12
1.299965
 22
-3.611000
 13
1.299965
 23
-3.597016
  0
POLYLINE
  8
PLAN_1
  6
CONTINUOUS
 66
     1
 40
0.003000
 41
0.003000
  0
VERTEX
  8
PLAN_1
  6
CONTINUOUS
 10
1.145701
 20
-3.611000
  0
VERTEX
  8
PLAN_1
  6
CONTINUOUS
 10
1.145701
 20
-3.597016
  0
VERTEX
  8
PLAN_1
  6
CONTINUOUS
 10
1.299965
 20
-3.597016
  0
VERTEX
  8
PLAN_1
  6
CONTINUOUS
 10
1.299965
 20
-3.611000
  0
VERTEX
  8
PLAN_1
  6
CONTINUOUS
 10
1.145701
 20
-3.611000
  0
SEQEND
  8
0
  0
SOLID
  8
PLAN_1
 10
1.299965
 20
-3.611000
 11
1.299965
 21
-3.597016
 12
1.454228
 22
-3.611000
 13
1.454228
 23
-3.597016
  0
POLYLINE
  8
PLAN_1
  6
CONTINUOUS
 66
     1
 40
0.003000
 41
0.003000
  0
VERTEX
  8
PLAN_1
  6
CONTINUOUS
 10
1.299965
 20
-3.611000
  0
VERTEX
  8
PLAN_1
  6
CONTINUOUS
 10
1.299965
 20
-3.597016
  0
VERTEX
  8
PLAN_1
  6
CONTINUOUS
 10
1.454228
 20
-3.597016
  0
VERTEX
  8
PLAN_1
  6
CONTINUOUS
 10
1.454228
 20
-3.611000
  0
VERTEX
  8
PLAN_1
  6
CONTINUOUS
 10
1.299965
 20
-3.611000
  0
SEQEND
  8
0
  0
POLYLINE
  8
PLAN_1
  6
CONTINUOUS
 66
     1
 40
0.003000
 41
0.003000
  0
VERTEX
  8
PLAN_1
  6
CONTINUOUS
 10
1.505650
 20
-3.576268
  0
VERTEX
  8
PLAN_1
  6
CONTINUOUS
 10
1.479035
 20
-3.576268
  0
VERTEX
  8
PLAN_1
  6
CONTINUOUS
 10
1.479035
 20
-3.376898
  0
VERTEX
  8
PLAN_1
  6
CONTINUOUS
 10
1.571051
 20
-3.376898
  0
VERTEX
  8
PLAN_1
  6
CONTINUOUS
 10
1.577366
 20
-3.377350
  0
VERTEX
  8
PLAN_1
  6
CONTINUOUS
 10
1.583232
 20
-3.377350
  0
VERTEX
  8
PLAN_1
  6
CONTINUOUS
 10
1.589094
 20
-3.378252
  0
VERTEX
  8
PLAN_1
  6
CONTINUOUS
 10
1.594961
 20
-3.379606
  0
VERTEX
  8
PLAN_1
  6
CONTINUOUS
 10
1.600823
 20
-3.380957
  0
VERTEX
  8
PLAN_1
  6
CONTINUOUS
 10
1.606236
 20
-3.382764
  0
VERTEX
  8
PLAN_1
  6
CONTINUOUS
 10
1.611197
 20
-3.385020
  0
VERTEX
  8
PLAN_1
  6
CONTINUOUS
 10
1.616157
 20
-3.388177
  0
VERTEX
  8
PLAN_1
  6
CONTINUOUS
 10
1.620669
 20
-3.391335
  0
VERTEX
  8
PLAN_1
  6
CONTINUOUS
 10
1.624280
 20
-3.394941
  0
VERTEX
  8
PLAN_1
  6
CONTINUOUS
 10
1.627886
 20
-3.399453
  0
VERTEX
  8
PLAN_1
  6
CONTINUOUS
 10
1.631043
 20
-3.404413
  0
VERTEX
  8
PLAN_1
  6
CONTINUOUS
 10
1.633299
 20
-3.409827
  0
VERTEX
  8
PLAN_1
  6
CONTINUOUS
 10
1.635102
 20
-3.416142
  0
VERTEX
  8
PLAN_1
  6
CONTINUOUS
 10
1.636004
 20
-3.422906
  0
VERTEX
  8
PLAN_1
  6
CONTINUOUS
 10
1.636457
 20
-3.430575
  0
VERTEX
  8
PLAN_1
  6
CONTINUOUS
 10
1.636457
 20
-3.435988
  0
VERTEX
  8
PLAN_1
  6
CONTINUOUS
 10
1.636004
 20
-3.440949
  0
VERTEX
  8
PLAN_1
  6
CONTINUOUS
 10
1.635102
 20
-3.445461
  0
VERTEX
  8
PLAN_1
  6
CONTINUOUS
 10
1.634201
 20
-3.449520
  0
VERTEX
  8
PLAN_1
  6
CONTINUOUS
 10
1.632846
 20
-3.453130
  0
VERTEX
  8
PLAN_1
  6
CONTINUOUS
 10
1.631043
 20
-3.456736
  0
VERTEX
  8
PLAN_1
  6
CONTINUOUS
 10
1.629240
 20
-3.459894
  0
VERTEX
  8
PLAN_1
  6
CONTINUOUS
 10
1.627437
 20
-3.462602
  0
VERTEX
  8
PLAN_1
  6
CONTINUOUS
 10
1.623374
 20
-3.467563
  0
VERTEX
  8
PLAN_1
  6
CONTINUOUS
 10
1.618413
 20
-3.471622
  0
VERTEX
  8
PLAN_1
  6
CONTINUOUS
 10
1.613453
 20
-3.475232
  0
VERTEX
  8
PLAN_1
  6
CONTINUOUS
 10
1.608941
 20
-3.478386
  0
VERTEX
  8
PLAN_1
  6
CONTINUOUS
 10
1.613000
 20
-3.480193
  0
VERTEX
  8
PLAN_1
  6
CONTINUOUS
 10
1.617059
 20
-3.482449
  0
VERTEX
  8
PLAN_1
  6
CONTINUOUS
 10
1.621122
 20
-3.485154
  0
VERTEX
  8
PLAN_1
  6
CONTINUOUS
 10
1.624728
 20
-3.488311
  0
VERTEX
  8
PLAN_1
  6
CONTINUOUS
 10
1.626083
 20
-3.490567
  0
VERTEX
  8
PLAN_1
  6
CONTINUOUS
 10
1.627437
 20
-3.492823
  0
VERTEX
  8
PLAN_1
  6
CONTINUOUS
 10
1.628787
 20
-3.495980
  0
VERTEX
  8
PLAN_1
  6
CONTINUOUS
 10
1.630142
 20
-3.498685
  0
VERTEX
  8
PLAN_1
  6
CONTINUOUS
 10
1.631043
 20
-3.502295
  0
VERTEX
  8
PLAN_1
  6
CONTINUOUS
 10
1.631945
 20
-3.506354
  0
VERTEX
  8
PLAN_1
  6
CONTINUOUS
 10
1.632398
 20
-3.510866
  0
VERTEX
  8
PLAN_1
  6
CONTINUOUS
 10
1.632846
 20
-3.515827
  0
VERTEX
  8
PLAN_1
  6
CONTINUOUS
 10
1.634201
 20
-3.551909
  0
VERTEX
  8
PLAN_1
  6
CONTINUOUS
 10
1.634654
 20
-3.555520
  0
VERTEX
  8
PLAN_1
  6
CONTINUOUS
 10
1.634654
 20
-3.559130
  0
VERTEX
  8
PLAN_1
  6
CONTINUOUS
 10
1.635555
 20
-3.561835
  0
VERTEX
  8
PLAN_1
  6
CONTINUOUS
 10
1.636457
 20
-3.564091
  0
VERTEX
  8
PLAN_1
  6
CONTINUOUS
 10
1.637358
 20
-3.566346
  0
VERTEX
  8
PLAN_1
  6
CONTINUOUS
 10
1.639161
 20
-3.568150
  0
VERTEX
  8
PLAN_1
  6
CONTINUOUS
 10
1.641417
 20
-3.569953
  0
VERTEX
  8
PLAN_1
  6
CONTINUOUS
 10
1.644126
 20
-3.571756
  0
VERTEX
  8
PLAN_1
  6
CONTINUOUS
 10
1.644126
 20
-3.576268
  0
VERTEX
  8
PLAN_1
  6
CONTINUOUS
 10
1.611197
 20
-3.576268
  0
VERTEX
  8
PLAN_1
  6
CONTINUOUS
 10
1.609843
 20
-3.570854
  0
VERTEX
  8
PLAN_1
  6
CONTINUOUS
 10
1.608941
 20
-3.564539
  0
VERTEX
  8
PLAN_1
  6
CONTINUOUS
 10
1.608039
 20
-3.557323
  0
VERTEX
  8
PLAN_1
  6
CONTINUOUS
 10
1.607591
 20
-3.549657
  0
VERTEX
  8
PLAN_1
  6
CONTINUOUS
 10
1.607138
 20
-3.542437
  0
VERTEX
  8
PLAN_1
  6
CONTINUOUS
 10
1.606685
 20
-3.535673
  0
VERTEX
  8
PLAN_1
  6
CONTINUOUS
 10
1.606685
 20
-3.530260
  0
VERTEX
  8
PLAN_1
  6
CONTINUOUS
 10
1.606685
 20
-3.526201
  0
VERTEX
  8
PLAN_1
  6
CONTINUOUS
 10
1.606236
 20
-3.519886
  0
VERTEX
  8
PLAN_1
  6
CONTINUOUS
 10
1.605335
 20
-3.514024
  0
VERTEX
  8
PLAN_1
  6
CONTINUOUS
 10
1.604882
 20
-3.510866
  0
VERTEX
  8
PLAN_1
  6
CONTINUOUS
 10
1.603980
 20
-3.507709
  0
VERTEX
  8
PLAN_1
  6
CONTINUOUS
 10
1.602626
 20
-3.505000
  0
VERTEX
  8
PLAN_1
  6
CONTINUOUS
 10
1.600823
 20
-3.502295
  0
VERTEX
  8
PLAN_1
  6
CONTINUOUS
 10
1.599020
 20
-3.500039
  0
VERTEX
  8
PLAN_1
  6
CONTINUOUS
 10
1.596311
 20
-3.497783
  0
VERTEX
  8
PLAN_1
  6
CONTINUOUS
 10
1.593606
 20
-3.495980
  0
VERTEX
  8
PLAN_1
  6
CONTINUOUS
 10
1.589996
 20
-3.494173
  0
VERTEX
  8
PLAN_1
  6
CONTINUOUS
 10
1.586390
 20
-3.492823
  0
VERTEX
  8
PLAN_1
  6
CONTINUOUS
 10
1.581878
 20
-3.491469
  0
VERTEX
  8
PLAN_1
  6
CONTINUOUS
 10
1.576917
 20
-3.491016
  0
VERTEX
  8
PLAN_1
  6
CONTINUOUS
 10
1.571051
 20
-3.491016
  0
VERTEX
  8
PLAN_1
  6
CONTINUOUS
 10
1.505650
 20
-3.491016
  0
VERTEX
  8
PLAN_1
  6
CONTINUOUS
 10
1.505650
 20
-3.576268
  0
SEQEND
  8
0
  0
POLYLINE
  8
PLAN_1
  6
CONTINUOUS
 66
     1
 40
0.003000
 41
0.003000
  0
VERTEX
  8
PLAN_1
  6
CONTINUOUS
 10
1.505650
 20
-3.467563
  0
VERTEX
  8
PLAN_1
  6
CONTINUOUS
 10
1.568346
 20
-3.467563
  0
VERTEX
  8
PLAN_1
  6
CONTINUOUS
 10
1.575563
 20
-3.467563
  0
VERTEX
  8
PLAN_1
  6
CONTINUOUS
 10
1.582780
 20
-3.466661
  0
VERTEX
  8
PLAN_1
  6
CONTINUOUS
 10
1.586390
 20
-3.465760
  0
VERTEX
  8
PLAN_1
  6
CONTINUOUS
 10
1.589547
 20
-3.464854
  0
VERTEX
  8
PLAN_1
  6
CONTINUOUS
 10
1.592705
 20
-3.463504
  0
VERTEX
  8
PLAN_1
  6
CONTINUOUS
 10
1.595862
 20
-3.461697
  0
VERTEX
  8
PLAN_1
  6
CONTINUOUS
 10
1.598567
 20
-3.459445
  0
VERTEX
  8
PLAN_1
  6
CONTINUOUS
 10
1.601276
 20
-3.457189
  0
VERTEX
  8
PLAN_1
  6
CONTINUOUS
 10
1.603528
 20
-3.454480
  0
VERTEX
  8
PLAN_1
  6
CONTINUOUS
 10
1.605335
 20
-3.451323
  0
VERTEX
  8
PLAN_1
  6
CONTINUOUS
 10
1.606685
 20
-3.447264
  0
VERTEX
  8
PLAN_1
  6
CONTINUOUS
 10
1.608039
 20
-3.443205
  0
VERTEX
  8
PLAN_1
  6
CONTINUOUS
 10
1.608492
 20
-3.438693
  0
VERTEX
  8
PLAN_1
  6
CONTINUOUS
 10
1.608941
 20
-3.433283
  0
VERTEX
  8
PLAN_1
  6
CONTINUOUS
 10
1.608492
 20
-3.427870
  0
VERTEX
  8
PLAN_1
  6
CONTINUOUS
 10
1.607591
 20
-3.422906
  0
VERTEX
  8
PLAN_1
  6
CONTINUOUS
 10
1.606685
 20
-3.418846
  0
VERTEX
  8
PLAN_1
  6
CONTINUOUS
 10
1.604882
 20
-3.415240
  0
VERTEX
  8
PLAN_1
  6
CONTINUOUS
 10
1.603079
 20
-3.412083
  0
VERTEX
  8
PLAN_1
  6
CONTINUOUS
 10
1.600823
 20
-3.409374
  0
VERTEX
  8
PLAN_1
  6
CONTINUOUS
 10
1.598567
 20
-3.407118
  0
VERTEX
  8
PLAN_1
  6
CONTINUOUS
 10
1.595862
 20
-3.405315
  0
VERTEX
  8
PLAN_1
  6
CONTINUOUS
 10
1.593154
 20
-3.403512
  0
VERTEX
  8
PLAN_1
  6
CONTINUOUS
 10
1.589996
 20
-3.402610
  0
VERTEX
  8
PLAN_1
  6
CONTINUOUS
 10
1.587291
 20
-3.401709
  0
VERTEX
  8
PLAN_1
  6
CONTINUOUS
 10
1.584134
 20
-3.400803
  0
VERTEX
  8
PLAN_1
  6
CONTINUOUS
 10
1.578268
 20
-3.400354
  0
VERTEX
  8
PLAN_1
  6
CONTINUOUS
 10
1.572858
 20
-3.399902
  0
VERTEX
  8
PLAN_1
  6
CONTINUOUS
 10
1.505650
 20
-3.399902
  0
VERTEX
  8
PLAN_1
  6
CONTINUOUS
 10
1.505650
 20
-3.467563
  0
SEQEND
  8
0
  0
SOLID
  8
PLAN_1
 10
1.708177
 20
-3.576268
 11
1.679307
 21
-3.576268
 12
1.708177
 22
-3.546949
 13
1.679307
 23
-3.546949
  0
POLYLINE
  8
PLAN_1
  6
CONTINUOUS
 66
     1
 40
0.003000
 41
0.003000
  0
VERTEX
  8
PLAN_1
  6
CONTINUOUS
 10
1.708177
 20
-3.576268
  0
VERTEX
  8
PLAN_1
  6
CONTINUOUS
 10
1.679307
 20
-3.576268
  0
VERTEX
  8
PLAN_1
  6
CONTINUOUS
 10
1.679307
 20
-3.546949
  0
VERTEX
  8
PLAN_1
  6
CONTINUOUS
 10
1.708177
 20
-3.546949
  0
VERTEX
  8
PLAN_1
  6
CONTINUOUS
 10
1.708177
 20
-3.576268
  0
SEQEND
  8
0
  0
POLYLINE
  8
PLAN_1
  6
CONTINUOUS
 66
     1
 40
0.003000
 41
0.003000
  0
VERTEX
  8
PLAN_1
  6
CONTINUOUS
 10
1.903035
 20
-3.576268
  0
VERTEX
  8
PLAN_1
  6
CONTINUOUS
 10
1.755988
 20
-3.576268
  0
VERTEX
  8
PLAN_1
  6
CONTINUOUS
 10
1.755988
 20
-3.376898
  0
VERTEX
  8
PLAN_1
  6
CONTINUOUS
 10
1.901232
 20
-3.376898
  0
VERTEX
  8
PLAN_1
  6
CONTINUOUS
 10
1.901232
 20
-3.400803
  0
VERTEX
  8
PLAN_1
  6
CONTINUOUS
 10
1.783051
 20
-3.400803
  0
VERTEX
  8
PLAN_1
  6
CONTINUOUS
 10
1.783051
 20
-3.462150
  0
VERTEX
  8
PLAN_1
  6
CONTINUOUS
 10
1.892209
 20
-3.462150
  0
VERTEX
  8
PLAN_1
  6
CONTINUOUS
 10
1.892209
 20
-3.485606
  0
VERTEX
  8
PLAN_1
  6
CONTINUOUS
 10
1.783051
 20
-3.485606
  0
VERTEX
  8
PLAN_1
  6
CONTINUOUS
 10
1.783051
 20
-3.552362
  0
VERTEX
  8
PLAN_1
  6
CONTINUOUS
 10
1.903035
 20
-3.552362
  0
VERTEX
  8
PLAN_1
  6
CONTINUOUS
 10
1.903035
 20
-3.576268
  0
SEQEND
  8
0
  0
POLYLINE
  8
PLAN_1
  6
CONTINUOUS
 66
     1
 40
0.003000
 41
0.003000
  0
VERTEX
  8
PLAN_1
  6
CONTINUOUS
 10
1.967988
 20
-3.576268
  0
VERTEX
  8
PLAN_1
  6
CONTINUOUS
 10
1.941374
 20
-3.576268
  0
VERTEX
  8
PLAN_1
  6
CONTINUOUS
 10
1.941374
 20
-3.376898
  0
VERTEX
  8
PLAN_1
  6
CONTINUOUS
 10
2.030685
 20
-3.376898
  0
VERTEX
  8
PLAN_1
  6
CONTINUOUS
 10
2.037453
 20
-3.377350
  0
VERTEX
  8
PLAN_1
  6
CONTINUOUS
 10
2.044217
 20
-3.378252
  0
VERTEX
  8
PLAN_1
  6
CONTINUOUS
 10
2.050083
 20
-3.379606
  0
VERTEX
  8
PLAN_1
  6
CONTINUOUS
 10
2.055492
 20
-3.381409
  0
VERTEX
  8
PLAN_1
  6
CONTINUOUS
 10
2.060906
 20
-3.383665
  0
VERTEX
  8
PLAN_1
  6
CONTINUOUS
 10
2.065870
 20
-3.386370
  0
VERTEX
  8
PLAN_1
  6
CONTINUOUS
 10
2.070378
 20
-3.389528
  0
VERTEX
  8
PLAN_1
  6
CONTINUOUS
 10
2.074437
 20
-3.393138
  0
VERTEX
  8
PLAN_1
  6
CONTINUOUS
 10
2.078047
 20
-3.396744
  0
VERTEX
  8
PLAN_1
  6
CONTINUOUS
 10
2.081205
 20
-3.401256
  0
VERTEX
  8
PLAN_1
  6
CONTINUOUS
 10
2.083909
 20
-3.405768
  0
VERTEX
  8
PLAN_1
  6
CONTINUOUS
 10
2.086165
 20
-3.410728
  0
VERTEX
  8
PLAN_1
  6
CONTINUOUS
 10
2.087520
 20
-3.416142
  0
VERTEX
  8
PLAN_1
  6
CONTINUOUS
 10
2.088874
 20
-3.421555
  0
VERTEX
  8
PLAN_1
  6
CONTINUOUS
 10
2.089776
 20
-3.426969
  0
VERTEX
  8
PLAN_1
  6
CONTINUOUS
 10
2.090224
 20
-3.433283
  0
VERTEX
  8
PLAN_1
  6
CONTINUOUS
 10
2.089776
 20
-3.438244
  0
VERTEX
  8
PLAN_1
  6
CONTINUOUS
 10
2.089323
 20
-3.443657
  0
VERTEX
  8
PLAN_1
  6
CONTINUOUS
 10
2.088421
 20
-3.448618
  0
VERTEX
  8
PLAN_1
  6
CONTINUOUS
 10
2.087067
 20
-3.454031
  0
VERTEX
  8
PLAN_1
  6
CONTINUOUS
 10
2.084811
 20
-3.458992
  0
VERTEX
  8
PLAN_1
  6
CONTINUOUS
 10
2.082559
 20
-3.463953
  0
VERTEX
  8
PLAN_1
  6
CONTINUOUS
 10
2.079850
 20
-3.468465
  0
VERTEX
  8
PLAN_1
  6
CONTINUOUS
 10
2.076693
 20
-3.472976
  0
VERTEX
  8
PLAN_1
  6
CONTINUOUS
 10
2.073087
 20
-3.477035
  0
VERTEX
  8
PLAN_1
  6
CONTINUOUS
 10
2.068575
 20
-3.480642
  0
VERTEX
  8
PLAN_1
  6
CONTINUOUS
 10
2.063614
 20
-3.484252
  0
VERTEX
  8
PLAN_1
  6
CONTINUOUS
 10
2.058201
 20
-3.486957
  0
VERTEX
  8
PLAN_1
  6
CONTINUOUS
 10
2.052335
 20
-3.489213
  0
VERTEX
  8
PLAN_1
  6
CONTINUOUS
 10
2.046020
 20
-3.491016
  0
VERTEX
  8
PLAN_1
  6
CONTINUOUS
 10
2.038803
 20
-3.491921
  0
VERTEX
  8
PLAN_1
  6
CONTINUOUS
 10
2.030685
 20
-3.492370
  0
VERTEX
  8
PLAN_1
  6
CONTINUOUS
 10
1.967988
 20
-3.492370
  0
VERTEX
  8
PLAN_1
  6
CONTINUOUS
 10
1.967988
 20
-3.576268
  0
SEQEND
  8
0
  0
POLYLINE
  8
PLAN_1
  6
CONTINUOUS
 66
     1
 40
0.003000
 41
0.003000
  0
VERTEX
  8
PLAN_1
  6
CONTINUOUS
 10
1.967988
 20
-3.469366
  0
VERTEX
  8
PLAN_1
  6
CONTINUOUS
 10
2.021665
 20
-3.469366
  0
VERTEX
  8
PLAN_1
  6
CONTINUOUS
 10
2.026173
 20
-3.468917
  0
VERTEX
  8
PLAN_1
  6
CONTINUOUS
 10
2.030232
 20
-3.468917
  0
VERTEX
  8
PLAN_1
  6
CONTINUOUS
 10
2.034295
 20
-3.468012
  0
VERTEX
  8
PLAN_1
  6
CONTINUOUS
 10
2.038354
 20
-3.467563
  0
VERTEX
  8
PLAN_1
  6
CONTINUOUS
 10
2.041961
 20
-3.466209
  0
VERTEX
  8
PLAN_1
  6
CONTINUOUS
 10
2.045118
 20
-3.464854
  0
VERTEX
  8
PLAN_1
  6
CONTINUOUS
 10
2.048276
 20
-3.463504
  0
VERTEX
  8
PLAN_1
  6
CONTINUOUS
 10
2.050984
 20
-3.461248
  0
VERTEX
  8
PLAN_1
  6
CONTINUOUS
 10
2.053689
 20
-3.458992
  0
VERTEX
  8
PLAN_1
  6
CONTINUOUS
 10
2.055945
 20
-3.456736
  0
VERTEX
  8
PLAN_1
  6
CONTINUOUS
 10
2.057748
 20
-3.453579
  0
VERTEX
  8
PLAN_1
  6
CONTINUOUS
 10
2.059102
 20
-3.450421
  0
VERTEX
  8
PLAN_1
  6
CONTINUOUS
 10
2.060457
 20
-3.446815
  0
VERTEX
  8
PLAN_1
  6
CONTINUOUS
 10
2.061358
 20
-3.442752
  0
VERTEX
  8
PLAN_1
  6
CONTINUOUS
 10
2.062260
 20
-3.438244
  0
VERTEX
  8
PLAN_1
  6
CONTINUOUS
 10
2.062260
 20
-3.433283
  0
VERTEX
  8
PLAN_1
  6
CONTINUOUS
 10
2.062260
 20
-3.428772
  0
VERTEX
  8
PLAN_1
  6
CONTINUOUS
 10
2.061358
 20
-3.424713
  0
VERTEX
  8
PLAN_1
  6
CONTINUOUS
 10
2.060457
 20
-3.421102
  0
VERTEX
  8
PLAN_1
  6
CONTINUOUS
 10
2.059102
 20
-3.417496
  0
VERTEX
  8
PLAN_1
  6
CONTINUOUS
 10
2.057748
 20
-3.414339
  0
VERTEX
  8
PLAN_1
  6
CONTINUOUS
 10
2.055492
 20
-3.411630
  0
VERTEX
  8
PLAN_1
  6
CONTINUOUS
 10
2.053240
 20
-3.409374
  0
VERTEX
  8
PLAN_1
  6
CONTINUOUS
 10
2.050984
 20
-3.407118
  0
VERTEX
  8
PLAN_1
  6
CONTINUOUS
 10
2.048276
 20
-3.405315
  0
VERTEX
  8
PLAN_1
  6
CONTINUOUS
 10
2.045118
 20
-3.403961
  0
VERTEX
  8
PLAN_1
  6
CONTINUOUS
 10
2.041961
 20
-3.402610
  0
VERTEX
  8
PLAN_1
  6
CONTINUOUS
 10
2.038354
 20
-3.401709
  0
VERTEX
  8
PLAN_1
  6
CONTINUOUS
 10
2.034744
 20
-3.400803
  0
VERTEX
  8
PLAN_1
  6
CONTINUOUS
 10
2.030685
 20
-3.400354
  0
VERTEX
  8
PLAN_1
  6
CONTINUOUS
 10
2.027079
 20
-3.400354
  0
VERTEX
  8
PLAN_1
  6
CONTINUOUS
 10
2.023016
 20
-3.399902
  0
VERTEX
  8
PLAN_1
  6
CONTINUOUS
 10
1.967988
 20
-3.399902
  0
VERTEX
  8
PLAN_1
  6
CONTINUOUS
 10
1.967988
 20
-3.469366
  0
SEQEND
  8
0
  0
POLYLINE
  8
PLAN_1
  6
CONTINUOUS
 66
     1
 40
0.003000
 41
0.003000
  0
VERTEX
  8
PLAN_1
  6
CONTINUOUS
 10
2.244039
 20
-3.435087
  0
VERTEX
  8
PLAN_1
  6
CONTINUOUS
 10
2.243134
 20
-3.429673
  0
VERTEX
  8
PLAN_1
  6
CONTINUOUS
 10
2.242232
 20
-3.424713
  0
VERTEX
  8
PLAN_1
  6
CONTINUOUS
 10
2.240882
 20
-3.420201
  0
VERTEX
  8
PLAN_1
  6
CONTINUOUS
 10
2.238626
 20
-3.416142
  0
VERTEX
  8
PLAN_1
  6
CONTINUOUS
 10
2.236370
 20
-3.412083
  0
VERTEX
  8
PLAN_1
  6
CONTINUOUS
 10
2.233665
 20
-3.408925
  0
VERTEX
  8
PLAN_1
  6
CONTINUOUS
 10
2.230508
 20
-3.406217
  0
VERTEX
  8
PLAN_1
  6
CONTINUOUS
 10
2.226898
 20
-3.403512
  0
VERTEX
  8
PLAN_1
  6
CONTINUOUS
 10
2.223287
 20
-3.401256
  0
VERTEX
  8
PLAN_1
  6
CONTINUOUS
 10
2.219681
 20
-3.399453
  0
VERTEX
  8
PLAN_1
  6
CONTINUOUS
 10
2.215622
 20
-3.398098
  0
VERTEX
  8
PLAN_1
  6
CONTINUOUS
 10
2.211563
 20
-3.396744
  0
VERTEX
  8
PLAN_1
  6
CONTINUOUS
 10
2.207051
 20
-3.395843
  0
VERTEX
  8
PLAN_1
  6
CONTINUOUS
 10
2.202992
 20
-3.395394
  0
VERTEX
  8
PLAN_1
  6
CONTINUOUS
 10
2.198933
 20
-3.394941
  0
VERTEX
  8
PLAN_1
  6
CONTINUOUS
 10
2.194421
 20
-3.394941
  0
VERTEX
  8
PLAN_1
  6
CONTINUOUS
 10
2.187654
 20
-3.394941
  0
VERTEX
  8
PLAN_1
  6
CONTINUOUS
 10
2.180437
 20
-3.395843
  0
VERTEX
  8
PLAN_1
  6
CONTINUOUS
 10
2.176378
 20
-3.396744
  0
VERTEX
  8
PLAN_1
  6
CONTINUOUS
 10
2.172772
 20
-3.397646
  0
VERTEX
  8
PLAN_1
  6
CONTINUOUS
 10
2.168709
 20
-3.399000
  0
VERTEX
  8
PLAN_1
  6
CONTINUOUS
 10
2.165551
 20
-3.400803
  0
VERTEX
  8
PLAN_1
  6
CONTINUOUS
 10
2.161945
 20
-3.403059
  0
VERTEX
  8
PLAN_1
  6
CONTINUOUS
 10
2.158787
 20
-3.405315
  0
VERTEX
  8
PLAN_1
  6
CONTINUOUS
 10
2.156079
 20
-3.408024
  0
VERTEX
  8
PLAN_1
  6
CONTINUOUS
 10
2.153827
 20
-3.411630
  0
VERTEX
  8
PLAN_1
  6
CONTINUOUS
 10
2.151571
 20
-3.415240
  0
VERTEX
  8
PLAN_1
  6
CONTINUOUS
 10
2.150217
 20
-3.419748
  0
VERTEX
  8
PLAN_1
  6
CONTINUOUS
 10
2.149315
 20
-3.424260
  0
VERTEX
  8
PLAN_1
  6
CONTINUOUS
 10
2.148862
 20
-3.429673
  0
VERTEX
  8
PLAN_1
  6
CONTINUOUS
 10
2.149315
 20
-3.432831
  0
VERTEX
  8
PLAN_1
  6
CONTINUOUS
 10
2.149315
 20
-3.435535
  0
VERTEX
  8
PLAN_1
  6
CONTINUOUS
 10
2.150217
 20
-3.438244
  0
VERTEX
  8
PLAN_1
  6
CONTINUOUS
 10
2.151118
 20
-3.440500
  0
VERTEX
  8
PLAN_1
  6
CONTINUOUS
 10
2.152020
 20
-3.442752
  0
VERTEX
  8
PLAN_1
  6
CONTINUOUS
 10
2.153374
 20
-3.444559
  0
VERTEX
  8
PLAN_1
  6
CONTINUOUS
 10
2.154728
 20
-3.446362
  0
VERTEX
  8
PLAN_1
  6
CONTINUOUS
 10
2.156531
 20
-3.447717
  0
VERTEX
  8
PLAN_1
  6
CONTINUOUS
 10
2.160142
 20
-3.450421
  0
VERTEX
  8
PLAN_1
  6
CONTINUOUS
 10
2.163748
 20
-3.452224
  0
VERTEX
  8
PLAN_1
  6
CONTINUOUS
 10
2.168260
 20
-3.454031
  0
VERTEX
  8
PLAN_1
  6
CONTINUOUS
 10
2.172772
 20
-3.454933
  0
VERTEX
  8
PLAN_1
  6
CONTINUOUS
 10
2.229602
 20
-3.468012
  0
VERTEX
  8
PLAN_1
  6
CONTINUOUS
 10
2.234114
 20
-3.469366
  0
VERTEX
  8
PLAN_1
  6
CONTINUOUS
 10
2.238626
 20
-3.470720
  0
VERTEX
  8
PLAN_1
  6
CONTINUOUS
 10
2.243134
 20
-3.472524
  0
VERTEX
  8
PLAN_1
  6
CONTINUOUS
 10
2.247646
 20
-3.474327
  0
VERTEX
  8
PLAN_1
  6
CONTINUOUS
 10
2.251256
 20
-3.476583
  0
VERTEX
  8
PLAN_1
  6
CONTINUOUS
 10
2.255315
 20
-3.479291
  0
VERTEX
  8
PLAN_1
  6
CONTINUOUS
 10
2.258472
 20
-3.481996
  0
VERTEX
  8
PLAN_1
  6
CONTINUOUS
 10
2.261630
 20
-3.485154
  0
VERTEX
  8
PLAN_1
  6
CONTINUOUS
 10
2.264787
 20
-3.488311
  0
VERTEX
  8
PLAN_1
  6
CONTINUOUS
 10
2.267043
 20
-3.492370
  0
VERTEX
  8
PLAN_1
  6
CONTINUOUS
 10
2.269299
 20
-3.495980
  0
VERTEX
  8
PLAN_1
  6
CONTINUOUS
 10
2.271102
 20
-3.500488
  0
VERTEX
  8
PLAN_1
  6
CONTINUOUS
 10
2.272906
 20
-3.505000
  0
VERTEX
  8
PLAN_1
  6
CONTINUOUS
 10
2.273807
 20
-3.510413
  0
VERTEX
  8
PLAN_1
  6
CONTINUOUS
 10
2.274260
 20
-3.515374
  0
VERTEX
  8
PLAN_1
  6
CONTINUOUS
 10
2.274709
 20
-3.521240
  0
VERTEX
  8
PLAN_1
  6
CONTINUOUS
 10
2.274709
 20
-3.525748
  0
VERTEX
  8
PLAN_1
  6
CONTINUOUS
 10
2.274260
 20
-3.529807
  0
VERTEX
  8
PLAN_1
  6
CONTINUOUS
 10
2.273807
 20
-3.533870
  0
VERTEX
  8
PLAN_1
  6
CONTINUOUS
 10
2.272906
 20
-3.537476
  0
VERTEX
  8
PLAN_1
  6
CONTINUOUS
 10
2.271551
 20
-3.541087
  0
VERTEX
  8
PLAN_1
  6
CONTINUOUS
 10
2.270650
 20
-3.544244
  0
VERTEX
  8
PLAN_1
  6
CONTINUOUS
 10
2.268846
 20
-3.547850
  0
VERTEX
  8
PLAN_1
  6
CONTINUOUS
 10
2.267492
 20
-3.550559
  0
VERTEX
  8
PLAN_1
  6
CONTINUOUS
 10
2.263433
 20
-3.556421
  0
VERTEX
  8
PLAN_1
  6
CONTINUOUS
 10
2.258921
 20
-3.560933
  0
VERTEX
  8
PLAN_1
  6
CONTINUOUS
 10
2.253961
 20
-3.565441
  0
VERTEX
  8
PLAN_1
  6
CONTINUOUS
 10
2.248547
 20
-3.569051
  0
VERTEX
  8
PLAN_1
  6
CONTINUOUS
 10
2.242685
 20
-3.572209
  0
VERTEX
  8
PLAN_1
  6
CONTINUOUS
 10
2.236370
 20
-3.574913
  0
VERTEX
  8
PLAN_1
  6
CONTINUOUS
 10
2.230055
 20
-3.577169
  0
VERTEX
  8
PLAN_1
  6
CONTINUOUS
 10
2.223287
 20
-3.578976
  0
VERTEX
  8
PLAN_1
  6
CONTINUOUS
 10
2.216524
 20
-3.579878
  0
VERTEX
  8
PLAN_1
  6
CONTINUOUS
 10
2.209756
 20
-3.580780
  0
VERTEX
  8
PLAN_1
  6
CONTINUOUS
 10
2.202992
 20
-3.581228
  0
VERTEX
  8
PLAN_1
  6
CONTINUOUS
 10
2.196677
 20
-3.581681
  0
VERTEX
  8
PLAN_1
  6
CONTINUOUS
 10
2.189909
 20
-3.581228
  0
VERTEX
  8
PLAN_1
  6
CONTINUOUS
 10
2.184047
 20
-3.581228
  0
VERTEX
  8
PLAN_1
  6
CONTINUOUS
 10
2.178181
 20
-3.580327
  0
VERTEX
  8
PLAN_1
  6
CONTINUOUS
 10
2.172772
 20
-3.579878
  0
VERTEX
  8
PLAN_1
  6
CONTINUOUS
 10
2.168260
 20
-3.578976
  0
VERTEX
  8
PLAN_1
  6
CONTINUOUS
 10
2.163748
 20
-3.577622
  0
VERTEX
  8
PLAN_1
  6
CONTINUOUS
 10
2.159689
 20
-3.576268
  0
VERTEX
  8
PLAN_1
  6
CONTINUOUS
 10
2.156079
 20
-3.574913
  0
VERTEX
  8
PLAN_1
  6
CONTINUOUS
 10
2.149768
 20
-3.572209
  0
VERTEX
  8
PLAN_1
  6
CONTINUOUS
 10
2.144354
 20
-3.568598
  0
VERTEX
  8
PLAN_1
  6
CONTINUOUS
 10
2.140295
 20
-3.565441
  0
VERTEX
  8
PLAN_1
  6
CONTINUOUS
 10
2.136685
 20
-3.562283
  0
VERTEX
  8
PLAN_1
  6
CONTINUOUS
 10
2.133528
 20
-3.559579
  0
VERTEX
  8
PLAN_1
  6
CONTINUOUS
 10
2.130823
 20
-3.556421
  0
VERTEX
  8
PLAN_1
  6
CONTINUOUS
 10
2.128114
 20
-3.553717
  0
VERTEX
  8
PLAN_1
  6
CONTINUOUS
 10
2.126311
 20
-3.550559
  0
VERTEX
  8
PLAN_1
  6
CONTINUOUS
 10
2.122701
 20
-3.544693
  0
VERTEX
  8
PLAN_1
  6
CONTINUOUS
 10
2.119996
 20
-3.538378
  0
VERTEX
  8
PLAN_1
  6
CONTINUOUS
 10
2.118193
 20
-3.532063
  0
VERTEX
  8
PLAN_1
  6
CONTINUOUS
 10
2.116839
 20
-3.525299
  0
VERTEX
  8
PLAN_1
  6
CONTINUOUS
 10
2.116386
 20
-3.518984
  0
VERTEX
  8
PLAN_1
  6
CONTINUOUS
 10
2.116386
 20
-3.511768
  0
VERTEX
  8
PLAN_1
  6
CONTINUOUS
 10
2.141646
 20
-3.511768
  0
VERTEX
  8
PLAN_1
  6
CONTINUOUS
 10
2.141646
 20
-3.518531
  0
VERTEX
  8
PLAN_1
  6
CONTINUOUS
 10
2.143000
 20
-3.524398
  0
VERTEX
  8
PLAN_1
  6
CONTINUOUS
 10
2.144354
 20
-3.529807
  0
VERTEX
  8
PLAN_1
  6
CONTINUOUS
 10
2.146610
 20
-3.534319
  0
VERTEX
  8
PLAN_1
  6
CONTINUOUS
 10
2.148862
 20
-3.538831
  0
VERTEX
  8
PLAN_1
  6
CONTINUOUS
 10
2.152020
 20
-3.542437
  0
VERTEX
  8
PLAN_1
  6
CONTINUOUS
 10
2.155630
 20
-3.546047
  0
VERTEX
  8
PLAN_1
  6
CONTINUOUS
 10
2.159236
 20
-3.548752
  0
VERTEX
  8
PLAN_1
  6
CONTINUOUS
 10
2.163299
 20
-3.551008
  0
VERTEX
  8
PLAN_1
  6
CONTINUOUS
 10
2.167807
 20
-3.553264
  0
VERTEX
  8
PLAN_1
  6
CONTINUOUS
 10
2.172319
 20
-3.555067
  0
VERTEX
  8
PLAN_1
  6
CONTINUOUS
 10
2.177280
 20
-3.556421
  0
VERTEX
  8
PLAN_1
  6
CONTINUOUS
 10
2.181791
 20
-3.557323
  0
VERTEX
  8
PLAN_1
  6
CONTINUOUS
 10
2.186752
 20
-3.558224
  0
VERTEX
  8
PLAN_1
  6
CONTINUOUS
 10
2.191717
 20
-3.558224
  0
VERTEX
  8
PLAN_1
  6
CONTINUOUS
 10
2.196224
 20
-3.558677
  0
VERTEX
  8
PLAN_1
  6
CONTINUOUS
 10
2.204343
 20
-3.558224
  0
VERTEX
  8
PLAN_1
  6
CONTINUOUS
 10
2.212913
 20
-3.557323
  0
VERTEX
  8
PLAN_1
  6
CONTINUOUS
 10
2.216972
 20
-3.556421
  0
VERTEX
  8
PLAN_1
  6
CONTINUOUS
 10
2.221484
 20
-3.555520
  0
VERTEX
  8
PLAN_1
  6
CONTINUOUS
 10
2.225543
 20
-3.554165
  0
VERTEX
  8
PLAN_1
  6
CONTINUOUS
 10
2.229602
 20
-3.552362
  0
VERTEX
  8
PLAN_1
  6
CONTINUOUS
 10
2.233665
 20
-3.550559
  0
VERTEX
  8
PLAN_1
  6
CONTINUOUS
 10
2.237272
 20
-3.548303
  0
VERTEX
  8
PLAN_1
  6
CONTINUOUS
 10
2.240429
 20
-3.545594
  0
VERTEX
  8
PLAN_1
  6
CONTINUOUS
 10
2.243134
 20
-3.542437
  0
VERTEX
  8
PLAN_1
  6
CONTINUOUS
 10
2.245390
 20
-3.538831
  0
VERTEX
  8
PLAN_1
  6
CONTINUOUS
 10
2.247197
 20
-3.534772
  0
VERTEX
  8
PLAN_1
  6
CONTINUOUS
 10
2.248098
 20
-3.530260
  0
VERTEX
  8
PLAN_1
  6
CONTINUOUS
 10
2.248547
 20
-3.524846
  0
VERTEX
  8
PLAN_1
  6
CONTINUOUS
 10
2.248547
 20
-3.521240
  0
VERTEX
  8
PLAN_1
  6
CONTINUOUS
 10
2.248098
 20
-3.517630
  0
VERTEX
  8
PLAN_1
  6
CONTINUOUS
 10
2.247646
 20
-3.514472
  0
VERTEX
  8
PLAN_1
  6
CONTINUOUS
 10
2.246744
 20
-3.511768
  0
VERTEX
  8
PLAN_1
  6
CONTINUOUS
 10
2.245390
 20
-3.509059
  0
VERTEX
  8
PLAN_1
  6
CONTINUOUS
 10
2.243587
 20
-3.506803
  0
VERTEX
  8
PLAN_1
  6
CONTINUOUS
 10
2.241783
 20
-3.504551
  0
VERTEX
  8
PLAN_1
  6
CONTINUOUS
 10
2.239528
 20
-3.502295
  0
VERTEX
  8
PLAN_1
  6
CONTINUOUS
 10
2.236819
 20
-3.500488
  0
VERTEX
  8
PLAN_1
  6
CONTINUOUS
 10
2.234114
 20
-3.498685
  0
VERTEX
  8
PLAN_1
  6
CONTINUOUS
 10
2.230508
 20
-3.497331
  0
VERTEX
  8
PLAN_1
  6
CONTINUOUS
 10
2.226445
 20
-3.495528
  0
VERTEX
  8
PLAN_1
  6
CONTINUOUS
 10
2.217425
 20
-3.492370
  0
VERTEX
  8
PLAN_1
  6
CONTINUOUS
 10
2.206150
 20
-3.489665
  0
VERTEX
  8
PLAN_1
  6
CONTINUOUS
 10
2.165551
 20
-3.480193
  0
VERTEX
  8
PLAN_1
  6
CONTINUOUS
 10
2.159689
 20
-3.478839
  0
VERTEX
  8
PLAN_1
  6
CONTINUOUS
 10
2.153374
 20
-3.476583
  0
VERTEX
  8
PLAN_1
  6
CONTINUOUS
 10
2.149768
 20
-3.475232
  0
VERTEX
  8
PLAN_1
  6
CONTINUOUS
 10
2.146157
 20
-3.473425
  0
VERTEX
  8
PLAN_1
  6
CONTINUOUS
 10
2.142547
 20
-3.471169
  0
VERTEX
  8
PLAN_1
  6
CONTINUOUS
 10
2.139390
 20
-3.468465
  0
VERTEX
  8
PLAN_1
  6
CONTINUOUS
 10
2.135783
 20
-3.465760
  0
VERTEX
  8
PLAN_1
  6
CONTINUOUS
 10
2.133075
 20
-3.462602
  0
VERTEX
  8
PLAN_1
  6
CONTINUOUS
 10
2.129917
 20
-3.458992
  0
VERTEX
  8
PLAN_1
  6
CONTINUOUS
 10
2.127665
 20
-3.454933
  0
VERTEX
  8
PLAN_1
  6
CONTINUOUS
 10
2.125858
 20
-3.450421
  0
VERTEX
  8
PLAN_1
  6
CONTINUOUS
 10
2.124055
 20
-3.445008
  0
VERTEX
  8
PLAN_1
  6
CONTINUOUS
 10
2.123154
 20
-3.439594
  0
VERTEX
  8
PLAN_1
  6
CONTINUOUS
 10
2.122701
 20
-3.433283
  0
VERTEX
  8
PLAN_1
  6
CONTINUOUS
 10
2.123154
 20
-3.427417
  0
VERTEX
  8
PLAN_1
  6
CONTINUOUS
 10
2.124055
 20
-3.421555
  0
VERTEX
  8
PLAN_1
  6
CONTINUOUS
 10
2.124957
 20
-3.416142
  0
VERTEX
  8
PLAN_1
  6
CONTINUOUS
 10
2.126760
 20
-3.410728
  0
VERTEX
  8
PLAN_1
  6
CONTINUOUS
 10
2.129016
 20
-3.405315
  0
VERTEX
  8
PLAN_1
  6
CONTINUOUS
 10
2.131724
 20
-3.400354
  0
VERTEX
  8
PLAN_1
  6
CONTINUOUS
 10
2.135331
 20
-3.395394
  0
VERTEX
  8
PLAN_1
  6
CONTINUOUS
 10
2.138941
 20
-3.390882
  0
VERTEX
  8
PLAN_1
  6
CONTINUOUS
 10
2.143453
 20
-3.386823
  0
VERTEX
  8
PLAN_1
  6
CONTINUOUS
 10
2.148413
 20
-3.383213
  0
VERTEX
  8
PLAN_1
  6
CONTINUOUS
 10
2.154276
 20
-3.379606
  0
VERTEX
  8
PLAN_1
  6
CONTINUOUS
 10
2.160142
 20
-3.376898
  0
VERTEX
  8
PLAN_1
  6
CONTINUOUS
 10
2.167358
 20
-3.374642
  0
VERTEX
  8
PLAN_1
  6
CONTINUOUS
 10
2.174575
 20
-3.373291
  0
VERTEX
  8
PLAN_1
  6
CONTINUOUS
 10
2.182693
 20
-3.371937
  0
VERTEX
  8
PLAN_1
  6
CONTINUOUS
 10
2.191264
 20
-3.371937
  0
VERTEX
  8
PLAN_1
  6
CONTINUOUS
 10
2.197579
 20
-3.371937
  0
VERTEX
  8
PLAN_1
  6
CONTINUOUS
 10
2.203894
 20
-3.372390
  0
VERTEX
  8
PLAN_1
  6
CONTINUOUS
 10
2.209307
 20
-3.372839
  0
VERTEX
  8
PLAN_1
  6
CONTINUOUS
 10
2.214720
 20
-3.373740
  0
VERTEX
  8
PLAN_1
  6
CONTINUOUS
 10
2.219681
 20
-3.374642
  0
VERTEX
  8
PLAN_1
  6
CONTINUOUS
 10
2.224193
 20
-3.375547
  0
VERTEX
  8
PLAN_1
  6
CONTINUOUS
 10
2.228701
 20
-3.376898
  0
VERTEX
  8
PLAN_1
  6
CONTINUOUS
 10
2.232760
 20
-3.378705
  0
VERTEX
  8
PLAN_1
  6
CONTINUOUS
 10
2.236370
 20
-3.380055
  0
VERTEX
  8
PLAN_1
  6
CONTINUOUS
 10
2.239976
 20
-3.381862
  0
VERTEX
  8
PLAN_1
  6
CONTINUOUS
 10
2.243134
 20
-3.384114
  0
VERTEX
  8
PLAN_1
  6
CONTINUOUS
 10
2.246291
 20
-3.385921
  0
VERTEX
  8
PLAN_1
  6
CONTINUOUS
 10
2.251705
 20
-3.390429
  0
VERTEX
  8
PLAN_1
  6
CONTINUOUS
 10
2.256217
 20
-3.395394
  0
VERTEX
  8
PLAN_1
  6
CONTINUOUS
 10
2.259374
 20
-3.400354
  0
VERTEX
  8
PLAN_1
  6
CONTINUOUS
 10
2.262531
 20
-3.405768
  0
VERTEX
  8
PLAN_1
  6
CONTINUOUS
 10
2.264787
 20
-3.410728
  0
VERTEX
  8
PLAN_1
  6
CONTINUOUS
 10
2.266142
 20
-3.416142
  0
VERTEX
  8
PLAN_1
  6
CONTINUOUS
 10
2.267492
 20
-3.421102
  0
VERTEX
  8
PLAN_1
  6
CONTINUOUS
 10
2.268394
 20
-3.426063
  0
VERTEX
  8
PLAN_1
  6
CONTINUOUS
 10
2.268846
 20
-3.431028
  0
VERTEX
  8
PLAN_1
  6
CONTINUOUS
 10
2.269299
 20
-3.435087
  0
VERTEX
  8
PLAN_1
  6
CONTINUOUS
 10
2.244039
 20
-3.435087
  0
SEQEND
  8
0
  0
POLYLINE
  8
PLAN_1
  6
CONTINUOUS
 66
     1
 40
0.008118
 41
0.008118
  0
VERTEX
  8
PLAN_1
  6
CONTINUOUS
 10
-1.087059
 20
0.765209
  0
VERTEX
  8
PLAN_1
  6
CONTINUOUS
 10
-1.087059
 20
3.351602
  0
VERTEX
  8
PLAN_1
  6
CONTINUOUS
 10
-2.186748
 20
3.351602
  0
VERTEX
  8
PLAN_1
  6
CONTINUOUS
 10
-2.186748
 20
0.765209
  0
VERTEX
  8
PLAN_1
  6
CONTINUOUS
 10
-1.087059
 20
0.765209
  0
SEQEND
  8
0
  0
POLYLINE
  8
PLAN_1
  6
CONTINUOUS
 66
     1
 40
0.008118
 41
0.008118
  0
VERTEX
  8
PLAN_1
  6
CONTINUOUS
 10
-2.132622
 20
1.029980
  0
VERTEX
  8
PLAN_1
  6
CONTINUOUS
 10
-2.132622
 20
1.030433
  0
VERTEX
  8
PLAN_1
  6
CONTINUOUS
 10
-2.132622
 20
2.904598
  0
VERTEX
  8
PLAN_1
  6
CONTINUOUS
 10
-2.186299
 20
2.904598
  0
VERTEX
  8
PLAN_1
  6
CONTINUOUS
 10
-2.186299
 20
1.030433
  0
VERTEX
  8
PLAN_1
  6
CONTINUOUS
 10
-2.186748
 20
1.029980
  0
VERTEX
  8
PLAN_1
  6
CONTINUOUS
 10
-2.132622
 20
1.029980
  0
SEQEND
  8
0
  0
POLYLINE
  8
PLAN_1
  6
CONTINUOUS
 66
     1
 40
0.008118
 41
0.008118
  0
VERTEX
  8
PLAN_1
  6
CONTINUOUS
 10
-2.078945
 20
1.029980
  0
VERTEX
  8
PLAN_1
  6
CONTINUOUS
 10
-2.078496
 20
1.030433
  0
VERTEX
  8
PLAN_1
  6
CONTINUOUS
 10
-2.078496
 20
2.619528
  0
VERTEX
  8
PLAN_1
  6
CONTINUOUS
 10
-2.132622
 20
2.619528
  0
VERTEX
  8
PLAN_1
  6
CONTINUOUS
 10
-2.132622
 20
1.030433
  0
VERTEX
  8
PLAN_1
  6
CONTINUOUS
 10
-2.132622
 20
1.029980
  0
VERTEX
  8
PLAN_1
  6
CONTINUOUS
 10
-2.078945
 20
1.029980
  0
SEQEND
  8
0
  0
POLYLINE
  8
PLAN_1
  6
CONTINUOUS
 66
     1
 40
0.008118
 41
0.008118
  0
VERTEX
  8
PLAN_1
  6
CONTINUOUS
 10
-2.186748
 20
2.904598
  0
VERTEX
  8
PLAN_1
  6
CONTINUOUS
 10
-1.290941
 20
2.904598
  0
VERTEX
  8
PLAN_1
  6
CONTINUOUS
 10
-1.290941
 20
3.351602
  0
SEQEND
  8
0
  0
POLYLINE
  8
PLAN_1
  6
CONTINUOUS
 66
     1
 40
0.008118
 41
0.008118
  0
VERTEX
  8
PLAN_1
  6
CONTINUOUS
 10
-2.186299
 20
2.582539
  0
VERTEX
  8
PLAN_1
  6
CONTINUOUS
 10
-2.186299
 20
2.806268
  0
VERTEX
  8
PLAN_1
  6
CONTINUOUS
 10
-2.267941
 20
2.806268
  0
VERTEX
  8
PLAN_1
  6
CONTINUOUS
 10
-2.267941
 20
2.582539
  0
VERTEX
  8
PLAN_1
  6
CONTINUOUS
 10
-2.186299
 20
2.582539
  0
SEQEND
  8
0
  0
POLYLINE
  8
PLAN_1
  6
CONTINUOUS
 66
     1
 40
0.008118
 41
0.008118
  0
VERTEX
  8
PLAN_1
  6
CONTINUOUS
 10
-1.148854
 20
0.704315
  0
VERTEX
  8
PLAN_1
  6
CONTINUOUS
 10
-1.148854
 20
0.765209
  0
VERTEX
  8
PLAN_1
  6
CONTINUOUS
 10
-2.044665
 20
0.765209
  0
VERTEX
  8
PLAN_1
  6
CONTINUOUS
 10
-2.044665
 20
0.704315
  0
VERTEX
  8
PLAN_1
  6
CONTINUOUS
 10
-1.148854
 20
0.704315
  0
SEQEND
  8
0
  0
POLYLINE
  8
PLAN_1
  6
CONTINUOUS
 66
     1
 40
0.008118
 41
0.008118
  0
VERTEX
  8
PLAN_1
  6
CONTINUOUS
 10
-1.583228
 20
0.967736
  0
VERTEX
  8
PLAN_1
  6
CONTINUOUS
 10
-1.562028
 20
0.968185
  0
VERTEX
  8
PLAN_1
  6
CONTINUOUS
 10
-1.541728
 20
0.969992
  0
VERTEX
  8
PLAN_1
  6
CONTINUOUS
 10
-1.520980
 20
0.972697
  0
VERTEX
  8
PLAN_1
  6
CONTINUOUS
 10
-1.501134
 20
0.976307
  0
VERTEX
  8
PLAN_1
  6
CONTINUOUS
 10
-1.481287
 20
0.980815
  0
VERTEX
  8
PLAN_1
  6
CONTINUOUS
 10
-1.461890
 20
0.986228
  0
VERTEX
  8
PLAN_1
  6
CONTINUOUS
 10
-1.442949
 20
0.992543
  0
VERTEX
  8
PLAN_1
  6
CONTINUOUS
 10
-1.424453
 20
0.999760
  0
VERTEX
  8
PLAN_1
  6
CONTINUOUS
 10
-1.406409
 20
1.007882
  0
VERTEX
  8
PLAN_1
  6
CONTINUOUS
 10
-1.389272
 20
1.016902
  0
VERTEX
  8
PLAN_1
  6
CONTINUOUS
 10
-1.372130
 20
1.026823
  0
VERTEX
  8
PLAN_1
  6
CONTINUOUS
 10
-1.355441
 20
1.037201
  0
VERTEX
  8
PLAN_1
  6
CONTINUOUS
 10
-1.339654
 20
1.048925
  0
VERTEX
  8
PLAN_1
  6
CONTINUOUS
 10
-1.324319
 20
1.060654
  0
VERTEX
  8
PLAN_1
  6
CONTINUOUS
 10
-1.309433
 20
1.073736
  0
VERTEX
  8
PLAN_1
  6
CONTINUOUS
 10
-1.295000
 20
1.087268
  0
VERTEX
  8
PLAN_1
  6
CONTINUOUS
 10
-1.281917
 20
1.101248
  0
VERTEX
  8
PLAN_1
  6
CONTINUOUS
 10
-1.268839
 20
1.116134
  0
VERTEX
  8
PLAN_1
  6
CONTINUOUS
 10
-1.256657
 20
1.131472
  0
VERTEX
  8
PLAN_1
  6
CONTINUOUS
 10
-1.245382
 20
1.147260
  0
VERTEX
  8
PLAN_1
  6
CONTINUOUS
 10
-1.235008
 20
1.163949
  0
VERTEX
  8
PLAN_1
  6
CONTINUOUS
 10
-1.225083
 20
1.181087
  0
VERTEX
  8
PLAN_1
  6
CONTINUOUS
 10
-1.216063
 20
1.198681
  0
VERTEX
  8
PLAN_1
  6
CONTINUOUS
 10
-1.207945
 20
1.216720
  0
VERTEX
  8
PLAN_1
  6
CONTINUOUS
 10
-1.200728
 20
1.235217
  0
VERTEX
  8
PLAN_1
  6
CONTINUOUS
 10
-1.194413
 20
1.254161
  0
VERTEX
  8
PLAN_1
  6
CONTINUOUS
 10
-1.188547
 20
1.273555
  0
VERTEX
  8
PLAN_1
  6
CONTINUOUS
 10
-1.184035
 20
1.292953
  0
VERTEX
  8
PLAN_1
  6
CONTINUOUS
 10
-1.180429
 20
1.313248
  0
VERTEX
  8
PLAN_1
  6
CONTINUOUS
 10
-1.178173
 20
1.333547
  0
VERTEX
  8
PLAN_1
  6
CONTINUOUS
 10
-1.176370
 20
1.354295
  0
VERTEX
  8
PLAN_1
  6
CONTINUOUS
 10
-1.175917
 20
1.375043
  0
VERTEX
  8
PLAN_1
  6
CONTINUOUS
 10
-1.176370
 20
1.396244
  0
VERTEX
  8
PLAN_1
  6
CONTINUOUS
 10
-1.178173
 20
1.416992
  0
VERTEX
  8
PLAN_1
  6
CONTINUOUS
 10
-1.180429
 20
1.437291
  0
VERTEX
  8
PLAN_1
  6
CONTINUOUS
 10
-1.184035
 20
1.457138
  0
VERTEX
  8
PLAN_1
  6
CONTINUOUS
 10
-1.188547
 20
1.476984
  0
VERTEX
  8
PLAN_1
  6
CONTINUOUS
 10
-1.194413
 20
1.496382
  0
VERTEX
  8
PLAN_1
  6
CONTINUOUS
 10
-1.200728
 20
1.515327
  0
VERTEX
  8
PLAN_1
  6
CONTINUOUS
 10
-1.207945
 20
1.533819
  0
VERTEX
  8
PLAN_1
  6
CONTINUOUS
 10
-1.216063
 20
1.551862
  0
VERTEX
  8
PLAN_1
  6
CONTINUOUS
 10
-1.225083
 20
1.569453
  0
VERTEX
  8
PLAN_1
  6
CONTINUOUS
 10
-1.235008
 20
1.586142
  0
VERTEX
  8
PLAN_1
  6
CONTINUOUS
 10
-1.245382
 20
1.602831
  0
VERTEX
  8
PLAN_1
  6
CONTINUOUS
 10
-1.256657
 20
1.618618
  0
VERTEX
  8
PLAN_1
  6
CONTINUOUS
 10
-1.268839
 20
1.634406
  0
VERTEX
  8
PLAN_1
  6
CONTINUOUS
 10
-1.281917
 20
1.648839
  0
VERTEX
  8
PLAN_1
  6
CONTINUOUS
 10
-1.295000
 20
1.663276
  0
VERTEX
  8
PLAN_1
  6
CONTINUOUS
 10
-1.309433
 20
1.676807
  0
VERTEX
  8
PLAN_1
  6
CONTINUOUS
 10
-1.324319
 20
1.689437
  0
VERTEX
  8
PLAN_1
  6
CONTINUOUS
 10
-1.339654
 20
1.701614
  0
VERTEX
  8
PLAN_1
  6
CONTINUOUS
 10
-1.355441
 20
1.712890
  0
VERTEX
  8
PLAN_1
  6
CONTINUOUS
 10
-1.372130
 20
1.723264
  0
VERTEX
  8
PLAN_1
  6
CONTINUOUS
 10
-1.389272
 20
1.733189
  0
VERTEX
  8
PLAN_1
  6
CONTINUOUS
 10
-1.406409
 20
1.742209
  0
VERTEX
  8
PLAN_1
  6
CONTINUOUS
 10
-1.424453
 20
1.750331
  0
VERTEX
  8
PLAN_1
  6
CONTINUOUS
 10
-1.442949
 20
1.757547
  0
VERTEX
  8
PLAN_1
  6
CONTINUOUS
 10
-1.461890
 20
1.764311
  0
VERTEX
  8
PLAN_1
  6
CONTINUOUS
 10
-1.481287
 20
1.769724
  0
VERTEX
  8
PLAN_1
  6
CONTINUOUS
 10
-1.501134
 20
1.774236
  0
VERTEX
  8
PLAN_1
  6
CONTINUOUS
 10
-1.520980
 20
1.777843
  0
VERTEX
  8
PLAN_1
  6
CONTINUOUS
 10
-1.541728
 20
1.780551
  0
VERTEX
  8
PLAN_1
  6
CONTINUOUS
 10
-1.562028
 20
1.781902
  0
VERTEX
  8
PLAN_1
  6
CONTINUOUS
 10
-1.583228
 20
1.782354
  0
VERTEX
  8
PLAN_1
  6
CONTINUOUS
 10
-1.603976
 20
1.781902
  0
VERTEX
  8
PLAN_1
  6
CONTINUOUS
 10
-1.624724
 20
1.780551
  0
VERTEX
  8
PLAN_1
  6
CONTINUOUS
 10
-1.645024
 20
1.777843
  0
VERTEX
  8
PLAN_1
  6
CONTINUOUS
 10
-1.665323
 20
1.774236
  0
VERTEX
  8
PLAN_1
  6
CONTINUOUS
 10
-1.685169
 20
1.769724
  0
VERTEX
  8
PLAN_1
  6
CONTINUOUS
 10
-1.704114
 20
1.764311
  0
VERTEX
  8
PLAN_1
  6
CONTINUOUS
 10
-1.723055
 20
1.757547
  0
VERTEX
  8
PLAN_1
  6
CONTINUOUS
 10
-1.741551
 20
1.750331
  0
VERTEX
  8
PLAN_1
  6
CONTINUOUS
 10
-1.759594
 20
1.742209
  0
VERTEX
  8
PLAN_1
  6
CONTINUOUS
 10
-1.777185
 20
1.733189
  0
VERTEX
  8
PLAN_1
  6
CONTINUOUS
 10
-1.794323
 20
1.723264
  0
VERTEX
  8
PLAN_1
  6
CONTINUOUS
 10
-1.811016
 20
1.712890
  0
VERTEX
  8
PLAN_1
  6
CONTINUOUS
 10
-1.826803
 20
1.701614
  0
VERTEX
  8
PLAN_1
  6
CONTINUOUS
 10
-1.842138
 20
1.689437
  0
VERTEX
  8
PLAN_1
  6
CONTINUOUS
 10
-1.857024
 20
1.676807
  0
VERTEX
  8
PLAN_1
  6
CONTINUOUS
 10
-1.871004
 20
1.663276
  0
VERTEX
  8
PLAN_1
  6
CONTINUOUS
 10
-1.884535
 20
1.648839
  0
VERTEX
  8
PLAN_1
  6
CONTINUOUS
 10
-1.897618
 20
1.634406
  0
VERTEX
  8
PLAN_1
  6
CONTINUOUS
 10
-1.909795
 20
1.618618
  0
VERTEX
  8
PLAN_1
  6
CONTINUOUS
 10
-1.921075
 20
1.602831
  0
VERTEX
  8
PLAN_1
  6
CONTINUOUS
 10
-1.931449
 20
1.586142
  0
VERTEX
  8
PLAN_1
  6
CONTINUOUS
 10
-1.941370
 20
1.569453
  0
VERTEX
  8
PLAN_1
  6
CONTINUOUS
 10
-1.950394
 20
1.551862
  0
VERTEX
  8
PLAN_1
  6
CONTINUOUS
 10
-1.958512
 20
1.533819
  0
VERTEX
  8
PLAN_1
  6
CONTINUOUS
 10
-1.965728
 20
1.515327
  0
VERTEX
  8
PLAN_1
  6
CONTINUOUS
 10
-1.972043
 20
1.496382
  0
VERTEX
  8
PLAN_1
  6
CONTINUOUS
 10
-1.977906
 20
1.476984
  0
VERTEX
  8
PLAN_1
  6
CONTINUOUS
 10
-1.982417
 20
1.457138
  0
VERTEX
  8
PLAN_1
  6
CONTINUOUS
 10
-1.986028
 20
1.437291
  0
VERTEX
  8
PLAN_1
  6
CONTINUOUS
 10
-1.988283
 20
1.416992
  0
VERTEX
  8
PLAN_1
  6
CONTINUOUS
 10
-1.990087
 20
1.396244
  0
VERTEX
  8
PLAN_1
  6
CONTINUOUS
 10
-1.990535
 20
1.375043
  0
VERTEX
  8
PLAN_1
  6
CONTINUOUS
 10
-1.990087
 20
1.354295
  0
VERTEX
  8
PLAN_1
  6
CONTINUOUS
 10
-1.988283
 20
1.333547
  0
VERTEX
  8
PLAN_1
  6
CONTINUOUS
 10
-1.986028
 20
1.313248
  0
VERTEX
  8
PLAN_1
  6
CONTINUOUS
 10
-1.982417
 20
1.292953
  0
VERTEX
  8
PLAN_1
  6
CONTINUOUS
 10
-1.977906
 20
1.273555
  0
VERTEX
  8
PLAN_1
  6
CONTINUOUS
 10
-1.972043
 20
1.254161
  0
VERTEX
  8
PLAN_1
  6
CONTINUOUS
 10
-1.965728
 20
1.235217
  0
VERTEX
  8
PLAN_1
  6
CONTINUOUS
 10
-1.958512
 20
1.216720
  0
VERTEX
  8
PLAN_1
  6
CONTINUOUS
 10
-1.950394
 20
1.198681
  0
VERTEX
  8
PLAN_1
  6
CONTINUOUS
 10
-1.941370
 20
1.181087
  0
VERTEX
  8
PLAN_1
  6
CONTINUOUS
 10
-1.931449
 20
1.163949
  0
VERTEX
  8
PLAN_1
  6
CONTINUOUS
 10
-1.921075
 20
1.147260
  0
VERTEX
  8
PLAN_1
  6
CONTINUOUS
 10
-1.909795
 20
1.131472
  0
VERTEX
  8
PLAN_1
  6
CONTINUOUS
 10
-1.897618
 20
1.116134
  0
VERTEX
  8
PLAN_1
  6
CONTINUOUS
 10
-1.884535
 20
1.101248
  0
VERTEX
  8
PLAN_1
  6
CONTINUOUS
 10
-1.871004
 20
1.087268
  0
VERTEX
  8
PLAN_1
  6
CONTINUOUS
 10
-1.857024
 20
1.073736
  0
VERTEX
  8
PLAN_1
  6
CONTINUOUS
 10
-1.842138
 20
1.060654
  0
VERTEX
  8
PLAN_1
  6
CONTINUOUS
 10
-1.826803
 20
1.048925
  0
VERTEX
  8
PLAN_1
  6
CONTINUOUS
 10
-1.811016
 20
1.037201
  0
VERTEX
  8
PLAN_1
  6
CONTINUOUS
 10
-1.794323
 20
1.026823
  0
VERTEX
  8
PLAN_1
  6
CONTINUOUS
 10
-1.777185
 20
1.016902
  0
VERTEX
  8
PLAN_1
  6
CONTINUOUS
 10
-1.759594
 20
1.007882
  0
VERTEX
  8
PLAN_1
  6
CONTINUOUS
 10
-1.741551
 20
0.999760
  0
VERTEX
  8
PLAN_1
  6
CONTINUOUS
 10
-1.723055
 20
0.992543
  0
VERTEX
  8
PLAN_1
  6
CONTINUOUS
 10
-1.704114
 20
0.986228
  0
VERTEX
  8
PLAN_1
  6
CONTINUOUS
 10
-1.685169
 20
0.980815
  0
VERTEX
  8
PLAN_1
  6
CONTINUOUS
 10
-1.665323
 20
0.976307
  0
VERTEX
  8
PLAN_1
  6
CONTINUOUS
 10
-1.645024
 20
0.972697
  0
VERTEX
  8
PLAN_1
  6
CONTINUOUS
 10
-1.624724
 20
0.969992
  0
VERTEX
  8
PLAN_1
  6
CONTINUOUS
 10
-1.603976
 20
0.968185
  0
VERTEX
  8
PLAN_1
  6
CONTINUOUS
 10
-1.583228
 20
0.967736
  0
SEQEND
  8
0
  0
POLYLINE
  8
PLAN_1
  6
CONTINUOUS
 66
     1
 40
0.006764
 41
0.006764
  0
VERTEX
  8
PLAN_1
  6
CONTINUOUS
 10
-1.613902
 20
1.344823
  0
VERTEX
  8
PLAN_1
  6
CONTINUOUS
 10
-1.908894
 20
1.344823
  0
VERTEX
  8
PLAN_1
  6
CONTINUOUS
 10
-1.908894
 20
1.405717
  0
VERTEX
  8
PLAN_1
  6
CONTINUOUS
 10
-1.613902
 20
1.405717
  0
VERTEX
  8
PLAN_1
  6
CONTINUOUS
 10
-1.613902
 20
1.701161
  0
VERTEX
  8
PLAN_1
  6
CONTINUOUS
 10
-1.552555
 20
1.701161
  0
VERTEX
  8
PLAN_1
  6
CONTINUOUS
 10
-1.552555
 20
1.405717
  0
VERTEX
  8
PLAN_1
  6
CONTINUOUS
 10
-1.257559
 20
1.405717
  0
VERTEX
  8
PLAN_1
  6
CONTINUOUS
 10
-1.257559
 20
1.344823
  0
VERTEX
  8
PLAN_1
  6
CONTINUOUS
 10
-1.552555
 20
1.344823
  0
VERTEX
  8
PLAN_1
  6
CONTINUOUS
 10
-1.552555
 20
1.049378
  0
VERTEX
  8
PLAN_1
  6
CONTINUOUS
 10
-1.613902
 20
1.049378
  0
VERTEX
  8
PLAN_1
  6
CONTINUOUS
 10
-1.613902
 20
1.344823
  0
SEQEND
  8
0
  0
POLYLINE
  8
PLAN_1
  6
CONTINUOUS
 66
     1
 40
0.008118
 41
0.008118
  0
VERTEX
  8
PLAN_1
  6
CONTINUOUS
 10
-1.860630
 20
2.945646
  0
VERTEX
  8
PLAN_1
  6
CONTINUOUS
 10
-1.860630
 20
3.169370
  0
VERTEX
  8
PLAN_1
  6
CONTINUOUS
 10
-2.145701
 20
3.169370
  0
VERTEX
  8
PLAN_1
  6
CONTINUOUS
 10
-2.145701
 20
2.945646
  0
VERTEX
  8
PLAN_1
  6
CONTINUOUS
 10
-1.860630
 20
2.945646
  0
SEQEND
  8
0
  0
POLYLINE
  8
PLAN_1
  6
CONTINUOUS
 66
     1
 40
0.004059
 41
0.004059
  0
VERTEX
  8
PLAN_1
  6
CONTINUOUS
 10
-0.965724
 20
3.171177
  0
VERTEX
  8
PLAN_1
  6
CONTINUOUS
 10
-1.439339
 20
3.171177
  0
SEQEND
  8
0
  0
POLYLINE
  8
PLAN_1
 62
     2
  6
CONTINUOUS
 66
     1
 40
0.004059
 41
0.004059
  0
VERTEX
  8
PLAN_1
 62
     2
  6
CONTINUOUS
 10
-1.261169
 20
3.509020
  0
VERTEX
  8
PLAN_1
 62
     2
  6
CONTINUOUS
 10
-1.116831
 20
3.509020
  0
SEQEND
  8
0
  0
SOLID
  8
PLAN_1
 62
     2
 10
-1.087059
 20
3.509020
 11
-1.146150
 21
3.524807
 12
-1.087059
 22
3.509020
 13
-1.146150
 23
3.493685
  0
POLYLINE
  8
PLAN_1
 62
     2
  6
CONTINUOUS
 66
     1
 40
0.003000
 41
0.003000
  0
VERTEX
  8
PLAN_1
 62
     2
  6
CONTINUOUS
 10
-1.087059
 20
3.509020
  0
VERTEX
  8
PLAN_1
 62
     2
  6
CONTINUOUS
 10
-1.146150
 20
3.524807
  0
VERTEX
  8
PLAN_1
 62
     2
  6
CONTINUOUS
 10
-1.146150
 20
3.493685
  0
VERTEX
  8
PLAN_1
 62
     2
  6
CONTINUOUS
 10
-1.087059
 20
3.509020
  0
SEQEND
  8
0
  0
SOLID
  8
PLAN_1
 62
     2
 10
-1.290941
 20
3.509020
 11
-1.231850
 21
3.524807
 12
-1.290941
 22
3.509020
 13
-1.231850
 23
3.493685
  0
POLYLINE
  8
PLAN_1
 62
     2
  6
CONTINUOUS
 66
     1
 40
0.003000
 41
0.003000
  0
VERTEX
  8
PLAN_1
 62
     2
  6
CONTINUOUS
 10
-1.290941
 20
3.509020
  0
VERTEX
  8
PLAN_1
 62
     2
  6
CONTINUOUS
 10
-1.231850
 20
3.524807
  0
VERTEX
  8
PLAN_1
 62
     2
  6
CONTINUOUS
 10
-1.231850
 20
3.493685
  0
VERTEX
  8
PLAN_1
 62
     2
  6
CONTINUOUS
 10
-1.290941
 20
3.509020
  0
SEQEND
  8
0
  0
POLYLINE
  8
PLAN_1
 62
     2
  6
CONTINUOUS
 66
     1
 40
0.003000
 41
0.003000
  0
VERTEX
  8
PLAN_1
 62
     2
  6
CONTINUOUS
 10
-1.174114
 20
3.586602
  0
VERTEX
  8
PLAN_1
 62
     2
  6
CONTINUOUS
 10
-1.174563
 20
3.588858
  0
VERTEX
  8
PLAN_1
 62
     2
  6
CONTINUOUS
 10
-1.175469
 20
3.591114
  0
VERTEX
  8
PLAN_1
 62
     2
  6
CONTINUOUS
 10
-1.176370
 20
3.592917
  0
VERTEX
  8
PLAN_1
 62
     2
  6
CONTINUOUS
 10
-1.177720
 20
3.594724
  0
VERTEX
  8
PLAN_1
 62
     2
  6
CONTINUOUS
 10
-1.179528
 20
3.596075
  0
VERTEX
  8
PLAN_1
 62
     2
  6
CONTINUOUS
 10
-1.181331
 20
3.596980
  0
VERTEX
  8
PLAN_1
 62
     2
  6
CONTINUOUS
 10
-1.183587
 20
3.597429
  0
VERTEX
  8
PLAN_1
 62
     2
  6
CONTINUOUS
 10
-1.186744
 20
3.597882
  0
VERTEX
  8
PLAN_1
 62
     2
  6
CONTINUOUS
 10
-1.189000
 20
3.597429
  0
VERTEX
  8
PLAN_1
 62
     2
  6
CONTINUOUS
 10
-1.191256
 20
3.596980
  0
VERTEX
  8
PLAN_1
 62
     2
  6
CONTINUOUS
 10
-1.193508
 20
3.596075
  0
VERTEX
  8
PLAN_1
 62
     2
  6
CONTINUOUS
 10
-1.195315
 20
3.594724
  0
VERTEX
  8
PLAN_1
 62
     2
  6
CONTINUOUS
 10
-1.197118
 20
3.592917
  0
VERTEX
  8
PLAN_1
 62
     2
  6
CONTINUOUS
 10
-1.198472
 20
3.591114
  0
VERTEX
  8
PLAN_1
 62
     2
  6
CONTINUOUS
 10
-1.199374
 20
3.589311
  0
VERTEX
  8
PLAN_1
 62
     2
  6
CONTINUOUS
 10
-1.200728
 20
3.587055
  0
VERTEX
  8
PLAN_1
 62
     2
  6
CONTINUOUS
 10
-1.202079
 20
3.582543
  0
VERTEX
  8
PLAN_1
 62
     2
  6
CONTINUOUS
 10
-1.203433
 20
3.578035
  0
VERTEX
  8
PLAN_1
 62
     2
  6
CONTINUOUS
 10
-1.203886
 20
3.573976
  0
VERTEX
  8
PLAN_1
 62
     2
  6
CONTINUOUS
 10
-1.203886
 20
3.570819
  0
VERTEX
  8
PLAN_1
 62
     2
  6
CONTINUOUS
 10
-1.203886
 20
3.570366
  0
VERTEX
  8
PLAN_1
 62
     2
  6
CONTINUOUS
 10
-1.202531
 20
3.572169
  0
VERTEX
  8
PLAN_1
 62
     2
  6
CONTINUOUS
 10
-1.201630
 20
3.573524
  0
VERTEX
  8
PLAN_1
 62
     2
  6
CONTINUOUS
 10
-1.199823
 20
3.574878
  0
VERTEX
  8
PLAN_1
 62
     2
  6
CONTINUOUS
 10
-1.198020
 20
3.576681
  0
VERTEX
  8
PLAN_1
 62
     2
  6
CONTINUOUS
 10
-1.195764
 20
3.577583
  0
VERTEX
  8
PLAN_1
 62
     2
  6
CONTINUOUS
 10
-1.193059
 20
3.578484
  0
VERTEX
  8
PLAN_1
 62
     2
  6
CONTINUOUS
 10
-1.189902
 20
3.579386
  0
VERTEX
  8
PLAN_1
 62
     2
  6
CONTINUOUS
 10
-1.186291
 20
3.579386
  0
VERTEX
  8
PLAN_1
 62
     2
  6
CONTINUOUS
 10
-1.182685
 20
3.579386
  0
VERTEX
  8
PLAN_1
 62
     2
  6
CONTINUOUS
 10
-1.179075
 20
3.578484
  0
VERTEX
  8
PLAN_1
 62
     2
  6
CONTINUOUS
 10
-1.175016
 20
3.576681
  0
VERTEX
  8
PLAN_1
 62
     2
  6
CONTINUOUS
 10
-1.171406
 20
3.574425
  0
VERTEX
  8
PLAN_1
 62
     2
  6
CONTINUOUS
 10
-1.170055
 20
3.573071
  0
VERTEX
  8
PLAN_1
 62
     2
  6
CONTINUOUS
 10
-1.168252
 20
3.571268
  0
VERTEX
  8
PLAN_1
 62
     2
  6
CONTINUOUS
 10
-1.166898
 20
3.569465
  0
VERTEX
  8
PLAN_1
 62
     2
  6
CONTINUOUS
 10
-1.165543
 20
3.567209
  0
VERTEX
  8
PLAN_1
 62
     2
  6
CONTINUOUS
 10
-1.164642
 20
3.564953
  0
VERTEX
  8
PLAN_1
 62
     2
  6
CONTINUOUS
 10
-1.164189
 20
3.562248
  0
VERTEX
  8
PLAN_1
 62
     2
  6
CONTINUOUS
 10
-1.163740
 20
3.559539
  0
VERTEX
  8
PLAN_1
 62
     2
  6
CONTINUOUS
 10
-1.163287
 20
3.556382
  0
VERTEX
  8
PLAN_1
 62
     2
  6
CONTINUOUS
 10
-1.163740
 20
3.553677
  0
VERTEX
  8
PLAN_1
 62
     2
  6
CONTINUOUS
 10
-1.163740
 20
3.550969
  0
VERTEX
  8
PLAN_1
 62
     2
  6
CONTINUOUS
 10
-1.164189
 20
3.548717
  0
VERTEX
  8
PLAN_1
 62
     2
  6
CONTINUOUS
 10
-1.165094
 20
3.546461
  0
VERTEX
  8
PLAN_1
 62
     2
  6
CONTINUOUS
 10
-1.165996
 20
3.544205
  0
VERTEX
  8
PLAN_1
 62
     2
  6
CONTINUOUS
 10
-1.167346
 20
3.541949
  0
VERTEX
  8
PLAN_1
 62
     2
  6
CONTINUOUS
 10
-1.168701
 20
3.540146
  0
VERTEX
  8
PLAN_1
 62
     2
  6
CONTINUOUS
 10
-1.170504
 20
3.537890
  0
VERTEX
  8
PLAN_1
 62
     2
  6
CONTINUOUS
 10
-1.171858
 20
3.536535
  0
VERTEX
  8
PLAN_1
 62
     2
  6
CONTINUOUS
 10
-1.173661
 20
3.535185
  0
VERTEX
  8
PLAN_1
 62
     2
  6
CONTINUOUS
 10
-1.175469
 20
3.533831
  0
VERTEX
  8
PLAN_1
 62
     2
  6
CONTINUOUS
 10
-1.177272
 20
3.532929
  0
VERTEX
  8
PLAN_1
 62
     2
  6
CONTINUOUS
 10
-1.179528
 20
3.532028
  0
VERTEX
  8
PLAN_1
 62
     2
  6
CONTINUOUS
 10
-1.182232
 20
3.531575
  0
VERTEX
  8
PLAN_1
 62
     2
  6
CONTINUOUS
 10
-1.185390
 20
3.531122
  0
VERTEX
  8
PLAN_1
 62
     2
  6
CONTINUOUS
 10
-1.189000
 20
3.530673
  0
VERTEX
  8
PLAN_1
 62
     2
  6
CONTINUOUS
 10
-1.191256
 20
3.531122
  0
VERTEX
  8
PLAN_1
 62
     2
  6
CONTINUOUS
 10
-1.193508
 20
3.531575
  0
VERTEX
  8
PLAN_1
 62
     2
  6
CONTINUOUS
 10
-1.196217
 20
3.532028
  0
VERTEX
  8
PLAN_1
 62
     2
  6
CONTINUOUS
 10
-1.198472
 20
3.532929
  0
VERTEX
  8
PLAN_1
 62
     2
  6
CONTINUOUS
 10
-1.201177
 20
3.534732
  0
VERTEX
  8
PLAN_1
 62
     2
  6
CONTINUOUS
 10
-1.203433
 20
3.536535
  0
VERTEX
  8
PLAN_1
 62
     2
  6
CONTINUOUS
 10
-1.205689
 20
3.538791
  0
VERTEX
  8
PLAN_1
 62
     2
  6
CONTINUOUS
 10
-1.207945
 20
3.541500
  0
VERTEX
  8
PLAN_1
 62
     2
  6
CONTINUOUS
 10
-1.209295
 20
3.544205
  0
VERTEX
  8
PLAN_1
 62
     2
  6
CONTINUOUS
 10
-1.210650
 20
3.546909
  0
VERTEX
  8
PLAN_1
 62
     2
  6
CONTINUOUS
 10
-1.211551
 20
3.550067
  0
VERTEX
  8
PLAN_1
 62
     2
  6
CONTINUOUS
 10
-1.212004
 20
3.553224
  0
VERTEX
  8
PLAN_1
 62
     2
  6
CONTINUOUS
 10
-1.212906
 20
3.556382
  0
VERTEX
  8
PLAN_1
 62
     2
  6
CONTINUOUS
 10
-1.212906
 20
3.559992
  0
VERTEX
  8
PLAN_1
 62
     2
  6
CONTINUOUS
 10
-1.213354
 20
3.563150
  0
VERTEX
  8
PLAN_1
 62
     2
  6
CONTINUOUS
 10
-1.213354
 20
3.566756
  0
VERTEX
  8
PLAN_1
 62
     2
  6
CONTINUOUS
 10
-1.212906
 20
3.573071
  0
VERTEX
  8
PLAN_1
 62
     2
  6
CONTINUOUS
 10
-1.212453
 20
3.579839
  0
VERTEX
  8
PLAN_1
 62
     2
  6
CONTINUOUS
 10
-1.211551
 20
3.582996
  0
VERTEX
  8
PLAN_1
 62
     2
  6
CONTINUOUS
 10
-1.210650
 20
3.586154
  0
VERTEX
  8
PLAN_1
 62
     2
  6
CONTINUOUS
 10
-1.209295
 20
3.589311
  0
VERTEX
  8
PLAN_1
 62
     2
  6
CONTINUOUS
 10
-1.207945
 20
3.592469
  0
VERTEX
  8
PLAN_1
 62
     2
  6
CONTINUOUS
 10
-1.206591
 20
3.595173
  0
VERTEX
  8
PLAN_1
 62
     2
  6
CONTINUOUS
 10
-1.204335
 20
3.597882
  0
VERTEX
  8
PLAN_1
 62
     2
  6
CONTINUOUS
 10
-1.202079
 20
3.600138
  0
VERTEX
  8
PLAN_1
 62
     2
  6
CONTINUOUS
 10
-1.199823
 20
3.601941
  0
VERTEX
  8
PLAN_1
 62
     2
  6
CONTINUOUS
 10
-1.197118
 20
3.603744
  0
VERTEX
  8
PLAN_1
 62
     2
  6
CONTINUOUS
 10
-1.193961
 20
3.605098
  0
VERTEX
  8
PLAN_1
 62
     2
  6
CONTINUOUS
 10
-1.190350
 20
3.605547
  0
VERTEX
  8
PLAN_1
 62
     2
  6
CONTINUOUS
 10
-1.186291
 20
3.606000
  0
VERTEX
  8
PLAN_1
 62
     2
  6
CONTINUOUS
 10
-1.183134
 20
3.605547
  0
VERTEX
  8
PLAN_1
 62
     2
  6
CONTINUOUS
 10
-1.179528
 20
3.605098
  0
VERTEX
  8
PLAN_1
 62
     2
  6
CONTINUOUS
 10
-1.175917
 20
3.603744
  0
VERTEX
  8
PLAN_1
 62
     2
  6
CONTINUOUS
 10
-1.172760
 20
3.601941
  0
VERTEX
  8
PLAN_1
 62
     2
  6
CONTINUOUS
 10
-1.170055
 20
3.599232
  0
VERTEX
  8
PLAN_1
 62
     2
  6
CONTINUOUS
 10
-1.167346
 20
3.596075
  0
VERTEX
  8
PLAN_1
 62
     2
  6
CONTINUOUS
 10
-1.166445
 20
3.593823
  0
VERTEX
  8
PLAN_1
 62
     2
  6
CONTINUOUS
 10
-1.165996
 20
3.591567
  0
VERTEX
  8
PLAN_1
 62
     2
  6
CONTINUOUS
 10
-1.165094
 20
3.589311
  0
VERTEX
  8
PLAN_1
 62
     2
  6
CONTINUOUS
 10
-1.165094
 20
3.586602
  0
VERTEX
  8
PLAN_1
 62
     2
  6
CONTINUOUS
 10
-1.174114
 20
3.586602
  0
SEQEND
  8
0
  0
POLYLINE
  8
PLAN_1
 62
     2
  6
CONTINUOUS
 66
     1
 40
0.003000
 41
0.003000
  0
VERTEX
  8
PLAN_1
 62
     2
  6
CONTINUOUS
 10
-1.187193
 20
3.539244
  0
VERTEX
  8
PLAN_1
 62
     2
  6
CONTINUOUS
 10
-1.184035
 20
3.539244
  0
VERTEX
  8
PLAN_1
 62
     2
  6
CONTINUOUS
 10
-1.181331
 20
3.540146
  0
VERTEX
  8
PLAN_1
 62
     2
  6
CONTINUOUS
 10
-1.179075
 20
3.541949
  0
VERTEX
  8
PLAN_1
 62
     2
  6
CONTINUOUS
 10
-1.176819
 20
3.543752
  0
VERTEX
  8
PLAN_1
 62
     2
  6
CONTINUOUS
 10
-1.175016
 20
3.546008
  0
VERTEX
  8
PLAN_1
 62
     2
  6
CONTINUOUS
 10
-1.174114
 20
3.549165
  0
VERTEX
  8
PLAN_1
 62
     2
  6
CONTINUOUS
 10
-1.173213
 20
3.552323
  0
VERTEX
  8
PLAN_1
 62
     2
  6
CONTINUOUS
 10
-1.172760
 20
3.555933
  0
VERTEX
  8
PLAN_1
 62
     2
  6
CONTINUOUS
 10
-1.173213
 20
3.558189
  0
VERTEX
  8
PLAN_1
 62
     2
  6
CONTINUOUS
 10
-1.173661
 20
3.560894
  0
VERTEX
  8
PLAN_1
 62
     2
  6
CONTINUOUS
 10
-1.174563
 20
3.563598
  0
VERTEX
  8
PLAN_1
 62
     2
  6
CONTINUOUS
 10
-1.175917
 20
3.565854
  0
VERTEX
  8
PLAN_1
 62
     2
  6
CONTINUOUS
 10
-1.178173
 20
3.568110
  0
VERTEX
  8
PLAN_1
 62
     2
  6
CONTINUOUS
 10
-1.180429
 20
3.569913
  0
VERTEX
  8
PLAN_1
 62
     2
  6
CONTINUOUS
 10
-1.183587
 20
3.570819
  0
VERTEX
  8
PLAN_1
 62
     2
  6
CONTINUOUS
 10
-1.187646
 20
3.571268
  0
VERTEX
  8
PLAN_1
 62
     2
  6
CONTINUOUS
 10
-1.191256
 20
3.570819
  0
VERTEX
  8
PLAN_1
 62
     2
  6
CONTINUOUS
 10
-1.194413
 20
3.569913
  0
VERTEX
  8
PLAN_1
 62
     2
  6
CONTINUOUS
 10
-1.196665
 20
3.568563
  0
VERTEX
  8
PLAN_1
 62
     2
  6
CONTINUOUS
 10
-1.198921
 20
3.566307
  0
VERTEX
  8
PLAN_1
 62
     2
  6
CONTINUOUS
 10
-1.200728
 20
3.564051
  0
VERTEX
  8
PLAN_1
 62
     2
  6
CONTINUOUS
 10
-1.201630
 20
3.561346
  0
VERTEX
  8
PLAN_1
 62
     2
  6
CONTINUOUS
 10
-1.202531
 20
3.558638
  0
VERTEX
  8
PLAN_1
 62
     2
  6
CONTINUOUS
 10
-1.202531
 20
3.555480
  0
VERTEX
  8
PLAN_1
 62
     2
  6
CONTINUOUS
 10
-1.202531
 20
3.552323
  0
VERTEX
  8
PLAN_1
 62
     2
  6
CONTINUOUS
 10
-1.201630
 20
3.549618
  0
VERTEX
  8
PLAN_1
 62
     2
  6
CONTINUOUS
 10
-1.200728
 20
3.546909
  0
VERTEX
  8
PLAN_1
 62
     2
  6
CONTINUOUS
 10
-1.198921
 20
3.544205
  0
VERTEX
  8
PLAN_1
 62
     2
  6
CONTINUOUS
 10
-1.196665
 20
3.541949
  0
VERTEX
  8
PLAN_1
 62
     2
  6
CONTINUOUS
 10
-1.194413
 20
3.540594
  0
VERTEX
  8
PLAN_1
 62
     2
  6
CONTINUOUS
 10
-1.190803
 20
3.539693
  0
VERTEX
  8
PLAN_1
 62
     2
  6
CONTINUOUS
 10
-1.187193
 20
3.539244
  0
SEQEND
  8
0
  0
POLYLINE
  8
PLAN_1
 62
     2
  6
CONTINUOUS
 66
     1
 40
0.004059
 41
0.004059
  0
VERTEX
  8
PLAN_1
 62
     2
  6
CONTINUOUS
 10
-0.930091
 20
0.736339
  0
VERTEX
  8
PLAN_1
 62
     2
  6
CONTINUOUS
 10
-0.930091
 20
3.323185
  0
SEQEND
  8
0
  0
SOLID
  8
PLAN_1
 62
     2
 10
-0.930091
 20
3.352504
 11
-0.945878
 21
3.293413
 12
-0.930091
 22
3.352504
 13
-0.914303
 23
3.293413
  0
POLYLINE
  8
PLAN_1
 62
     2
  6
CONTINUOUS
 66
     1
 40
0.003000
 41
0.003000
  0
VERTEX
  8
PLAN_1
 62
     2
  6
CONTINUOUS
 10
-0.930091
 20
3.352504
  0
VERTEX
  8
PLAN_1
 62
     2
  6
CONTINUOUS
 10
-0.945878
 20
3.293413
  0
VERTEX
  8
PLAN_1
 62
     2
  6
CONTINUOUS
 10
-0.914303
 20
3.293413
  0
VERTEX
  8
PLAN_1
 62
     2
  6
CONTINUOUS
 10
-0.930091
 20
3.352504
  0
SEQEND
  8
0
  0
SOLID
  8
PLAN_1
 62
     2
 10
-0.930091
 20
0.707020
 11
-0.945878
 21
0.766110
 12
-0.930091
 22
0.707020
 13
-0.914303
 23
0.766110
  0
POLYLINE
  8
PLAN_1
 62
     2
  6
CONTINUOUS
 66
     1
 40
0.003000
 41
0.003000
  0
VERTEX
  8
PLAN_1
 62
     2
  6
CONTINUOUS
 10
-0.930091
 20
0.707020
  0
VERTEX
  8
PLAN_1
 62
     2
  6
CONTINUOUS
 10
-0.945878
 20
0.766110
  0
VERTEX
  8
PLAN_1
 62
     2
  6
CONTINUOUS
 10
-0.914303
 20
0.766110
  0
VERTEX
  8
PLAN_1
 62
     2
  6
CONTINUOUS
 10
-0.930091
 20
0.707020
  0
SEQEND
  8
0
  0
POLYLINE
  8
PLAN_1
 62
     2
  6
CONTINUOUS
 66
     1
 40
0.004059
 41
0.004059
  0
VERTEX
  8
PLAN_1
 62
     2
  6
CONTINUOUS
 10
-2.238622
 20
0.415185
  0
VERTEX
  8
PLAN_1
 62
     2
  6
CONTINUOUS
 10
-1.116831
 20
0.415185
  0
SEQEND
  8
0
  0
SOLID
  8
PLAN_1
 62
     2
 10
-1.087059
 20
0.415185
 11
-1.146150
 21
0.430972
 12
-1.087059
 22
0.415185
 13
-1.146150
 23
0.399398
  0
POLYLINE
  8
PLAN_1
 62
     2
  6
CONTINUOUS
 66
     1
 40
0.003000
 41
0.003000
  0
VERTEX
  8
PLAN_1
 62
     2
  6
CONTINUOUS
 10
-1.087059
 20
0.415185
  0
VERTEX
  8
PLAN_1
 62
     2
  6
CONTINUOUS
 10
-1.146150
 20
0.430972
  0
VERTEX
  8
PLAN_1
 62
     2
  6
CONTINUOUS
 10
-1.146150
 20
0.399398
  0
VERTEX
  8
PLAN_1
 62
     2
  6
CONTINUOUS
 10
-1.087059
 20
0.415185
  0
SEQEND
  8
0
  0
SOLID
  8
PLAN_1
 62
     2
 10
-2.268390
 20
0.415185
 11
-2.209303
 21
0.430972
 12
-2.268390
 22
0.415185
 13
-2.209303
 23
0.399398
  0
POLYLINE
  8
PLAN_1
 62
     2
  6
CONTINUOUS
 66
     1
 40
0.003000
 41
0.003000
  0
VERTEX
  8
PLAN_1
 62
     2
  6
CONTINUOUS
 10
-2.268390
 20
0.415185
  0
VERTEX
  8
PLAN_1
 62
     2
  6
CONTINUOUS
 10
-2.209303
 20
0.430972
  0
VERTEX
  8
PLAN_1
 62
     2
  6
CONTINUOUS
 10
-2.209303
 20
0.399398
  0
VERTEX
  8
PLAN_1
 62
     2
  6
CONTINUOUS
 10
-2.268390
 20
0.415185
  0
SEQEND
  8
0
  0
POLYLINE
  8
PLAN_1
 62
     2
  6
CONTINUOUS
 66
     1
 40
0.003000
 41
0.003000
  0
VERTEX
  8
PLAN_1
 62
     2
  6
CONTINUOUS
 10
-1.712232
 20
0.480138
  0
VERTEX
  8
PLAN_1
 62
     2
  6
CONTINUOUS
 10
-1.711780
 20
0.480138
  0
VERTEX
  8
PLAN_1
 62
     2
  6
CONTINUOUS
 10
-1.711331
 20
0.480138
  0
VERTEX
  8
PLAN_1
 62
     2
  6
CONTINUOUS
 10
-1.710429
 20
0.480138
  0
VERTEX
  8
PLAN_1
 62
     2
  6
CONTINUOUS
 10
-1.709976
 20
0.480138
  0
VERTEX
  8
PLAN_1
 62
     2
  6
CONTINUOUS
 10
-1.709524
 20
0.480138
  0
VERTEX
  8
PLAN_1
 62
     2
  6
CONTINUOUS
 10
-1.708622
 20
0.480138
  0
VERTEX
  8
PLAN_1
 62
     2
  6
CONTINUOUS
 10
-1.708173
 20
0.480138
  0
VERTEX
  8
PLAN_1
 62
     2
  6
CONTINUOUS
 10
-1.707720
 20
0.480138
  0
VERTEX
  8
PLAN_1
 62
     2
  6
CONTINUOUS
 10
-1.705016
 20
0.480138
  0
VERTEX
  8
PLAN_1
 62
     2
  6
CONTINUOUS
 10
-1.702307
 20
0.480587
  0
VERTEX
  8
PLAN_1
 62
     2
  6
CONTINUOUS
 10
-1.700051
 20
0.481488
  0
VERTEX
  8
PLAN_1
 62
     2
  6
CONTINUOUS
 10
-1.697799
 20
0.482394
  0
VERTEX
  8
PLAN_1
 62
     2
  6
CONTINUOUS
 10
-1.695992
 20
0.484197
  0
VERTEX
  8
PLAN_1
 62
     2
  6
CONTINUOUS
 10
-1.694642
 20
0.486453
  0
VERTEX
  8
PLAN_1
 62
     2
  6
CONTINUOUS
 10
-1.693736
 20
0.488709
  0
VERTEX
  8
PLAN_1
 62
     2
  6
CONTINUOUS
 10
-1.693736
 20
0.491866
  0
VERTEX
  8
PLAN_1
 62
     2
  6
CONTINUOUS
 10
-1.693736
 20
0.493669
  0
VERTEX
  8
PLAN_1
 62
     2
  6
CONTINUOUS
 10
-1.694189
 20
0.495472
  0
VERTEX
  8
PLAN_1
 62
     2
  6
CONTINUOUS
 10
-1.695091
 20
0.497728
  0
VERTEX
  8
PLAN_1
 62
     2
  6
CONTINUOUS
 10
-1.696445
 20
0.499531
  0
VERTEX
  8
PLAN_1
 62
     2
  6
CONTINUOUS
 10
-1.698248
 20
0.500886
  0
VERTEX
  8
PLAN_1
 62
     2
  6
CONTINUOUS
 10
-1.700504
 20
0.502240
  0
VERTEX
  8
PLAN_1
 62
     2
  6
CONTINUOUS
 10
-1.703661
 20
0.503142
  0
VERTEX
  8
PLAN_1
 62
     2
  6
CONTINUOUS
 10
-1.707272
 20
0.503591
  0
VERTEX
  8
PLAN_1
 62
     2
  6
CONTINUOUS
 10
-1.709524
 20
0.503591
  0
VERTEX
  8
PLAN_1
 62
     2
  6
CONTINUOUS
 10
-1.711331
 20
0.503142
  0
VERTEX
  8
PLAN_1
 62
     2
  6
CONTINUOUS
 10
-1.713134
 20
0.502689
  0
VERTEX
  8
PLAN_1
 62
     2
  6
CONTINUOUS
 10
-1.714937
 20
0.501787
  0
VERTEX
  8
PLAN_1
 62
     2
  6
CONTINUOUS
 10
-1.717193
 20
0.499984
  0
VERTEX
  8
PLAN_1
 62
     2
  6
CONTINUOUS
 10
-1.718996
 20
0.497728
  0
VERTEX
  8
PLAN_1
 62
     2
  6
CONTINUOUS
 10
-1.720350
 20
0.495024
  0
VERTEX
  8
PLAN_1
 62
     2
  6
CONTINUOUS
 10
-1.720803
 20
0.492315
  0
VERTEX
  8
PLAN_1
 62
     2
  6
CONTINUOUS
 10
-1.721252
 20
0.490059
  0
VERTEX
  8
PLAN_1
 62
     2
  6
CONTINUOUS
 10
-1.721252
 20
0.487803
  0
VERTEX
  8
PLAN_1
 62
     2
  6
CONTINUOUS
 10
-1.730276
 20
0.487803
  0
VERTEX
  8
PLAN_1
 62
     2
  6
CONTINUOUS
 10
-1.730276
 20
0.491866
  0
VERTEX
  8
PLAN_1
 62
     2
  6
CONTINUOUS
 10
-1.729370
 20
0.495925
  0
VERTEX
  8
PLAN_1
 62
     2
  6
CONTINUOUS
 10
-1.728020
 20
0.499984
  0
VERTEX
  8
PLAN_1
 62
     2
  6
CONTINUOUS
 10
-1.725764
 20
0.504043
  0
VERTEX
  8
PLAN_1
 62
     2
  6
CONTINUOUS
 10
-1.724409
 20
0.505398
  0
VERTEX
  8
PLAN_1
 62
     2
  6
CONTINUOUS
 10
-1.722606
 20
0.507201
  0
VERTEX
  8
PLAN_1
 62
     2
  6
CONTINUOUS
 10
-1.720803
 20
0.508555
  0
VERTEX
  8
PLAN_1
 62
     2
  6
CONTINUOUS
 10
-1.718547
 20
0.509457
  0
VERTEX
  8
PLAN_1
 62
     2
  6
CONTINUOUS
 10
-1.716291
 20
0.510358
  0
VERTEX
  8
PLAN_1
 62
     2
  6
CONTINUOUS
 10
-1.713134
 20
0.511260
  0
VERTEX
  8
PLAN_1
 62
     2
  6
CONTINUOUS
 10
-1.709976
 20
0.511713
  0
VERTEX
  8
PLAN_1
 62
     2
  6
CONTINUOUS
 10
-1.706819
 20
0.511713
  0
VERTEX
  8
PLAN_1
 62
     2
  6
CONTINUOUS
 10
-1.701858
 20
0.511260
  0
VERTEX
  8
PLAN_1
 62
     2
  6
CONTINUOUS
 10
-1.697346
 20
0.510358
  0
VERTEX
  8
PLAN_1
 62
     2
  6
CONTINUOUS
 10
-1.693287
 20
0.508555
  0
VERTEX
  8
PLAN_1
 62
     2
  6
CONTINUOUS
 10
-1.690130
 20
0.506299
  0
VERTEX
  8
PLAN_1
 62
     2
  6
CONTINUOUS
 10
-1.687421
 20
0.503591
  0
VERTEX
  8
PLAN_1
 62
     2
  6
CONTINUOUS
 10
-1.685618
 20
0.500433
  0
VERTEX
  8
PLAN_1
 62
     2
  6
CONTINUOUS
 10
-1.684717
 20
0.496374
  0
VERTEX
  8
PLAN_1
 62
     2
  6
CONTINUOUS
 10
-1.684264
 20
0.492315
  0
VERTEX
  8
PLAN_1
 62
     2
  6
CONTINUOUS
 10
-1.684264
 20
0.489157
  0
VERTEX
  8
PLAN_1
 62
     2
  6
CONTINUOUS
 10
-1.685169
 20
0.486453
  0
VERTEX
  8
PLAN_1
 62
     2
  6
CONTINUOUS
 10
-1.686071
 20
0.483744
  0
VERTEX
  8
PLAN_1
 62
     2
  6
CONTINUOUS
 10
-1.687421
 20
0.481941
  0
VERTEX
  8
PLAN_1
 62
     2
  6
CONTINUOUS
 10
-1.688776
 20
0.480138
  0
VERTEX
  8
PLAN_1
 62
     2
  6
CONTINUOUS
 10
-1.690579
 20
0.478783
  0
VERTEX
  8
PLAN_1
 62
     2
  6
CONTINUOUS
 10
-1.691933
 20
0.477882
  0
VERTEX
  8
PLAN_1
 62
     2
  6
CONTINUOUS
 10
-1.693736
 20
0.477429
  0
VERTEX
  8
PLAN_1
 62
     2
  6
CONTINUOUS
 10
-1.691031
 20
0.476079
  0
VERTEX
  8
PLAN_1
 62
     2
  6
CONTINUOUS
 10
-1.688776
 20
0.475173
  0
VERTEX
  8
PLAN_1
 62
     2
  6
CONTINUOUS
 10
-1.686520
 20
0.473370
  0
VERTEX
  8
PLAN_1
 62
     2
  6
CONTINUOUS
 10
-1.684717
 20
0.471567
  0
VERTEX
  8
PLAN_1
 62
     2
  6
CONTINUOUS
 10
-1.683362
 20
0.469311
  0
VERTEX
  8
PLAN_1
 62
     2
  6
CONTINUOUS
 10
-1.682461
 20
0.466606
  0
VERTEX
  8
PLAN_1
 62
     2
  6
CONTINUOUS
 10
-1.681559
 20
0.463449
  0
VERTEX
  8
PLAN_1
 62
     2
  6
CONTINUOUS
 10
-1.681559
 20
0.460291
  0
VERTEX
  8
PLAN_1
 62
     2
  6
CONTINUOUS
 10
-1.681559
 20
0.455780
  0
VERTEX
  8
PLAN_1
 62
     2
  6
CONTINUOUS
 10
-1.682913
 20
0.451268
  0
VERTEX
  8
PLAN_1
 62
     2
  6
CONTINUOUS
 10
-1.683815
 20
0.449465
  0
VERTEX
  8
PLAN_1
 62
     2
  6
CONTINUOUS
 10
-1.684717
 20
0.447661
  0
VERTEX
  8
PLAN_1
 62
     2
  6
CONTINUOUS
 10
-1.686071
 20
0.445406
  0
VERTEX
  8
PLAN_1
 62
     2
  6
CONTINUOUS
 10
-1.687421
 20
0.444051
  0
VERTEX
  8
PLAN_1
 62
     2
  6
CONTINUOUS
 10
-1.689228
 20
0.442248
  0
VERTEX
  8
PLAN_1
 62
     2
  6
CONTINUOUS
 10
-1.691031
 20
0.440894
  0
VERTEX
  8
PLAN_1
 62
     2
  6
CONTINUOUS
 10
-1.693287
 20
0.439539
  0
VERTEX
  8
PLAN_1
 62
     2
  6
CONTINUOUS
 10
-1.695543
 20
0.438638
  0
VERTEX
  8
PLAN_1
 62
     2
  6
CONTINUOUS
 10
-1.698248
 20
0.437736
  0
VERTEX
  8
PLAN_1
 62
     2
  6
CONTINUOUS
 10
-1.701406
 20
0.437287
  0
VERTEX
  8
PLAN_1
 62
     2
  6
CONTINUOUS
 10
-1.704114
 20
0.436835
  0
VERTEX
  8
PLAN_1
 62
     2
  6
CONTINUOUS
 10
-1.707720
 20
0.436835
  0
VERTEX
  8
PLAN_1
 62
     2
  6
CONTINUOUS
 10
-1.709524
 20
0.436835
  0
VERTEX
  8
PLAN_1
 62
     2
  6
CONTINUOUS
 10
-1.711780
 20
0.436835
  0
VERTEX
  8
PLAN_1
 62
     2
  6
CONTINUOUS
 10
-1.713583
 20
0.437287
  0
VERTEX
  8
PLAN_1
 62
     2
  6
CONTINUOUS
 10
-1.714937
 20
0.437736
  0
VERTEX
  8
PLAN_1
 62
     2
  6
CONTINUOUS
 10
-1.716740
 20
0.438189
  0
VERTEX
  8
PLAN_1
 62
     2
  6
CONTINUOUS
 10
-1.718547
 20
0.438638
  0
VERTEX
  8
PLAN_1
 62
     2
  6
CONTINUOUS
 10
-1.719898
 20
0.439091
  0
VERTEX
  8
PLAN_1
 62
     2
  6
CONTINUOUS
 10
-1.721252
 20
0.439992
  0
VERTEX
  8
PLAN_1
 62
     2
  6
CONTINUOUS
 10
-1.723961
 20
0.441795
  0
VERTEX
  8
PLAN_1
 62
     2
  6
CONTINUOUS
 10
-1.726213
 20
0.443602
  0
VERTEX
  8
PLAN_1
 62
     2
  6
CONTINUOUS
 10
-1.728020
 20
0.446307
  0
VERTEX
  8
PLAN_1
 62
     2
  6
CONTINUOUS
 10
-1.729370
 20
0.449012
  0
VERTEX
  8
PLAN_1
 62
     2
  6
CONTINUOUS
 10
-1.730724
 20
0.451720
  0
VERTEX
  8
PLAN_1
 62
     2
  6
CONTINUOUS
 10
-1.731177
 20
0.454878
  0
VERTEX
  8
PLAN_1
 62
     2
  6
CONTINUOUS
 10
-1.731626
 20
0.458035
  0
VERTEX
  8
PLAN_1
 62
     2
  6
CONTINUOUS
 10
-1.732079
 20
0.461193
  0
VERTEX
  8
PLAN_1
 62
     2
  6
CONTINUOUS
 10
-1.722606
 20
0.461193
  0
VERTEX
  8
PLAN_1
 62
     2
  6
CONTINUOUS
 10
-1.722606
 20
0.458484
  0
VERTEX
  8
PLAN_1
 62
     2
  6
CONTINUOUS
 10
-1.722154
 20
0.455780
  0
VERTEX
  8
PLAN_1
 62
     2
  6
CONTINUOUS
 10
-1.721252
 20
0.453075
  0
VERTEX
  8
PLAN_1
 62
     2
  6
CONTINUOUS
 10
-1.719898
 20
0.450366
  0
VERTEX
  8
PLAN_1
 62
     2
  6
CONTINUOUS
 10
-1.718094
 20
0.448110
  0
VERTEX
  8
PLAN_1
 62
     2
  6
CONTINUOUS
 10
-1.715390
 20
0.446307
  0
VERTEX
  8
PLAN_1
 62
     2
  6
CONTINUOUS
 10
-1.713583
 20
0.445854
  0
VERTEX
  8
PLAN_1
 62
     2
  6
CONTINUOUS
 10
-1.711780
 20
0.445406
  0
VERTEX
  8
PLAN_1
 62
     2
  6
CONTINUOUS
 10
-1.709524
 20
0.444953
  0
VERTEX
  8
PLAN_1
 62
     2
  6
CONTINUOUS
 10
-1.707272
 20
0.444953
  0
VERTEX
  8
PLAN_1
 62
     2
  6
CONTINUOUS
 10
-1.703661
 20
0.444953
  0
VERTEX
  8
PLAN_1
 62
     2
  6
CONTINUOUS
 10
-1.700504
 20
0.445854
  0
VERTEX
  8
PLAN_1
 62
     2
  6
CONTINUOUS
 10
-1.697799
 20
0.447209
  0
VERTEX
  8
PLAN_1
 62
     2
  6
CONTINUOUS
 10
-1.695543
 20
0.448563
  0
VERTEX
  8
PLAN_1
 62
     2
  6
CONTINUOUS
 10
-1.693736
 20
0.450819
  0
VERTEX
  8
PLAN_1
 62
     2
  6
CONTINUOUS
 10
-1.692386
 20
0.453075
  0
VERTEX
  8
PLAN_1
 62
     2
  6
CONTINUOUS
 10
-1.691484
 20
0.455780
  0
VERTEX
  8
PLAN_1
 62
     2
  6
CONTINUOUS
 10
-1.691031
 20
0.458937
  0
VERTEX
  8
PLAN_1
 62
     2
  6
CONTINUOUS
 10
-1.691031
 20
0.461193
  0
VERTEX
  8
PLAN_1
 62
     2
  6
CONTINUOUS
 10
-1.691484
 20
0.462996
  0
VERTEX
  8
PLAN_1
 62
     2
  6
CONTINUOUS
 10
-1.692386
 20
0.464799
  0
VERTEX
  8
PLAN_1
 62
     2
  6
CONTINUOUS
 10
-1.692835
 20
0.466154
  0
VERTEX
  8
PLAN_1
 62
     2
  6
CONTINUOUS
 10
-1.695091
 20
0.468862
  0
VERTEX
  8
PLAN_1
 62
     2
  6
CONTINUOUS
 10
-1.697346
 20
0.470213
  0
VERTEX
  8
PLAN_1
 62
     2
  6
CONTINUOUS
 10
-1.700051
 20
0.471567
  0
VERTEX
  8
PLAN_1
 62
     2
  6
CONTINUOUS
 10
-1.702760
 20
0.472016
  0
VERTEX
  8
PLAN_1
 62
     2
  6
CONTINUOUS
 10
-1.705465
 20
0.472469
  0
VERTEX
  8
PLAN_1
 62
     2
  6
CONTINUOUS
 10
-1.708173
 20
0.472469
  0
VERTEX
  8
PLAN_1
 62
     2
  6
CONTINUOUS
 10
-1.708622
 20
0.472469
  0
VERTEX
  8
PLAN_1
 62
     2
  6
CONTINUOUS
 10
-1.709075
 20
0.472469
  0
VERTEX
  8
PLAN_1
 62
     2
  6
CONTINUOUS
 10
-1.709976
 20
0.472469
  0
VERTEX
  8
PLAN_1
 62
     2
  6
CONTINUOUS
 10
-1.710429
 20
0.472469
  0
VERTEX
  8
PLAN_1
 62
     2
  6
CONTINUOUS
 10
-1.710878
 20
0.472469
  0
VERTEX
  8
PLAN_1
 62
     2
  6
CONTINUOUS
 10
-1.711331
 20
0.472469
  0
VERTEX
  8
PLAN_1
 62
     2
  6
CONTINUOUS
 10
-1.711780
 20
0.472469
  0
VERTEX
  8
PLAN_1
 62
     2
  6
CONTINUOUS
 10
-1.712232
 20
0.472469
  0
VERTEX
  8
PLAN_1
 62
     2
  6
CONTINUOUS
 10
-1.712232
 20
0.480138
  0
SEQEND
  8
0
  0
POLYLINE
  8
PLAN_1
 62
     2
  6
CONTINUOUS
 66
     1
 40
0.003000
 41
0.003000
  0
VERTEX
  8
PLAN_1
 62
     2
  6
CONTINUOUS
 10
-1.648630
 20
0.436835
  0
VERTEX
  8
PLAN_1
 62
     2
  6
CONTINUOUS
 10
-1.652693
 20
0.436835
  0
VERTEX
  8
PLAN_1
 62
     2
  6
CONTINUOUS
 10
-1.655850
 20
0.437736
  0
VERTEX
  8
PLAN_1
 62
     2
  6
CONTINUOUS
 10
-1.659008
 20
0.438638
  0
VERTEX
  8
PLAN_1
 62
     2
  6
CONTINUOUS
 10
-1.661713
 20
0.440445
  0
VERTEX
  8
PLAN_1
 62
     2
  6
CONTINUOUS
 10
-1.663969
 20
0.442248
  0
VERTEX
  8
PLAN_1
 62
     2
  6
CONTINUOUS
 10
-1.666224
 20
0.444504
  0
VERTEX
  8
PLAN_1
 62
     2
  6
CONTINUOUS
 10
-1.667575
 20
0.447209
  0
VERTEX
  8
PLAN_1
 62
     2
  6
CONTINUOUS
 10
-1.669382
 20
0.449917
  0
VERTEX
  8
PLAN_1
 62
     2
  6
CONTINUOUS
 10
-1.670732
 20
0.452622
  0
VERTEX
  8
PLAN_1
 62
     2
  6
CONTINUOUS
 10
-1.671634
 20
0.455780
  0
VERTEX
  8
PLAN_1
 62
     2
  6
CONTINUOUS
 10
-1.672539
 20
0.458937
  0
VERTEX
  8
PLAN_1
 62
     2
  6
CONTINUOUS
 10
-1.672988
 20
0.462094
  0
VERTEX
  8
PLAN_1
 62
     2
  6
CONTINUOUS
 10
-1.673890
 20
0.468409
  0
VERTEX
  8
PLAN_1
 62
     2
  6
CONTINUOUS
 10
-1.673890
 20
0.474272
  0
VERTEX
  8
PLAN_1
 62
     2
  6
CONTINUOUS
 10
-1.673890
 20
0.480138
  0
VERTEX
  8
PLAN_1
 62
     2
  6
CONTINUOUS
 10
-1.672988
 20
0.486453
  0
VERTEX
  8
PLAN_1
 62
     2
  6
CONTINUOUS
 10
-1.672539
 20
0.489610
  0
VERTEX
  8
PLAN_1
 62
     2
  6
CONTINUOUS
 10
-1.671634
 20
0.492768
  0
VERTEX
  8
PLAN_1
 62
     2
  6
CONTINUOUS
 10
-1.670732
 20
0.495925
  0
VERTEX
  8
PLAN_1
 62
     2
  6
CONTINUOUS
 10
-1.669382
 20
0.498630
  0
VERTEX
  8
PLAN_1
 62
     2
  6
CONTINUOUS
 10
-1.667575
 20
0.501339
  0
VERTEX
  8
PLAN_1
 62
     2
  6
CONTINUOUS
 10
-1.666224
 20
0.504043
  0
VERTEX
  8
PLAN_1
 62
     2
  6
CONTINUOUS
 10
-1.663969
 20
0.506299
  0
VERTEX
  8
PLAN_1
 62
     2
  6
CONTINUOUS
 10
-1.661713
 20
0.508102
  0
VERTEX
  8
PLAN_1
 62
     2
  6
CONTINUOUS
 10
-1.659008
 20
0.509457
  0
VERTEX
  8
PLAN_1
 62
     2
  6
CONTINUOUS
 10
-1.655850
 20
0.510807
  0
VERTEX
  8
PLAN_1
 62
     2
  6
CONTINUOUS
 10
-1.652693
 20
0.511713
  0
VERTEX
  8
PLAN_1
 62
     2
  6
CONTINUOUS
 10
-1.648630
 20
0.511713
  0
VERTEX
  8
PLAN_1
 62
     2
  6
CONTINUOUS
 10
-1.645024
 20
0.511713
  0
VERTEX
  8
PLAN_1
 62
     2
  6
CONTINUOUS
 10
-1.641866
 20
0.510807
  0
VERTEX
  8
PLAN_1
 62
     2
  6
CONTINUOUS
 10
-1.638709
 20
0.509457
  0
VERTEX
  8
PLAN_1
 62
     2
  6
CONTINUOUS
 10
-1.636000
 20
0.508102
  0
VERTEX
  8
PLAN_1
 62
     2
  6
CONTINUOUS
 10
-1.633748
 20
0.506299
  0
VERTEX
  8
PLAN_1
 62
     2
  6
CONTINUOUS
 10
-1.631492
 20
0.504043
  0
VERTEX
  8
PLAN_1
 62
     2
  6
CONTINUOUS
 10
-1.630138
 20
0.501339
  0
VERTEX
  8
PLAN_1
 62
     2
  6
CONTINUOUS
 10
-1.628335
 20
0.498630
  0
VERTEX
  8
PLAN_1
 62
     2
  6
CONTINUOUS
 10
-1.626079
 20
0.492768
  0
VERTEX
  8
PLAN_1
 62
     2
  6
CONTINUOUS
 10
-1.624724
 20
0.486453
  0
VERTEX
  8
PLAN_1
 62
     2
  6
CONTINUOUS
 10
-1.623823
 20
0.480138
  0
VERTEX
  8
PLAN_1
 62
     2
  6
CONTINUOUS
 10
-1.623823
 20
0.474272
  0
VERTEX
  8
PLAN_1
 62
     2
  6
CONTINUOUS
 10
-1.623823
 20
0.468409
  0
VERTEX
  8
PLAN_1
 62
     2
  6
CONTINUOUS
 10
-1.624724
 20
0.462094
  0
VERTEX
  8
PLAN_1
 62
     2
  6
CONTINUOUS
 10
-1.626079
 20
0.455780
  0
VERTEX
  8
PLAN_1
 62
     2
  6
CONTINUOUS
 10
-1.628335
 20
0.449917
  0
VERTEX
  8
PLAN_1
 62
     2
  6
CONTINUOUS
 10
-1.630138
 20
0.447209
  0
VERTEX
  8
PLAN_1
 62
     2
  6
CONTINUOUS
 10
-1.631492
 20
0.444504
  0
VERTEX
  8
PLAN_1
 62
     2
  6
CONTINUOUS
 10
-1.633748
 20
0.442248
  0
VERTEX
  8
PLAN_1
 62
     2
  6
CONTINUOUS
 10
-1.636000
 20
0.440445
  0
VERTEX
  8
PLAN_1
 62
     2
  6
CONTINUOUS
 10
-1.638709
 20
0.438638
  0
VERTEX
  8
PLAN_1
 62
     2
  6
CONTINUOUS
 10
-1.641866
 20
0.437736
  0
VERTEX
  8
PLAN_1
 62
     2
  6
CONTINUOUS
 10
-1.645024
 20
0.436835
  0
VERTEX
  8
PLAN_1
 62
     2
  6
CONTINUOUS
 10
-1.648630
 20
0.436835
  0
SEQEND
  8
0
  0
POLYLINE
  8
PLAN_1
 62
     2
  6
CONTINUOUS
 66
     1
 40
0.003000
 41
0.003000
  0
VERTEX
  8
PLAN_1
 62
     2
  6
CONTINUOUS
 10
-1.648630
 20
0.503591
  0
VERTEX
  8
PLAN_1
 62
     2
  6
CONTINUOUS
 10
-1.650886
 20
0.503591
  0
VERTEX
  8
PLAN_1
 62
     2
  6
CONTINUOUS
 10
-1.652693
 20
0.503142
  0
VERTEX
  8
PLAN_1
 62
     2
  6
CONTINUOUS
 10
-1.654043
 20
0.502240
  0
VERTEX
  8
PLAN_1
 62
     2
  6
CONTINUOUS
 10
-1.655850
 20
0.501339
  0
VERTEX
  8
PLAN_1
 62
     2
  6
CONTINUOUS
 10
-1.657201
 20
0.500433
  0
VERTEX
  8
PLAN_1
 62
     2
  6
CONTINUOUS
 10
-1.658102
 20
0.499083
  0
VERTEX
  8
PLAN_1
 62
     2
  6
CONTINUOUS
 10
-1.659457
 20
0.497728
  0
VERTEX
  8
PLAN_1
 62
     2
  6
CONTINUOUS
 10
-1.660358
 20
0.495925
  0
VERTEX
  8
PLAN_1
 62
     2
  6
CONTINUOUS
 10
-1.662165
 20
0.491413
  0
VERTEX
  8
PLAN_1
 62
     2
  6
CONTINUOUS
 10
-1.663067
 20
0.486453
  0
VERTEX
  8
PLAN_1
 62
     2
  6
CONTINUOUS
 10
-1.663969
 20
0.480587
  0
VERTEX
  8
PLAN_1
 62
     2
  6
CONTINUOUS
 10
-1.663969
 20
0.474272
  0
VERTEX
  8
PLAN_1
 62
     2
  6
CONTINUOUS
 10
-1.663969
 20
0.467508
  0
VERTEX
  8
PLAN_1
 62
     2
  6
CONTINUOUS
 10
-1.663067
 20
0.462094
  0
VERTEX
  8
PLAN_1
 62
     2
  6
CONTINUOUS
 10
-1.662165
 20
0.456681
  0
VERTEX
  8
PLAN_1
 62
     2
  6
CONTINUOUS
 10
-1.660358
 20
0.452622
  0
VERTEX
  8
PLAN_1
 62
     2
  6
CONTINUOUS
 10
-1.659457
 20
0.450819
  0
VERTEX
  8
PLAN_1
 62
     2
  6
CONTINUOUS
 10
-1.658102
 20
0.449465
  0
VERTEX
  8
PLAN_1
 62
     2
  6
CONTINUOUS
 10
-1.657201
 20
0.448110
  0
VERTEX
  8
PLAN_1
 62
     2
  6
CONTINUOUS
 10
-1.655850
 20
0.446760
  0
VERTEX
  8
PLAN_1
 62
     2
  6
CONTINUOUS
 10
-1.654043
 20
0.445854
  0
VERTEX
  8
PLAN_1
 62
     2
  6
CONTINUOUS
 10
-1.652693
 20
0.445406
  0
VERTEX
  8
PLAN_1
 62
     2
  6
CONTINUOUS
 10
-1.650886
 20
0.444953
  0
VERTEX
  8
PLAN_1
 62
     2
  6
CONTINUOUS
 10
-1.648630
 20
0.444953
  0
VERTEX
  8
PLAN_1
 62
     2
  6
CONTINUOUS
 10
-1.646827
 20
0.444953
  0
VERTEX
  8
PLAN_1
 62
     2
  6
CONTINUOUS
 10
-1.645024
 20
0.445406
  0
VERTEX
  8
PLAN_1
 62
     2
  6
CONTINUOUS
 10
-1.643669
 20
0.445854
  0
VERTEX
  8
PLAN_1
 62
     2
  6
CONTINUOUS
 10
-1.641866
 20
0.446760
  0
VERTEX
  8
PLAN_1
 62
     2
  6
CONTINUOUS
 10
-1.640512
 20
0.448110
  0
VERTEX
  8
PLAN_1
 62
     2
  6
CONTINUOUS
 10
-1.639610
 20
0.449465
  0
VERTEX
  8
PLAN_1
 62
     2
  6
CONTINUOUS
 10
-1.638256
 20
0.450819
  0
VERTEX
  8
PLAN_1
 62
     2
  6
CONTINUOUS
 10
-1.637354
 20
0.452622
  0
VERTEX
  8
PLAN_1
 62
     2
  6
CONTINUOUS
 10
-1.635551
 20
0.456681
  0
VERTEX
  8
PLAN_1
 62
     2
  6
CONTINUOUS
 10
-1.634650
 20
0.462094
  0
VERTEX
  8
PLAN_1
 62
     2
  6
CONTINUOUS
 10
-1.633748
 20
0.467508
  0
VERTEX
  8
PLAN_1
 62
     2
  6
CONTINUOUS
 10
-1.633748
 20
0.474272
  0
VERTEX
  8
PLAN_1
 62
     2
  6
CONTINUOUS
 10
-1.633748
 20
0.480587
  0
VERTEX
  8
PLAN_1
 62
     2
  6
CONTINUOUS
 10
-1.634650
 20
0.486453
  0
VERTEX
  8
PLAN_1
 62
     2
  6
CONTINUOUS
 10
-1.635551
 20
0.491413
  0
VERTEX
  8
PLAN_1
 62
     2
  6
CONTINUOUS
 10
-1.637354
 20
0.495925
  0
VERTEX
  8
PLAN_1
 62
     2
  6
CONTINUOUS
 10
-1.638256
 20
0.497728
  0
VERTEX
  8
PLAN_1
 62
     2
  6
CONTINUOUS
 10
-1.639610
 20
0.499083
  0
VERTEX
  8
PLAN_1
 62
     2
  6
CONTINUOUS
 10
-1.640512
 20
0.500433
  0
VERTEX
  8
PLAN_1
 62
     2
  6
CONTINUOUS
 10
-1.641866
 20
0.501339
  0
VERTEX
  8
PLAN_1
 62
     2
  6
CONTINUOUS
 10
-1.643669
 20
0.502240
  0
VERTEX
  8
PLAN_1
 62
     2
  6
CONTINUOUS
 10
-1.645024
 20
0.503142
  0
VERTEX
  8
PLAN_1
 62
     2
  6
CONTINUOUS
 10
-1.646827
 20
0.503591
  0
VERTEX
  8
PLAN_1
 62
     2
  6
CONTINUOUS
 10
-1.648630
 20
0.503591
  0
SEQEND
  8
0
  0
POLYLINE
  8
PLAN_1
 62
     2
  6
CONTINUOUS
 66
     1
 40
0.004059
 41
0.004059
  0
VERTEX
  8
PLAN_1
 62
     2
  6
CONTINUOUS
 10
-2.268390
 20
0.391276
  0
VERTEX
  8
PLAN_1
 62
     2
  6
CONTINUOUS
 10
-2.268390
 20
2.558634
  0
SEQEND
  8
0
  0
POLYLINE
  8
PLAN_1
 62
     2
  6
CONTINUOUS
 66
     1
 40
0.003000
 41
0.003000
  0
VERTEX
  8
PLAN_1
 62
     2
  6
CONTINUOUS
 10
-0.847543
 20
0.593354
  0
VERTEX
  8
PLAN_1
 62
     2
  6
CONTINUOUS
 10
-0.847094
 20
0.593354
  0
VERTEX
  8
PLAN_1
 62
     2
  6
CONTINUOUS
 10
-0.846193
 20
0.592902
  0
VERTEX
  8
PLAN_1
 62
     2
  6
CONTINUOUS
 10
-0.845740
 20
0.592902
  0
VERTEX
  8
PLAN_1
 62
     2
  6
CONTINUOUS
 10
-0.845287
 20
0.592902
  0
VERTEX
  8
PLAN_1
 62
     2
  6
CONTINUOUS
 10
-0.844386
 20
0.592902
  0
VERTEX
  8
PLAN_1
 62
     2
  6
CONTINUOUS
 10
-0.843937
 20
0.592902
  0
VERTEX
  8
PLAN_1
 62
     2
  6
CONTINUOUS
 10
-0.843484
 20
0.592902
  0
VERTEX
  8
PLAN_1
 62
     2
  6
CONTINUOUS
 10
-0.842583
 20
0.592902
  0
VERTEX
  8
PLAN_1
 62
     2
  6
CONTINUOUS
 10
-0.839878
 20
0.592902
  0
VERTEX
  8
PLAN_1
 62
     2
  6
CONTINUOUS
 10
-0.837622
 20
0.593354
  0
VERTEX
  8
PLAN_1
 62
     2
  6
CONTINUOUS
 10
-0.835366
 20
0.594256
  0
VERTEX
  8
PLAN_1
 62
     2
  6
CONTINUOUS
 10
-0.833110
 20
0.595610
  0
VERTEX
  8
PLAN_1
 62
     2
  6
CONTINUOUS
 10
-0.831307
 20
0.596961
  0
VERTEX
  8
PLAN_1
 62
     2
  6
CONTINUOUS
 10
-0.829953
 20
0.599217
  0
VERTEX
  8
PLAN_1
 62
     2
  6
CONTINUOUS
 10
-0.829051
 20
0.601925
  0
VERTEX
  8
PLAN_1
 62
     2
  6
CONTINUOUS
 10
-0.828598
 20
0.605083
  0
VERTEX
  8
PLAN_1
 62
     2
  6
CONTINUOUS
 10
-0.829051
 20
0.606886
  0
VERTEX
  8
PLAN_1
 62
     2
  6
CONTINUOUS
 10
-0.829504
 20
0.608689
  0
VERTEX
  8
PLAN_1
 62
     2
  6
CONTINUOUS
 10
-0.829953
 20
0.610492
  0
VERTEX
  8
PLAN_1
 62
     2
  6
CONTINUOUS
 10
-0.831307
 20
0.612299
  0
VERTEX
  8
PLAN_1
 62
     2
  6
CONTINUOUS
 10
-0.833110
 20
0.614102
  0
VERTEX
  8
PLAN_1
 62
     2
  6
CONTINUOUS
 10
-0.835366
 20
0.615457
  0
VERTEX
  8
PLAN_1
 62
     2
  6
CONTINUOUS
 10
-0.838524
 20
0.616358
  0
VERTEX
  8
PLAN_1
 62
     2
  6
CONTINUOUS
 10
-0.842130
 20
0.616358
  0
VERTEX
  8
PLAN_1
 62
     2
  6
CONTINUOUS
 10
-0.844386
 20
0.616358
  0
VERTEX
  8
PLAN_1
 62
     2
  6
CONTINUOUS
 10
-0.846642
 20
0.615906
  0
VERTEX
  8
PLAN_1
 62
     2
  6
CONTINUOUS
 10
-0.848445
 20
0.615457
  0
VERTEX
  8
PLAN_1
 62
     2
  6
CONTINUOUS
 10
-0.849799
 20
0.614555
  0
VERTEX
  8
PLAN_1
 62
     2
  6
CONTINUOUS
 10
-0.852508
 20
0.612748
  0
VERTEX
  8
PLAN_1
 62
     2
  6
CONTINUOUS
 10
-0.854311
 20
0.610492
  0
VERTEX
  8
PLAN_1
 62
     2
  6
CONTINUOUS
 10
-0.855213
 20
0.607787
  0
VERTEX
  8
PLAN_1
 62
     2
  6
CONTINUOUS
 10
-0.856114
 20
0.605531
  0
VERTEX
  8
PLAN_1
 62
     2
  6
CONTINUOUS
 10
-0.856114
 20
0.602827
  0
VERTEX
  8
PLAN_1
 62
     2
  6
CONTINUOUS
 10
-0.856567
 20
0.600571
  0
VERTEX
  8
PLAN_1
 62
     2
  6
CONTINUOUS
 10
-0.865587
 20
0.600571
  0
VERTEX
  8
PLAN_1
 62
     2
  6
CONTINUOUS
 10
-0.865138
 20
0.605083
  0
VERTEX
  8
PLAN_1
 62
     2
  6
CONTINUOUS
 10
-0.864685
 20
0.609142
  0
VERTEX
  8
PLAN_1
 62
     2
  6
CONTINUOUS
 10
-0.862882
 20
0.613201
  0
VERTEX
  8
PLAN_1
 62
     2
  6
CONTINUOUS
 10
-0.861075
 20
0.616807
  0
VERTEX
  8
PLAN_1
 62
     2
  6
CONTINUOUS
 10
-0.859272
 20
0.618614
  0
VERTEX
  8
PLAN_1
 62
     2
  6
CONTINUOUS
 10
-0.857917
 20
0.619965
  0
VERTEX
  8
PLAN_1
 62
     2
  6
CONTINUOUS
 10
-0.855665
 20
0.621319
  0
VERTEX
  8
PLAN_1
 62
     2
  6
CONTINUOUS
 10
-0.853858
 20
0.622673
  0
VERTEX
  8
PLAN_1
 62
     2
  6
CONTINUOUS
 10
-0.851154
 20
0.623575
  0
VERTEX
  8
PLAN_1
 62
     2
  6
CONTINUOUS
 10
-0.848445
 20
0.624028
  0
VERTEX
  8
PLAN_1
 62
     2
  6
CONTINUOUS
 10
-0.845287
 20
0.624476
  0
VERTEX
  8
PLAN_1
 62
     2
  6
CONTINUOUS
 10
-0.841681
 20
0.624476
  0
VERTEX
  8
PLAN_1
 62
     2
  6
CONTINUOUS
 10
-0.836720
 20
0.624476
  0
VERTEX
  8
PLAN_1
 62
     2
  6
CONTINUOUS
 10
-0.832209
 20
0.623122
  0
VERTEX
  8
PLAN_1
 62
     2
  6
CONTINUOUS
 10
-0.828598
 20
0.621319
  0
VERTEX
  8
PLAN_1
 62
     2
  6
CONTINUOUS
 10
-0.825441
 20
0.619063
  0
VERTEX
  8
PLAN_1
 62
     2
  6
CONTINUOUS
 10
-0.822736
 20
0.616358
  0
VERTEX
  8
PLAN_1
 62
     2
  6
CONTINUOUS
 10
-0.820933
 20
0.613201
  0
VERTEX
  8
PLAN_1
 62
     2
  6
CONTINUOUS
 10
-0.819579
 20
0.609591
  0
VERTEX
  8
PLAN_1
 62
     2
  6
CONTINUOUS
 10
-0.819126
 20
0.605531
  0
VERTEX
  8
PLAN_1
 62
     2
  6
CONTINUOUS
 10
-0.819579
 20
0.602374
  0
VERTEX
  8
PLAN_1
 62
     2
  6
CONTINUOUS
 10
-0.820031
 20
0.599217
  0
VERTEX
  8
PLAN_1
 62
     2
  6
CONTINUOUS
 10
-0.821382
 20
0.596961
  0
VERTEX
  8
PLAN_1
 62
     2
  6
CONTINUOUS
 10
-0.822283
 20
0.594705
  0
VERTEX
  8
PLAN_1
 62
     2
  6
CONTINUOUS
 10
-0.824091
 20
0.593354
  0
VERTEX
  8
PLAN_1
 62
     2
  6
CONTINUOUS
 10
-0.825441
 20
0.592000
  0
VERTEX
  8
PLAN_1
 62
     2
  6
CONTINUOUS
 10
-0.827248
 20
0.591098
  0
VERTEX
  8
PLAN_1
 62
     2
  6
CONTINUOUS
 10
-0.828598
 20
0.590197
  0
VERTEX
  8
PLAN_1
 62
     2
  6
CONTINUOUS
 10
-0.825894
 20
0.589295
  0
VERTEX
  8
PLAN_1
 62
     2
  6
CONTINUOUS
 10
-0.823638
 20
0.587941
  0
VERTEX
  8
PLAN_1
 62
     2
  6
CONTINUOUS
 10
-0.821835
 20
0.586138
  0
VERTEX
  8
PLAN_1
 62
     2
  6
CONTINUOUS
 10
-0.820031
 20
0.584331
  0
VERTEX
  8
PLAN_1
 62
     2
  6
CONTINUOUS
 10
-0.818224
 20
0.582079
  0
VERTEX
  8
PLAN_1
 62
     2
  6
CONTINUOUS
 10
-0.817323
 20
0.579370
  0
VERTEX
  8
PLAN_1
 62
     2
  6
CONTINUOUS
 10
-0.816874
 20
0.576665
  0
VERTEX
  8
PLAN_1
 62
     2
  6
CONTINUOUS
 10
-0.816421
 20
0.573055
  0
VERTEX
  8
PLAN_1
 62
     2
  6
CONTINUOUS
 10
-0.816874
 20
0.568543
  0
VERTEX
  8
PLAN_1
 62
     2
  6
CONTINUOUS
 10
-0.817776
 20
0.564484
  0
VERTEX
  8
PLAN_1
 62
     2
  6
CONTINUOUS
 10
-0.818677
 20
0.562228
  0
VERTEX
  8
PLAN_1
 62
     2
  6
CONTINUOUS
 10
-0.820031
 20
0.560425
  0
VERTEX
  8
PLAN_1
 62
     2
  6
CONTINUOUS
 10
-0.820933
 20
0.558622
  0
VERTEX
  8
PLAN_1
 62
     2
  6
CONTINUOUS
 10
-0.822736
 20
0.556819
  0
VERTEX
  8
PLAN_1
 62
     2
  6
CONTINUOUS
 10
-0.824539
 20
0.555465
  0
VERTEX
  8
PLAN_1
 62
     2
  6
CONTINUOUS
 10
-0.826346
 20
0.553661
  0
VERTEX
  8
PLAN_1
 62
     2
  6
CONTINUOUS
 10
-0.828598
 20
0.552756
  0
VERTEX
  8
PLAN_1
 62
     2
  6
CONTINUOUS
 10
-0.830854
 20
0.551406
  0
VERTEX
  8
PLAN_1
 62
     2
  6
CONTINUOUS
 10
-0.833563
 20
0.550504
  0
VERTEX
  8
PLAN_1
 62
     2
  6
CONTINUOUS
 10
-0.836268
 20
0.550051
  0
VERTEX
  8
PLAN_1
 62
     2
  6
CONTINUOUS
 10
-0.839425
 20
0.549602
  0
VERTEX
  8
PLAN_1
 62
     2
  6
CONTINUOUS
 10
-0.842583
 20
0.549602
  0
VERTEX
  8
PLAN_1
 62
     2
  6
CONTINUOUS
 10
-0.844839
 20
0.549602
  0
VERTEX
  8
PLAN_1
 62
     2
  6
CONTINUOUS
 10
-0.846642
 20
0.549602
  0
VERTEX
  8
PLAN_1
 62
     2
  6
CONTINUOUS
 10
-0.848445
 20
0.550051
  0
VERTEX
  8
PLAN_1
 62
     2
  6
CONTINUOUS
 10
-0.850252
 20
0.550504
  0
VERTEX
  8
PLAN_1
 62
     2
  6
CONTINUOUS
 10
-0.852055
 20
0.550953
  0
VERTEX
  8
PLAN_1
 62
     2
  6
CONTINUOUS
 10
-0.853409
 20
0.551406
  0
VERTEX
  8
PLAN_1
 62
     2
  6
CONTINUOUS
 10
-0.854760
 20
0.552307
  0
VERTEX
  8
PLAN_1
 62
     2
  6
CONTINUOUS
 10
-0.856114
 20
0.552756
  0
VERTEX
  8
PLAN_1
 62
     2
  6
CONTINUOUS
 10
-0.859272
 20
0.554563
  0
VERTEX
  8
PLAN_1
 62
     2
  6
CONTINUOUS
 10
-0.861528
 20
0.556819
  0
VERTEX
  8
PLAN_1
 62
     2
  6
CONTINUOUS
 10
-0.863331
 20
0.559071
  0
VERTEX
  8
PLAN_1
 62
     2
  6
CONTINUOUS
 10
-0.864685
 20
0.561780
  0
VERTEX
  8
PLAN_1
 62
     2
  6
CONTINUOUS
 10
-0.865587
 20
0.564484
  0
VERTEX
  8
PLAN_1
 62
     2
  6
CONTINUOUS
 10
-0.866488
 20
0.567642
  0
VERTEX
  8
PLAN_1
 62
     2
  6
CONTINUOUS
 10
-0.866941
 20
0.570799
  0
VERTEX
  8
PLAN_1
 62
     2
  6
CONTINUOUS
 10
-0.867390
 20
0.573957
  0
VERTEX
  8
PLAN_1
 62
     2
  6
CONTINUOUS
 10
-0.857917
 20
0.573957
  0
VERTEX
  8
PLAN_1
 62
     2
  6
CONTINUOUS
 10
-0.857469
 20
0.571252
  0
VERTEX
  8
PLAN_1
 62
     2
  6
CONTINUOUS
 10
-0.857016
 20
0.568543
  0
VERTEX
  8
PLAN_1
 62
     2
  6
CONTINUOUS
 10
-0.856114
 20
0.565839
  0
VERTEX
  8
PLAN_1
 62
     2
  6
CONTINUOUS
 10
-0.854760
 20
0.563134
  0
VERTEX
  8
PLAN_1
 62
     2
  6
CONTINUOUS
 10
-0.852957
 20
0.560878
  0
VERTEX
  8
PLAN_1
 62
     2
  6
CONTINUOUS
 10
-0.850252
 20
0.559524
  0
VERTEX
  8
PLAN_1
 62
     2
  6
CONTINUOUS
 10
-0.848445
 20
0.558622
  0
VERTEX
  8
PLAN_1
 62
     2
  6
CONTINUOUS
 10
-0.846642
 20
0.558169
  0
VERTEX
  8
PLAN_1
 62
     2
  6
CONTINUOUS
 10
-0.844386
 20
0.557720
  0
VERTEX
  8
PLAN_1
 62
     2
  6
CONTINUOUS
 10
-0.842130
 20
0.557720
  0
VERTEX
  8
PLAN_1
 62
     2
  6
CONTINUOUS
 10
-0.838972
 20
0.558169
  0
VERTEX
  8
PLAN_1
 62
     2
  6
CONTINUOUS
 10
-0.835819
 20
0.558622
  0
VERTEX
  8
PLAN_1
 62
     2
  6
CONTINUOUS
 10
-0.833110
 20
0.559976
  0
VERTEX
  8
PLAN_1
 62
     2
  6
CONTINUOUS
 10
-0.830854
 20
0.561780
  0
VERTEX
  8
PLAN_1
 62
     2
  6
CONTINUOUS
 10
-0.828598
 20
0.563583
  0
VERTEX
  8
PLAN_1
 62
     2
  6
CONTINUOUS
 10
-0.827248
 20
0.566291
  0
VERTEX
  8
PLAN_1
 62
     2
  6
CONTINUOUS
 10
-0.826346
 20
0.568996
  0
VERTEX
  8
PLAN_1
 62
     2
  6
CONTINUOUS
 10
-0.826346
 20
0.572154
  0
VERTEX
  8
PLAN_1
 62
     2
  6
CONTINUOUS
 10
-0.826346
 20
0.573957
  0
VERTEX
  8
PLAN_1
 62
     2
  6
CONTINUOUS
 10
-0.826795
 20
0.576213
  0
VERTEX
  8
PLAN_1
 62
     2
  6
CONTINUOUS
 10
-0.827248
 20
0.577567
  0
VERTEX
  8
PLAN_1
 62
     2
  6
CONTINUOUS
 10
-0.828150
 20
0.579370
  0
VERTEX
  8
PLAN_1
 62
     2
  6
CONTINUOUS
 10
-0.829953
 20
0.581626
  0
VERTEX
  8
PLAN_1
 62
     2
  6
CONTINUOUS
 10
-0.832209
 20
0.583429
  0
VERTEX
  8
PLAN_1
 62
     2
  6
CONTINUOUS
 10
-0.835366
 20
0.584331
  0
VERTEX
  8
PLAN_1
 62
     2
  6
CONTINUOUS
 10
-0.838071
 20
0.584783
  0
VERTEX
  8
PLAN_1
 62
     2
  6
CONTINUOUS
 10
-0.840780
 20
0.585236
  0
VERTEX
  8
PLAN_1
 62
     2
  6
CONTINUOUS
 10
-0.843484
 20
0.585236
  0
VERTEX
  8
PLAN_1
 62
     2
  6
CONTINUOUS
 10
-0.843937
 20
0.585236
  0
VERTEX
  8
PLAN_1
 62
     2
  6
CONTINUOUS
 10
-0.844386
 20
0.585236
  0
VERTEX
  8
PLAN_1
 62
     2
  6
CONTINUOUS
 10
-0.844839
 20
0.585236
  0
VERTEX
  8
PLAN_1
 62
     2
  6
CONTINUOUS
 10
-0.845287
 20
0.585236
  0
VERTEX
  8
PLAN_1
 62
     2
  6
CONTINUOUS
 10
-0.845740
 20
0.585236
  0
VERTEX
  8
PLAN_1
 62
     2
  6
CONTINUOUS
 10
-0.846642
 20
0.585236
  0
VERTEX
  8
PLAN_1
 62
     2
  6
CONTINUOUS
 10
-0.847094
 20
0.585236
  0
VERTEX
  8
PLAN_1
 62
     2
  6
CONTINUOUS
 10
-0.847543
 20
0.585236
  0
VERTEX
  8
PLAN_1
 62
     2
  6
CONTINUOUS
 10
-0.847543
 20
0.593354
  0
SEQEND
  8
0
  0
POLYLINE
  8
PLAN_1
 62
     2
  6
CONTINUOUS
 66
     1
 40
0.003000
 41
0.003000
  0
VERTEX
  8
PLAN_1
 62
     2
  6
CONTINUOUS
 10
-0.765902
 20
0.598315
  0
VERTEX
  8
PLAN_1
 62
     2
  6
CONTINUOUS
 10
-0.765902
 20
0.563134
  0
VERTEX
  8
PLAN_1
 62
     2
  6
CONTINUOUS
 10
-0.765902
 20
0.561780
  0
VERTEX
  8
PLAN_1
 62
     2
  6
CONTINUOUS
 10
-0.765453
 20
0.560425
  0
VERTEX
  8
PLAN_1
 62
     2
  6
CONTINUOUS
 10
-0.764547
 20
0.559976
  0
VERTEX
  8
PLAN_1
 62
     2
  6
CONTINUOUS
 10
-0.764098
 20
0.559071
  0
VERTEX
  8
PLAN_1
 62
     2
  6
CONTINUOUS
 10
-0.763197
 20
0.559071
  0
VERTEX
  8
PLAN_1
 62
     2
  6
CONTINUOUS
 10
-0.762295
 20
0.558622
  0
VERTEX
  8
PLAN_1
 62
     2
  6
CONTINUOUS
 10
-0.761390
 20
0.558622
  0
VERTEX
  8
PLAN_1
 62
     2
  6
CONTINUOUS
 10
-0.760488
 20
0.558622
  0
VERTEX
  8
PLAN_1
 62
     2
  6
CONTINUOUS
 10
-0.757331
 20
0.558622
  0
VERTEX
  8
PLAN_1
 62
     2
  6
CONTINUOUS
 10
-0.757331
 20
0.551406
  0
VERTEX
  8
PLAN_1
 62
     2
  6
CONTINUOUS
 10
-0.758232
 20
0.551406
  0
VERTEX
  8
PLAN_1
 62
     2
  6
CONTINUOUS
 10
-0.759587
 20
0.551406
  0
VERTEX
  8
PLAN_1
 62
     2
  6
CONTINUOUS
 10
-0.760488
 20
0.551406
  0
VERTEX
  8
PLAN_1
 62
     2
  6
CONTINUOUS
 10
-0.761390
 20
0.550953
  0
VERTEX
  8
PLAN_1
 62
     2
  6
CONTINUOUS
 10
-0.762295
 20
0.550953
  0
VERTEX
  8
PLAN_1
 62
     2
  6
CONTINUOUS
 10
-0.763197
 20
0.550953
  0
VERTEX
  8
PLAN_1
 62
     2
  6
CONTINUOUS
 10
-0.763646
 20
0.550953
  0
VERTEX
  8
PLAN_1
 62
     2
  6
CONTINUOUS
 10
-0.764098
 20
0.550953
  0
VERTEX
  8
PLAN_1
 62
     2
  6
CONTINUOUS
 10
-0.767256
 20
0.550953
  0
VERTEX
  8
PLAN_1
 62
     2
  6
CONTINUOUS
 10
-0.769512
 20
0.551854
  0
VERTEX
  8
PLAN_1
 62
     2
  6
CONTINUOUS
 10
-0.771315
 20
0.552756
  0
VERTEX
  8
PLAN_1
 62
     2
  6
CONTINUOUS
 10
-0.773118
 20
0.554110
  0
VERTEX
  8
PLAN_1
 62
     2
  6
CONTINUOUS
 10
-0.774020
 20
0.555913
  0
VERTEX
  8
PLAN_1
 62
     2
  6
CONTINUOUS
 10
-0.774472
 20
0.557720
  0
VERTEX
  8
PLAN_1
 62
     2
  6
CONTINUOUS
 10
-0.774925
 20
0.559976
  0
VERTEX
  8
PLAN_1
 62
     2
  6
CONTINUOUS
 10
-0.774925
 20
0.562681
  0
VERTEX
  8
PLAN_1
 62
     2
  6
CONTINUOUS
 10
-0.774925
 20
0.598315
  0
VERTEX
  8
PLAN_1
 62
     2
  6
CONTINUOUS
 10
-0.782591
 20
0.598315
  0
VERTEX
  8
PLAN_1
 62
     2
  6
CONTINUOUS
 10
-0.782591
 20
0.605984
  0
VERTEX
  8
PLAN_1
 62
     2
  6
CONTINUOUS
 10
-0.774925
 20
0.605984
  0
VERTEX
  8
PLAN_1
 62
     2
  6
CONTINUOUS
 10
-0.774925
 20
0.621319
  0
VERTEX
  8
PLAN_1
 62
     2
  6
CONTINUOUS
 10
-0.765902
 20
0.621319
  0
VERTEX
  8
PLAN_1
 62
     2
  6
CONTINUOUS
 10
-0.765902
 20
0.605984
  0
VERTEX
  8
PLAN_1
 62
     2
  6
CONTINUOUS
 10
-0.757331
 20
0.605984
  0
VERTEX
  8
PLAN_1
 62
     2
  6
CONTINUOUS
 10
-0.757331
 20
0.598315
  0
VERTEX
  8
PLAN_1
 62
     2
  6
CONTINUOUS
 10
-0.765902
 20
0.598315
  0
SEQEND
  8
0
  0
POLYLINE
  8
PLAN_1
 62
     2
  6
CONTINUOUS
 66
     1
 40
0.003000
 41
0.003000
  0
VERTEX
  8
PLAN_1
 62
     2
  6
CONTINUOUS
 10
-0.737937
 20
0.551406
  0
VERTEX
  8
PLAN_1
 62
     2
  6
CONTINUOUS
 10
-0.746957
 20
0.551406
  0
VERTEX
  8
PLAN_1
 62
     2
  6
CONTINUOUS
 10
-0.746957
 20
0.605984
  0
VERTEX
  8
PLAN_1
 62
     2
  6
CONTINUOUS
 10
-0.738386
 20
0.605984
  0
VERTEX
  8
PLAN_1
 62
     2
  6
CONTINUOUS
 10
-0.738386
 20
0.596961
  0
VERTEX
  8
PLAN_1
 62
     2
  6
CONTINUOUS
 10
-0.737937
 20
0.596961
  0
VERTEX
  8
PLAN_1
 62
     2
  6
CONTINUOUS
 10
-0.736583
 20
0.599217
  0
VERTEX
  8
PLAN_1
 62
     2
  6
CONTINUOUS
 10
-0.735228
 20
0.601472
  0
VERTEX
  8
PLAN_1
 62
     2
  6
CONTINUOUS
 10
-0.733425
 20
0.603276
  0
VERTEX
  8
PLAN_1
 62
     2
  6
CONTINUOUS
 10
-0.731622
 20
0.604630
  0
VERTEX
  8
PLAN_1
 62
     2
  6
CONTINUOUS
 10
-0.729819
 20
0.605984
  0
VERTEX
  8
PLAN_1
 62
     2
  6
CONTINUOUS
 10
-0.727563
 20
0.606886
  0
VERTEX
  8
PLAN_1
 62
     2
  6
CONTINUOUS
 10
-0.725307
 20
0.607335
  0
VERTEX
  8
PLAN_1
 62
     2
  6
CONTINUOUS
 10
-0.723051
 20
0.607335
  0
VERTEX
  8
PLAN_1
 62
     2
  6
CONTINUOUS
 10
-0.722598
 20
0.607335
  0
VERTEX
  8
PLAN_1
 62
     2
  6
CONTINUOUS
 10
-0.722150
 20
0.607335
  0
VERTEX
  8
PLAN_1
 62
     2
  6
CONTINUOUS
 10
-0.721697
 20
0.607335
  0
VERTEX
  8
PLAN_1
 62
     2
  6
CONTINUOUS
 10
-0.721248
 20
0.607335
  0
VERTEX
  8
PLAN_1
 62
     2
  6
CONTINUOUS
 10
-0.720795
 20
0.607335
  0
VERTEX
  8
PLAN_1
 62
     2
  6
CONTINUOUS
 10
-0.720346
 20
0.607335
  0
VERTEX
  8
PLAN_1
 62
     2
  6
CONTINUOUS
 10
-0.720346
 20
0.597862
  0
VERTEX
  8
PLAN_1
 62
     2
  6
CONTINUOUS
 10
-0.723953
 20
0.597862
  0
VERTEX
  8
PLAN_1
 62
     2
  6
CONTINUOUS
 10
-0.727110
 20
0.597413
  0
VERTEX
  8
PLAN_1
 62
     2
  6
CONTINUOUS
 10
-0.729819
 20
0.596512
  0
VERTEX
  8
PLAN_1
 62
     2
  6
CONTINUOUS
 10
-0.732071
 20
0.595157
  0
VERTEX
  8
PLAN_1
 62
     2
  6
CONTINUOUS
 10
-0.733878
 20
0.593354
  0
VERTEX
  8
PLAN_1
 62
     2
  6
CONTINUOUS
 10
-0.735681
 20
0.591098
  0
VERTEX
  8
PLAN_1
 62
     2
  6
CONTINUOUS
 10
-0.737035
 20
0.588843
  0
VERTEX
  8
PLAN_1
 62
     2
  6
CONTINUOUS
 10
-0.737484
 20
0.586138
  0
VERTEX
  8
PLAN_1
 62
     2
  6
CONTINUOUS
 10
-0.737937
 20
0.582980
  0
VERTEX
  8
PLAN_1
 62
     2
  6
CONTINUOUS
 10
-0.737937
 20
0.551406
  0
SEQEND
  8
0
  0
POLYLINE
  8
PLAN_1
 62
     2
  6
CONTINUOUS
 66
     1
 40
0.003000
 41
0.003000
  0
VERTEX
  8
PLAN_1
 62
     2
  6
CONTINUOUS
 10
-0.691476
 20
0.607335
  0
VERTEX
  8
PLAN_1
 62
     2
  6
CONTINUOUS
 10
-0.688319
 20
0.607335
  0
VERTEX
  8
PLAN_1
 62
     2
  6
CONTINUOUS
 10
-0.685161
 20
0.606886
  0
VERTEX
  8
PLAN_1
 62
     2
  6
CONTINUOUS
 10
-0.682457
 20
0.605984
  0
VERTEX
  8
PLAN_1
 62
     2
  6
CONTINUOUS
 10
-0.680201
 20
0.605083
  0
VERTEX
  8
PLAN_1
 62
     2
  6
CONTINUOUS
 10
-0.677945
 20
0.603728
  0
VERTEX
  8
PLAN_1
 62
     2
  6
CONTINUOUS
 10
-0.675689
 20
0.601925
  0
VERTEX
  8
PLAN_1
 62
     2
  6
CONTINUOUS
 10
-0.673886
 20
0.600571
  0
VERTEX
  8
PLAN_1
 62
     2
  6
CONTINUOUS
 10
-0.672083
 20
0.598315
  0
VERTEX
  8
PLAN_1
 62
     2
  6
CONTINUOUS
 10
-0.670728
 20
0.596512
  0
VERTEX
  8
PLAN_1
 62
     2
  6
CONTINUOUS
 10
-0.669374
 20
0.594256
  0
VERTEX
  8
PLAN_1
 62
     2
  6
CONTINUOUS
 10
-0.668472
 20
0.591551
  0
VERTEX
  8
PLAN_1
 62
     2
  6
CONTINUOUS
 10
-0.667571
 20
0.589295
  0
VERTEX
  8
PLAN_1
 62
     2
  6
CONTINUOUS
 10
-0.666669
 20
0.583882
  0
VERTEX
  8
PLAN_1
 62
     2
  6
CONTINUOUS
 10
-0.666217
 20
0.578921
  0
VERTEX
  8
PLAN_1
 62
     2
  6
CONTINUOUS
 10
-0.666669
 20
0.573508
  0
VERTEX
  8
PLAN_1
 62
     2
  6
CONTINUOUS
 10
-0.667571
 20
0.568543
  0
VERTEX
  8
PLAN_1
 62
     2
  6
CONTINUOUS
 10
-0.668472
 20
0.565839
  0
VERTEX
  8
PLAN_1
 62
     2
  6
CONTINUOUS
 10
-0.669374
 20
0.563583
  0
VERTEX
  8
PLAN_1
 62
     2
  6
CONTINUOUS
 10
-0.670728
 20
0.561327
  0
VERTEX
  8
PLAN_1
 62
     2
  6
CONTINUOUS
 10
-0.672083
 20
0.559071
  0
VERTEX
  8
PLAN_1
 62
     2
  6
CONTINUOUS
 10
-0.673886
 20
0.557268
  0
VERTEX
  8
PLAN_1
 62
     2
  6
CONTINUOUS
 10
-0.675689
 20
0.555465
  0
VERTEX
  8
PLAN_1
 62
     2
  6
CONTINUOUS
 10
-0.677945
 20
0.554110
  0
VERTEX
  8
PLAN_1
 62
     2
  6
CONTINUOUS
 10
-0.680201
 20
0.552756
  0
VERTEX
  8
PLAN_1
 62
     2
  6
CONTINUOUS
 10
-0.682457
 20
0.551406
  0
VERTEX
  8
PLAN_1
 62
     2
  6
CONTINUOUS
 10
-0.685161
 20
0.550953
  0
VERTEX
  8
PLAN_1
 62
     2
  6
CONTINUOUS
 10
-0.688319
 20
0.550051
  0
VERTEX
  8
PLAN_1
 62
     2
  6
CONTINUOUS
 10
-0.691476
 20
0.550051
  0
VERTEX
  8
PLAN_1
 62
     2
  6
CONTINUOUS
 10
-0.694634
 20
0.550051
  0
VERTEX
  8
PLAN_1
 62
     2
  6
CONTINUOUS
 10
-0.697343
 20
0.550953
  0
VERTEX
  8
PLAN_1
 62
     2
  6
CONTINUOUS
 10
-0.700047
 20
0.551406
  0
VERTEX
  8
PLAN_1
 62
     2
  6
CONTINUOUS
 10
-0.702752
 20
0.552756
  0
VERTEX
  8
PLAN_1
 62
     2
  6
CONTINUOUS
 10
-0.705008
 20
0.554110
  0
VERTEX
  8
PLAN_1
 62
     2
  6
CONTINUOUS
 10
-0.707264
 20
0.555465
  0
VERTEX
  8
PLAN_1
 62
     2
  6
CONTINUOUS
 10
-0.709067
 20
0.557268
  0
VERTEX
  8
PLAN_1
 62
     2
  6
CONTINUOUS
 10
-0.710421
 20
0.559071
  0
VERTEX
  8
PLAN_1
 62
     2
  6
CONTINUOUS
 10
-0.712224
 20
0.561327
  0
VERTEX
  8
PLAN_1
 62
     2
  6
CONTINUOUS
 10
-0.713130
 20
0.563583
  0
VERTEX
  8
PLAN_1
 62
     2
  6
CONTINUOUS
 10
-0.714480
 20
0.565839
  0
VERTEX
  8
PLAN_1
 62
     2
  6
CONTINUOUS
 10
-0.715382
 20
0.568543
  0
VERTEX
  8
PLAN_1
 62
     2
  6
CONTINUOUS
 10
-0.716283
 20
0.573508
  0
VERTEX
  8
PLAN_1
 62
     2
  6
CONTINUOUS
 10
-0.716736
 20
0.578921
  0
VERTEX
  8
PLAN_1
 62
     2
  6
CONTINUOUS
 10
-0.716283
 20
0.583882
  0
VERTEX
  8
PLAN_1
 62
     2
  6
CONTINUOUS
 10
-0.715382
 20
0.589295
  0
VERTEX
  8
PLAN_1
 62
     2
  6
CONTINUOUS
 10
-0.714480
 20
0.591551
  0
VERTEX
  8
PLAN_1
 62
     2
  6
CONTINUOUS
 10
-0.713130
 20
0.594256
  0
VERTEX
  8
PLAN_1
 62
     2
  6
CONTINUOUS
 10
-0.712224
 20
0.596512
  0
VERTEX
  8
PLAN_1
 62
     2
  6
CONTINUOUS
 10
-0.710421
 20
0.598315
  0
VERTEX
  8
PLAN_1
 62
     2
  6
CONTINUOUS
 10
-0.709067
 20
0.600571
  0
VERTEX
  8
PLAN_1
 62
     2
  6
CONTINUOUS
 10
-0.707264
 20
0.601925
  0
VERTEX
  8
PLAN_1
 62
     2
  6
CONTINUOUS
 10
-0.705008
 20
0.603728
  0
VERTEX
  8
PLAN_1
 62
     2
  6
CONTINUOUS
 10
-0.702752
 20
0.605083
  0
VERTEX
  8
PLAN_1
 62
     2
  6
CONTINUOUS
 10
-0.700047
 20
0.605984
  0
VERTEX
  8
PLAN_1
 62
     2
  6
CONTINUOUS
 10
-0.697343
 20
0.606886
  0
VERTEX
  8
PLAN_1
 62
     2
  6
CONTINUOUS
 10
-0.694634
 20
0.607335
  0
VERTEX
  8
PLAN_1
 62
     2
  6
CONTINUOUS
 10
-0.691476
 20
0.607335
  0
SEQEND
  8
0
  0
POLYLINE
  8
PLAN_1
 62
     2
  6
CONTINUOUS
 66
     1
 40
0.003000
 41
0.003000
  0
VERTEX
  8
PLAN_1
 62
     2
  6
CONTINUOUS
 10
-0.691476
 20
0.558169
  0
VERTEX
  8
PLAN_1
 62
     2
  6
CONTINUOUS
 10
-0.689220
 20
0.558169
  0
VERTEX
  8
PLAN_1
 62
     2
  6
CONTINUOUS
 10
-0.686965
 20
0.558622
  0
VERTEX
  8
PLAN_1
 62
     2
  6
CONTINUOUS
 10
-0.685161
 20
0.559524
  0
VERTEX
  8
PLAN_1
 62
     2
  6
CONTINUOUS
 10
-0.683358
 20
0.560425
  0
VERTEX
  8
PLAN_1
 62
     2
  6
CONTINUOUS
 10
-0.682004
 20
0.561327
  0
VERTEX
  8
PLAN_1
 62
     2
  6
CONTINUOUS
 10
-0.680650
 20
0.562681
  0
VERTEX
  8
PLAN_1
 62
     2
  6
CONTINUOUS
 10
-0.679748
 20
0.564035
  0
VERTEX
  8
PLAN_1
 62
     2
  6
CONTINUOUS
 10
-0.678398
 20
0.565839
  0
VERTEX
  8
PLAN_1
 62
     2
  6
CONTINUOUS
 10
-0.677043
 20
0.568996
  0
VERTEX
  8
PLAN_1
 62
     2
  6
CONTINUOUS
 10
-0.676142
 20
0.572606
  0
VERTEX
  8
PLAN_1
 62
     2
  6
CONTINUOUS
 10
-0.675689
 20
0.575764
  0
VERTEX
  8
PLAN_1
 62
     2
  6
CONTINUOUS
 10
-0.675689
 20
0.578921
  0
VERTEX
  8
PLAN_1
 62
     2
  6
CONTINUOUS
 10
-0.675689
 20
0.581626
  0
VERTEX
  8
PLAN_1
 62
     2
  6
CONTINUOUS
 10
-0.676142
 20
0.585236
  0
VERTEX
  8
PLAN_1
 62
     2
  6
CONTINUOUS
 10
-0.677043
 20
0.588394
  0
VERTEX
  8
PLAN_1
 62
     2
  6
CONTINUOUS
 10
-0.678398
 20
0.592000
  0
VERTEX
  8
PLAN_1
 62
     2
  6
CONTINUOUS
 10
-0.680650
 20
0.595157
  0
VERTEX
  8
PLAN_1
 62
     2
  6
CONTINUOUS
 10
-0.683358
 20
0.597413
  0
VERTEX
  8
PLAN_1
 62
     2
  6
CONTINUOUS
 10
-0.685161
 20
0.598315
  0
VERTEX
  8
PLAN_1
 62
     2
  6
CONTINUOUS
 10
-0.686965
 20
0.599217
  0
VERTEX
  8
PLAN_1
 62
     2
  6
CONTINUOUS
 10
-0.689220
 20
0.599669
  0
VERTEX
  8
PLAN_1
 62
     2
  6
CONTINUOUS
 10
-0.691476
 20
0.599669
  0
VERTEX
  8
PLAN_1
 62
     2
  6
CONTINUOUS
 10
-0.693732
 20
0.599669
  0
VERTEX
  8
PLAN_1
 62
     2
  6
CONTINUOUS
 10
-0.695988
 20
0.599217
  0
VERTEX
  8
PLAN_1
 62
     2
  6
CONTINUOUS
 10
-0.697791
 20
0.598315
  0
VERTEX
  8
PLAN_1
 62
     2
  6
CONTINUOUS
 10
-0.699594
 20
0.597413
  0
VERTEX
  8
PLAN_1
 62
     2
  6
CONTINUOUS
 10
-0.702303
 20
0.595157
  0
VERTEX
  8
PLAN_1
 62
     2
  6
CONTINUOUS
 10
-0.704106
 20
0.592000
  0
VERTEX
  8
PLAN_1
 62
     2
  6
CONTINUOUS
 10
-0.705461
 20
0.588394
  0
VERTEX
  8
PLAN_1
 62
     2
  6
CONTINUOUS
 10
-0.706815
 20
0.585236
  0
VERTEX
  8
PLAN_1
 62
     2
  6
CONTINUOUS
 10
-0.707264
 20
0.581626
  0
VERTEX
  8
PLAN_1
 62
     2
  6
CONTINUOUS
 10
-0.707264
 20
0.578921
  0
VERTEX
  8
PLAN_1
 62
     2
  6
CONTINUOUS
 10
-0.707264
 20
0.575764
  0
VERTEX
  8
PLAN_1
 62
     2
  6
CONTINUOUS
 10
-0.706815
 20
0.572606
  0
VERTEX
  8
PLAN_1
 62
     2
  6
CONTINUOUS
 10
-0.705461
 20
0.568996
  0
VERTEX
  8
PLAN_1
 62
     2
  6
CONTINUOUS
 10
-0.704106
 20
0.565839
  0
VERTEX
  8
PLAN_1
 62
     2
  6
CONTINUOUS
 10
-0.703205
 20
0.564035
  0
VERTEX
  8
PLAN_1
 62
     2
  6
CONTINUOUS
 10
-0.702303
 20
0.562681
  0
VERTEX
  8
PLAN_1
 62
     2
  6
CONTINUOUS
 10
-0.700949
 20
0.561327
  0
VERTEX
  8
PLAN_1
 62
     2
  6
CONTINUOUS
 10
-0.699594
 20
0.560425
  0
VERTEX
  8
PLAN_1
 62
     2
  6
CONTINUOUS
 10
-0.697791
 20
0.559524
  0
VERTEX
  8
PLAN_1
 62
     2
  6
CONTINUOUS
 10
-0.695988
 20
0.558622
  0
VERTEX
  8
PLAN_1
 62
     2
  6
CONTINUOUS
 10
-0.693732
 20
0.558169
  0
VERTEX
  8
PLAN_1
 62
     2
  6
CONTINUOUS
 10
-0.691476
 20
0.558169
  0
SEQEND
  8
0
  0
POLYLINE
  8
PLAN_1
 62
     2
  6
CONTINUOUS
 66
     1
 40
0.003000
 41
0.003000
  0
VERTEX
  8
PLAN_1
 62
     2
  6
CONTINUOUS
 10
-0.620209
 20
0.551406
  0
VERTEX
  8
PLAN_1
 62
     2
  6
CONTINUOUS
 10
-0.620209
 20
0.559524
  0
VERTEX
  8
PLAN_1
 62
     2
  6
CONTINUOUS
 10
-0.622012
 20
0.557268
  0
VERTEX
  8
PLAN_1
 62
     2
  6
CONTINUOUS
 10
-0.623366
 20
0.555465
  0
VERTEX
  8
PLAN_1
 62
     2
  6
CONTINUOUS
 10
-0.625169
 20
0.553661
  0
VERTEX
  8
PLAN_1
 62
     2
  6
CONTINUOUS
 10
-0.627425
 20
0.552307
  0
VERTEX
  8
PLAN_1
 62
     2
  6
CONTINUOUS
 10
-0.629232
 20
0.551406
  0
VERTEX
  8
PLAN_1
 62
     2
  6
CONTINUOUS
 10
-0.631937
 20
0.550504
  0
VERTEX
  8
PLAN_1
 62
     2
  6
CONTINUOUS
 10
-0.634642
 20
0.550051
  0
VERTEX
  8
PLAN_1
 62
     2
  6
CONTINUOUS
 10
-0.637799
 20
0.550051
  0
VERTEX
  8
PLAN_1
 62
     2
  6
CONTINUOUS
 10
-0.640957
 20
0.550051
  0
VERTEX
  8
PLAN_1
 62
     2
  6
CONTINUOUS
 10
-0.643665
 20
0.550953
  0
VERTEX
  8
PLAN_1
 62
     2
  6
CONTINUOUS
 10
-0.646823
 20
0.551854
  0
VERTEX
  8
PLAN_1
 62
     2
  6
CONTINUOUS
 10
-0.649528
 20
0.553661
  0
VERTEX
  8
PLAN_1
 62
     2
  6
CONTINUOUS
 10
-0.651783
 20
0.555913
  0
VERTEX
  8
PLAN_1
 62
     2
  6
CONTINUOUS
 10
-0.653587
 20
0.558622
  0
VERTEX
  8
PLAN_1
 62
     2
  6
CONTINUOUS
 10
-0.654488
 20
0.560425
  0
VERTEX
  8
PLAN_1
 62
     2
  6
CONTINUOUS
 10
-0.654941
 20
0.562228
  0
VERTEX
  8
PLAN_1
 62
     2
  6
CONTINUOUS
 10
-0.655394
 20
0.564484
  0
VERTEX
  8
PLAN_1
 62
     2
  6
CONTINUOUS
 10
-0.655394
 20
0.566740
  0
VERTEX
  8
PLAN_1
 62
     2
  6
CONTINUOUS
 10
-0.655394
 20
0.605984
  0
VERTEX
  8
PLAN_1
 62
     2
  6
CONTINUOUS
 10
-0.646370
 20
0.605984
  0
VERTEX
  8
PLAN_1
 62
     2
  6
CONTINUOUS
 10
-0.646370
 20
0.569898
  0
VERTEX
  8
PLAN_1
 62
     2
  6
CONTINUOUS
 10
-0.645921
 20
0.566740
  0
VERTEX
  8
PLAN_1
 62
     2
  6
CONTINUOUS
 10
-0.645469
 20
0.564035
  0
VERTEX
  8
PLAN_1
 62
     2
  6
CONTINUOUS
 10
-0.644567
 20
0.562228
  0
VERTEX
  8
PLAN_1
 62
     2
  6
CONTINUOUS
 10
-0.643213
 20
0.560425
  0
VERTEX
  8
PLAN_1
 62
     2
  6
CONTINUOUS
 10
-0.641858
 20
0.559524
  0
VERTEX
  8
PLAN_1
 62
     2
  6
CONTINUOUS
 10
-0.640055
 20
0.558622
  0
VERTEX
  8
PLAN_1
 62
     2
  6
CONTINUOUS
 10
-0.637799
 20
0.558169
  0
VERTEX
  8
PLAN_1
 62
     2
  6
CONTINUOUS
 10
-0.635543
 20
0.557720
  0
VERTEX
  8
PLAN_1
 62
     2
  6
CONTINUOUS
 10
-0.633740
 20
0.558169
  0
VERTEX
  8
PLAN_1
 62
     2
  6
CONTINUOUS
 10
-0.631937
 20
0.558169
  0
VERTEX
  8
PLAN_1
 62
     2
  6
CONTINUOUS
 10
-0.630134
 20
0.559071
  0
VERTEX
  8
PLAN_1
 62
     2
  6
CONTINUOUS
 10
-0.628327
 20
0.559524
  0
VERTEX
  8
PLAN_1
 62
     2
  6
CONTINUOUS
 10
-0.626075
 20
0.561327
  0
VERTEX
  8
PLAN_1
 62
     2
  6
CONTINUOUS
 10
-0.623819
 20
0.564035
  0
VERTEX
  8
PLAN_1
 62
     2
  6
CONTINUOUS
 10
-0.622465
 20
0.566740
  0
VERTEX
  8
PLAN_1
 62
     2
  6
CONTINUOUS
 10
-0.621563
 20
0.569898
  0
VERTEX
  8
PLAN_1
 62
     2
  6
CONTINUOUS
 10
-0.621110
 20
0.573055
  0
VERTEX
  8
PLAN_1
 62
     2
  6
CONTINUOUS
 10
-0.620661
 20
0.576213
  0
VERTEX
  8
PLAN_1
 62
     2
  6
CONTINUOUS
 10
-0.620661
 20
0.605984
  0
VERTEX
  8
PLAN_1
 62
     2
  6
CONTINUOUS
 10
-0.611638
 20
0.605984
  0
VERTEX
  8
PLAN_1
 62
     2
  6
CONTINUOUS
 10
-0.611638
 20
0.551406
  0
VERTEX
  8
PLAN_1
 62
     2
  6
CONTINUOUS
 10
-0.620209
 20
0.551406
  0
SEQEND
  8
0
  0
POLYLINE
  8
PLAN_1
 62
     2
  6
CONTINUOUS
 66
     1
 40
0.003000
 41
0.003000
  0
VERTEX
  8
PLAN_1
 62
     2
  6
CONTINUOUS
 10
-0.566984
 20
0.590646
  0
VERTEX
  8
PLAN_1
 62
     2
  6
CONTINUOUS
 10
-0.566984
 20
0.592000
  0
VERTEX
  8
PLAN_1
 62
     2
  6
CONTINUOUS
 10
-0.567433
 20
0.593354
  0
VERTEX
  8
PLAN_1
 62
     2
  6
CONTINUOUS
 10
-0.567886
 20
0.594705
  0
VERTEX
  8
PLAN_1
 62
     2
  6
CONTINUOUS
 10
-0.569240
 20
0.596512
  0
VERTEX
  8
PLAN_1
 62
     2
  6
CONTINUOUS
 10
-0.570591
 20
0.597413
  0
VERTEX
  8
PLAN_1
 62
     2
  6
CONTINUOUS
 10
-0.572846
 20
0.598768
  0
VERTEX
  8
PLAN_1
 62
     2
  6
CONTINUOUS
 10
-0.576004
 20
0.599217
  0
VERTEX
  8
PLAN_1
 62
     2
  6
CONTINUOUS
 10
-0.579614
 20
0.599669
  0
VERTEX
  8
PLAN_1
 62
     2
  6
CONTINUOUS
 10
-0.580969
 20
0.599669
  0
VERTEX
  8
PLAN_1
 62
     2
  6
CONTINUOUS
 10
-0.582772
 20
0.599217
  0
VERTEX
  8
PLAN_1
 62
     2
  6
CONTINUOUS
 10
-0.584575
 20
0.598768
  0
VERTEX
  8
PLAN_1
 62
     2
  6
CONTINUOUS
 10
-0.586378
 20
0.598315
  0
VERTEX
  8
PLAN_1
 62
     2
  6
CONTINUOUS
 10
-0.587732
 20
0.597413
  0
VERTEX
  8
PLAN_1
 62
     2
  6
CONTINUOUS
 10
-0.589087
 20
0.596059
  0
VERTEX
  8
PLAN_1
 62
     2
  6
CONTINUOUS
 10
-0.590437
 20
0.594256
  0
VERTEX
  8
PLAN_1
 62
     2
  6
CONTINUOUS
 10
-0.590437
 20
0.592000
  0
VERTEX
  8
PLAN_1
 62
     2
  6
CONTINUOUS
 10
-0.590437
 20
0.590197
  0
VERTEX
  8
PLAN_1
 62
     2
  6
CONTINUOUS
 10
-0.589988
 20
0.589295
  0
VERTEX
  8
PLAN_1
 62
     2
  6
CONTINUOUS
 10
-0.589535
 20
0.587941
  0
VERTEX
  8
PLAN_1
 62
     2
  6
CONTINUOUS
 10
-0.588185
 20
0.587488
  0
VERTEX
  8
PLAN_1
 62
     2
  6
CONTINUOUS
 10
-0.586831
 20
0.586587
  0
VERTEX
  8
PLAN_1
 62
     2
  6
CONTINUOUS
 10
-0.585028
 20
0.585685
  0
VERTEX
  8
PLAN_1
 62
     2
  6
CONTINUOUS
 10
-0.583220
 20
0.585236
  0
VERTEX
  8
PLAN_1
 62
     2
  6
CONTINUOUS
 10
-0.580516
 20
0.584783
  0
VERTEX
  8
PLAN_1
 62
     2
  6
CONTINUOUS
 10
-0.571496
 20
0.582528
  0
VERTEX
  8
PLAN_1
 62
     2
  6
CONTINUOUS
 10
-0.567433
 20
0.581173
  0
VERTEX
  8
PLAN_1
 62
     2
  6
CONTINUOUS
 10
-0.564276
 20
0.579823
  0
VERTEX
  8
PLAN_1
 62
     2
  6
CONTINUOUS
 10
-0.561571
 20
0.578469
  0
VERTEX
  8
PLAN_1
 62
     2
  6
CONTINUOUS
 10
-0.559768
 20
0.577114
  0
VERTEX
  8
PLAN_1
 62
     2
  6
CONTINUOUS
 10
-0.557961
 20
0.574858
  0
VERTEX
  8
PLAN_1
 62
     2
  6
CONTINUOUS
 10
-0.557059
 20
0.573055
  0
VERTEX
  8
PLAN_1
 62
     2
  6
CONTINUOUS
 10
-0.556610
 20
0.570799
  0
VERTEX
  8
PLAN_1
 62
     2
  6
CONTINUOUS
 10
-0.556157
 20
0.568094
  0
VERTEX
  8
PLAN_1
 62
     2
  6
CONTINUOUS
 10
-0.556610
 20
0.564035
  0
VERTEX
  8
PLAN_1
 62
     2
  6
CONTINUOUS
 10
-0.557961
 20
0.560425
  0
VERTEX
  8
PLAN_1
 62
     2
  6
CONTINUOUS
 10
-0.559768
 20
0.557268
  0
VERTEX
  8
PLAN_1
 62
     2
  6
CONTINUOUS
 10
-0.562472
 20
0.554563
  0
VERTEX
  8
PLAN_1
 62
     2
  6
CONTINUOUS
 10
-0.565630
 20
0.552756
  0
VERTEX
  8
PLAN_1
 62
     2
  6
CONTINUOUS
 10
-0.569240
 20
0.551406
  0
VERTEX
  8
PLAN_1
 62
     2
  6
CONTINUOUS
 10
-0.573299
 20
0.550504
  0
VERTEX
  8
PLAN_1
 62
     2
  6
CONTINUOUS
 10
-0.577811
 20
0.550051
  0
VERTEX
  8
PLAN_1
 62
     2
  6
CONTINUOUS
 10
-0.581417
 20
0.550051
  0
VERTEX
  8
PLAN_1
 62
     2
  6
CONTINUOUS
 10
-0.585028
 20
0.550504
  0
VERTEX
  8
PLAN_1
 62
     2
  6
CONTINUOUS
 10
-0.587732
 20
0.551406
  0
VERTEX
  8
PLAN_1
 62
     2
  6
CONTINUOUS
 10
-0.590437
 20
0.551854
  0
VERTEX
  8
PLAN_1
 62
     2
  6
CONTINUOUS
 10
-0.592693
 20
0.553209
  0
VERTEX
  8
PLAN_1
 62
     2
  6
CONTINUOUS
 10
-0.594500
 20
0.554110
  0
VERTEX
  8
PLAN_1
 62
     2
  6
CONTINUOUS
 10
-0.596303
 20
0.555465
  0
VERTEX
  8
PLAN_1
 62
     2
  6
CONTINUOUS
 10
-0.597657
 20
0.557268
  0
VERTEX
  8
PLAN_1
 62
     2
  6
CONTINUOUS
 10
-0.599461
 20
0.559976
  0
VERTEX
  8
PLAN_1
 62
     2
  6
CONTINUOUS
 10
-0.600362
 20
0.563134
  0
VERTEX
  8
PLAN_1
 62
     2
  6
CONTINUOUS
 10
-0.600815
 20
0.566291
  0
VERTEX
  8
PLAN_1
 62
     2
  6
CONTINUOUS
 10
-0.601264
 20
0.568996
  0
VERTEX
  8
PLAN_1
 62
     2
  6
CONTINUOUS
 10
-0.592244
 20
0.568996
  0
VERTEX
  8
PLAN_1
 62
     2
  6
CONTINUOUS
 10
-0.592244
 20
0.567193
  0
VERTEX
  8
PLAN_1
 62
     2
  6
CONTINUOUS
 10
-0.591791
 20
0.565386
  0
VERTEX
  8
PLAN_1
 62
     2
  6
CONTINUOUS
 10
-0.590890
 20
0.563583
  0
VERTEX
  8
PLAN_1
 62
     2
  6
CONTINUOUS
 10
-0.589988
 20
0.561780
  0
VERTEX
  8
PLAN_1
 62
     2
  6
CONTINUOUS
 10
-0.588185
 20
0.560425
  0
VERTEX
  8
PLAN_1
 62
     2
  6
CONTINUOUS
 10
-0.585476
 20
0.559071
  0
VERTEX
  8
PLAN_1
 62
     2
  6
CONTINUOUS
 10
-0.582319
 20
0.558169
  0
VERTEX
  8
PLAN_1
 62
     2
  6
CONTINUOUS
 10
-0.577811
 20
0.557720
  0
VERTEX
  8
PLAN_1
 62
     2
  6
CONTINUOUS
 10
-0.575555
 20
0.558169
  0
VERTEX
  8
PLAN_1
 62
     2
  6
CONTINUOUS
 10
-0.573299
 20
0.558622
  0
VERTEX
  8
PLAN_1
 62
     2
  6
CONTINUOUS
 10
-0.571043
 20
0.559071
  0
VERTEX
  8
PLAN_1
 62
     2
  6
CONTINUOUS
 10
-0.569240
 20
0.559976
  0
VERTEX
  8
PLAN_1
 62
     2
  6
CONTINUOUS
 10
-0.567433
 20
0.561327
  0
VERTEX
  8
PLAN_1
 62
     2
  6
CONTINUOUS
 10
-0.566531
 20
0.562681
  0
VERTEX
  8
PLAN_1
 62
     2
  6
CONTINUOUS
 10
-0.565630
 20
0.564484
  0
VERTEX
  8
PLAN_1
 62
     2
  6
CONTINUOUS
 10
-0.565630
 20
0.566740
  0
VERTEX
  8
PLAN_1
 62
     2
  6
CONTINUOUS
 10
-0.565630
 20
0.568094
  0
VERTEX
  8
PLAN_1
 62
     2
  6
CONTINUOUS
 10
-0.566083
 20
0.569449
  0
VERTEX
  8
PLAN_1
 62
     2
  6
CONTINUOUS
 10
-0.566984
 20
0.570350
  0
VERTEX
  8
PLAN_1
 62
     2
  6
CONTINUOUS
 10
-0.567886
 20
0.571252
  0
VERTEX
  8
PLAN_1
 62
     2
  6
CONTINUOUS
 10
-0.569240
 20
0.572154
  0
VERTEX
  8
PLAN_1
 62
     2
  6
CONTINUOUS
 10
-0.571496
 20
0.573055
  0
VERTEX
  8
PLAN_1
 62
     2
  6
CONTINUOUS
 10
-0.573748
 20
0.573508
  0
VERTEX
  8
PLAN_1
 62
     2
  6
CONTINUOUS
 10
-0.576457
 20
0.574409
  0
VERTEX
  8
PLAN_1
 62
     2
  6
CONTINUOUS
 10
-0.586831
 20
0.577114
  0
VERTEX
  8
PLAN_1
 62
     2
  6
CONTINUOUS
 10
-0.589535
 20
0.577567
  0
VERTEX
  8
PLAN_1
 62
     2
  6
CONTINUOUS
 10
-0.592244
 20
0.578921
  0
VERTEX
  8
PLAN_1
 62
     2
  6
CONTINUOUS
 10
-0.594047
 20
0.579823
  0
VERTEX
  8
PLAN_1
 62
     2
  6
CONTINUOUS
 10
-0.595850
 20
0.581626
  0
VERTEX
  8
PLAN_1
 62
     2
  6
CONTINUOUS
 10
-0.597657
 20
0.582980
  0
VERTEX
  8
PLAN_1
 62
     2
  6
CONTINUOUS
 10
-0.598559
 20
0.585236
  0
VERTEX
  8
PLAN_1
 62
     2
  6
CONTINUOUS
 10
-0.599008
 20
0.587488
  0
VERTEX
  8
PLAN_1
 62
     2
  6
CONTINUOUS
 10
-0.599461
 20
0.590197
  0
VERTEX
  8
PLAN_1
 62
     2
  6
CONTINUOUS
 10
-0.599461
 20
0.592453
  0
VERTEX
  8
PLAN_1
 62
     2
  6
CONTINUOUS
 10
-0.599008
 20
0.594256
  0
VERTEX
  8
PLAN_1
 62
     2
  6
CONTINUOUS
 10
-0.598559
 20
0.596059
  0
VERTEX
  8
PLAN_1
 62
     2
  6
CONTINUOUS
 10
-0.597657
 20
0.597862
  0
VERTEX
  8
PLAN_1
 62
     2
  6
CONTINUOUS
 10
-0.595850
 20
0.601020
  0
VERTEX
  8
PLAN_1
 62
     2
  6
CONTINUOUS
 10
-0.593146
 20
0.603276
  0
VERTEX
  8
PLAN_1
 62
     2
  6
CONTINUOUS
 10
-0.589988
 20
0.605083
  0
VERTEX
  8
PLAN_1
 62
     2
  6
CONTINUOUS
 10
-0.586378
 20
0.606433
  0
VERTEX
  8
PLAN_1
 62
     2
  6
CONTINUOUS
 10
-0.582772
 20
0.607335
  0
VERTEX
  8
PLAN_1
 62
     2
  6
CONTINUOUS
 10
-0.578713
 20
0.607335
  0
VERTEX
  8
PLAN_1
 62
     2
  6
CONTINUOUS
 10
-0.575555
 20
0.607335
  0
VERTEX
  8
PLAN_1
 62
     2
  6
CONTINUOUS
 10
-0.572398
 20
0.606886
  0
VERTEX
  8
PLAN_1
 62
     2
  6
CONTINUOUS
 10
-0.569689
 20
0.605984
  0
VERTEX
  8
PLAN_1
 62
     2
  6
CONTINUOUS
 10
-0.567433
 20
0.605083
  0
VERTEX
  8
PLAN_1
 62
     2
  6
CONTINUOUS
 10
-0.565181
 20
0.604177
  0
VERTEX
  8
PLAN_1
 62
     2
  6
CONTINUOUS
 10
-0.563827
 20
0.602827
  0
VERTEX
  8
PLAN_1
 62
     2
  6
CONTINUOUS
 10
-0.562472
 20
0.601472
  0
VERTEX
  8
PLAN_1
 62
     2
  6
CONTINUOUS
 10
-0.561118
 20
0.600118
  0
VERTEX
  8
PLAN_1
 62
     2
  6
CONTINUOUS
 10
-0.559315
 20
0.596961
  0
VERTEX
  8
PLAN_1
 62
     2
  6
CONTINUOUS
 10
-0.558413
 20
0.594256
  0
VERTEX
  8
PLAN_1
 62
     2
  6
CONTINUOUS
 10
-0.557961
 20
0.592000
  0
VERTEX
  8
PLAN_1
 62
     2
  6
CONTINUOUS
 10
-0.557961
 20
0.590646
  0
VERTEX
  8
PLAN_1
 62
     2
  6
CONTINUOUS
 10
-0.566984
 20
0.590646
  0
SEQEND
  8
0
  0
POLYLINE
  8
PLAN_1
 62
     2
  6
CONTINUOUS
 66
     1
 40
0.003000
 41
0.003000
  0
VERTEX
  8
PLAN_1
 62
     2
  6
CONTINUOUS
 10
-0.505638
 20
0.598315
  0
VERTEX
  8
PLAN_1
 62
     2
  6
CONTINUOUS
 10
-0.505638
 20
0.563134
  0
VERTEX
  8
PLAN_1
 62
     2
  6
CONTINUOUS
 10
-0.505189
 20
0.561780
  0
VERTEX
  8
PLAN_1
 62
     2
  6
CONTINUOUS
 10
-0.504736
 20
0.560425
  0
VERTEX
  8
PLAN_1
 62
     2
  6
CONTINUOUS
 10
-0.504287
 20
0.559976
  0
VERTEX
  8
PLAN_1
 62
     2
  6
CONTINUOUS
 10
-0.503386
 20
0.559071
  0
VERTEX
  8
PLAN_1
 62
     2
  6
CONTINUOUS
 10
-0.502480
 20
0.559071
  0
VERTEX
  8
PLAN_1
 62
     2
  6
CONTINUOUS
 10
-0.501579
 20
0.558622
  0
VERTEX
  8
PLAN_1
 62
     2
  6
CONTINUOUS
 10
-0.500677
 20
0.558622
  0
VERTEX
  8
PLAN_1
 62
     2
  6
CONTINUOUS
 10
-0.500228
 20
0.558622
  0
VERTEX
  8
PLAN_1
 62
     2
  6
CONTINUOUS
 10
-0.496618
 20
0.558622
  0
VERTEX
  8
PLAN_1
 62
     2
  6
CONTINUOUS
 10
-0.496618
 20
0.551406
  0
VERTEX
  8
PLAN_1
 62
     2
  6
CONTINUOUS
 10
-0.497972
 20
0.551406
  0
VERTEX
  8
PLAN_1
 62
     2
  6
CONTINUOUS
 10
-0.499323
 20
0.551406
  0
VERTEX
  8
PLAN_1
 62
     2
  6
CONTINUOUS
 10
-0.500228
 20
0.551406
  0
VERTEX
  8
PLAN_1
 62
     2
  6
CONTINUOUS
 10
-0.501130
 20
0.550953
  0
VERTEX
  8
PLAN_1
 62
     2
  6
CONTINUOUS
 10
-0.502031
 20
0.550953
  0
VERTEX
  8
PLAN_1
 62
     2
  6
CONTINUOUS
 10
-0.502480
 20
0.550953
  0
VERTEX
  8
PLAN_1
 62
     2
  6
CONTINUOUS
 10
-0.503386
 20
0.550953
  0
VERTEX
  8
PLAN_1
 62
     2
  6
CONTINUOUS
 10
-0.503835
 20
0.550953
  0
VERTEX
  8
PLAN_1
 62
     2
  6
CONTINUOUS
 10
-0.506539
 20
0.550953
  0
VERTEX
  8
PLAN_1
 62
     2
  6
CONTINUOUS
 10
-0.509248
 20
0.551854
  0
VERTEX
  8
PLAN_1
 62
     2
  6
CONTINUOUS
 10
-0.511051
 20
0.552756
  0
VERTEX
  8
PLAN_1
 62
     2
  6
CONTINUOUS
 10
-0.512406
 20
0.554110
  0
VERTEX
  8
PLAN_1
 62
     2
  6
CONTINUOUS
 10
-0.513760
 20
0.555913
  0
VERTEX
  8
PLAN_1
 62
     2
  6
CONTINUOUS
 10
-0.514209
 20
0.557720
  0
VERTEX
  8
PLAN_1
 62
     2
  6
CONTINUOUS
 10
-0.514661
 20
0.559976
  0
VERTEX
  8
PLAN_1
 62
     2
  6
CONTINUOUS
 10
-0.514661
 20
0.562681
  0
VERTEX
  8
PLAN_1
 62
     2
  6
CONTINUOUS
 10
-0.514661
 20
0.598315
  0
VERTEX
  8
PLAN_1
 62
     2
  6
CONTINUOUS
 10
-0.521878
 20
0.598315
  0
VERTEX
  8
PLAN_1
 62
     2
  6
CONTINUOUS
 10
-0.521878
 20
0.605984
  0
VERTEX
  8
PLAN_1
 62
     2
  6
CONTINUOUS
 10
-0.514661
 20
0.605984
  0
VERTEX
  8
PLAN_1
 62
     2
  6
CONTINUOUS
 10
-0.514661
 20
0.621319
  0
VERTEX
  8
PLAN_1
 62
     2
  6
CONTINUOUS
 10
-0.505638
 20
0.621319
  0
VERTEX
  8
PLAN_1
 62
     2
  6
CONTINUOUS
 10
-0.505638
 20
0.605984
  0
VERTEX
  8
PLAN_1
 62
     2
  6
CONTINUOUS
 10
-0.496618
 20
0.605984
  0
VERTEX
  8
PLAN_1
 62
     2
  6
CONTINUOUS
 10
-0.496618
 20
0.598315
  0
VERTEX
  8
PLAN_1
 62
     2
  6
CONTINUOUS
 10
-0.505638
 20
0.598315
  0
SEQEND
  8
0
  0
POLYLINE
  8
PLAN_1
 62
     2
  6
CONTINUOUS
 66
     1
 40
0.003000
 41
0.003000
  0
VERTEX
  8
PLAN_1
 62
     2
  6
CONTINUOUS
 10
-0.488047
 20
0.589295
  0
VERTEX
  8
PLAN_1
 62
     2
  6
CONTINUOUS
 10
-0.487598
 20
0.593803
  0
VERTEX
  8
PLAN_1
 62
     2
  6
CONTINUOUS
 10
-0.486244
 20
0.597862
  0
VERTEX
  8
PLAN_1
 62
     2
  6
CONTINUOUS
 10
-0.485343
 20
0.599217
  0
VERTEX
  8
PLAN_1
 62
     2
  6
CONTINUOUS
 10
-0.484441
 20
0.601020
  0
VERTEX
  8
PLAN_1
 62
     2
  6
CONTINUOUS
 10
-0.483087
 20
0.602374
  0
VERTEX
  8
PLAN_1
 62
     2
  6
CONTINUOUS
 10
-0.481732
 20
0.603276
  0
VERTEX
  8
PLAN_1
 62
     2
  6
CONTINUOUS
 10
-0.478575
 20
0.605083
  0
VERTEX
  8
PLAN_1
 62
     2
  6
CONTINUOUS
 10
-0.474969
 20
0.606433
  0
VERTEX
  8
PLAN_1
 62
     2
  6
CONTINUOUS
 10
-0.470457
 20
0.607335
  0
VERTEX
  8
PLAN_1
 62
     2
  6
CONTINUOUS
 10
-0.465496
 20
0.607335
  0
VERTEX
  8
PLAN_1
 62
     2
  6
CONTINUOUS
 10
-0.463689
 20
0.607335
  0
VERTEX
  8
PLAN_1
 62
     2
  6
CONTINUOUS
 10
-0.460531
 20
0.607335
  0
VERTEX
  8
PLAN_1
 62
     2
  6
CONTINUOUS
 10
-0.457374
 20
0.606433
  0
VERTEX
  8
PLAN_1
 62
     2
  6
CONTINUOUS
 10
-0.453768
 20
0.605083
  0
VERTEX
  8
PLAN_1
 62
     2
  6
CONTINUOUS
 10
-0.452413
 20
0.604177
  0
VERTEX
  8
PLAN_1
 62
     2
  6
CONTINUOUS
 10
-0.450610
 20
0.603276
  0
VERTEX
  8
PLAN_1
 62
     2
  6
CONTINUOUS
 10
-0.449256
 20
0.601925
  0
VERTEX
  8
PLAN_1
 62
     2
  6
CONTINUOUS
 10
-0.447902
 20
0.600571
  0
VERTEX
  8
PLAN_1
 62
     2
  6
CONTINUOUS
 10
-0.447000
 20
0.598768
  0
VERTEX
  8
PLAN_1
 62
     2
  6
CONTINUOUS
 10
-0.446098
 20
0.596961
  0
VERTEX
  8
PLAN_1
 62
     2
  6
CONTINUOUS
 10
-0.445650
 20
0.594705
  0
VERTEX
  8
PLAN_1
 62
     2
  6
CONTINUOUS
 10
-0.445650
 20
0.592453
  0
VERTEX
  8
PLAN_1
 62
     2
  6
CONTINUOUS
 10
-0.445650
 20
0.560878
  0
VERTEX
  8
PLAN_1
 62
     2
  6
CONTINUOUS
 10
-0.445650
 20
0.560425
  0
VERTEX
  8
PLAN_1
 62
     2
  6
CONTINUOUS
 10
-0.445197
 20
0.559524
  0
VERTEX
  8
PLAN_1
 62
     2
  6
CONTINUOUS
 10
-0.445197
 20
0.559071
  0
VERTEX
  8
PLAN_1
 62
     2
  6
CONTINUOUS
 10
-0.444744
 20
0.558622
  0
VERTEX
  8
PLAN_1
 62
     2
  6
CONTINUOUS
 10
-0.444295
 20
0.558169
  0
VERTEX
  8
PLAN_1
 62
     2
  6
CONTINUOUS
 10
-0.443843
 20
0.558169
  0
VERTEX
  8
PLAN_1
 62
     2
  6
CONTINUOUS
 10
-0.442941
 20
0.557720
  0
VERTEX
  8
PLAN_1
 62
     2
  6
CONTINUOUS
 10
-0.442492
 20
0.557720
  0
VERTEX
  8
PLAN_1
 62
     2
  6
CONTINUOUS
 10
-0.442039
 20
0.557720
  0
VERTEX
  8
PLAN_1
 62
     2
  6
CONTINUOUS
 10
-0.441587
 20
0.557720
  0
VERTEX
  8
PLAN_1
 62
     2
  6
CONTINUOUS
 10
-0.441138
 20
0.557720
  0
VERTEX
  8
PLAN_1
 62
     2
  6
CONTINUOUS
 10
-0.440685
 20
0.558169
  0
VERTEX
  8
PLAN_1
 62
     2
  6
CONTINUOUS
 10
-0.440236
 20
0.558169
  0
VERTEX
  8
PLAN_1
 62
     2
  6
CONTINUOUS
 10
-0.439783
 20
0.558169
  0
VERTEX
  8
PLAN_1
 62
     2
  6
CONTINUOUS
 10
-0.439335
 20
0.558169
  0
VERTEX
  8
PLAN_1
 62
     2
  6
CONTINUOUS
 10
-0.439335
 20
0.551406
  0
VERTEX
  8
PLAN_1
 62
     2
  6
CONTINUOUS
 10
-0.440236
 20
0.551406
  0
VERTEX
  8
PLAN_1
 62
     2
  6
CONTINUOUS
 10
-0.440685
 20
0.551406
  0
VERTEX
  8
PLAN_1
 62
     2
  6
CONTINUOUS
 10
-0.441138
 20
0.550953
  0
VERTEX
  8
PLAN_1
 62
     2
  6
CONTINUOUS
 10
-0.441587
 20
0.550953
  0
VERTEX
  8
PLAN_1
 62
     2
  6
CONTINUOUS
 10
-0.442492
 20
0.550953
  0
VERTEX
  8
PLAN_1
 62
     2
  6
CONTINUOUS
 10
-0.442941
 20
0.550504
  0
VERTEX
  8
PLAN_1
 62
     2
  6
CONTINUOUS
 10
-0.443843
 20
0.550504
  0
VERTEX
  8
PLAN_1
 62
     2
  6
CONTINUOUS
 10
-0.444295
 20
0.550504
  0
VERTEX
  8
PLAN_1
 62
     2
  6
CONTINUOUS
 10
-0.447000
 20
0.550504
  0
VERTEX
  8
PLAN_1
 62
     2
  6
CONTINUOUS
 10
-0.449256
 20
0.551406
  0
VERTEX
  8
PLAN_1
 62
     2
  6
CONTINUOUS
 10
-0.451059
 20
0.551854
  0
VERTEX
  8
PLAN_1
 62
     2
  6
CONTINUOUS
 10
-0.452413
 20
0.553209
  0
VERTEX
  8
PLAN_1
 62
     2
  6
CONTINUOUS
 10
-0.452866
 20
0.554563
  0
VERTEX
  8
PLAN_1
 62
     2
  6
CONTINUOUS
 10
-0.453768
 20
0.555913
  0
VERTEX
  8
PLAN_1
 62
     2
  6
CONTINUOUS
 10
-0.453768
 20
0.557268
  0
VERTEX
  8
PLAN_1
 62
     2
  6
CONTINUOUS
 10
-0.454217
 20
0.558622
  0
VERTEX
  8
PLAN_1
 62
     2
  6
CONTINUOUS
 10
-0.455571
 20
0.557268
  0
VERTEX
  8
PLAN_1
 62
     2
  6
CONTINUOUS
 10
-0.457374
 20
0.555913
  0
VERTEX
  8
PLAN_1
 62
     2
  6
CONTINUOUS
 10
-0.459181
 20
0.554563
  0
VERTEX
  8
PLAN_1
 62
     2
  6
CONTINUOUS
 10
-0.461437
 20
0.552756
  0
VERTEX
  8
PLAN_1
 62
     2
  6
CONTINUOUS
 10
-0.463689
 20
0.551854
  0
VERTEX
  8
PLAN_1
 62
     2
  6
CONTINUOUS
 10
-0.466846
 20
0.550953
  0
VERTEX
  8
PLAN_1
 62
     2
  6
CONTINUOUS
 10
-0.470004
 20
0.550051
  0
VERTEX
  8
PLAN_1
 62
     2
  6
CONTINUOUS
 10
-0.473614
 20
0.550051
  0
VERTEX
  8
PLAN_1
 62
     2
  6
CONTINUOUS
 10
-0.477220
 20
0.550504
  0
VERTEX
  8
PLAN_1
 62
     2
  6
CONTINUOUS
 10
-0.480831
 20
0.550953
  0
VERTEX
  8
PLAN_1
 62
     2
  6
CONTINUOUS
 10
-0.483535
 20
0.552307
  0
VERTEX
  8
PLAN_1
 62
     2
  6
CONTINUOUS
 10
-0.486244
 20
0.554563
  0
VERTEX
  8
PLAN_1
 62
     2
  6
CONTINUOUS
 10
-0.488047
 20
0.556819
  0
VERTEX
  8
PLAN_1
 62
     2
  6
CONTINUOUS
 10
-0.489402
 20
0.559524
  0
VERTEX
  8
PLAN_1
 62
     2
  6
CONTINUOUS
 10
-0.490303
 20
0.562228
  0
VERTEX
  8
PLAN_1
 62
     2
  6
CONTINUOUS
 10
-0.490756
 20
0.565839
  0
VERTEX
  8
PLAN_1
 62
     2
  6
CONTINUOUS
 10
-0.490756
 20
0.567642
  0
VERTEX
  8
PLAN_1
 62
     2
  6
CONTINUOUS
 10
-0.490303
 20
0.569898
  0
VERTEX
  8
PLAN_1
 62
     2
  6
CONTINUOUS
 10
-0.489402
 20
0.572606
  0
VERTEX
  8
PLAN_1
 62
     2
  6
CONTINUOUS
 10
-0.488500
 20
0.575311
  0
VERTEX
  8
PLAN_1
 62
     2
  6
CONTINUOUS
 10
-0.486244
 20
0.577567
  0
VERTEX
  8
PLAN_1
 62
     2
  6
CONTINUOUS
 10
-0.483087
 20
0.579823
  0
VERTEX
  8
PLAN_1
 62
     2
  6
CONTINUOUS
 10
-0.481283
 20
0.580724
  0
VERTEX
  8
PLAN_1
 62
     2
  6
CONTINUOUS
 10
-0.479476
 20
0.581626
  0
VERTEX
  8
PLAN_1
 62
     2
  6
CONTINUOUS
 10
-0.477220
 20
0.582528
  0
VERTEX
  8
PLAN_1
 62
     2
  6
CONTINUOUS
 10
-0.474516
 20
0.582980
  0
VERTEX
  8
PLAN_1
 62
     2
  6
CONTINUOUS
 10
-0.459181
 20
0.584783
  0
VERTEX
  8
PLAN_1
 62
     2
  6
CONTINUOUS
 10
-0.458280
 20
0.584783
  0
VERTEX
  8
PLAN_1
 62
     2
  6
CONTINUOUS
 10
-0.457374
 20
0.584783
  0
VERTEX
  8
PLAN_1
 62
     2
  6
CONTINUOUS
 10
-0.456925
 20
0.585236
  0
VERTEX
  8
PLAN_1
 62
     2
  6
CONTINUOUS
 10
-0.456024
 20
0.586138
  0
VERTEX
  8
PLAN_1
 62
     2
  6
CONTINUOUS
 10
-0.455571
 20
0.586587
  0
VERTEX
  8
PLAN_1
 62
     2
  6
CONTINUOUS
 10
-0.454669
 20
0.587941
  0
VERTEX
  8
PLAN_1
 62
     2
  6
CONTINUOUS
 10
-0.454669
 20
0.589295
  0
VERTEX
  8
PLAN_1
 62
     2
  6
CONTINUOUS
 10
-0.454217
 20
0.591098
  0
VERTEX
  8
PLAN_1
 62
     2
  6
CONTINUOUS
 10
-0.454669
 20
0.592902
  0
VERTEX
  8
PLAN_1
 62
     2
  6
CONTINUOUS
 10
-0.455122
 20
0.594705
  0
VERTEX
  8
PLAN_1
 62
     2
  6
CONTINUOUS
 10
-0.456024
 20
0.596512
  0
VERTEX
  8
PLAN_1
 62
     2
  6
CONTINUOUS
 10
-0.457374
 20
0.597862
  0
VERTEX
  8
PLAN_1
 62
     2
  6
CONTINUOUS
 10
-0.459181
 20
0.598768
  0
VERTEX
  8
PLAN_1
 62
     2
  6
CONTINUOUS
 10
-0.461437
 20
0.599217
  0
VERTEX
  8
PLAN_1
 62
     2
  6
CONTINUOUS
 10
-0.464142
 20
0.599669
  0
VERTEX
  8
PLAN_1
 62
     2
  6
CONTINUOUS
 10
-0.467299
 20
0.600118
  0
VERTEX
  8
PLAN_1
 62
     2
  6
CONTINUOUS
 10
-0.470906
 20
0.599669
  0
VERTEX
  8
PLAN_1
 62
     2
  6
CONTINUOUS
 10
-0.473614
 20
0.598768
  0
VERTEX
  8
PLAN_1
 62
     2
  6
CONTINUOUS
 10
-0.475417
 20
0.597862
  0
VERTEX
  8
PLAN_1
 62
     2
  6
CONTINUOUS
 10
-0.477220
 20
0.596059
  0
VERTEX
  8
PLAN_1
 62
     2
  6
CONTINUOUS
 10
-0.478126
 20
0.594705
  0
VERTEX
  8
PLAN_1
 62
     2
  6
CONTINUOUS
 10
-0.479028
 20
0.592902
  0
VERTEX
  8
PLAN_1
 62
     2
  6
CONTINUOUS
 10
-0.479476
 20
0.591098
  0
VERTEX
  8
PLAN_1
 62
     2
  6
CONTINUOUS
 10
-0.479929
 20
0.589295
  0
VERTEX
  8
PLAN_1
 62
     2
  6
CONTINUOUS
 10
-0.488047
 20
0.589295
  0
SEQEND
  8
0
  0
POLYLINE
  8
PLAN_1
 62
     2
  6
CONTINUOUS
 66
     1
 40
0.003000
 41
0.003000
  0
VERTEX
  8
PLAN_1
 62
     2
  6
CONTINUOUS
 10
-0.454669
 20
0.579370
  0
VERTEX
  8
PLAN_1
 62
     2
  6
CONTINUOUS
 10
-0.455122
 20
0.578921
  0
VERTEX
  8
PLAN_1
 62
     2
  6
CONTINUOUS
 10
-0.456024
 20
0.578469
  0
VERTEX
  8
PLAN_1
 62
     2
  6
CONTINUOUS
 10
-0.456925
 20
0.578016
  0
VERTEX
  8
PLAN_1
 62
     2
  6
CONTINUOUS
 10
-0.458280
 20
0.577567
  0
VERTEX
  8
PLAN_1
 62
     2
  6
CONTINUOUS
 10
-0.460531
 20
0.577114
  0
VERTEX
  8
PLAN_1
 62
     2
  6
CONTINUOUS
 10
-0.462787
 20
0.577114
  0
VERTEX
  8
PLAN_1
 62
     2
  6
CONTINUOUS
 10
-0.465945
 20
0.576213
  0
VERTEX
  8
PLAN_1
 62
     2
  6
CONTINUOUS
 10
-0.469555
 20
0.575764
  0
VERTEX
  8
PLAN_1
 62
     2
  6
CONTINUOUS
 10
-0.471358
 20
0.575764
  0
VERTEX
  8
PLAN_1
 62
     2
  6
CONTINUOUS
 10
-0.473614
 20
0.575311
  0
VERTEX
  8
PLAN_1
 62
     2
  6
CONTINUOUS
 10
-0.475417
 20
0.574858
  0
VERTEX
  8
PLAN_1
 62
     2
  6
CONTINUOUS
 10
-0.477220
 20
0.573957
  0
VERTEX
  8
PLAN_1
 62
     2
  6
CONTINUOUS
 10
-0.479028
 20
0.572606
  0
VERTEX
  8
PLAN_1
 62
     2
  6
CONTINUOUS
 10
-0.480378
 20
0.571252
  0
VERTEX
  8
PLAN_1
 62
     2
  6
CONTINUOUS
 10
-0.481283
 20
0.569449
  0
VERTEX
  8
PLAN_1
 62
     2
  6
CONTINUOUS
 10
-0.481283
 20
0.567193
  0
VERTEX
  8
PLAN_1
 62
     2
  6
CONTINUOUS
 10
-0.481283
 20
0.564937
  0
VERTEX
  8
PLAN_1
 62
     2
  6
CONTINUOUS
 10
-0.480831
 20
0.563134
  0
VERTEX
  8
PLAN_1
 62
     2
  6
CONTINUOUS
 10
-0.479929
 20
0.561327
  0
VERTEX
  8
PLAN_1
 62
     2
  6
CONTINUOUS
 10
-0.479028
 20
0.559976
  0
VERTEX
  8
PLAN_1
 62
     2
  6
CONTINUOUS
 10
-0.477673
 20
0.559071
  0
VERTEX
  8
PLAN_1
 62
     2
  6
CONTINUOUS
 10
-0.475870
 20
0.558169
  0
VERTEX
  8
PLAN_1
 62
     2
  6
CONTINUOUS
 10
-0.474063
 20
0.557720
  0
VERTEX
  8
PLAN_1
 62
     2
  6
CONTINUOUS
 10
-0.471358
 20
0.557720
  0
VERTEX
  8
PLAN_1
 62
     2
  6
CONTINUOUS
 10
-0.468201
 20
0.557720
  0
VERTEX
  8
PLAN_1
 62
     2
  6
CONTINUOUS
 10
-0.465043
 20
0.558622
  0
VERTEX
  8
PLAN_1
 62
     2
  6
CONTINUOUS
 10
-0.462339
 20
0.559524
  0
VERTEX
  8
PLAN_1
 62
     2
  6
CONTINUOUS
 10
-0.460083
 20
0.561327
  0
VERTEX
  8
PLAN_1
 62
     2
  6
CONTINUOUS
 10
-0.457827
 20
0.563134
  0
VERTEX
  8
PLAN_1
 62
     2
  6
CONTINUOUS
 10
-0.456024
 20
0.565386
  0
VERTEX
  8
PLAN_1
 62
     2
  6
CONTINUOUS
 10
-0.455122
 20
0.567642
  0
VERTEX
  8
PLAN_1
 62
     2
  6
CONTINUOUS
 10
-0.454669
 20
0.570350
  0
VERTEX
  8
PLAN_1
 62
     2
  6
CONTINUOUS
 10
-0.454669
 20
0.579370
  0
SEQEND
  8
0
  0
POLYLINE
  8
PLAN_1
 62
     2
  6
CONTINUOUS
 66
     1
 40
0.003000
 41
0.003000
  0
VERTEX
  8
PLAN_1
 62
     2
  6
CONTINUOUS
 10
-0.419488
 20
0.551406
  0
VERTEX
  8
PLAN_1
 62
     2
  6
CONTINUOUS
 10
-0.428508
 20
0.551406
  0
VERTEX
  8
PLAN_1
 62
     2
  6
CONTINUOUS
 10
-0.428508
 20
0.605984
  0
VERTEX
  8
PLAN_1
 62
     2
  6
CONTINUOUS
 10
-0.419937
 20
0.605984
  0
VERTEX
  8
PLAN_1
 62
     2
  6
CONTINUOUS
 10
-0.419937
 20
0.596961
  0
VERTEX
  8
PLAN_1
 62
     2
  6
CONTINUOUS
 10
-0.418583
 20
0.599217
  0
VERTEX
  8
PLAN_1
 62
     2
  6
CONTINUOUS
 10
-0.416780
 20
0.601472
  0
VERTEX
  8
PLAN_1
 62
     2
  6
CONTINUOUS
 10
-0.415425
 20
0.603276
  0
VERTEX
  8
PLAN_1
 62
     2
  6
CONTINUOUS
 10
-0.413622
 20
0.604630
  0
VERTEX
  8
PLAN_1
 62
     2
  6
CONTINUOUS
 10
-0.411366
 20
0.605984
  0
VERTEX
  8
PLAN_1
 62
     2
  6
CONTINUOUS
 10
-0.409110
 20
0.606886
  0
VERTEX
  8
PLAN_1
 62
     2
  6
CONTINUOUS
 10
-0.406858
 20
0.607335
  0
VERTEX
  8
PLAN_1
 62
     2
  6
CONTINUOUS
 10
-0.404602
 20
0.607335
  0
VERTEX
  8
PLAN_1
 62
     2
  6
CONTINUOUS
 10
-0.404150
 20
0.607335
  0
VERTEX
  8
PLAN_1
 62
     2
  6
CONTINUOUS
 10
-0.403701
 20
0.607335
  0
VERTEX
  8
PLAN_1
 62
     2
  6
CONTINUOUS
 10
-0.403248
 20
0.607335
  0
VERTEX
  8
PLAN_1
 62
     2
  6
CONTINUOUS
 10
-0.402795
 20
0.607335
  0
VERTEX
  8
PLAN_1
 62
     2
  6
CONTINUOUS
 10
-0.402346
 20
0.607335
  0
VERTEX
  8
PLAN_1
 62
     2
  6
CONTINUOUS
 10
-0.402346
 20
0.597862
  0
VERTEX
  8
PLAN_1
 62
     2
  6
CONTINUOUS
 10
-0.405504
 20
0.597862
  0
VERTEX
  8
PLAN_1
 62
     2
  6
CONTINUOUS
 10
-0.408661
 20
0.597413
  0
VERTEX
  8
PLAN_1
 62
     2
  6
CONTINUOUS
 10
-0.411366
 20
0.596512
  0
VERTEX
  8
PLAN_1
 62
     2
  6
CONTINUOUS
 10
-0.413622
 20
0.595157
  0
VERTEX
  8
PLAN_1
 62
     2
  6
CONTINUOUS
 10
-0.415878
 20
0.593354
  0
VERTEX
  8
PLAN_1
 62
     2
  6
CONTINUOUS
 10
-0.417232
 20
0.591098
  0
VERTEX
  8
PLAN_1
 62
     2
  6
CONTINUOUS
 10
-0.418583
 20
0.588843
  0
VERTEX
  8
PLAN_1
 62
     2
  6
CONTINUOUS
 10
-0.419488
 20
0.586138
  0
VERTEX
  8
PLAN_1
 62
     2
  6
CONTINUOUS
 10
-0.419488
 20
0.582980
  0
VERTEX
  8
PLAN_1
 62
     2
  6
CONTINUOUS
 10
-0.419488
 20
0.551406
  0
SEQEND
  8
0
  0
POLYLINE
  8
PLAN_1
 62
     2
  6
CONTINUOUS
 66
     1
 40
0.003000
 41
0.003000
  0
VERTEX
  8
PLAN_1
 62
     2
  6
CONTINUOUS
 10
-0.396480
 20
0.589295
  0
VERTEX
  8
PLAN_1
 62
     2
  6
CONTINUOUS
 10
-0.396031
 20
0.593803
  0
VERTEX
  8
PLAN_1
 62
     2
  6
CONTINUOUS
 10
-0.394677
 20
0.597862
  0
VERTEX
  8
PLAN_1
 62
     2
  6
CONTINUOUS
 10
-0.393776
 20
0.599217
  0
VERTEX
  8
PLAN_1
 62
     2
  6
CONTINUOUS
 10
-0.392874
 20
0.601020
  0
VERTEX
  8
PLAN_1
 62
     2
  6
CONTINUOUS
 10
-0.391520
 20
0.602374
  0
VERTEX
  8
PLAN_1
 62
     2
  6
CONTINUOUS
 10
-0.390165
 20
0.603276
  0
VERTEX
  8
PLAN_1
 62
     2
  6
CONTINUOUS
 10
-0.387008
 20
0.605083
  0
VERTEX
  8
PLAN_1
 62
     2
  6
CONTINUOUS
 10
-0.383402
 20
0.606433
  0
VERTEX
  8
PLAN_1
 62
     2
  6
CONTINUOUS
 10
-0.378890
 20
0.607335
  0
VERTEX
  8
PLAN_1
 62
     2
  6
CONTINUOUS
 10
-0.373929
 20
0.607335
  0
VERTEX
  8
PLAN_1
 62
     2
  6
CONTINUOUS
 10
-0.372126
 20
0.607335
  0
VERTEX
  8
PLAN_1
 62
     2
  6
CONTINUOUS
 10
-0.368969
 20
0.607335
  0
VERTEX
  8
PLAN_1
 62
     2
  6
CONTINUOUS
 10
-0.365811
 20
0.606433
  0
VERTEX
  8
PLAN_1
 62
     2
  6
CONTINUOUS
 10
-0.362201
 20
0.605083
  0
VERTEX
  8
PLAN_1
 62
     2
  6
CONTINUOUS
 10
-0.360846
 20
0.604177
  0
VERTEX
  8
PLAN_1
 62
     2
  6
CONTINUOUS
 10
-0.359043
 20
0.603276
  0
VERTEX
  8
PLAN_1
 62
     2
  6
CONTINUOUS
 10
-0.357689
 20
0.601925
  0
VERTEX
  8
PLAN_1
 62
     2
  6
CONTINUOUS
 10
-0.356339
 20
0.600571
  0
VERTEX
  8
PLAN_1
 62
     2
  6
CONTINUOUS
 10
-0.355437
 20
0.598768
  0
VERTEX
  8
PLAN_1
 62
     2
  6
CONTINUOUS
 10
-0.354531
 20
0.596961
  0
VERTEX
  8
PLAN_1
 62
     2
  6
CONTINUOUS
 10
-0.354083
 20
0.594705
  0
VERTEX
  8
PLAN_1
 62
     2
  6
CONTINUOUS
 10
-0.354083
 20
0.592453
  0
VERTEX
  8
PLAN_1
 62
     2
  6
CONTINUOUS
 10
-0.354083
 20
0.560878
  0
VERTEX
  8
PLAN_1
 62
     2
  6
CONTINUOUS
 10
-0.354083
 20
0.560425
  0
VERTEX
  8
PLAN_1
 62
     2
  6
CONTINUOUS
 10
-0.353630
 20
0.559524
  0
VERTEX
  8
PLAN_1
 62
     2
  6
CONTINUOUS
 10
-0.353630
 20
0.559071
  0
VERTEX
  8
PLAN_1
 62
     2
  6
CONTINUOUS
 10
-0.353181
 20
0.558622
  0
VERTEX
  8
PLAN_1
 62
     2
  6
CONTINUOUS
 10
-0.352728
 20
0.558169
  0
VERTEX
  8
PLAN_1
 62
     2
  6
CONTINUOUS
 10
-0.352280
 20
0.558169
  0
VERTEX
  8
PLAN_1
 62
     2
  6
CONTINUOUS
 10
-0.351827
 20
0.557720
  0
VERTEX
  8
PLAN_1
 62
     2
  6
CONTINUOUS
 10
-0.350925
 20
0.557720
  0
VERTEX
  8
PLAN_1
 62
     2
  6
CONTINUOUS
 10
-0.350472
 20
0.557720
  0
VERTEX
  8
PLAN_1
 62
     2
  6
CONTINUOUS
 10
-0.350024
 20
0.557720
  0
VERTEX
  8
PLAN_1
 62
     2
  6
CONTINUOUS
 10
-0.349571
 20
0.557720
  0
VERTEX
  8
PLAN_1
 62
     2
  6
CONTINUOUS
 10
-0.349122
 20
0.558169
  0
VERTEX
  8
PLAN_1
 62
     2
  6
CONTINUOUS
 10
-0.348669
 20
0.558169
  0
VERTEX
  8
PLAN_1
 62
     2
  6
CONTINUOUS
 10
-0.348217
 20
0.558169
  0
VERTEX
  8
PLAN_1
 62
     2
  6
CONTINUOUS
 10
-0.347768
 20
0.558169
  0
VERTEX
  8
PLAN_1
 62
     2
  6
CONTINUOUS
 10
-0.347768
 20
0.551406
  0
VERTEX
  8
PLAN_1
 62
     2
  6
CONTINUOUS
 10
-0.348669
 20
0.551406
  0
VERTEX
  8
PLAN_1
 62
     2
  6
CONTINUOUS
 10
-0.349122
 20
0.551406
  0
VERTEX
  8
PLAN_1
 62
     2
  6
CONTINUOUS
 10
-0.349571
 20
0.550953
  0
VERTEX
  8
PLAN_1
 62
     2
  6
CONTINUOUS
 10
-0.350024
 20
0.550953
  0
VERTEX
  8
PLAN_1
 62
     2
  6
CONTINUOUS
 10
-0.350925
 20
0.550953
  0
VERTEX
  8
PLAN_1
 62
     2
  6
CONTINUOUS
 10
-0.351374
 20
0.550504
  0
VERTEX
  8
PLAN_1
 62
     2
  6
CONTINUOUS
 10
-0.352280
 20
0.550504
  0
VERTEX
  8
PLAN_1
 62
     2
  6
CONTINUOUS
 10
-0.352728
 20
0.550504
  0
VERTEX
  8
PLAN_1
 62
     2
  6
CONTINUOUS
 10
-0.355437
 20
0.550504
  0
VERTEX
  8
PLAN_1
 62
     2
  6
CONTINUOUS
 10
-0.357689
 20
0.551406
  0
VERTEX
  8
PLAN_1
 62
     2
  6
CONTINUOUS
 10
-0.359496
 20
0.551854
  0
VERTEX
  8
PLAN_1
 62
     2
  6
CONTINUOUS
 10
-0.360846
 20
0.553209
  0
VERTEX
  8
PLAN_1
 62
     2
  6
CONTINUOUS
 10
-0.361752
 20
0.554563
  0
VERTEX
  8
PLAN_1
 62
     2
  6
CONTINUOUS
 10
-0.362201
 20
0.555913
  0
VERTEX
  8
PLAN_1
 62
     2
  6
CONTINUOUS
 10
-0.362201
 20
0.557268
  0
VERTEX
  8
PLAN_1
 62
     2
  6
CONTINUOUS
 10
-0.362654
 20
0.558622
  0
VERTEX
  8
PLAN_1
 62
     2
  6
CONTINUOUS
 10
-0.364004
 20
0.557268
  0
VERTEX
  8
PLAN_1
 62
     2
  6
CONTINUOUS
 10
-0.365811
 20
0.555913
  0
VERTEX
  8
PLAN_1
 62
     2
  6
CONTINUOUS
 10
-0.367614
 20
0.554563
  0
VERTEX
  8
PLAN_1
 62
     2
  6
CONTINUOUS
 10
-0.369870
 20
0.552756
  0
VERTEX
  8
PLAN_1
 62
     2
  6
CONTINUOUS
 10
-0.372126
 20
0.551854
  0
VERTEX
  8
PLAN_1
 62
     2
  6
CONTINUOUS
 10
-0.375283
 20
0.550953
  0
VERTEX
  8
PLAN_1
 62
     2
  6
CONTINUOUS
 10
-0.378441
 20
0.550051
  0
VERTEX
  8
PLAN_1
 62
     2
  6
CONTINUOUS
 10
-0.382047
 20
0.550051
  0
VERTEX
  8
PLAN_1
 62
     2
  6
CONTINUOUS
 10
-0.385657
 20
0.550504
  0
VERTEX
  8
PLAN_1
 62
     2
  6
CONTINUOUS
 10
-0.389264
 20
0.550953
  0
VERTEX
  8
PLAN_1
 62
     2
  6
CONTINUOUS
 10
-0.391972
 20
0.552307
  0
VERTEX
  8
PLAN_1
 62
     2
  6
CONTINUOUS
 10
-0.394677
 20
0.554563
  0
VERTEX
  8
PLAN_1
 62
     2
  6
CONTINUOUS
 10
-0.396480
 20
0.556819
  0
VERTEX
  8
PLAN_1
 62
     2
  6
CONTINUOUS
 10
-0.397835
 20
0.559524
  0
VERTEX
  8
PLAN_1
 62
     2
  6
CONTINUOUS
 10
-0.399189
 20
0.562228
  0
VERTEX
  8
PLAN_1
 62
     2
  6
CONTINUOUS
 10
-0.399189
 20
0.565839
  0
VERTEX
  8
PLAN_1
 62
     2
  6
CONTINUOUS
 10
-0.399189
 20
0.567642
  0
VERTEX
  8
PLAN_1
 62
     2
  6
CONTINUOUS
 10
-0.398736
 20
0.569898
  0
VERTEX
  8
PLAN_1
 62
     2
  6
CONTINUOUS
 10
-0.398287
 20
0.572606
  0
VERTEX
  8
PLAN_1
 62
     2
  6
CONTINUOUS
 10
-0.396933
 20
0.575311
  0
VERTEX
  8
PLAN_1
 62
     2
  6
CONTINUOUS
 10
-0.394677
 20
0.577567
  0
VERTEX
  8
PLAN_1
 62
     2
  6
CONTINUOUS
 10
-0.391972
 20
0.579823
  0
VERTEX
  8
PLAN_1
 62
     2
  6
CONTINUOUS
 10
-0.390165
 20
0.580724
  0
VERTEX
  8
PLAN_1
 62
     2
  6
CONTINUOUS
 10
-0.387913
 20
0.581626
  0
VERTEX
  8
PLAN_1
 62
     2
  6
CONTINUOUS
 10
-0.385657
 20
0.582528
  0
VERTEX
  8
PLAN_1
 62
     2
  6
CONTINUOUS
 10
-0.382949
 20
0.582980
  0
VERTEX
  8
PLAN_1
 62
     2
  6
CONTINUOUS
 10
-0.367614
 20
0.584783
  0
VERTEX
  8
PLAN_1
 62
     2
  6
CONTINUOUS
 10
-0.366713
 20
0.584783
  0
VERTEX
  8
PLAN_1
 62
     2
  6
CONTINUOUS
 10
-0.365811
 20
0.584783
  0
VERTEX
  8
PLAN_1
 62
     2
  6
CONTINUOUS
 10
-0.365358
 20
0.585236
  0
VERTEX
  8
PLAN_1
 62
     2
  6
CONTINUOUS
 10
-0.364457
 20
0.586138
  0
VERTEX
  8
PLAN_1
 62
     2
  6
CONTINUOUS
 10
-0.364004
 20
0.586587
  0
VERTEX
  8
PLAN_1
 62
     2
  6
CONTINUOUS
 10
-0.363555
 20
0.587941
  0
VERTEX
  8
PLAN_1
 62
     2
  6
CONTINUOUS
 10
-0.363102
 20
0.589295
  0
VERTEX
  8
PLAN_1
 62
     2
  6
CONTINUOUS
 10
-0.363102
 20
0.591098
  0
VERTEX
  8
PLAN_1
 62
     2
  6
CONTINUOUS
 10
-0.363102
 20
0.592902
  0
VERTEX
  8
PLAN_1
 62
     2
  6
CONTINUOUS
 10
-0.363555
 20
0.594705
  0
VERTEX
  8
PLAN_1
 62
     2
  6
CONTINUOUS
 10
-0.364457
 20
0.596512
  0
VERTEX
  8
PLAN_1
 62
     2
  6
CONTINUOUS
 10
-0.366260
 20
0.597862
  0
VERTEX
  8
PLAN_1
 62
     2
  6
CONTINUOUS
 10
-0.368067
 20
0.598768
  0
VERTEX
  8
PLAN_1
 62
     2
  6
CONTINUOUS
 10
-0.369870
 20
0.599217
  0
VERTEX
  8
PLAN_1
 62
     2
  6
CONTINUOUS
 10
-0.372575
 20
0.599669
  0
VERTEX
  8
PLAN_1
 62
     2
  6
CONTINUOUS
 10
-0.375732
 20
0.600118
  0
VERTEX
  8
PLAN_1
 62
     2
  6
CONTINUOUS
 10
-0.379343
 20
0.599669
  0
VERTEX
  8
PLAN_1
 62
     2
  6
CONTINUOUS
 10
-0.382047
 20
0.598768
  0
VERTEX
  8
PLAN_1
 62
     2
  6
CONTINUOUS
 10
-0.383850
 20
0.597862
  0
VERTEX
  8
PLAN_1
 62
     2
  6
CONTINUOUS
 10
-0.385657
 20
0.596059
  0
VERTEX
  8
PLAN_1
 62
     2
  6
CONTINUOUS
 10
-0.386559
 20
0.594705
  0
VERTEX
  8
PLAN_1
 62
     2
  6
CONTINUOUS
 10
-0.387461
 20
0.592902
  0
VERTEX
  8
PLAN_1
 62
     2
  6
CONTINUOUS
 10
-0.387913
 20
0.591098
  0
VERTEX
  8
PLAN_1
 62
     2
  6
CONTINUOUS
 10
-0.388362
 20
0.589295
  0
VERTEX
  8
PLAN_1
 62
     2
  6
CONTINUOUS
 10
-0.396480
 20
0.589295
  0
SEQEND
  8
0
  0
POLYLINE
  8
PLAN_1
 62
     2
  6
CONTINUOUS
 66
     1
 40
0.003000
 41
0.003000
  0
VERTEX
  8
PLAN_1
 62
     2
  6
CONTINUOUS
 10
-0.363102
 20
0.579370
  0
VERTEX
  8
PLAN_1
 62
     2
  6
CONTINUOUS
 10
-0.363555
 20
0.578921
  0
VERTEX
  8
PLAN_1
 62
     2
  6
CONTINUOUS
 10
-0.364457
 20
0.578469
  0
VERTEX
  8
PLAN_1
 62
     2
  6
CONTINUOUS
 10
-0.365358
 20
0.578016
  0
VERTEX
  8
PLAN_1
 62
     2
  6
CONTINUOUS
 10
-0.367161
 20
0.577567
  0
VERTEX
  8
PLAN_1
 62
     2
  6
CONTINUOUS
 10
-0.368969
 20
0.577114
  0
VERTEX
  8
PLAN_1
 62
     2
  6
CONTINUOUS
 10
-0.371224
 20
0.577114
  0
VERTEX
  8
PLAN_1
 62
     2
  6
CONTINUOUS
 10
-0.374382
 20
0.576213
  0
VERTEX
  8
PLAN_1
 62
     2
  6
CONTINUOUS
 10
-0.377988
 20
0.575764
  0
VERTEX
  8
PLAN_1
 62
     2
  6
CONTINUOUS
 10
-0.379791
 20
0.575764
  0
VERTEX
  8
PLAN_1
 62
     2
  6
CONTINUOUS
 10
-0.382047
 20
0.575311
  0
VERTEX
  8
PLAN_1
 62
     2
  6
CONTINUOUS
 10
-0.383850
 20
0.574858
  0
VERTEX
  8
PLAN_1
 62
     2
  6
CONTINUOUS
 10
-0.385657
 20
0.573957
  0
VERTEX
  8
PLAN_1
 62
     2
  6
CONTINUOUS
 10
-0.387461
 20
0.572606
  0
VERTEX
  8
PLAN_1
 62
     2
  6
CONTINUOUS
 10
-0.388815
 20
0.571252
  0
VERTEX
  8
PLAN_1
 62
     2
  6
CONTINUOUS
 10
-0.389717
 20
0.569449
  0
VERTEX
  8
PLAN_1
 62
     2
  6
CONTINUOUS
 10
-0.389717
 20
0.567193
  0
VERTEX
  8
PLAN_1
 62
     2
  6
CONTINUOUS
 10
-0.389717
 20
0.564937
  0
VERTEX
  8
PLAN_1
 62
     2
  6
CONTINUOUS
 10
-0.389264
 20
0.563134
  0
VERTEX
  8
PLAN_1
 62
     2
  6
CONTINUOUS
 10
-0.388362
 20
0.561327
  0
VERTEX
  8
PLAN_1
 62
     2
  6
CONTINUOUS
 10
-0.387461
 20
0.559976
  0
VERTEX
  8
PLAN_1
 62
     2
  6
CONTINUOUS
 10
-0.386106
 20
0.559071
  0
VERTEX
  8
PLAN_1
 62
     2
  6
CONTINUOUS
 10
-0.384303
 20
0.558169
  0
VERTEX
  8
PLAN_1
 62
     2
  6
CONTINUOUS
 10
-0.382500
 20
0.557720
  0
VERTEX
  8
PLAN_1
 62
     2
  6
CONTINUOUS
 10
-0.379791
 20
0.557720
  0
VERTEX
  8
PLAN_1
 62
     2
  6
CONTINUOUS
 10
-0.376634
 20
0.557720
  0
VERTEX
  8
PLAN_1
 62
     2
  6
CONTINUOUS
 10
-0.373929
 20
0.558622
  0
VERTEX
  8
PLAN_1
 62
     2
  6
CONTINUOUS
 10
-0.370772
 20
0.559524
  0
VERTEX
  8
PLAN_1
 62
     2
  6
CONTINUOUS
 10
-0.368516
 20
0.561327
  0
VERTEX
  8
PLAN_1
 62
     2
  6
CONTINUOUS
 10
-0.366260
 20
0.563134
  0
VERTEX
  8
PLAN_1
 62
     2
  6
CONTINUOUS
 10
-0.364457
 20
0.565386
  0
VERTEX
  8
PLAN_1
 62
     2
  6
CONTINUOUS
 10
-0.363555
 20
0.567642
  0
VERTEX
  8
PLAN_1
 62
     2
  6
CONTINUOUS
 10
-0.363102
 20
0.570350
  0
VERTEX
  8
PLAN_1
 62
     2
  6
CONTINUOUS
 10
-0.363102
 20
0.579370
  0
SEQEND
  8
0
  0
POLYLINE
  8
PLAN_1
 62
     2
  6
CONTINUOUS
 66
     1
 40
0.003000
 41
0.003000
  0
VERTEX
  8
PLAN_1
 62
     2
  6
CONTINUOUS
 10
-0.303110
 20
0.551406
  0
VERTEX
  8
PLAN_1
 62
     2
  6
CONTINUOUS
 10
-0.303110
 20
0.559524
  0
VERTEX
  8
PLAN_1
 62
     2
  6
CONTINUOUS
 10
-0.304465
 20
0.557268
  0
VERTEX
  8
PLAN_1
 62
     2
  6
CONTINUOUS
 10
-0.306268
 20
0.555465
  0
VERTEX
  8
PLAN_1
 62
     2
  6
CONTINUOUS
 10
-0.308075
 20
0.553661
  0
VERTEX
  8
PLAN_1
 62
     2
  6
CONTINUOUS
 10
-0.309878
 20
0.552307
  0
VERTEX
  8
PLAN_1
 62
     2
  6
CONTINUOUS
 10
-0.312134
 20
0.551406
  0
VERTEX
  8
PLAN_1
 62
     2
  6
CONTINUOUS
 10
-0.314390
 20
0.550504
  0
VERTEX
  8
PLAN_1
 62
     2
  6
CONTINUOUS
 10
-0.317094
 20
0.550051
  0
VERTEX
  8
PLAN_1
 62
     2
  6
CONTINUOUS
 10
-0.320252
 20
0.550051
  0
VERTEX
  8
PLAN_1
 62
     2
  6
CONTINUOUS
 10
-0.323409
 20
0.550051
  0
VERTEX
  8
PLAN_1
 62
     2
  6
CONTINUOUS
 10
-0.326567
 20
0.550953
  0
VERTEX
  8
PLAN_1
 62
     2
  6
CONTINUOUS
 10
-0.329724
 20
0.551854
  0
VERTEX
  8
PLAN_1
 62
     2
  6
CONTINUOUS
 10
-0.332433
 20
0.553661
  0
VERTEX
  8
PLAN_1
 62
     2
  6
CONTINUOUS
 10
-0.334685
 20
0.555913
  0
VERTEX
  8
PLAN_1
 62
     2
  6
CONTINUOUS
 10
-0.336492
 20
0.558622
  0
VERTEX
  8
PLAN_1
 62
     2
  6
CONTINUOUS
 10
-0.336941
 20
0.560425
  0
VERTEX
  8
PLAN_1
 62
     2
  6
CONTINUOUS
 10
-0.337843
 20
0.562228
  0
VERTEX
  8
PLAN_1
 62
     2
  6
CONTINUOUS
 10
-0.337843
 20
0.564484
  0
VERTEX
  8
PLAN_1
 62
     2
  6
CONTINUOUS
 10
-0.338295
 20
0.566740
  0
VERTEX
  8
PLAN_1
 62
     2
  6
CONTINUOUS
 10
-0.338295
 20
0.605984
  0
VERTEX
  8
PLAN_1
 62
     2
  6
CONTINUOUS
 10
-0.328823
 20
0.605984
  0
VERTEX
  8
PLAN_1
 62
     2
  6
CONTINUOUS
 10
-0.328823
 20
0.569898
  0
VERTEX
  8
PLAN_1
 62
     2
  6
CONTINUOUS
 10
-0.328823
 20
0.566740
  0
VERTEX
  8
PLAN_1
 62
     2
  6
CONTINUOUS
 10
-0.327921
 20
0.564035
  0
VERTEX
  8
PLAN_1
 62
     2
  6
CONTINUOUS
 10
-0.327020
 20
0.562228
  0
VERTEX
  8
PLAN_1
 62
     2
  6
CONTINUOUS
 10
-0.326118
 20
0.560425
  0
VERTEX
  8
PLAN_1
 62
     2
  6
CONTINUOUS
 10
-0.324311
 20
0.559524
  0
VERTEX
  8
PLAN_1
 62
     2
  6
CONTINUOUS
 10
-0.322508
 20
0.558622
  0
VERTEX
  8
PLAN_1
 62
     2
  6
CONTINUOUS
 10
-0.320705
 20
0.558169
  0
VERTEX
  8
PLAN_1
 62
     2
  6
CONTINUOUS
 10
-0.318449
 20
0.557720
  0
VERTEX
  8
PLAN_1
 62
     2
  6
CONTINUOUS
 10
-0.316193
 20
0.558169
  0
VERTEX
  8
PLAN_1
 62
     2
  6
CONTINUOUS
 10
-0.314390
 20
0.558169
  0
VERTEX
  8
PLAN_1
 62
     2
  6
CONTINUOUS
 10
-0.312583
 20
0.559071
  0
VERTEX
  8
PLAN_1
 62
     2
  6
CONTINUOUS
 10
-0.311232
 20
0.559524
  0
VERTEX
  8
PLAN_1
 62
     2
  6
CONTINUOUS
 10
-0.308524
 20
0.561327
  0
VERTEX
  8
PLAN_1
 62
     2
  6
CONTINUOUS
 10
-0.306720
 20
0.564035
  0
VERTEX
  8
PLAN_1
 62
     2
  6
CONTINUOUS
 10
-0.304917
 20
0.566740
  0
VERTEX
  8
PLAN_1
 62
     2
  6
CONTINUOUS
 10
-0.304016
 20
0.569898
  0
VERTEX
  8
PLAN_1
 62
     2
  6
CONTINUOUS
 10
-0.303563
 20
0.573055
  0
VERTEX
  8
PLAN_1
 62
     2
  6
CONTINUOUS
 10
-0.303563
 20
0.576213
  0
VERTEX
  8
PLAN_1
 62
     2
  6
CONTINUOUS
 10
-0.303563
 20
0.605984
  0
VERTEX
  8
PLAN_1
 62
     2
  6
CONTINUOUS
 10
-0.294091
 20
0.605984
  0
VERTEX
  8
PLAN_1
 62
     2
  6
CONTINUOUS
 10
-0.294091
 20
0.551406
  0
VERTEX
  8
PLAN_1
 62
     2
  6
CONTINUOUS
 10
-0.303110
 20
0.551406
  0
SEQEND
  8
0
  0
POLYLINE
  8
PLAN_1
 62
     2
  6
CONTINUOUS
 66
     1
 40
0.003000
 41
0.003000
  0
VERTEX
  8
PLAN_1
 62
     2
  6
CONTINUOUS
 10
-0.235453
 20
0.551406
  0
VERTEX
  8
PLAN_1
 62
     2
  6
CONTINUOUS
 10
-0.244024
 20
0.551406
  0
VERTEX
  8
PLAN_1
 62
     2
  6
CONTINUOUS
 10
-0.244024
 20
0.559071
  0
VERTEX
  8
PLAN_1
 62
     2
  6
CONTINUOUS
 10
-0.245827
 20
0.556366
  0
VERTEX
  8
PLAN_1
 62
     2
  6
CONTINUOUS
 10
-0.247630
 20
0.554563
  0
VERTEX
  8
PLAN_1
 62
     2
  6
CONTINUOUS
 10
-0.249437
 20
0.552756
  0
VERTEX
  8
PLAN_1
 62
     2
  6
CONTINUOUS
 10
-0.251240
 20
0.551854
  0
VERTEX
  8
PLAN_1
 62
     2
  6
CONTINUOUS
 10
-0.253496
 20
0.550953
  0
VERTEX
  8
PLAN_1
 62
     2
  6
CONTINUOUS
 10
-0.255752
 20
0.550504
  0
VERTEX
  8
PLAN_1
 62
     2
  6
CONTINUOUS
 10
-0.257555
 20
0.550051
  0
VERTEX
  8
PLAN_1
 62
     2
  6
CONTINUOUS
 10
-0.259811
 20
0.550051
  0
VERTEX
  8
PLAN_1
 62
     2
  6
CONTINUOUS
 10
-0.262969
 20
0.550051
  0
VERTEX
  8
PLAN_1
 62
     2
  6
CONTINUOUS
 10
-0.266126
 20
0.550953
  0
VERTEX
  8
PLAN_1
 62
     2
  6
CONTINUOUS
 10
-0.268831
 20
0.551854
  0
VERTEX
  8
PLAN_1
 62
     2
  6
CONTINUOUS
 10
-0.271087
 20
0.552756
  0
VERTEX
  8
PLAN_1
 62
     2
  6
CONTINUOUS
 10
-0.273343
 20
0.554563
  0
VERTEX
  8
PLAN_1
 62
     2
  6
CONTINUOUS
 10
-0.275598
 20
0.556366
  0
VERTEX
  8
PLAN_1
 62
     2
  6
CONTINUOUS
 10
-0.276949
 20
0.558169
  0
VERTEX
  8
PLAN_1
 62
     2
  6
CONTINUOUS
 10
-0.278756
 20
0.560425
  0
VERTEX
  8
PLAN_1
 62
     2
  6
CONTINUOUS
 10
-0.281012
 20
0.564937
  0
VERTEX
  8
PLAN_1
 62
     2
  6
CONTINUOUS
 10
-0.282362
 20
0.570350
  0
VERTEX
  8
PLAN_1
 62
     2
  6
CONTINUOUS
 10
-0.283264
 20
0.575311
  0
VERTEX
  8
PLAN_1
 62
     2
  6
CONTINUOUS
 10
-0.283717
 20
0.580272
  0
VERTEX
  8
PLAN_1
 62
     2
  6
CONTINUOUS
 10
-0.283264
 20
0.586138
  0
VERTEX
  8
PLAN_1
 62
     2
  6
CONTINUOUS
 10
-0.281913
 20
0.591098
  0
VERTEX
  8
PLAN_1
 62
     2
  6
CONTINUOUS
 10
-0.281461
 20
0.593354
  0
VERTEX
  8
PLAN_1
 62
     2
  6
CONTINUOUS
 10
-0.280106
 20
0.595610
  0
VERTEX
  8
PLAN_1
 62
     2
  6
CONTINUOUS
 10
-0.279205
 20
0.597862
  0
VERTEX
  8
PLAN_1
 62
     2
  6
CONTINUOUS
 10
-0.277854
 20
0.599669
  0
VERTEX
  8
PLAN_1
 62
     2
  6
CONTINUOUS
 10
-0.276047
 20
0.601472
  0
VERTEX
  8
PLAN_1
 62
     2
  6
CONTINUOUS
 10
-0.274697
 20
0.602827
  0
VERTEX
  8
PLAN_1
 62
     2
  6
CONTINUOUS
 10
-0.272441
 20
0.604177
  0
VERTEX
  8
PLAN_1
 62
     2
  6
CONTINUOUS
 10
-0.270634
 20
0.605531
  0
VERTEX
  8
PLAN_1
 62
     2
  6
CONTINUOUS
 10
-0.268382
 20
0.606433
  0
VERTEX
  8
PLAN_1
 62
     2
  6
CONTINUOUS
 10
-0.266126
 20
0.606886
  0
VERTEX
  8
PLAN_1
 62
     2
  6
CONTINUOUS
 10
-0.263417
 20
0.607335
  0
VERTEX
  8
PLAN_1
 62
     2
  6
CONTINUOUS
 10
-0.260713
 20
0.607335
  0
VERTEX
  8
PLAN_1
 62
     2
  6
CONTINUOUS
 10
-0.257555
 20
0.607335
  0
VERTEX
  8
PLAN_1
 62
     2
  6
CONTINUOUS
 10
-0.254398
 20
0.606433
  0
VERTEX
  8
PLAN_1
 62
     2
  6
CONTINUOUS
 10
-0.252142
 20
0.605531
  0
VERTEX
  8
PLAN_1
 62
     2
  6
CONTINUOUS
 10
-0.249886
 20
0.604177
  0
VERTEX
  8
PLAN_1
 62
     2
  6
CONTINUOUS
 10
-0.248083
 20
0.602374
  0
VERTEX
  8
PLAN_1
 62
     2
  6
CONTINUOUS
 10
-0.246728
 20
0.601020
  0
VERTEX
  8
PLAN_1
 62
     2
  6
CONTINUOUS
 10
-0.245827
 20
0.599669
  0
VERTEX
  8
PLAN_1
 62
     2
  6
CONTINUOUS
 10
-0.244925
 20
0.598315
  0
VERTEX
  8
PLAN_1
 62
     2
  6
CONTINUOUS
 10
-0.244472
 20
0.599217
  0
VERTEX
  8
PLAN_1
 62
     2
  6
CONTINUOUS
 10
-0.244472
 20
0.626280
  0
VERTEX
  8
PLAN_1
 62
     2
  6
CONTINUOUS
 10
-0.235453
 20
0.626280
  0
VERTEX
  8
PLAN_1
 62
     2
  6
CONTINUOUS
 10
-0.235453
 20
0.551406
  0
SEQEND
  8
0
  0
POLYLINE
  8
PLAN_1
 62
     2
  6
CONTINUOUS
 66
     1
 40
0.003000
 41
0.003000
  0
VERTEX
  8
PLAN_1
 62
     2
  6
CONTINUOUS
 10
-0.259358
 20
0.557720
  0
VERTEX
  8
PLAN_1
 62
     2
  6
CONTINUOUS
 10
-0.257102
 20
0.558169
  0
VERTEX
  8
PLAN_1
 62
     2
  6
CONTINUOUS
 10
-0.254850
 20
0.558622
  0
VERTEX
  8
PLAN_1
 62
     2
  6
CONTINUOUS
 10
-0.252142
 20
0.559976
  0
VERTEX
  8
PLAN_1
 62
     2
  6
CONTINUOUS
 10
-0.249886
 20
0.561780
  0
VERTEX
  8
PLAN_1
 62
     2
  6
CONTINUOUS
 10
-0.247630
 20
0.564035
  0
VERTEX
  8
PLAN_1
 62
     2
  6
CONTINUOUS
 10
-0.246280
 20
0.567193
  0
VERTEX
  8
PLAN_1
 62
     2
  6
CONTINUOUS
 10
-0.244925
 20
0.571252
  0
VERTEX
  8
PLAN_1
 62
     2
  6
CONTINUOUS
 10
-0.244472
 20
0.576213
  0
VERTEX
  8
PLAN_1
 62
     2
  6
CONTINUOUS
 10
-0.244472
 20
0.579823
  0
VERTEX
  8
PLAN_1
 62
     2
  6
CONTINUOUS
 10
-0.244925
 20
0.583429
  0
VERTEX
  8
PLAN_1
 62
     2
  6
CONTINUOUS
 10
-0.245827
 20
0.587488
  0
VERTEX
  8
PLAN_1
 62
     2
  6
CONTINUOUS
 10
-0.247181
 20
0.591098
  0
VERTEX
  8
PLAN_1
 62
     2
  6
CONTINUOUS
 10
-0.247630
 20
0.592902
  0
VERTEX
  8
PLAN_1
 62
     2
  6
CONTINUOUS
 10
-0.248984
 20
0.594256
  0
VERTEX
  8
PLAN_1
 62
     2
  6
CONTINUOUS
 10
-0.249886
 20
0.595610
  0
VERTEX
  8
PLAN_1
 62
     2
  6
CONTINUOUS
 10
-0.251240
 20
0.596961
  0
VERTEX
  8
PLAN_1
 62
     2
  6
CONTINUOUS
 10
-0.253043
 20
0.597862
  0
VERTEX
  8
PLAN_1
 62
     2
  6
CONTINUOUS
 10
-0.254850
 20
0.598768
  0
VERTEX
  8
PLAN_1
 62
     2
  6
CONTINUOUS
 10
-0.257102
 20
0.599217
  0
VERTEX
  8
PLAN_1
 62
     2
  6
CONTINUOUS
 10
-0.259358
 20
0.599217
  0
VERTEX
  8
PLAN_1
 62
     2
  6
CONTINUOUS
 10
-0.261614
 20
0.599217
  0
VERTEX
  8
PLAN_1
 62
     2
  6
CONTINUOUS
 10
-0.263870
 20
0.598768
  0
VERTEX
  8
PLAN_1
 62
     2
  6
CONTINUOUS
 10
-0.266126
 20
0.597862
  0
VERTEX
  8
PLAN_1
 62
     2
  6
CONTINUOUS
 10
-0.267476
 20
0.596961
  0
VERTEX
  8
PLAN_1
 62
     2
  6
CONTINUOUS
 10
-0.268831
 20
0.596059
  0
VERTEX
  8
PLAN_1
 62
     2
  6
CONTINUOUS
 10
-0.270185
 20
0.594705
  0
VERTEX
  8
PLAN_1
 62
     2
  6
CONTINUOUS
 10
-0.271087
 20
0.593354
  0
VERTEX
  8
PLAN_1
 62
     2
  6
CONTINUOUS
 10
-0.271988
 20
0.591551
  0
VERTEX
  8
PLAN_1
 62
     2
  6
CONTINUOUS
 10
-0.273343
 20
0.588394
  0
VERTEX
  8
PLAN_1
 62
     2
  6
CONTINUOUS
 10
-0.273791
 20
0.585236
  0
VERTEX
  8
PLAN_1
 62
     2
  6
CONTINUOUS
 10
-0.274244
 20
0.581626
  0
VERTEX
  8
PLAN_1
 62
     2
  6
CONTINUOUS
 10
-0.274244
 20
0.578921
  0
VERTEX
  8
PLAN_1
 62
     2
  6
CONTINUOUS
 10
-0.273791
 20
0.574409
  0
VERTEX
  8
PLAN_1
 62
     2
  6
CONTINUOUS
 10
-0.273343
 20
0.570799
  0
VERTEX
  8
PLAN_1
 62
     2
  6
CONTINUOUS
 10
-0.271988
 20
0.567193
  0
VERTEX
  8
PLAN_1
 62
     2
  6
CONTINUOUS
 10
-0.270634
 20
0.564035
  0
VERTEX
  8
PLAN_1
 62
     2
  6
CONTINUOUS
 10
-0.268382
 20
0.561327
  0
VERTEX
  8
PLAN_1
 62
     2
  6
CONTINUOUS
 10
-0.266126
 20
0.559524
  0
VERTEX
  8
PLAN_1
 62
     2
  6
CONTINUOUS
 10
-0.262969
 20
0.558169
  0
VERTEX
  8
PLAN_1
 62
     2
  6
CONTINUOUS
 10
-0.259358
 20
0.557720
  0
SEQEND
  8
0
  0
POLYLINE
  8
PLAN_1
 62
     2
  6
CONTINUOUS
 66
     1
 40
0.003000
 41
0.003000
  0
VERTEX
  8
PLAN_1
 62
     2
  6
CONTINUOUS
 10
-0.176362
 20
0.568543
  0
VERTEX
  8
PLAN_1
 62
     2
  6
CONTINUOUS
 10
-0.176815
 20
0.567642
  0
VERTEX
  8
PLAN_1
 62
     2
  6
CONTINUOUS
 10
-0.177264
 20
0.565839
  0
VERTEX
  8
PLAN_1
 62
     2
  6
CONTINUOUS
 10
-0.177717
 20
0.564035
  0
VERTEX
  8
PLAN_1
 62
     2
  6
CONTINUOUS
 10
-0.178618
 20
0.561780
  0
VERTEX
  8
PLAN_1
 62
     2
  6
CONTINUOUS
 10
-0.179972
 20
0.559976
  0
VERTEX
  8
PLAN_1
 62
     2
  6
CONTINUOUS
 10
-0.181776
 20
0.557720
  0
VERTEX
  8
PLAN_1
 62
     2
  6
CONTINUOUS
 10
-0.183579
 20
0.555465
  0
VERTEX
  8
PLAN_1
 62
     2
  6
CONTINUOUS
 10
-0.186287
 20
0.553661
  0
VERTEX
  8
PLAN_1
 62
     2
  6
CONTINUOUS
 10
-0.187189
 20
0.553209
  0
VERTEX
  8
PLAN_1
 62
     2
  6
CONTINUOUS
 10
-0.188091
 20
0.552307
  0
VERTEX
  8
PLAN_1
 62
     2
  6
CONTINUOUS
 10
-0.189445
 20
0.551854
  0
VERTEX
  8
PLAN_1
 62
     2
  6
CONTINUOUS
 10
-0.191248
 20
0.551406
  0
VERTEX
  8
PLAN_1
 62
     2
  6
CONTINUOUS
 10
-0.193051
 20
0.550953
  0
VERTEX
  8
PLAN_1
 62
     2
  6
CONTINUOUS
 10
-0.195307
 20
0.550504
  0
VERTEX
  8
PLAN_1
 62
     2
  6
CONTINUOUS
 10
-0.198016
 20
0.550051
  0
VERTEX
  8
PLAN_1
 62
     2
  6
CONTINUOUS
 10
-0.200720
 20
0.550051
  0
VERTEX
  8
PLAN_1
 62
     2
  6
CONTINUOUS
 10
-0.203878
 20
0.550051
  0
VERTEX
  8
PLAN_1
 62
     2
  6
CONTINUOUS
 10
-0.206134
 20
0.550504
  0
VERTEX
  8
PLAN_1
 62
     2
  6
CONTINUOUS
 10
-0.208839
 20
0.550953
  0
VERTEX
  8
PLAN_1
 62
     2
  6
CONTINUOUS
 10
-0.211094
 20
0.551854
  0
VERTEX
  8
PLAN_1
 62
     2
  6
CONTINUOUS
 10
-0.213350
 20
0.553209
  0
VERTEX
  8
PLAN_1
 62
     2
  6
CONTINUOUS
 10
-0.215154
 20
0.554563
  0
VERTEX
  8
PLAN_1
 62
     2
  6
CONTINUOUS
 10
-0.216961
 20
0.555913
  0
VERTEX
  8
PLAN_1
 62
     2
  6
CONTINUOUS
 10
-0.218764
 20
0.557720
  0
VERTEX
  8
PLAN_1
 62
     2
  6
CONTINUOUS
 10
-0.220118
 20
0.559524
  0
VERTEX
  8
PLAN_1
 62
     2
  6
CONTINUOUS
 10
-0.221469
 20
0.561780
  0
VERTEX
  8
PLAN_1
 62
     2
  6
CONTINUOUS
 10
-0.222823
 20
0.564035
  0
VERTEX
  8
PLAN_1
 62
     2
  6
CONTINUOUS
 10
-0.223724
 20
0.566291
  0
VERTEX
  8
PLAN_1
 62
     2
  6
CONTINUOUS
 10
-0.224626
 20
0.571701
  0
VERTEX
  8
PLAN_1
 62
     2
  6
CONTINUOUS
 10
-0.225079
 20
0.577114
  0
VERTEX
  8
PLAN_1
 62
     2
  6
CONTINUOUS
 10
-0.224626
 20
0.583429
  0
VERTEX
  8
PLAN_1
 62
     2
  6
CONTINUOUS
 10
-0.223724
 20
0.589295
  0
VERTEX
  8
PLAN_1
 62
     2
  6
CONTINUOUS
 10
-0.222823
 20
0.591551
  0
VERTEX
  8
PLAN_1
 62
     2
  6
CONTINUOUS
 10
-0.221469
 20
0.594256
  0
VERTEX
  8
PLAN_1
 62
     2
  6
CONTINUOUS
 10
-0.220567
 20
0.596512
  0
VERTEX
  8
PLAN_1
 62
     2
  6
CONTINUOUS
 10
-0.218764
 20
0.598768
  0
VERTEX
  8
PLAN_1
 62
     2
  6
CONTINUOUS
 10
-0.217409
 20
0.600571
  0
VERTEX
  8
PLAN_1
 62
     2
  6
CONTINUOUS
 10
-0.215154
 20
0.602374
  0
VERTEX
  8
PLAN_1
 62
     2
  6
CONTINUOUS
 10
-0.213350
 20
0.603728
  0
VERTEX
  8
PLAN_1
 62
     2
  6
CONTINUOUS
 10
-0.210646
 20
0.605083
  0
VERTEX
  8
PLAN_1
 62
     2
  6
CONTINUOUS
 10
-0.208390
 20
0.605984
  0
VERTEX
  8
PLAN_1
 62
     2
  6
CONTINUOUS
 10
-0.205232
 20
0.606886
  0
VERTEX
  8
PLAN_1
 62
     2
  6
CONTINUOUS
 10
-0.202524
 20
0.607335
  0
VERTEX
  8
PLAN_1
 62
     2
  6
CONTINUOUS
 10
-0.198917
 20
0.607335
  0
VERTEX
  8
PLAN_1
 62
     2
  6
CONTINUOUS
 10
-0.196209
 20
0.607335
  0
VERTEX
  8
PLAN_1
 62
     2
  6
CONTINUOUS
 10
-0.193504
 20
0.606886
  0
VERTEX
  8
PLAN_1
 62
     2
  6
CONTINUOUS
 10
-0.191248
 20
0.606433
  0
VERTEX
  8
PLAN_1
 62
     2
  6
CONTINUOUS
 10
-0.188992
 20
0.605083
  0
VERTEX
  8
PLAN_1
 62
     2
  6
CONTINUOUS
 10
-0.186736
 20
0.604177
  0
VERTEX
  8
PLAN_1
 62
     2
  6
CONTINUOUS
 10
-0.184933
 20
0.602374
  0
VERTEX
  8
PLAN_1
 62
     2
  6
CONTINUOUS
 10
-0.183130
 20
0.601020
  0
VERTEX
  8
PLAN_1
 62
     2
  6
CONTINUOUS
 10
-0.181327
 20
0.598768
  0
VERTEX
  8
PLAN_1
 62
     2
  6
CONTINUOUS
 10
-0.179972
 20
0.596512
  0
VERTEX
  8
PLAN_1
 62
     2
  6
CONTINUOUS
 10
-0.179071
 20
0.594256
  0
VERTEX
  8
PLAN_1
 62
     2
  6
CONTINUOUS
 10
-0.178169
 20
0.591551
  0
VERTEX
  8
PLAN_1
 62
     2
  6
CONTINUOUS
 10
-0.177264
 20
0.588843
  0
VERTEX
  8
PLAN_1
 62
     2
  6
CONTINUOUS
 10
-0.175913
 20
0.582528
  0
VERTEX
  8
PLAN_1
 62
     2
  6
CONTINUOUS
 10
-0.175461
 20
0.575764
  0
VERTEX
  8
PLAN_1
 62
     2
  6
CONTINUOUS
 10
-0.215606
 20
0.575764
  0
VERTEX
  8
PLAN_1
 62
     2
  6
CONTINUOUS
 10
-0.215154
 20
0.571701
  0
VERTEX
  8
PLAN_1
 62
     2
  6
CONTINUOUS
 10
-0.214252
 20
0.568094
  0
VERTEX
  8
PLAN_1
 62
     2
  6
CONTINUOUS
 10
-0.213350
 20
0.564937
  0
VERTEX
  8
PLAN_1
 62
     2
  6
CONTINUOUS
 10
-0.211547
 20
0.562681
  0
VERTEX
  8
PLAN_1
 62
     2
  6
CONTINUOUS
 10
-0.209291
 20
0.560425
  0
VERTEX
  8
PLAN_1
 62
     2
  6
CONTINUOUS
 10
-0.206587
 20
0.559071
  0
VERTEX
  8
PLAN_1
 62
     2
  6
CONTINUOUS
 10
-0.203429
 20
0.558169
  0
VERTEX
  8
PLAN_1
 62
     2
  6
CONTINUOUS
 10
-0.199819
 20
0.557720
  0
VERTEX
  8
PLAN_1
 62
     2
  6
CONTINUOUS
 10
-0.196661
 20
0.558169
  0
VERTEX
  8
PLAN_1
 62
     2
  6
CONTINUOUS
 10
-0.193957
 20
0.559071
  0
VERTEX
  8
PLAN_1
 62
     2
  6
CONTINUOUS
 10
-0.191248
 20
0.560425
  0
VERTEX
  8
PLAN_1
 62
     2
  6
CONTINUOUS
 10
-0.189445
 20
0.561780
  0
VERTEX
  8
PLAN_1
 62
     2
  6
CONTINUOUS
 10
-0.188091
 20
0.563583
  0
VERTEX
  8
PLAN_1
 62
     2
  6
CONTINUOUS
 10
-0.186736
 20
0.565386
  0
VERTEX
  8
PLAN_1
 62
     2
  6
CONTINUOUS
 10
-0.185835
 20
0.567193
  0
VERTEX
  8
PLAN_1
 62
     2
  6
CONTINUOUS
 10
-0.185386
 20
0.568543
  0
VERTEX
  8
PLAN_1
 62
     2
  6
CONTINUOUS
 10
-0.176362
 20
0.568543
  0
SEQEND
  8
0
  0
SOLID
  8
PLAN_1
 62
     2
 10
-0.198016
 20
0.613201
 11
-0.205232
 21
0.613201
 12
-0.184484
 22
0.628087
 13
-0.195760
 23
0.628087
  0
POLYLINE
  8
PLAN_1
 62
     2
  6
CONTINUOUS
 66
     1
 40
0.003000
 41
0.003000
  0
VERTEX
  8
PLAN_1
 62
     2
  6
CONTINUOUS
 10
-0.198016
 20
0.613201
  0
VERTEX
  8
PLAN_1
 62
     2
  6
CONTINUOUS
 10
-0.205232
 20
0.613201
  0
VERTEX
  8
PLAN_1
 62
     2
  6
CONTINUOUS
 10
-0.195760
 20
0.628087
  0
VERTEX
  8
PLAN_1
 62
     2
  6
CONTINUOUS
 10
-0.184484
 20
0.628087
  0
VERTEX
  8
PLAN_1
 62
     2
  6
CONTINUOUS
 10
-0.198016
 20
0.613201
  0
SEQEND
  8
0
  0
POLYLINE
  8
PLAN_1
 62
     2
  6
CONTINUOUS
 66
     1
 40
0.003000
 41
0.003000
  0
VERTEX
  8
PLAN_1
 62
     2
  6
CONTINUOUS
 10
-0.184933
 20
0.582980
  0
VERTEX
  8
PLAN_1
 62
     2
  6
CONTINUOUS
 10
-0.185386
 20
0.586138
  0
VERTEX
  8
PLAN_1
 62
     2
  6
CONTINUOUS
 10
-0.186287
 20
0.589295
  0
VERTEX
  8
PLAN_1
 62
     2
  6
CONTINUOUS
 10
-0.187189
 20
0.592000
  0
VERTEX
  8
PLAN_1
 62
     2
  6
CONTINUOUS
 10
-0.188543
 20
0.594256
  0
VERTEX
  8
PLAN_1
 62
     2
  6
CONTINUOUS
 10
-0.190799
 20
0.596512
  0
VERTEX
  8
PLAN_1
 62
     2
  6
CONTINUOUS
 10
-0.193504
 20
0.597862
  0
VERTEX
  8
PLAN_1
 62
     2
  6
CONTINUOUS
 10
-0.196661
 20
0.598768
  0
VERTEX
  8
PLAN_1
 62
     2
  6
CONTINUOUS
 10
-0.200272
 20
0.599217
  0
VERTEX
  8
PLAN_1
 62
     2
  6
CONTINUOUS
 10
-0.203429
 20
0.598768
  0
VERTEX
  8
PLAN_1
 62
     2
  6
CONTINUOUS
 10
-0.206134
 20
0.597862
  0
VERTEX
  8
PLAN_1
 62
     2
  6
CONTINUOUS
 10
-0.208839
 20
0.596512
  0
VERTEX
  8
PLAN_1
 62
     2
  6
CONTINUOUS
 10
-0.211094
 20
0.594256
  0
VERTEX
  8
PLAN_1
 62
     2
  6
CONTINUOUS
 10
-0.212902
 20
0.592000
  0
VERTEX
  8
PLAN_1
 62
     2
  6
CONTINUOUS
 10
-0.214252
 20
0.589295
  0
VERTEX
  8
PLAN_1
 62
     2
  6
CONTINUOUS
 10
-0.215154
 20
0.586138
  0
VERTEX
  8
PLAN_1
 62
     2
  6
CONTINUOUS
 10
-0.215606
 20
0.582980
  0
VERTEX
  8
PLAN_1
 62
     2
  6
CONTINUOUS
 10
-0.184933
 20
0.582980
  0
SEQEND
  8
0
  0
POLYLINE
  8
PLAN_1
 62
     2
  6
CONTINUOUS
 66
     1
 40
0.003000
 41
0.003000
  0
VERTEX
  8
PLAN_1
 62
     2
  6
CONTINUOUS
 10
-0.133965
 20
0.590646
  0
VERTEX
  8
PLAN_1
 62
     2
  6
CONTINUOUS
 10
-0.133965
 20
0.592000
  0
VERTEX
  8
PLAN_1
 62
     2
  6
CONTINUOUS
 10
-0.134413
 20
0.593354
  0
VERTEX
  8
PLAN_1
 62
     2
  6
CONTINUOUS
 10
-0.134866
 20
0.594705
  0
VERTEX
  8
PLAN_1
 62
     2
  6
CONTINUOUS
 10
-0.135768
 20
0.596512
  0
VERTEX
  8
PLAN_1
 62
     2
  6
CONTINUOUS
 10
-0.137571
 20
0.597413
  0
VERTEX
  8
PLAN_1
 62
     2
  6
CONTINUOUS
 10
-0.139827
 20
0.598768
  0
VERTEX
  8
PLAN_1
 62
     2
  6
CONTINUOUS
 10
-0.142984
 20
0.599217
  0
VERTEX
  8
PLAN_1
 62
     2
  6
CONTINUOUS
 10
-0.146594
 20
0.599669
  0
VERTEX
  8
PLAN_1
 62
     2
  6
CONTINUOUS
 10
-0.147945
 20
0.599669
  0
VERTEX
  8
PLAN_1
 62
     2
  6
CONTINUOUS
 10
-0.149752
 20
0.599217
  0
VERTEX
  8
PLAN_1
 62
     2
  6
CONTINUOUS
 10
-0.151555
 20
0.598768
  0
VERTEX
  8
PLAN_1
 62
     2
  6
CONTINUOUS
 10
-0.153358
 20
0.598315
  0
VERTEX
  8
PLAN_1
 62
     2
  6
CONTINUOUS
 10
-0.154713
 20
0.597413
  0
VERTEX
  8
PLAN_1
 62
     2
  6
CONTINUOUS
 10
-0.156067
 20
0.596059
  0
VERTEX
  8
PLAN_1
 62
     2
  6
CONTINUOUS
 10
-0.156969
 20
0.594256
  0
VERTEX
  8
PLAN_1
 62
     2
  6
CONTINUOUS
 10
-0.157417
 20
0.592000
  0
VERTEX
  8
PLAN_1
 62
     2
  6
CONTINUOUS
 10
-0.157417
 20
0.590197
  0
VERTEX
  8
PLAN_1
 62
     2
  6
CONTINUOUS
 10
-0.156969
 20
0.589295
  0
VERTEX
  8
PLAN_1
 62
     2
  6
CONTINUOUS
 10
-0.156067
 20
0.587941
  0
VERTEX
  8
PLAN_1
 62
     2
  6
CONTINUOUS
 10
-0.155165
 20
0.587488
  0
VERTEX
  8
PLAN_1
 62
     2
  6
CONTINUOUS
 10
-0.153811
 20
0.586587
  0
VERTEX
  8
PLAN_1
 62
     2
  6
CONTINUOUS
 10
-0.152008
 20
0.585685
  0
VERTEX
  8
PLAN_1
 62
     2
  6
CONTINUOUS
 10
-0.150201
 20
0.585236
  0
VERTEX
  8
PLAN_1
 62
     2
  6
CONTINUOUS
 10
-0.147496
 20
0.584783
  0
VERTEX
  8
PLAN_1
 62
     2
  6
CONTINUOUS
 10
-0.138472
 20
0.582528
  0
VERTEX
  8
PLAN_1
 62
     2
  6
CONTINUOUS
 10
-0.134413
 20
0.581173
  0
VERTEX
  8
PLAN_1
 62
     2
  6
CONTINUOUS
 10
-0.131256
 20
0.579823
  0
VERTEX
  8
PLAN_1
 62
     2
  6
CONTINUOUS
 10
-0.128551
 20
0.578469
  0
VERTEX
  8
PLAN_1
 62
     2
  6
CONTINUOUS
 10
-0.126748
 20
0.577114
  0
VERTEX
  8
PLAN_1
 62
     2
  6
CONTINUOUS
 10
-0.124941
 20
0.574858
  0
VERTEX
  8
PLAN_1
 62
     2
  6
CONTINUOUS
 10
-0.124039
 20
0.573055
  0
VERTEX
  8
PLAN_1
 62
     2
  6
CONTINUOUS
 10
-0.123591
 20
0.570799
  0
VERTEX
  8
PLAN_1
 62
     2
  6
CONTINUOUS
 10
-0.123138
 20
0.568094
  0
VERTEX
  8
PLAN_1
 62
     2
  6
CONTINUOUS
 10
-0.123591
 20
0.564035
  0
VERTEX
  8
PLAN_1
 62
     2
  6
CONTINUOUS
 10
-0.124941
 20
0.560425
  0
VERTEX
  8
PLAN_1
 62
     2
  6
CONTINUOUS
 10
-0.126748
 20
0.557268
  0
VERTEX
  8
PLAN_1
 62
     2
  6
CONTINUOUS
 10
-0.129453
 20
0.554563
  0
VERTEX
  8
PLAN_1
 62
     2
  6
CONTINUOUS
 10
-0.132610
 20
0.552756
  0
VERTEX
  8
PLAN_1
 62
     2
  6
CONTINUOUS
 10
-0.136220
 20
0.551406
  0
VERTEX
  8
PLAN_1
 62
     2
  6
CONTINUOUS
 10
-0.140280
 20
0.550504
  0
VERTEX
  8
PLAN_1
 62
     2
  6
CONTINUOUS
 10
-0.144787
 20
0.550051
  0
VERTEX
  8
PLAN_1
 62
     2
  6
CONTINUOUS
 10
-0.148398
 20
0.550051
  0
VERTEX
  8
PLAN_1
 62
     2
  6
CONTINUOUS
 10
-0.152008
 20
0.550504
  0
VERTEX
  8
PLAN_1
 62
     2
  6
CONTINUOUS
 10
-0.154713
 20
0.551406
  0
VERTEX
  8
PLAN_1
 62
     2
  6
CONTINUOUS
 10
-0.157417
 20
0.551854
  0
VERTEX
  8
PLAN_1
 62
     2
  6
CONTINUOUS
 10
-0.159673
 20
0.553209
  0
VERTEX
  8
PLAN_1
 62
     2
  6
CONTINUOUS
 10
-0.161480
 20
0.554110
  0
VERTEX
  8
PLAN_1
 62
     2
  6
CONTINUOUS
 10
-0.163283
 20
0.555465
  0
VERTEX
  8
PLAN_1
 62
     2
  6
CONTINUOUS
 10
-0.164185
 20
0.557268
  0
VERTEX
  8
PLAN_1
 62
     2
  6
CONTINUOUS
 10
-0.166441
 20
0.559976
  0
VERTEX
  8
PLAN_1
 62
     2
  6
CONTINUOUS
 10
-0.167343
 20
0.563134
  0
VERTEX
  8
PLAN_1
 62
     2
  6
CONTINUOUS
 10
-0.167795
 20
0.566291
  0
VERTEX
  8
PLAN_1
 62
     2
  6
CONTINUOUS
 10
-0.168244
 20
0.568996
  0
VERTEX
  8
PLAN_1
 62
     2
  6
CONTINUOUS
 10
-0.159224
 20
0.568996
  0
VERTEX
  8
PLAN_1
 62
     2
  6
CONTINUOUS
 10
-0.159224
 20
0.567193
  0
VERTEX
  8
PLAN_1
 62
     2
  6
CONTINUOUS
 10
-0.158772
 20
0.565386
  0
VERTEX
  8
PLAN_1
 62
     2
  6
CONTINUOUS
 10
-0.157870
 20
0.563583
  0
VERTEX
  8
PLAN_1
 62
     2
  6
CONTINUOUS
 10
-0.156969
 20
0.561780
  0
VERTEX
  8
PLAN_1
 62
     2
  6
CONTINUOUS
 10
-0.155165
 20
0.560425
  0
VERTEX
  8
PLAN_1
 62
     2
  6
CONTINUOUS
 10
-0.152457
 20
0.559071
  0
VERTEX
  8
PLAN_1
 62
     2
  6
CONTINUOUS
 10
-0.149299
 20
0.558169
  0
VERTEX
  8
PLAN_1
 62
     2
  6
CONTINUOUS
 10
-0.144787
 20
0.557720
  0
VERTEX
  8
PLAN_1
 62
     2
  6
CONTINUOUS
 10
-0.142535
 20
0.558169
  0
VERTEX
  8
PLAN_1
 62
     2
  6
CONTINUOUS
 10
-0.140280
 20
0.558622
  0
VERTEX
  8
PLAN_1
 62
     2
  6
CONTINUOUS
 10
-0.138024
 20
0.559071
  0
VERTEX
  8
PLAN_1
 62
     2
  6
CONTINUOUS
 10
-0.136220
 20
0.559976
  0
VERTEX
  8
PLAN_1
 62
     2
  6
CONTINUOUS
 10
-0.134413
 20
0.561327
  0
VERTEX
  8
PLAN_1
 62
     2
  6
CONTINUOUS
 10
-0.133512
 20
0.562681
  0
VERTEX
  8
PLAN_1
 62
     2
  6
CONTINUOUS
 10
-0.132610
 20
0.564484
  0
VERTEX
  8
PLAN_1
 62
     2
  6
CONTINUOUS
 10
-0.132161
 20
0.566740
  0
VERTEX
  8
PLAN_1
 62
     2
  6
CONTINUOUS
 10
-0.132610
 20
0.568094
  0
VERTEX
  8
PLAN_1
 62
     2
  6
CONTINUOUS
 10
-0.133063
 20
0.569449
  0
VERTEX
  8
PLAN_1
 62
     2
  6
CONTINUOUS
 10
-0.133512
 20
0.570350
  0
VERTEX
  8
PLAN_1
 62
     2
  6
CONTINUOUS
 10
-0.134866
 20
0.571252
  0
VERTEX
  8
PLAN_1
 62
     2
  6
CONTINUOUS
 10
-0.136220
 20
0.572154
  0
VERTEX
  8
PLAN_1
 62
     2
  6
CONTINUOUS
 10
-0.138024
 20
0.573055
  0
VERTEX
  8
PLAN_1
 62
     2
  6
CONTINUOUS
 10
-0.140280
 20
0.573508
  0
VERTEX
  8
PLAN_1
 62
     2
  6
CONTINUOUS
 10
-0.142984
 20
0.574409
  0
VERTEX
  8
PLAN_1
 62
     2
  6
CONTINUOUS
 10
-0.153811
 20
0.577114
  0
VERTEX
  8
PLAN_1
 62
     2
  6
CONTINUOUS
 10
-0.156516
 20
0.577567
  0
VERTEX
  8
PLAN_1
 62
     2
  6
CONTINUOUS
 10
-0.158772
 20
0.578921
  0
VERTEX
  8
PLAN_1
 62
     2
  6
CONTINUOUS
 10
-0.161028
 20
0.579823
  0
VERTEX
  8
PLAN_1
 62
     2
  6
CONTINUOUS
 10
-0.162831
 20
0.581626
  0
VERTEX
  8
PLAN_1
 62
     2
  6
CONTINUOUS
 10
-0.164185
 20
0.582980
  0
VERTEX
  8
PLAN_1
 62
     2
  6
CONTINUOUS
 10
-0.165539
 20
0.585236
  0
VERTEX
  8
PLAN_1
 62
     2
  6
CONTINUOUS
 10
-0.165988
 20
0.587488
  0
VERTEX
  8
PLAN_1
 62
     2
  6
CONTINUOUS
 10
-0.166441
 20
0.590197
  0
VERTEX
  8
PLAN_1
 62
     2
  6
CONTINUOUS
 10
-0.166441
 20
0.592453
  0
VERTEX
  8
PLAN_1
 62
     2
  6
CONTINUOUS
 10
-0.165988
 20
0.594256
  0
VERTEX
  8
PLAN_1
 62
     2
  6
CONTINUOUS
 10
-0.165539
 20
0.596059
  0
VERTEX
  8
PLAN_1
 62
     2
  6
CONTINUOUS
 10
-0.164638
 20
0.597862
  0
VERTEX
  8
PLAN_1
 62
     2
  6
CONTINUOUS
 10
-0.162831
 20
0.601020
  0
VERTEX
  8
PLAN_1
 62
     2
  6
CONTINUOUS
 10
-0.160126
 20
0.603276
  0
VERTEX
  8
PLAN_1
 62
     2
  6
CONTINUOUS
 10
-0.156969
 20
0.605083
  0
VERTEX
  8
PLAN_1
 62
     2
  6
CONTINUOUS
 10
-0.153358
 20
0.606433
  0
VERTEX
  8
PLAN_1
 62
     2
  6
CONTINUOUS
 10
-0.149752
 20
0.607335
  0
VERTEX
  8
PLAN_1
 62
     2
  6
CONTINUOUS
 10
-0.145693
 20
0.607335
  0
VERTEX
  8
PLAN_1
 62
     2
  6
CONTINUOUS
 10
-0.142535
 20
0.607335
  0
VERTEX
  8
PLAN_1
 62
     2
  6
CONTINUOUS
 10
-0.139378
 20
0.606886
  0
VERTEX
  8
PLAN_1
 62
     2
  6
CONTINUOUS
 10
-0.136669
 20
0.605984
  0
VERTEX
  8
PLAN_1
 62
     2
  6
CONTINUOUS
 10
-0.134413
 20
0.605083
  0
VERTEX
  8
PLAN_1
 62
     2
  6
CONTINUOUS
 10
-0.132161
 20
0.604177
  0
VERTEX
  8
PLAN_1
 62
     2
  6
CONTINUOUS
 10
-0.130807
 20
0.602827
  0
VERTEX
  8
PLAN_1
 62
     2
  6
CONTINUOUS
 10
-0.129453
 20
0.601472
  0
VERTEX
  8
PLAN_1
 62
     2
  6
CONTINUOUS
 10
-0.128098
 20
0.600118
  0
VERTEX
  8
PLAN_1
 62
     2
  6
CONTINUOUS
 10
-0.126295
 20
0.596961
  0
VERTEX
  8
PLAN_1
 62
     2
  6
CONTINUOUS
 10
-0.125394
 20
0.594256
  0
VERTEX
  8
PLAN_1
 62
     2
  6
CONTINUOUS
 10
-0.124941
 20
0.592000
  0
VERTEX
  8
PLAN_1
 62
     2
  6
CONTINUOUS
 10
-0.124941
 20
0.590646
  0
VERTEX
  8
PLAN_1
 62
     2
  6
CONTINUOUS
 10
-0.133965
 20
0.590646
  0
SEQEND
  8
0
  0
POLYLINE
  8
PLAN_1
 62
     2
  6
CONTINUOUS
 66
     1
 40
0.003000
 41
0.003000
  0
VERTEX
  8
PLAN_1
 62
     2
  6
CONTINUOUS
 10
-0.084346
 20
0.605984
  0
VERTEX
  8
PLAN_1
 62
     2
  6
CONTINUOUS
 10
-0.075776
 20
0.605984
  0
VERTEX
  8
PLAN_1
 62
     2
  6
CONTINUOUS
 10
-0.075776
 20
0.598315
  0
VERTEX
  8
PLAN_1
 62
     2
  6
CONTINUOUS
 10
-0.074874
 20
0.599669
  0
VERTEX
  8
PLAN_1
 62
     2
  6
CONTINUOUS
 10
-0.073520
 20
0.601020
  0
VERTEX
  8
PLAN_1
 62
     2
  6
CONTINUOUS
 10
-0.072169
 20
0.602374
  0
VERTEX
  8
PLAN_1
 62
     2
  6
CONTINUOUS
 10
-0.070362
 20
0.604177
  0
VERTEX
  8
PLAN_1
 62
     2
  6
CONTINUOUS
 10
-0.068110
 20
0.605531
  0
VERTEX
  8
PLAN_1
 62
     2
  6
CONTINUOUS
 10
-0.065854
 20
0.606433
  0
VERTEX
  8
PLAN_1
 62
     2
  6
CONTINUOUS
 10
-0.062697
 20
0.607335
  0
VERTEX
  8
PLAN_1
 62
     2
  6
CONTINUOUS
 10
-0.059539
 20
0.607335
  0
VERTEX
  8
PLAN_1
 62
     2
  6
CONTINUOUS
 10
-0.056831
 20
0.607335
  0
VERTEX
  8
PLAN_1
 62
     2
  6
CONTINUOUS
 10
-0.054126
 20
0.606886
  0
VERTEX
  8
PLAN_1
 62
     2
  6
CONTINUOUS
 10
-0.051870
 20
0.606433
  0
VERTEX
  8
PLAN_1
 62
     2
  6
CONTINUOUS
 10
-0.049614
 20
0.605531
  0
VERTEX
  8
PLAN_1
 62
     2
  6
CONTINUOUS
 10
-0.047811
 20
0.604177
  0
VERTEX
  8
PLAN_1
 62
     2
  6
CONTINUOUS
 10
-0.046008
 20
0.602827
  0
VERTEX
  8
PLAN_1
 62
     2
  6
CONTINUOUS
 10
-0.044201
 20
0.601472
  0
VERTEX
  8
PLAN_1
 62
     2
  6
CONTINUOUS
 10
-0.042398
 20
0.599669
  0
VERTEX
  8
PLAN_1
 62
     2
  6
CONTINUOUS
 10
-0.040142
 20
0.595610
  0
VERTEX
  8
PLAN_1
 62
     2
  6
CONTINUOUS
 10
-0.038339
 20
0.591098
  0
VERTEX
  8
PLAN_1
 62
     2
  6
CONTINUOUS
 10
-0.036984
 20
0.586138
  0
VERTEX
  8
PLAN_1
 62
     2
  6
CONTINUOUS
 10
-0.036535
 20
0.580272
  0
VERTEX
  8
PLAN_1
 62
     2
  6
CONTINUOUS
 10
-0.036984
 20
0.575311
  0
VERTEX
  8
PLAN_1
 62
     2
  6
CONTINUOUS
 10
-0.037886
 20
0.570350
  0
VERTEX
  8
PLAN_1
 62
     2
  6
CONTINUOUS
 10
-0.039240
 20
0.564937
  0
VERTEX
  8
PLAN_1
 62
     2
  6
CONTINUOUS
 10
-0.041496
 20
0.560425
  0
VERTEX
  8
PLAN_1
 62
     2
  6
CONTINUOUS
 10
-0.043299
 20
0.558169
  0
VERTEX
  8
PLAN_1
 62
     2
  6
CONTINUOUS
 10
-0.045106
 20
0.556366
  0
VERTEX
  8
PLAN_1
 62
     2
  6
CONTINUOUS
 10
-0.046909
 20
0.554563
  0
VERTEX
  8
PLAN_1
 62
     2
  6
CONTINUOUS
 10
-0.049165
 20
0.552756
  0
VERTEX
  8
PLAN_1
 62
     2
  6
CONTINUOUS
 10
-0.051417
 20
0.551854
  0
VERTEX
  8
PLAN_1
 62
     2
  6
CONTINUOUS
 10
-0.054126
 20
0.550953
  0
VERTEX
  8
PLAN_1
 62
     2
  6
CONTINUOUS
 10
-0.057283
 20
0.550051
  0
VERTEX
  8
PLAN_1
 62
     2
  6
CONTINUOUS
 10
-0.060441
 20
0.550051
  0
VERTEX
  8
PLAN_1
 62
     2
  6
CONTINUOUS
 10
-0.063146
 20
0.550051
  0
VERTEX
  8
PLAN_1
 62
     2
  6
CONTINUOUS
 10
-0.065402
 20
0.550504
  0
VERTEX
  8
PLAN_1
 62
     2
  6
CONTINUOUS
 10
-0.067657
 20
0.551406
  0
VERTEX
  8
PLAN_1
 62
     2
  6
CONTINUOUS
 10
-0.069461
 20
0.552307
  0
VERTEX
  8
PLAN_1
 62
     2
  6
CONTINUOUS
 10
-0.071268
 20
0.553209
  0
VERTEX
  8
PLAN_1
 62
     2
  6
CONTINUOUS
 10
-0.072618
 20
0.554563
  0
VERTEX
  8
PLAN_1
 62
     2
  6
CONTINUOUS
 10
-0.073972
 20
0.555913
  0
VERTEX
  8
PLAN_1
 62
     2
  6
CONTINUOUS
 10
-0.074874
 20
0.557268
  0
VERTEX
  8
PLAN_1
 62
     2
  6
CONTINUOUS
 10
-0.075327
 20
0.557268
  0
VERTEX
  8
PLAN_1
 62
     2
  6
CONTINUOUS
 10
-0.075327
 20
0.530205
  0
VERTEX
  8
PLAN_1
 62
     2
  6
CONTINUOUS
 10
-0.084346
 20
0.530205
  0
VERTEX
  8
PLAN_1
 62
     2
  6
CONTINUOUS
 10
-0.084346
 20
0.605984
  0
SEQEND
  8
0
  0
POLYLINE
  8
PLAN_1
 62
     2
  6
CONTINUOUS
 66
     1
 40
0.003000
 41
0.003000
  0
VERTEX
  8
PLAN_1
 62
     2
  6
CONTINUOUS
 10
-0.060890
 20
0.557720
  0
VERTEX
  8
PLAN_1
 62
     2
  6
CONTINUOUS
 10
-0.057283
 20
0.558169
  0
VERTEX
  8
PLAN_1
 62
     2
  6
CONTINUOUS
 10
-0.054126
 20
0.559524
  0
VERTEX
  8
PLAN_1
 62
     2
  6
CONTINUOUS
 10
-0.051870
 20
0.561327
  0
VERTEX
  8
PLAN_1
 62
     2
  6
CONTINUOUS
 10
-0.049614
 20
0.564035
  0
VERTEX
  8
PLAN_1
 62
     2
  6
CONTINUOUS
 10
-0.048264
 20
0.567193
  0
VERTEX
  8
PLAN_1
 62
     2
  6
CONTINUOUS
 10
-0.046909
 20
0.570799
  0
VERTEX
  8
PLAN_1
 62
     2
  6
CONTINUOUS
 10
-0.046457
 20
0.574409
  0
VERTEX
  8
PLAN_1
 62
     2
  6
CONTINUOUS
 10
-0.046008
 20
0.578921
  0
VERTEX
  8
PLAN_1
 62
     2
  6
CONTINUOUS
 10
-0.046008
 20
0.581626
  0
VERTEX
  8
PLAN_1
 62
     2
  6
CONTINUOUS
 10
-0.046457
 20
0.585236
  0
VERTEX
  8
PLAN_1
 62
     2
  6
CONTINUOUS
 10
-0.046909
 20
0.588394
  0
VERTEX
  8
PLAN_1
 62
     2
  6
CONTINUOUS
 10
-0.048264
 20
0.591551
  0
VERTEX
  8
PLAN_1
 62
     2
  6
CONTINUOUS
 10
-0.049165
 20
0.593354
  0
VERTEX
  8
PLAN_1
 62
     2
  6
CONTINUOUS
 10
-0.050067
 20
0.594705
  0
VERTEX
  8
PLAN_1
 62
     2
  6
CONTINUOUS
 10
-0.051417
 20
0.596059
  0
VERTEX
  8
PLAN_1
 62
     2
  6
CONTINUOUS
 10
-0.052772
 20
0.596961
  0
VERTEX
  8
PLAN_1
 62
     2
  6
CONTINUOUS
 10
-0.054575
 20
0.597862
  0
VERTEX
  8
PLAN_1
 62
     2
  6
CONTINUOUS
 10
-0.056382
 20
0.598768
  0
VERTEX
  8
PLAN_1
 62
     2
  6
CONTINUOUS
 10
-0.058638
 20
0.599217
  0
VERTEX
  8
PLAN_1
 62
     2
  6
CONTINUOUS
 10
-0.060890
 20
0.599217
  0
VERTEX
  8
PLAN_1
 62
     2
  6
CONTINUOUS
 10
-0.063146
 20
0.599217
  0
VERTEX
  8
PLAN_1
 62
     2
  6
CONTINUOUS
 10
-0.065402
 20
0.598768
  0
VERTEX
  8
PLAN_1
 62
     2
  6
CONTINUOUS
 10
-0.067205
 20
0.597862
  0
VERTEX
  8
PLAN_1
 62
     2
  6
CONTINUOUS
 10
-0.069012
 20
0.596961
  0
VERTEX
  8
PLAN_1
 62
     2
  6
CONTINUOUS
 10
-0.070362
 20
0.595610
  0
VERTEX
  8
PLAN_1
 62
     2
  6
CONTINUOUS
 10
-0.071268
 20
0.594256
  0
VERTEX
  8
PLAN_1
 62
     2
  6
CONTINUOUS
 10
-0.072618
 20
0.592902
  0
VERTEX
  8
PLAN_1
 62
     2
  6
CONTINUOUS
 10
-0.073520
 20
0.591098
  0
VERTEX
  8
PLAN_1
 62
     2
  6
CONTINUOUS
 10
-0.074425
 20
0.587488
  0
VERTEX
  8
PLAN_1
 62
     2
  6
CONTINUOUS
 10
-0.075327
 20
0.583429
  0
VERTEX
  8
PLAN_1
 62
     2
  6
CONTINUOUS
 10
-0.075776
 20
0.579823
  0
VERTEX
  8
PLAN_1
 62
     2
  6
CONTINUOUS
 10
-0.075776
 20
0.576213
  0
VERTEX
  8
PLAN_1
 62
     2
  6
CONTINUOUS
 10
-0.075327
 20
0.571252
  0
VERTEX
  8
PLAN_1
 62
     2
  6
CONTINUOUS
 10
-0.073972
 20
0.567193
  0
VERTEX
  8
PLAN_1
 62
     2
  6
CONTINUOUS
 10
-0.072618
 20
0.564035
  0
VERTEX
  8
PLAN_1
 62
     2
  6
CONTINUOUS
 10
-0.070362
 20
0.561780
  0
VERTEX
  8
PLAN_1
 62
     2
  6
CONTINUOUS
 10
-0.068110
 20
0.559976
  0
VERTEX
  8
PLAN_1
 62
     2
  6
CONTINUOUS
 10
-0.065402
 20
0.558622
  0
VERTEX
  8
PLAN_1
 62
     2
  6
CONTINUOUS
 10
-0.063146
 20
0.558169
  0
VERTEX
  8
PLAN_1
 62
     2
  6
CONTINUOUS
 10
-0.060890
 20
0.557720
  0
SEQEND
  8
0
  0
POLYLINE
  8
PLAN_1
 62
     2
  6
CONTINUOUS
 66
     1
 40
0.003000
 41
0.003000
  0
VERTEX
  8
PLAN_1
 62
     2
  6
CONTINUOUS
 10
-0.003606
 20
0.607335
  0
VERTEX
  8
PLAN_1
 62
     2
  6
CONTINUOUS
 10
-0.000449
 20
0.607335
  0
VERTEX
  8
PLAN_1
 62
     2
  6
CONTINUOUS
 10
0.002256
 20
0.606886
  0
VERTEX
  8
PLAN_1
 62
     2
  6
CONTINUOUS
 10
0.004965
 20
0.605984
  0
VERTEX
  8
PLAN_1
 62
     2
  6
CONTINUOUS
 10
0.007669
 20
0.605083
  0
VERTEX
  8
PLAN_1
 62
     2
  6
CONTINUOUS
 10
0.009925
 20
0.603728
  0
VERTEX
  8
PLAN_1
 62
     2
  6
CONTINUOUS
 10
0.012181
 20
0.601925
  0
VERTEX
  8
PLAN_1
 62
     2
  6
CONTINUOUS
 10
0.013984
 20
0.600571
  0
VERTEX
  8
PLAN_1
 62
     2
  6
CONTINUOUS
 10
0.015339
 20
0.598315
  0
VERTEX
  8
PLAN_1
 62
     2
  6
CONTINUOUS
 10
0.017142
 20
0.596512
  0
VERTEX
  8
PLAN_1
 62
     2
  6
CONTINUOUS
 10
0.018043
 20
0.594256
  0
VERTEX
  8
PLAN_1
 62
     2
  6
CONTINUOUS
 10
0.019398
 20
0.591551
  0
VERTEX
  8
PLAN_1
 62
     2
  6
CONTINUOUS
 10
0.020299
 20
0.589295
  0
VERTEX
  8
PLAN_1
 62
     2
  6
CONTINUOUS
 10
0.021201
 20
0.583882
  0
VERTEX
  8
PLAN_1
 62
     2
  6
CONTINUOUS
 10
0.021654
 20
0.578921
  0
VERTEX
  8
PLAN_1
 62
     2
  6
CONTINUOUS
 10
0.021201
 20
0.573508
  0
VERTEX
  8
PLAN_1
 62
     2
  6
CONTINUOUS
 10
0.020299
 20
0.568543
  0
VERTEX
  8
PLAN_1
 62
     2
  6
CONTINUOUS
 10
0.019398
 20
0.565839
  0
VERTEX
  8
PLAN_1
 62
     2
  6
CONTINUOUS
 10
0.018043
 20
0.563583
  0
VERTEX
  8
PLAN_1
 62
     2
  6
CONTINUOUS
 10
0.017142
 20
0.561327
  0
VERTEX
  8
PLAN_1
 62
     2
  6
CONTINUOUS
 10
0.015339
 20
0.559071
  0
VERTEX
  8
PLAN_1
 62
     2
  6
CONTINUOUS
 10
0.013984
 20
0.557268
  0
VERTEX
  8
PLAN_1
 62
     2
  6
CONTINUOUS
 10
0.012181
 20
0.555465
  0
VERTEX
  8
PLAN_1
 62
     2
  6
CONTINUOUS
 10
0.009925
 20
0.554110
  0
VERTEX
  8
PLAN_1
 62
     2
  6
CONTINUOUS
 10
0.007669
 20
0.552756
  0
VERTEX
  8
PLAN_1
 62
     2
  6
CONTINUOUS
 10
0.004965
 20
0.551406
  0
VERTEX
  8
PLAN_1
 62
     2
  6
CONTINUOUS
 10
0.002256
 20
0.550953
  0
VERTEX
  8
PLAN_1
 62
     2
  6
CONTINUOUS
 10
-0.000449
 20
0.550051
  0
VERTEX
  8
PLAN_1
 62
     2
  6
CONTINUOUS
 10
-0.003606
 20
0.550051
  0
VERTEX
  8
PLAN_1
 62
     2
  6
CONTINUOUS
 10
-0.006764
 20
0.550051
  0
VERTEX
  8
PLAN_1
 62
     2
  6
CONTINUOUS
 10
-0.009921
 20
0.550953
  0
VERTEX
  8
PLAN_1
 62
     2
  6
CONTINUOUS
 10
-0.012626
 20
0.551406
  0
VERTEX
  8
PLAN_1
 62
     2
  6
CONTINUOUS
 10
-0.014882
 20
0.552756
  0
VERTEX
  8
PLAN_1
 62
     2
  6
CONTINUOUS
 10
-0.017138
 20
0.554110
  0
VERTEX
  8
PLAN_1
 62
     2
  6
CONTINUOUS
 10
-0.019394
 20
0.555465
  0
VERTEX
  8
PLAN_1
 62
     2
  6
CONTINUOUS
 10
-0.021197
 20
0.557268
  0
VERTEX
  8
PLAN_1
 62
     2
  6
CONTINUOUS
 10
-0.023004
 20
0.559071
  0
VERTEX
  8
PLAN_1
 62
     2
  6
CONTINUOUS
 10
-0.024354
 20
0.561327
  0
VERTEX
  8
PLAN_1
 62
     2
  6
CONTINUOUS
 10
-0.025709
 20
0.563583
  0
VERTEX
  8
PLAN_1
 62
     2
  6
CONTINUOUS
 10
-0.026610
 20
0.565839
  0
VERTEX
  8
PLAN_1
 62
     2
  6
CONTINUOUS
 10
-0.027512
 20
0.568543
  0
VERTEX
  8
PLAN_1
 62
     2
  6
CONTINUOUS
 10
-0.028413
 20
0.573508
  0
VERTEX
  8
PLAN_1
 62
     2
  6
CONTINUOUS
 10
-0.028866
 20
0.578921
  0
VERTEX
  8
PLAN_1
 62
     2
  6
CONTINUOUS
 10
-0.028413
 20
0.583882
  0
VERTEX
  8
PLAN_1
 62
     2
  6
CONTINUOUS
 10
-0.027512
 20
0.589295
  0
VERTEX
  8
PLAN_1
 62
     2
  6
CONTINUOUS
 10
-0.026610
 20
0.591551
  0
VERTEX
  8
PLAN_1
 62
     2
  6
CONTINUOUS
 10
-0.025709
 20
0.594256
  0
VERTEX
  8
PLAN_1
 62
     2
  6
CONTINUOUS
 10
-0.024354
 20
0.596512
  0
VERTEX
  8
PLAN_1
 62
     2
  6
CONTINUOUS
 10
-0.023004
 20
0.598315
  0
VERTEX
  8
PLAN_1
 62
     2
  6
CONTINUOUS
 10
-0.021197
 20
0.600571
  0
VERTEX
  8
PLAN_1
 62
     2
  6
CONTINUOUS
 10
-0.019394
 20
0.601925
  0
VERTEX
  8
PLAN_1
 62
     2
  6
CONTINUOUS
 10
-0.017138
 20
0.603728
  0
VERTEX
  8
PLAN_1
 62
     2
  6
CONTINUOUS
 10
-0.014882
 20
0.605083
  0
VERTEX
  8
PLAN_1
 62
     2
  6
CONTINUOUS
 10
-0.012626
 20
0.605984
  0
VERTEX
  8
PLAN_1
 62
     2
  6
CONTINUOUS
 10
-0.009921
 20
0.606886
  0
VERTEX
  8
PLAN_1
 62
     2
  6
CONTINUOUS
 10
-0.006764
 20
0.607335
  0
VERTEX
  8
PLAN_1
 62
     2
  6
CONTINUOUS
 10
-0.003606
 20
0.607335
  0
SEQEND
  8
0
  0
POLYLINE
  8
PLAN_1
 62
     2
  6
CONTINUOUS
 66
     1
 40
0.003000
 41
0.003000
  0
VERTEX
  8
PLAN_1
 62
     2
  6
CONTINUOUS
 10
-0.003606
 20
0.558169
  0
VERTEX
  8
PLAN_1
 62
     2
  6
CONTINUOUS
 10
-0.001350
 20
0.558169
  0
VERTEX
  8
PLAN_1
 62
     2
  6
CONTINUOUS
 10
0.000906
 20
0.558622
  0
VERTEX
  8
PLAN_1
 62
     2
  6
CONTINUOUS
 10
0.002709
 20
0.559524
  0
VERTEX
  8
PLAN_1
 62
     2
  6
CONTINUOUS
 10
0.004512
 20
0.560425
  0
VERTEX
  8
PLAN_1
 62
     2
  6
CONTINUOUS
 10
0.005866
 20
0.561327
  0
VERTEX
  8
PLAN_1
 62
     2
  6
CONTINUOUS
 10
0.007220
 20
0.562681
  0
VERTEX
  8
PLAN_1
 62
     2
  6
CONTINUOUS
 10
0.008122
 20
0.564035
  0
VERTEX
  8
PLAN_1
 62
     2
  6
CONTINUOUS
 10
0.009024
 20
0.565839
  0
VERTEX
  8
PLAN_1
 62
     2
  6
CONTINUOUS
 10
0.010827
 20
0.568996
  0
VERTEX
  8
PLAN_1
 62
     2
  6
CONTINUOUS
 10
0.011728
 20
0.572606
  0
VERTEX
  8
PLAN_1
 62
     2
  6
CONTINUOUS
 10
0.012181
 20
0.575764
  0
VERTEX
  8
PLAN_1
 62
     2
  6
CONTINUOUS
 10
0.012181
 20
0.578921
  0
VERTEX
  8
PLAN_1
 62
     2
  6
CONTINUOUS
 10
0.012181
 20
0.581626
  0
VERTEX
  8
PLAN_1
 62
     2
  6
CONTINUOUS
 10
0.011728
 20
0.585236
  0
VERTEX
  8
PLAN_1
 62
     2
  6
CONTINUOUS
 10
0.010827
 20
0.588394
  0
VERTEX
  8
PLAN_1
 62
     2
  6
CONTINUOUS
 10
0.009024
 20
0.592000
  0
VERTEX
  8
PLAN_1
 62
     2
  6
CONTINUOUS
 10
0.007220
 20
0.595157
  0
VERTEX
  8
PLAN_1
 62
     2
  6
CONTINUOUS
 10
0.004512
 20
0.597413
  0
VERTEX
  8
PLAN_1
 62
     2
  6
CONTINUOUS
 10
0.002709
 20
0.598315
  0
VERTEX
  8
PLAN_1
 62
     2
  6
CONTINUOUS
 10
0.000906
 20
0.599217
  0
VERTEX
  8
PLAN_1
 62
     2
  6
CONTINUOUS
 10
-0.001350
 20
0.599669
  0
VERTEX
  8
PLAN_1
 62
     2
  6
CONTINUOUS
 10
-0.003606
 20
0.599669
  0
VERTEX
  8
PLAN_1
 62
     2
  6
CONTINUOUS
 10
-0.005862
 20
0.599669
  0
VERTEX
  8
PLAN_1
 62
     2
  6
CONTINUOUS
 10
-0.008118
 20
0.599217
  0
VERTEX
  8
PLAN_1
 62
     2
  6
CONTINUOUS
 10
-0.009921
 20
0.598315
  0
VERTEX
  8
PLAN_1
 62
     2
  6
CONTINUOUS
 10
-0.011724
 20
0.597413
  0
VERTEX
  8
PLAN_1
 62
     2
  6
CONTINUOUS
 10
-0.014433
 20
0.595157
  0
VERTEX
  8
PLAN_1
 62
     2
  6
CONTINUOUS
 10
-0.016236
 20
0.592000
  0
VERTEX
  8
PLAN_1
 62
     2
  6
CONTINUOUS
 10
-0.018039
 20
0.588394
  0
VERTEX
  8
PLAN_1
 62
     2
  6
CONTINUOUS
 10
-0.018941
 20
0.585236
  0
VERTEX
  8
PLAN_1
 62
     2
  6
CONTINUOUS
 10
-0.019394
 20
0.581626
  0
VERTEX
  8
PLAN_1
 62
     2
  6
CONTINUOUS
 10
-0.019394
 20
0.578921
  0
VERTEX
  8
PLAN_1
 62
     2
  6
CONTINUOUS
 10
-0.019394
 20
0.575764
  0
VERTEX
  8
PLAN_1
 62
     2
  6
CONTINUOUS
 10
-0.018941
 20
0.572606
  0
VERTEX
  8
PLAN_1
 62
     2
  6
CONTINUOUS
 10
-0.018039
 20
0.568996
  0
VERTEX
  8
PLAN_1
 62
     2
  6
CONTINUOUS
 10
-0.016236
 20
0.565839
  0
VERTEX
  8
PLAN_1
 62
     2
  6
CONTINUOUS
 10
-0.015335
 20
0.564035
  0
VERTEX
  8
PLAN_1
 62
     2
  6
CONTINUOUS
 10
-0.014433
 20
0.562681
  0
VERTEX
  8
PLAN_1
 62
     2
  6
CONTINUOUS
 10
-0.013079
 20
0.561327
  0
VERTEX
  8
PLAN_1
 62
     2
  6
CONTINUOUS
 10
-0.011724
 20
0.560425
  0
VERTEX
  8
PLAN_1
 62
     2
  6
CONTINUOUS
 10
-0.009921
 20
0.559524
  0
VERTEX
  8
PLAN_1
 62
     2
  6
CONTINUOUS
 10
-0.008118
 20
0.558622
  0
VERTEX
  8
PLAN_1
 62
     2
  6
CONTINUOUS
 10
-0.005862
 20
0.558169
  0
VERTEX
  8
PLAN_1
 62
     2
  6
CONTINUOUS
 10
-0.003606
 20
0.558169
  0
SEQEND
  8
0
  0
POLYLINE
  8
PLAN_1
 62
     2
  6
CONTINUOUS
 66
     1
 40
0.003000
 41
0.003000
  0
VERTEX
  8
PLAN_1
 62
     2
  6
CONTINUOUS
 10
0.067661
 20
0.551406
  0
VERTEX
  8
PLAN_1
 62
     2
  6
CONTINUOUS
 10
0.067661
 20
0.559524
  0
VERTEX
  8
PLAN_1
 62
     2
  6
CONTINUOUS
 10
0.067209
 20
0.559524
  0
VERTEX
  8
PLAN_1
 62
     2
  6
CONTINUOUS
 10
0.065858
 20
0.557268
  0
VERTEX
  8
PLAN_1
 62
     2
  6
CONTINUOUS
 10
0.064051
 20
0.555465
  0
VERTEX
  8
PLAN_1
 62
     2
  6
CONTINUOUS
 10
0.062701
 20
0.553661
  0
VERTEX
  8
PLAN_1
 62
     2
  6
CONTINUOUS
 10
0.060445
 20
0.552307
  0
VERTEX
  8
PLAN_1
 62
     2
  6
CONTINUOUS
 10
0.058189
 20
0.551406
  0
VERTEX
  8
PLAN_1
 62
     2
  6
CONTINUOUS
 10
0.055933
 20
0.550504
  0
VERTEX
  8
PLAN_1
 62
     2
  6
CONTINUOUS
 10
0.053228
 20
0.550051
  0
VERTEX
  8
PLAN_1
 62
     2
  6
CONTINUOUS
 10
0.050071
 20
0.550051
  0
VERTEX
  8
PLAN_1
 62
     2
  6
CONTINUOUS
 10
0.046913
 20
0.550051
  0
VERTEX
  8
PLAN_1
 62
     2
  6
CONTINUOUS
 10
0.043756
 20
0.550953
  0
VERTEX
  8
PLAN_1
 62
     2
  6
CONTINUOUS
 10
0.041047
 20
0.551854
  0
VERTEX
  8
PLAN_1
 62
     2
  6
CONTINUOUS
 10
0.038343
 20
0.553661
  0
VERTEX
  8
PLAN_1
 62
     2
  6
CONTINUOUS
 10
0.036087
 20
0.555913
  0
VERTEX
  8
PLAN_1
 62
     2
  6
CONTINUOUS
 10
0.033831
 20
0.558622
  0
VERTEX
  8
PLAN_1
 62
     2
  6
CONTINUOUS
 10
0.033382
 20
0.560425
  0
VERTEX
  8
PLAN_1
 62
     2
  6
CONTINUOUS
 10
0.032929
 20
0.562228
  0
VERTEX
  8
PLAN_1
 62
     2
  6
CONTINUOUS
 10
0.032480
 20
0.564484
  0
VERTEX
  8
PLAN_1
 62
     2
  6
CONTINUOUS
 10
0.032480
 20
0.566740
  0
VERTEX
  8
PLAN_1
 62
     2
  6
CONTINUOUS
 10
0.032480
 20
0.605984
  0
VERTEX
  8
PLAN_1
 62
     2
  6
CONTINUOUS
 10
0.041500
 20
0.605984
  0
VERTEX
  8
PLAN_1
 62
     2
  6
CONTINUOUS
 10
0.041500
 20
0.569898
  0
VERTEX
  8
PLAN_1
 62
     2
  6
CONTINUOUS
 10
0.041949
 20
0.566740
  0
VERTEX
  8
PLAN_1
 62
     2
  6
CONTINUOUS
 10
0.042402
 20
0.564035
  0
VERTEX
  8
PLAN_1
 62
     2
  6
CONTINUOUS
 10
0.043303
 20
0.562228
  0
VERTEX
  8
PLAN_1
 62
     2
  6
CONTINUOUS
 10
0.044657
 20
0.560425
  0
VERTEX
  8
PLAN_1
 62
     2
  6
CONTINUOUS
 10
0.046012
 20
0.559524
  0
VERTEX
  8
PLAN_1
 62
     2
  6
CONTINUOUS
 10
0.047815
 20
0.558622
  0
VERTEX
  8
PLAN_1
 62
     2
  6
CONTINUOUS
 10
0.050071
 20
0.558169
  0
VERTEX
  8
PLAN_1
 62
     2
  6
CONTINUOUS
 10
0.051874
 20
0.557720
  0
VERTEX
  8
PLAN_1
 62
     2
  6
CONTINUOUS
 10
0.054130
 20
0.558169
  0
VERTEX
  8
PLAN_1
 62
     2
  6
CONTINUOUS
 10
0.055933
 20
0.558169
  0
VERTEX
  8
PLAN_1
 62
     2
  6
CONTINUOUS
 10
0.057736
 20
0.559071
  0
VERTEX
  8
PLAN_1
 62
     2
  6
CONTINUOUS
 10
0.059091
 20
0.559524
  0
VERTEX
  8
PLAN_1
 62
     2
  6
CONTINUOUS
 10
0.061799
 20
0.561327
  0
VERTEX
  8
PLAN_1
 62
     2
  6
CONTINUOUS
 10
0.064051
 20
0.564035
  0
VERTEX
  8
PLAN_1
 62
     2
  6
CONTINUOUS
 10
0.065406
 20
0.566740
  0
VERTEX
  8
PLAN_1
 62
     2
  6
CONTINUOUS
 10
0.066307
 20
0.569898
  0
VERTEX
  8
PLAN_1
 62
     2
  6
CONTINUOUS
 10
0.066760
 20
0.573055
  0
VERTEX
  8
PLAN_1
 62
     2
  6
CONTINUOUS
 10
0.067209
 20
0.576213
  0
VERTEX
  8
PLAN_1
 62
     2
  6
CONTINUOUS
 10
0.067209
 20
0.605984
  0
VERTEX
  8
PLAN_1
 62
     2
  6
CONTINUOUS
 10
0.076232
 20
0.605984
  0
VERTEX
  8
PLAN_1
 62
     2
  6
CONTINUOUS
 10
0.076232
 20
0.551406
  0
VERTEX
  8
PLAN_1
 62
     2
  6
CONTINUOUS
 10
0.067661
 20
0.551406
  0
SEQEND
  8
0
  0
POLYLINE
  8
PLAN_1
 62
     2
  6
CONTINUOUS
 66
     1
 40
0.003000
 41
0.003000
  0
VERTEX
  8
PLAN_1
 62
     2
  6
CONTINUOUS
 10
0.100591
 20
0.551406
  0
VERTEX
  8
PLAN_1
 62
     2
  6
CONTINUOUS
 10
0.091118
 20
0.551406
  0
VERTEX
  8
PLAN_1
 62
     2
  6
CONTINUOUS
 10
0.091118
 20
0.605984
  0
VERTEX
  8
PLAN_1
 62
     2
  6
CONTINUOUS
 10
0.099685
 20
0.605984
  0
VERTEX
  8
PLAN_1
 62
     2
  6
CONTINUOUS
 10
0.099685
 20
0.596961
  0
VERTEX
  8
PLAN_1
 62
     2
  6
CONTINUOUS
 10
0.100138
 20
0.596961
  0
VERTEX
  8
PLAN_1
 62
     2
  6
CONTINUOUS
 10
0.101492
 20
0.599217
  0
VERTEX
  8
PLAN_1
 62
     2
  6
CONTINUOUS
 10
0.102843
 20
0.601472
  0
VERTEX
  8
PLAN_1
 62
     2
  6
CONTINUOUS
 10
0.104650
 20
0.603276
  0
VERTEX
  8
PLAN_1
 62
     2
  6
CONTINUOUS
 10
0.106453
 20
0.604630
  0
VERTEX
  8
PLAN_1
 62
     2
  6
CONTINUOUS
 10
0.108256
 20
0.605984
  0
VERTEX
  8
PLAN_1
 62
     2
  6
CONTINUOUS
 10
0.110512
 20
0.606886
  0
VERTEX
  8
PLAN_1
 62
     2
  6
CONTINUOUS
 10
0.112768
 20
0.607335
  0
VERTEX
  8
PLAN_1
 62
     2
  6
CONTINUOUS
 10
0.115472
 20
0.607335
  0
VERTEX
  8
PLAN_1
 62
     2
  6
CONTINUOUS
 10
0.115925
 20
0.607335
  0
VERTEX
  8
PLAN_1
 62
     2
  6
CONTINUOUS
 10
0.116378
 20
0.607335
  0
VERTEX
  8
PLAN_1
 62
     2
  6
CONTINUOUS
 10
0.116827
 20
0.607335
  0
VERTEX
  8
PLAN_1
 62
     2
  6
CONTINUOUS
 10
0.117280
 20
0.607335
  0
VERTEX
  8
PLAN_1
 62
     2
  6
CONTINUOUS
 10
0.117728
 20
0.607335
  0
VERTEX
  8
PLAN_1
 62
     2
  6
CONTINUOUS
 10
0.117728
 20
0.597862
  0
VERTEX
  8
PLAN_1
 62
     2
  6
CONTINUOUS
 10
0.114122
 20
0.597862
  0
VERTEX
  8
PLAN_1
 62
     2
  6
CONTINUOUS
 10
0.111413
 20
0.597413
  0
VERTEX
  8
PLAN_1
 62
     2
  6
CONTINUOUS
 10
0.108709
 20
0.596512
  0
VERTEX
  8
PLAN_1
 62
     2
  6
CONTINUOUS
 10
0.106000
 20
0.595157
  0
VERTEX
  8
PLAN_1
 62
     2
  6
CONTINUOUS
 10
0.104197
 20
0.593354
  0
VERTEX
  8
PLAN_1
 62
     2
  6
CONTINUOUS
 10
0.102394
 20
0.591098
  0
VERTEX
  8
PLAN_1
 62
     2
  6
CONTINUOUS
 10
0.101492
 20
0.588843
  0
VERTEX
  8
PLAN_1
 62
     2
  6
CONTINUOUS
 10
0.100591
 20
0.586138
  0
VERTEX
  8
PLAN_1
 62
     2
  6
CONTINUOUS
 10
0.100591
 20
0.582980
  0
VERTEX
  8
PLAN_1
 62
     2
  6
CONTINUOUS
 10
0.100591
 20
0.551406
  0
SEQEND
  8
0
  0
POLYLINE
  8
PLAN_1
 62
     2
  6
CONTINUOUS
 66
     1
 40
0.003000
 41
0.003000
  0
VERTEX
  8
PLAN_1
 62
     2
  6
CONTINUOUS
 10
-0.864685
 20
0.481039
  0
VERTEX
  8
PLAN_1
 62
     2
  6
CONTINUOUS
 10
-0.856114
 20
0.481039
  0
VERTEX
  8
PLAN_1
 62
     2
  6
CONTINUOUS
 10
-0.856114
 20
0.473370
  0
VERTEX
  8
PLAN_1
 62
     2
  6
CONTINUOUS
 10
-0.855665
 20
0.473370
  0
VERTEX
  8
PLAN_1
 62
     2
  6
CONTINUOUS
 10
-0.854760
 20
0.474724
  0
VERTEX
  8
PLAN_1
 62
     2
  6
CONTINUOUS
 10
-0.853858
 20
0.476079
  0
VERTEX
  8
PLAN_1
 62
     2
  6
CONTINUOUS
 10
-0.852508
 20
0.477429
  0
VERTEX
  8
PLAN_1
 62
     2
  6
CONTINUOUS
 10
-0.850701
 20
0.479236
  0
VERTEX
  8
PLAN_1
 62
     2
  6
CONTINUOUS
 10
-0.848445
 20
0.480587
  0
VERTEX
  8
PLAN_1
 62
     2
  6
CONTINUOUS
 10
-0.846193
 20
0.481488
  0
VERTEX
  8
PLAN_1
 62
     2
  6
CONTINUOUS
 10
-0.843035
 20
0.482394
  0
VERTEX
  8
PLAN_1
 62
     2
  6
CONTINUOUS
 10
-0.839878
 20
0.482394
  0
VERTEX
  8
PLAN_1
 62
     2
  6
CONTINUOUS
 10
-0.837169
 20
0.482394
  0
VERTEX
  8
PLAN_1
 62
     2
  6
CONTINUOUS
 10
-0.834465
 20
0.481941
  0
VERTEX
  8
PLAN_1
 62
     2
  6
CONTINUOUS
 10
-0.832209
 20
0.481488
  0
VERTEX
  8
PLAN_1
 62
     2
  6
CONTINUOUS
 10
-0.829953
 20
0.480587
  0
VERTEX
  8
PLAN_1
 62
     2
  6
CONTINUOUS
 10
-0.828150
 20
0.479236
  0
VERTEX
  8
PLAN_1
 62
     2
  6
CONTINUOUS
 10
-0.826346
 20
0.477882
  0
VERTEX
  8
PLAN_1
 62
     2
  6
CONTINUOUS
 10
-0.824539
 20
0.476528
  0
VERTEX
  8
PLAN_1
 62
     2
  6
CONTINUOUS
 10
-0.822736
 20
0.474724
  0
VERTEX
  8
PLAN_1
 62
     2
  6
CONTINUOUS
 10
-0.820480
 20
0.470665
  0
VERTEX
  8
PLAN_1
 62
     2
  6
CONTINUOUS
 10
-0.818677
 20
0.466154
  0
VERTEX
  8
PLAN_1
 62
     2
  6
CONTINUOUS
 10
-0.817323
 20
0.460740
  0
VERTEX
  8
PLAN_1
 62
     2
  6
CONTINUOUS
 10
-0.816874
 20
0.455327
  0
VERTEX
  8
PLAN_1
 62
     2
  6
CONTINUOUS
 10
-0.817323
 20
0.450366
  0
VERTEX
  8
PLAN_1
 62
     2
  6
CONTINUOUS
 10
-0.818224
 20
0.444953
  0
VERTEX
  8
PLAN_1
 62
     2
  6
CONTINUOUS
 10
-0.819579
 20
0.439992
  0
VERTEX
  8
PLAN_1
 62
     2
  6
CONTINUOUS
 10
-0.821835
 20
0.435480
  0
VERTEX
  8
PLAN_1
 62
     2
  6
CONTINUOUS
 10
-0.823638
 20
0.433224
  0
VERTEX
  8
PLAN_1
 62
     2
  6
CONTINUOUS
 10
-0.824992
 20
0.430972
  0
VERTEX
  8
PLAN_1
 62
     2
  6
CONTINUOUS
 10
-0.827248
 20
0.429618
  0
VERTEX
  8
PLAN_1
 62
     2
  6
CONTINUOUS
 10
-0.829504
 20
0.427815
  0
VERTEX
  8
PLAN_1
 62
     2
  6
CONTINUOUS
 10
-0.831756
 20
0.426913
  0
VERTEX
  8
PLAN_1
 62
     2
  6
CONTINUOUS
 10
-0.834465
 20
0.425559
  0
VERTEX
  8
PLAN_1
 62
     2
  6
CONTINUOUS
 10
-0.837622
 20
0.425106
  0
VERTEX
  8
PLAN_1
 62
     2
  6
CONTINUOUS
 10
-0.840780
 20
0.425106
  0
VERTEX
  8
PLAN_1
 62
     2
  6
CONTINUOUS
 10
-0.843484
 20
0.425106
  0
VERTEX
  8
PLAN_1
 62
     2
  6
CONTINUOUS
 10
-0.845740
 20
0.425559
  0
VERTEX
  8
PLAN_1
 62
     2
  6
CONTINUOUS
 10
-0.847996
 20
0.426461
  0
VERTEX
  8
PLAN_1
 62
     2
  6
CONTINUOUS
 10
-0.849799
 20
0.427362
  0
VERTEX
  8
PLAN_1
 62
     2
  6
CONTINUOUS
 10
-0.851602
 20
0.428264
  0
VERTEX
  8
PLAN_1
 62
     2
  6
CONTINUOUS
 10
-0.852957
 20
0.429618
  0
VERTEX
  8
PLAN_1
 62
     2
  6
CONTINUOUS
 10
-0.854311
 20
0.430972
  0
VERTEX
  8
PLAN_1
 62
     2
  6
CONTINUOUS
 10
-0.855213
 20
0.432323
  0
VERTEX
  8
PLAN_1
 62
     2
  6
CONTINUOUS
 10
-0.855665
 20
0.432323
  0
VERTEX
  8
PLAN_1
 62
     2
  6
CONTINUOUS
 10
-0.855665
 20
0.405260
  0
VERTEX
  8
PLAN_1
 62
     2
  6
CONTINUOUS
 10
-0.864685
 20
0.405260
  0
VERTEX
  8
PLAN_1
 62
     2
  6
CONTINUOUS
 10
-0.864685
 20
0.481039
  0
SEQEND
  8
0
  0
POLYLINE
  8
PLAN_1
 62
     2
  6
CONTINUOUS
 66
     1
 40
0.003000
 41
0.003000
  0
VERTEX
  8
PLAN_1
 62
     2
  6
CONTINUOUS
 10
-0.841228
 20
0.432776
  0
VERTEX
  8
PLAN_1
 62
     2
  6
CONTINUOUS
 10
-0.837622
 20
0.433224
  0
VERTEX
  8
PLAN_1
 62
     2
  6
CONTINUOUS
 10
-0.834465
 20
0.434579
  0
VERTEX
  8
PLAN_1
 62
     2
  6
CONTINUOUS
 10
-0.832209
 20
0.436382
  0
VERTEX
  8
PLAN_1
 62
     2
  6
CONTINUOUS
 10
-0.829953
 20
0.439091
  0
VERTEX
  8
PLAN_1
 62
     2
  6
CONTINUOUS
 10
-0.828598
 20
0.442248
  0
VERTEX
  8
PLAN_1
 62
     2
  6
CONTINUOUS
 10
-0.827248
 20
0.445406
  0
VERTEX
  8
PLAN_1
 62
     2
  6
CONTINUOUS
 10
-0.826795
 20
0.449465
  0
VERTEX
  8
PLAN_1
 62
     2
  6
CONTINUOUS
 10
-0.826346
 20
0.453976
  0
VERTEX
  8
PLAN_1
 62
     2
  6
CONTINUOUS
 10
-0.826346
 20
0.456681
  0
VERTEX
  8
PLAN_1
 62
     2
  6
CONTINUOUS
 10
-0.826795
 20
0.459839
  0
VERTEX
  8
PLAN_1
 62
     2
  6
CONTINUOUS
 10
-0.827248
 20
0.463449
  0
VERTEX
  8
PLAN_1
 62
     2
  6
CONTINUOUS
 10
-0.828598
 20
0.466606
  0
VERTEX
  8
PLAN_1
 62
     2
  6
CONTINUOUS
 10
-0.829504
 20
0.468409
  0
VERTEX
  8
PLAN_1
 62
     2
  6
CONTINUOUS
 10
-0.830406
 20
0.469764
  0
VERTEX
  8
PLAN_1
 62
     2
  6
CONTINUOUS
 10
-0.831756
 20
0.471114
  0
VERTEX
  8
PLAN_1
 62
     2
  6
CONTINUOUS
 10
-0.833110
 20
0.472016
  0
VERTEX
  8
PLAN_1
 62
     2
  6
CONTINUOUS
 10
-0.834913
 20
0.472921
  0
VERTEX
  8
PLAN_1
 62
     2
  6
CONTINUOUS
 10
-0.836720
 20
0.473823
  0
VERTEX
  8
PLAN_1
 62
     2
  6
CONTINUOUS
 10
-0.838972
 20
0.474272
  0
VERTEX
  8
PLAN_1
 62
     2
  6
CONTINUOUS
 10
-0.841228
 20
0.474272
  0
VERTEX
  8
PLAN_1
 62
     2
  6
CONTINUOUS
 10
-0.843484
 20
0.474272
  0
VERTEX
  8
PLAN_1
 62
     2
  6
CONTINUOUS
 10
-0.845740
 20
0.473823
  0
VERTEX
  8
PLAN_1
 62
     2
  6
CONTINUOUS
 10
-0.847543
 20
0.472921
  0
VERTEX
  8
PLAN_1
 62
     2
  6
CONTINUOUS
 10
-0.849350
 20
0.472016
  0
VERTEX
  8
PLAN_1
 62
     2
  6
CONTINUOUS
 10
-0.850701
 20
0.470665
  0
VERTEX
  8
PLAN_1
 62
     2
  6
CONTINUOUS
 10
-0.851602
 20
0.469311
  0
VERTEX
  8
PLAN_1
 62
     2
  6
CONTINUOUS
 10
-0.852957
 20
0.467957
  0
VERTEX
  8
PLAN_1
 62
     2
  6
CONTINUOUS
 10
-0.853409
 20
0.466154
  0
VERTEX
  8
PLAN_1
 62
     2
  6
CONTINUOUS
 10
-0.854760
 20
0.462547
  0
VERTEX
  8
PLAN_1
 62
     2
  6
CONTINUOUS
 10
-0.855665
 20
0.458484
  0
VERTEX
  8
PLAN_1
 62
     2
  6
CONTINUOUS
 10
-0.856114
 20
0.454878
  0
VERTEX
  8
PLAN_1
 62
     2
  6
CONTINUOUS
 10
-0.856114
 20
0.451268
  0
VERTEX
  8
PLAN_1
 62
     2
  6
CONTINUOUS
 10
-0.855665
 20
0.446307
  0
VERTEX
  8
PLAN_1
 62
     2
  6
CONTINUOUS
 10
-0.854311
 20
0.442248
  0
VERTEX
  8
PLAN_1
 62
     2
  6
CONTINUOUS
 10
-0.852957
 20
0.439091
  0
VERTEX
  8
PLAN_1
 62
     2
  6
CONTINUOUS
 10
-0.850701
 20
0.436835
  0
VERTEX
  8
PLAN_1
 62
     2
  6
CONTINUOUS
 10
-0.848445
 20
0.435031
  0
VERTEX
  8
PLAN_1
 62
     2
  6
CONTINUOUS
 10
-0.845740
 20
0.433677
  0
VERTEX
  8
PLAN_1
 62
     2
  6
CONTINUOUS
 10
-0.843484
 20
0.433224
  0
VERTEX
  8
PLAN_1
 62
     2
  6
CONTINUOUS
 10
-0.841228
 20
0.432776
  0
SEQEND
  8
0
  0
POLYLINE
  8
PLAN_1
 62
     2
  6
CONTINUOUS
 66
     1
 40
0.003000
 41
0.003000
  0
VERTEX
  8
PLAN_1
 62
     2
  6
CONTINUOUS
 10
-0.795673
 20
0.426461
  0
VERTEX
  8
PLAN_1
 62
     2
  6
CONTINUOUS
 10
-0.804693
 20
0.426461
  0
VERTEX
  8
PLAN_1
 62
     2
  6
CONTINUOUS
 10
-0.804693
 20
0.481039
  0
VERTEX
  8
PLAN_1
 62
     2
  6
CONTINUOUS
 10
-0.796122
 20
0.481039
  0
VERTEX
  8
PLAN_1
 62
     2
  6
CONTINUOUS
 10
-0.796122
 20
0.472016
  0
VERTEX
  8
PLAN_1
 62
     2
  6
CONTINUOUS
 10
-0.794772
 20
0.474272
  0
VERTEX
  8
PLAN_1
 62
     2
  6
CONTINUOUS
 10
-0.792965
 20
0.476079
  0
VERTEX
  8
PLAN_1
 62
     2
  6
CONTINUOUS
 10
-0.791614
 20
0.477882
  0
VERTEX
  8
PLAN_1
 62
     2
  6
CONTINUOUS
 10
-0.789358
 20
0.479685
  0
VERTEX
  8
PLAN_1
 62
     2
  6
CONTINUOUS
 10
-0.787555
 20
0.481039
  0
VERTEX
  8
PLAN_1
 62
     2
  6
CONTINUOUS
 10
-0.785299
 20
0.481941
  0
VERTEX
  8
PLAN_1
 62
     2
  6
CONTINUOUS
 10
-0.783043
 20
0.482394
  0
VERTEX
  8
PLAN_1
 62
     2
  6
CONTINUOUS
 10
-0.780787
 20
0.482394
  0
VERTEX
  8
PLAN_1
 62
     2
  6
CONTINUOUS
 10
-0.780335
 20
0.482394
  0
VERTEX
  8
PLAN_1
 62
     2
  6
CONTINUOUS
 10
-0.779886
 20
0.482394
  0
VERTEX
  8
PLAN_1
 62
     2
  6
CONTINUOUS
 10
-0.779433
 20
0.482394
  0
VERTEX
  8
PLAN_1
 62
     2
  6
CONTINUOUS
 10
-0.778984
 20
0.482394
  0
VERTEX
  8
PLAN_1
 62
     2
  6
CONTINUOUS
 10
-0.778531
 20
0.482394
  0
VERTEX
  8
PLAN_1
 62
     2
  6
CONTINUOUS
 10
-0.778531
 20
0.472921
  0
VERTEX
  8
PLAN_1
 62
     2
  6
CONTINUOUS
 10
-0.781689
 20
0.472921
  0
VERTEX
  8
PLAN_1
 62
     2
  6
CONTINUOUS
 10
-0.784846
 20
0.472469
  0
VERTEX
  8
PLAN_1
 62
     2
  6
CONTINUOUS
 10
-0.787555
 20
0.471567
  0
VERTEX
  8
PLAN_1
 62
     2
  6
CONTINUOUS
 10
-0.789807
 20
0.470213
  0
VERTEX
  8
PLAN_1
 62
     2
  6
CONTINUOUS
 10
-0.792063
 20
0.468409
  0
VERTEX
  8
PLAN_1
 62
     2
  6
CONTINUOUS
 10
-0.793417
 20
0.466154
  0
VERTEX
  8
PLAN_1
 62
     2
  6
CONTINUOUS
 10
-0.794772
 20
0.463898
  0
VERTEX
  8
PLAN_1
 62
     2
  6
CONTINUOUS
 10
-0.795673
 20
0.461193
  0
VERTEX
  8
PLAN_1
 62
     2
  6
CONTINUOUS
 10
-0.795673
 20
0.458035
  0
VERTEX
  8
PLAN_1
 62
     2
  6
CONTINUOUS
 10
-0.795673
 20
0.426461
  0
SEQEND
  8
0
  0
POLYLINE
  8
PLAN_1
 62
     2
  6
CONTINUOUS
 66
     1
 40
0.003000
 41
0.003000
  0
VERTEX
  8
PLAN_1
 62
     2
  6
CONTINUOUS
 10
-0.725307
 20
0.443602
  0
VERTEX
  8
PLAN_1
 62
     2
  6
CONTINUOUS
 10
-0.725307
 20
0.442248
  0
VERTEX
  8
PLAN_1
 62
     2
  6
CONTINUOUS
 10
-0.725756
 20
0.440894
  0
VERTEX
  8
PLAN_1
 62
     2
  6
CONTINUOUS
 10
-0.726661
 20
0.439091
  0
VERTEX
  8
PLAN_1
 62
     2
  6
CONTINUOUS
 10
-0.727563
 20
0.436835
  0
VERTEX
  8
PLAN_1
 62
     2
  6
CONTINUOUS
 10
-0.728913
 20
0.434579
  0
VERTEX
  8
PLAN_1
 62
     2
  6
CONTINUOUS
 10
-0.730720
 20
0.432776
  0
VERTEX
  8
PLAN_1
 62
     2
  6
CONTINUOUS
 10
-0.732524
 20
0.430520
  0
VERTEX
  8
PLAN_1
 62
     2
  6
CONTINUOUS
 10
-0.734780
 20
0.428717
  0
VERTEX
  8
PLAN_1
 62
     2
  6
CONTINUOUS
 10
-0.736134
 20
0.428264
  0
VERTEX
  8
PLAN_1
 62
     2
  6
CONTINUOUS
 10
-0.737035
 20
0.427362
  0
VERTEX
  8
PLAN_1
 62
     2
  6
CONTINUOUS
 10
-0.738386
 20
0.426913
  0
VERTEX
  8
PLAN_1
 62
     2
  6
CONTINUOUS
 10
-0.740193
 20
0.426461
  0
VERTEX
  8
PLAN_1
 62
     2
  6
CONTINUOUS
 10
-0.741996
 20
0.425559
  0
VERTEX
  8
PLAN_1
 62
     2
  6
CONTINUOUS
 10
-0.744252
 20
0.425559
  0
VERTEX
  8
PLAN_1
 62
     2
  6
CONTINUOUS
 10
-0.746508
 20
0.425106
  0
VERTEX
  8
PLAN_1
 62
     2
  6
CONTINUOUS
 10
-0.749665
 20
0.425106
  0
VERTEX
  8
PLAN_1
 62
     2
  6
CONTINUOUS
 10
-0.752370
 20
0.425106
  0
VERTEX
  8
PLAN_1
 62
     2
  6
CONTINUOUS
 10
-0.755079
 20
0.425559
  0
VERTEX
  8
PLAN_1
 62
     2
  6
CONTINUOUS
 10
-0.757783
 20
0.426008
  0
VERTEX
  8
PLAN_1
 62
     2
  6
CONTINUOUS
 10
-0.760039
 20
0.426913
  0
VERTEX
  8
PLAN_1
 62
     2
  6
CONTINUOUS
 10
-0.762295
 20
0.428264
  0
VERTEX
  8
PLAN_1
 62
     2
  6
CONTINUOUS
 10
-0.764098
 20
0.429618
  0
VERTEX
  8
PLAN_1
 62
     2
  6
CONTINUOUS
 10
-0.765902
 20
0.430972
  0
VERTEX
  8
PLAN_1
 62
     2
  6
CONTINUOUS
 10
-0.767705
 20
0.432776
  0
VERTEX
  8
PLAN_1
 62
     2
  6
CONTINUOUS
 10
-0.769059
 20
0.434579
  0
VERTEX
  8
PLAN_1
 62
     2
  6
CONTINUOUS
 10
-0.770413
 20
0.436835
  0
VERTEX
  8
PLAN_1
 62
     2
  6
CONTINUOUS
 10
-0.771315
 20
0.439091
  0
VERTEX
  8
PLAN_1
 62
     2
  6
CONTINUOUS
 10
-0.772217
 20
0.441346
  0
VERTEX
  8
PLAN_1
 62
     2
  6
CONTINUOUS
 10
-0.773571
 20
0.446760
  0
VERTEX
  8
PLAN_1
 62
     2
  6
CONTINUOUS
 10
-0.774020
 20
0.452169
  0
VERTEX
  8
PLAN_1
 62
     2
  6
CONTINUOUS
 10
-0.773571
 20
0.458484
  0
VERTEX
  8
PLAN_1
 62
     2
  6
CONTINUOUS
 10
-0.772669
 20
0.463898
  0
VERTEX
  8
PLAN_1
 62
     2
  6
CONTINUOUS
 10
-0.771768
 20
0.466606
  0
VERTEX
  8
PLAN_1
 62
     2
  6
CONTINUOUS
 10
-0.770413
 20
0.469311
  0
VERTEX
  8
PLAN_1
 62
     2
  6
CONTINUOUS
 10
-0.769059
 20
0.471567
  0
VERTEX
  8
PLAN_1
 62
     2
  6
CONTINUOUS
 10
-0.767705
 20
0.473823
  0
VERTEX
  8
PLAN_1
 62
     2
  6
CONTINUOUS
 10
-0.765902
 20
0.475626
  0
VERTEX
  8
PLAN_1
 62
     2
  6
CONTINUOUS
 10
-0.764098
 20
0.477429
  0
VERTEX
  8
PLAN_1
 62
     2
  6
CONTINUOUS
 10
-0.761843
 20
0.478783
  0
VERTEX
  8
PLAN_1
 62
     2
  6
CONTINUOUS
 10
-0.759587
 20
0.480138
  0
VERTEX
  8
PLAN_1
 62
     2
  6
CONTINUOUS
 10
-0.756882
 20
0.481039
  0
VERTEX
  8
PLAN_1
 62
     2
  6
CONTINUOUS
 10
-0.754173
 20
0.481941
  0
VERTEX
  8
PLAN_1
 62
     2
  6
CONTINUOUS
 10
-0.751016
 20
0.482394
  0
VERTEX
  8
PLAN_1
 62
     2
  6
CONTINUOUS
 10
-0.747858
 20
0.482394
  0
VERTEX
  8
PLAN_1
 62
     2
  6
CONTINUOUS
 10
-0.745154
 20
0.482394
  0
VERTEX
  8
PLAN_1
 62
     2
  6
CONTINUOUS
 10
-0.742449
 20
0.481941
  0
VERTEX
  8
PLAN_1
 62
     2
  6
CONTINUOUS
 10
-0.739740
 20
0.481039
  0
VERTEX
  8
PLAN_1
 62
     2
  6
CONTINUOUS
 10
-0.737484
 20
0.480138
  0
VERTEX
  8
PLAN_1
 62
     2
  6
CONTINUOUS
 10
-0.735681
 20
0.479236
  0
VERTEX
  8
PLAN_1
 62
     2
  6
CONTINUOUS
 10
-0.733425
 20
0.477429
  0
VERTEX
  8
PLAN_1
 62
     2
  6
CONTINUOUS
 10
-0.732071
 20
0.476079
  0
VERTEX
  8
PLAN_1
 62
     2
  6
CONTINUOUS
 10
-0.730268
 20
0.473823
  0
VERTEX
  8
PLAN_1
 62
     2
  6
CONTINUOUS
 10
-0.728913
 20
0.471567
  0
VERTEX
  8
PLAN_1
 62
     2
  6
CONTINUOUS
 10
-0.728012
 20
0.469311
  0
VERTEX
  8
PLAN_1
 62
     2
  6
CONTINUOUS
 10
-0.726661
 20
0.466606
  0
VERTEX
  8
PLAN_1
 62
     2
  6
CONTINUOUS
 10
-0.725756
 20
0.463898
  0
VERTEX
  8
PLAN_1
 62
     2
  6
CONTINUOUS
 10
-0.724854
 20
0.457583
  0
VERTEX
  8
PLAN_1
 62
     2
  6
CONTINUOUS
 10
-0.724406
 20
0.450819
  0
VERTEX
  8
PLAN_1
 62
     2
  6
CONTINUOUS
 10
-0.764098
 20
0.450819
  0
VERTEX
  8
PLAN_1
 62
     2
  6
CONTINUOUS
 10
-0.764098
 20
0.446760
  0
VERTEX
  8
PLAN_1
 62
     2
  6
CONTINUOUS
 10
-0.763197
 20
0.443150
  0
VERTEX
  8
PLAN_1
 62
     2
  6
CONTINUOUS
 10
-0.761843
 20
0.439992
  0
VERTEX
  8
PLAN_1
 62
     2
  6
CONTINUOUS
 10
-0.760488
 20
0.437736
  0
VERTEX
  8
PLAN_1
 62
     2
  6
CONTINUOUS
 10
-0.758232
 20
0.435480
  0
VERTEX
  8
PLAN_1
 62
     2
  6
CONTINUOUS
 10
-0.755528
 20
0.434130
  0
VERTEX
  8
PLAN_1
 62
     2
  6
CONTINUOUS
 10
-0.752370
 20
0.433224
  0
VERTEX
  8
PLAN_1
 62
     2
  6
CONTINUOUS
 10
-0.748311
 20
0.432776
  0
VERTEX
  8
PLAN_1
 62
     2
  6
CONTINUOUS
 10
-0.745606
 20
0.433224
  0
VERTEX
  8
PLAN_1
 62
     2
  6
CONTINUOUS
 10
-0.742449
 20
0.434130
  0
VERTEX
  8
PLAN_1
 62
     2
  6
CONTINUOUS
 10
-0.740193
 20
0.435031
  0
VERTEX
  8
PLAN_1
 62
     2
  6
CONTINUOUS
 10
-0.738386
 20
0.436835
  0
VERTEX
  8
PLAN_1
 62
     2
  6
CONTINUOUS
 10
-0.736583
 20
0.438638
  0
VERTEX
  8
PLAN_1
 62
     2
  6
CONTINUOUS
 10
-0.735681
 20
0.440445
  0
VERTEX
  8
PLAN_1
 62
     2
  6
CONTINUOUS
 10
-0.734780
 20
0.441795
  0
VERTEX
  8
PLAN_1
 62
     2
  6
CONTINUOUS
 10
-0.734327
 20
0.443602
  0
VERTEX
  8
PLAN_1
 62
     2
  6
CONTINUOUS
 10
-0.725307
 20
0.443602
  0
SEQEND
  8
0
  0
POLYLINE
  8
PLAN_1
 62
     2
  6
CONTINUOUS
 66
     1
 40
0.003000
 41
0.003000
  0
VERTEX
  8
PLAN_1
 62
     2
  6
CONTINUOUS
 10
-0.733878
 20
0.458035
  0
VERTEX
  8
PLAN_1
 62
     2
  6
CONTINUOUS
 10
-0.734327
 20
0.461193
  0
VERTEX
  8
PLAN_1
 62
     2
  6
CONTINUOUS
 10
-0.735228
 20
0.464350
  0
VERTEX
  8
PLAN_1
 62
     2
  6
CONTINUOUS
 10
-0.736134
 20
0.467055
  0
VERTEX
  8
PLAN_1
 62
     2
  6
CONTINUOUS
 10
-0.737484
 20
0.469311
  0
VERTEX
  8
PLAN_1
 62
     2
  6
CONTINUOUS
 10
-0.739740
 20
0.471567
  0
VERTEX
  8
PLAN_1
 62
     2
  6
CONTINUOUS
 10
-0.741996
 20
0.472921
  0
VERTEX
  8
PLAN_1
 62
     2
  6
CONTINUOUS
 10
-0.745154
 20
0.473823
  0
VERTEX
  8
PLAN_1
 62
     2
  6
CONTINUOUS
 10
-0.749213
 20
0.474272
  0
VERTEX
  8
PLAN_1
 62
     2
  6
CONTINUOUS
 10
-0.752370
 20
0.473823
  0
VERTEX
  8
PLAN_1
 62
     2
  6
CONTINUOUS
 10
-0.755079
 20
0.472921
  0
VERTEX
  8
PLAN_1
 62
     2
  6
CONTINUOUS
 10
-0.757783
 20
0.471567
  0
VERTEX
  8
PLAN_1
 62
     2
  6
CONTINUOUS
 10
-0.760039
 20
0.469311
  0
VERTEX
  8
PLAN_1
 62
     2
  6
CONTINUOUS
 10
-0.761843
 20
0.467055
  0
VERTEX
  8
PLAN_1
 62
     2
  6
CONTINUOUS
 10
-0.763197
 20
0.464350
  0
VERTEX
  8
PLAN_1
 62
     2
  6
CONTINUOUS
 10
-0.764098
 20
0.461193
  0
VERTEX
  8
PLAN_1
 62
     2
  6
CONTINUOUS
 10
-0.764098
 20
0.458035
  0
VERTEX
  8
PLAN_1
 62
     2
  6
CONTINUOUS
 10
-0.733878
 20
0.458035
  0
SEQEND
  8
0
  0
POLYLINE
  8
PLAN_1
 62
     2
  6
CONTINUOUS
 66
     1
 40
0.003000
 41
0.003000
  0
VERTEX
  8
PLAN_1
 62
     2
  6
CONTINUOUS
 10
-0.682457
 20
0.465705
  0
VERTEX
  8
PLAN_1
 62
     2
  6
CONTINUOUS
 10
-0.682906
 20
0.467055
  0
VERTEX
  8
PLAN_1
 62
     2
  6
CONTINUOUS
 10
-0.682906
 20
0.468409
  0
VERTEX
  8
PLAN_1
 62
     2
  6
CONTINUOUS
 10
-0.683807
 20
0.469764
  0
VERTEX
  8
PLAN_1
 62
     2
  6
CONTINUOUS
 10
-0.684713
 20
0.471567
  0
VERTEX
  8
PLAN_1
 62
     2
  6
CONTINUOUS
 10
-0.686516
 20
0.472469
  0
VERTEX
  8
PLAN_1
 62
     2
  6
CONTINUOUS
 10
-0.688772
 20
0.473823
  0
VERTEX
  8
PLAN_1
 62
     2
  6
CONTINUOUS
 10
-0.691476
 20
0.474272
  0
VERTEX
  8
PLAN_1
 62
     2
  6
CONTINUOUS
 10
-0.695535
 20
0.474724
  0
VERTEX
  8
PLAN_1
 62
     2
  6
CONTINUOUS
 10
-0.696890
 20
0.474724
  0
VERTEX
  8
PLAN_1
 62
     2
  6
CONTINUOUS
 10
-0.698244
 20
0.474272
  0
VERTEX
  8
PLAN_1
 62
     2
  6
CONTINUOUS
 10
-0.700047
 20
0.473823
  0
VERTEX
  8
PLAN_1
 62
     2
  6
CONTINUOUS
 10
-0.701850
 20
0.473370
  0
VERTEX
  8
PLAN_1
 62
     2
  6
CONTINUOUS
 10
-0.703657
 20
0.472469
  0
VERTEX
  8
PLAN_1
 62
     2
  6
CONTINUOUS
 10
-0.705008
 20
0.471114
  0
VERTEX
  8
PLAN_1
 62
     2
  6
CONTINUOUS
 10
-0.705909
 20
0.469311
  0
VERTEX
  8
PLAN_1
 62
     2
  6
CONTINUOUS
 10
-0.706362
 20
0.467055
  0
VERTEX
  8
PLAN_1
 62
     2
  6
CONTINUOUS
 10
-0.706362
 20
0.465252
  0
VERTEX
  8
PLAN_1
 62
     2
  6
CONTINUOUS
 10
-0.705909
 20
0.464350
  0
VERTEX
  8
PLAN_1
 62
     2
  6
CONTINUOUS
 10
-0.705008
 20
0.462996
  0
VERTEX
  8
PLAN_1
 62
     2
  6
CONTINUOUS
 10
-0.704106
 20
0.462094
  0
VERTEX
  8
PLAN_1
 62
     2
  6
CONTINUOUS
 10
-0.702752
 20
0.461642
  0
VERTEX
  8
PLAN_1
 62
     2
  6
CONTINUOUS
 10
-0.700949
 20
0.460740
  0
VERTEX
  8
PLAN_1
 62
     2
  6
CONTINUOUS
 10
-0.699146
 20
0.460291
  0
VERTEX
  8
PLAN_1
 62
     2
  6
CONTINUOUS
 10
-0.696437
 20
0.459839
  0
VERTEX
  8
PLAN_1
 62
     2
  6
CONTINUOUS
 10
-0.687417
 20
0.457583
  0
VERTEX
  8
PLAN_1
 62
     2
  6
CONTINUOUS
 10
-0.683358
 20
0.456232
  0
VERTEX
  8
PLAN_1
 62
     2
  6
CONTINUOUS
 10
-0.680201
 20
0.454878
  0
VERTEX
  8
PLAN_1
 62
     2
  6
CONTINUOUS
 10
-0.677492
 20
0.453524
  0
VERTEX
  8
PLAN_1
 62
     2
  6
CONTINUOUS
 10
-0.675240
 20
0.451720
  0
VERTEX
  8
PLAN_1
 62
     2
  6
CONTINUOUS
 10
-0.673886
 20
0.449917
  0
VERTEX
  8
PLAN_1
 62
     2
  6
CONTINUOUS
 10
-0.672984
 20
0.448110
  0
VERTEX
  8
PLAN_1
 62
     2
  6
CONTINUOUS
 10
-0.672083
 20
0.445854
  0
VERTEX
  8
PLAN_1
 62
     2
  6
CONTINUOUS
 10
-0.672083
 20
0.443150
  0
VERTEX
  8
PLAN_1
 62
     2
  6
CONTINUOUS
 10
-0.672531
 20
0.439091
  0
VERTEX
  8
PLAN_1
 62
     2
  6
CONTINUOUS
 10
-0.673886
 20
0.435480
  0
VERTEX
  8
PLAN_1
 62
     2
  6
CONTINUOUS
 10
-0.675689
 20
0.432323
  0
VERTEX
  8
PLAN_1
 62
     2
  6
CONTINUOUS
 10
-0.678398
 20
0.429618
  0
VERTEX
  8
PLAN_1
 62
     2
  6
CONTINUOUS
 10
-0.681555
 20
0.427815
  0
VERTEX
  8
PLAN_1
 62
     2
  6
CONTINUOUS
 10
-0.685161
 20
0.426461
  0
VERTEX
  8
PLAN_1
 62
     2
  6
CONTINUOUS
 10
-0.689220
 20
0.425106
  0
VERTEX
  8
PLAN_1
 62
     2
  6
CONTINUOUS
 10
-0.693732
 20
0.425106
  0
VERTEX
  8
PLAN_1
 62
     2
  6
CONTINUOUS
 10
-0.697343
 20
0.425106
  0
VERTEX
  8
PLAN_1
 62
     2
  6
CONTINUOUS
 10
-0.700949
 20
0.425559
  0
VERTEX
  8
PLAN_1
 62
     2
  6
CONTINUOUS
 10
-0.703657
 20
0.426008
  0
VERTEX
  8
PLAN_1
 62
     2
  6
CONTINUOUS
 10
-0.706362
 20
0.426913
  0
VERTEX
  8
PLAN_1
 62
     2
  6
CONTINUOUS
 10
-0.708618
 20
0.428264
  0
VERTEX
  8
PLAN_1
 62
     2
  6
CONTINUOUS
 10
-0.710421
 20
0.429165
  0
VERTEX
  8
PLAN_1
 62
     2
  6
CONTINUOUS
 10
-0.711776
 20
0.430520
  0
VERTEX
  8
PLAN_1
 62
     2
  6
CONTINUOUS
 10
-0.713130
 20
0.431874
  0
VERTEX
  8
PLAN_1
 62
     2
  6
CONTINUOUS
 10
-0.714933
 20
0.435031
  0
VERTEX
  8
PLAN_1
 62
     2
  6
CONTINUOUS
 10
-0.716283
 20
0.438189
  0
VERTEX
  8
PLAN_1
 62
     2
  6
CONTINUOUS
 10
-0.716736
 20
0.441346
  0
VERTEX
  8
PLAN_1
 62
     2
  6
CONTINUOUS
 10
-0.717189
 20
0.444051
  0
VERTEX
  8
PLAN_1
 62
     2
  6
CONTINUOUS
 10
-0.708165
 20
0.444051
  0
VERTEX
  8
PLAN_1
 62
     2
  6
CONTINUOUS
 10
-0.708165
 20
0.442248
  0
VERTEX
  8
PLAN_1
 62
     2
  6
CONTINUOUS
 10
-0.707717
 20
0.440445
  0
VERTEX
  8
PLAN_1
 62
     2
  6
CONTINUOUS
 10
-0.706815
 20
0.438638
  0
VERTEX
  8
PLAN_1
 62
     2
  6
CONTINUOUS
 10
-0.705461
 20
0.436835
  0
VERTEX
  8
PLAN_1
 62
     2
  6
CONTINUOUS
 10
-0.703657
 20
0.435480
  0
VERTEX
  8
PLAN_1
 62
     2
  6
CONTINUOUS
 10
-0.701402
 20
0.434130
  0
VERTEX
  8
PLAN_1
 62
     2
  6
CONTINUOUS
 10
-0.697791
 20
0.433224
  0
VERTEX
  8
PLAN_1
 62
     2
  6
CONTINUOUS
 10
-0.693732
 20
0.432776
  0
VERTEX
  8
PLAN_1
 62
     2
  6
CONTINUOUS
 10
-0.691476
 20
0.433224
  0
VERTEX
  8
PLAN_1
 62
     2
  6
CONTINUOUS
 10
-0.688772
 20
0.433224
  0
VERTEX
  8
PLAN_1
 62
     2
  6
CONTINUOUS
 10
-0.686965
 20
0.434130
  0
VERTEX
  8
PLAN_1
 62
     2
  6
CONTINUOUS
 10
-0.685161
 20
0.435031
  0
VERTEX
  8
PLAN_1
 62
     2
  6
CONTINUOUS
 10
-0.683358
 20
0.436382
  0
VERTEX
  8
PLAN_1
 62
     2
  6
CONTINUOUS
 10
-0.682004
 20
0.437736
  0
VERTEX
  8
PLAN_1
 62
     2
  6
CONTINUOUS
 10
-0.681555
 20
0.439539
  0
VERTEX
  8
PLAN_1
 62
     2
  6
CONTINUOUS
 10
-0.681102
 20
0.441346
  0
VERTEX
  8
PLAN_1
 62
     2
  6
CONTINUOUS
 10
-0.681555
 20
0.443150
  0
VERTEX
  8
PLAN_1
 62
     2
  6
CONTINUOUS
 10
-0.682004
 20
0.444504
  0
VERTEX
  8
PLAN_1
 62
     2
  6
CONTINUOUS
 10
-0.682457
 20
0.445406
  0
VERTEX
  8
PLAN_1
 62
     2
  6
CONTINUOUS
 10
-0.683807
 20
0.446307
  0
VERTEX
  8
PLAN_1
 62
     2
  6
CONTINUOUS
 10
-0.685161
 20
0.447209
  0
VERTEX
  8
PLAN_1
 62
     2
  6
CONTINUOUS
 10
-0.686965
 20
0.448110
  0
VERTEX
  8
PLAN_1
 62
     2
  6
CONTINUOUS
 10
-0.689220
 20
0.448563
  0
VERTEX
  8
PLAN_1
 62
     2
  6
CONTINUOUS
 10
-0.691929
 20
0.449465
  0
VERTEX
  8
PLAN_1
 62
     2
  6
CONTINUOUS
 10
-0.702752
 20
0.452169
  0
VERTEX
  8
PLAN_1
 62
     2
  6
CONTINUOUS
 10
-0.705461
 20
0.452622
  0
VERTEX
  8
PLAN_1
 62
     2
  6
CONTINUOUS
 10
-0.707717
 20
0.453976
  0
VERTEX
  8
PLAN_1
 62
     2
  6
CONTINUOUS
 10
-0.709972
 20
0.454878
  0
VERTEX
  8
PLAN_1
 62
     2
  6
CONTINUOUS
 10
-0.711776
 20
0.456681
  0
VERTEX
  8
PLAN_1
 62
     2
  6
CONTINUOUS
 10
-0.713130
 20
0.458035
  0
VERTEX
  8
PLAN_1
 62
     2
  6
CONTINUOUS
 10
-0.714480
 20
0.460291
  0
VERTEX
  8
PLAN_1
 62
     2
  6
CONTINUOUS
 10
-0.714933
 20
0.462547
  0
VERTEX
  8
PLAN_1
 62
     2
  6
CONTINUOUS
 10
-0.715382
 20
0.465252
  0
VERTEX
  8
PLAN_1
 62
     2
  6
CONTINUOUS
 10
-0.714933
 20
0.467508
  0
VERTEX
  8
PLAN_1
 62
     2
  6
CONTINUOUS
 10
-0.714933
 20
0.469311
  0
VERTEX
  8
PLAN_1
 62
     2
  6
CONTINUOUS
 10
-0.714031
 20
0.471114
  0
VERTEX
  8
PLAN_1
 62
     2
  6
CONTINUOUS
 10
-0.713579
 20
0.472921
  0
VERTEX
  8
PLAN_1
 62
     2
  6
CONTINUOUS
 10
-0.711323
 20
0.476079
  0
VERTEX
  8
PLAN_1
 62
     2
  6
CONTINUOUS
 10
-0.709067
 20
0.478331
  0
VERTEX
  8
PLAN_1
 62
     2
  6
CONTINUOUS
 10
-0.705909
 20
0.480138
  0
VERTEX
  8
PLAN_1
 62
     2
  6
CONTINUOUS
 10
-0.702303
 20
0.481488
  0
VERTEX
  8
PLAN_1
 62
     2
  6
CONTINUOUS
 10
-0.698693
 20
0.482394
  0
VERTEX
  8
PLAN_1
 62
     2
  6
CONTINUOUS
 10
-0.694634
 20
0.482394
  0
VERTEX
  8
PLAN_1
 62
     2
  6
CONTINUOUS
 10
-0.691028
 20
0.482394
  0
VERTEX
  8
PLAN_1
 62
     2
  6
CONTINUOUS
 10
-0.688319
 20
0.481941
  0
VERTEX
  8
PLAN_1
 62
     2
  6
CONTINUOUS
 10
-0.685614
 20
0.481039
  0
VERTEX
  8
PLAN_1
 62
     2
  6
CONTINUOUS
 10
-0.683358
 20
0.480138
  0
VERTEX
  8
PLAN_1
 62
     2
  6
CONTINUOUS
 10
-0.681102
 20
0.479236
  0
VERTEX
  8
PLAN_1
 62
     2
  6
CONTINUOUS
 10
-0.679299
 20
0.477882
  0
VERTEX
  8
PLAN_1
 62
     2
  6
CONTINUOUS
 10
-0.677945
 20
0.476528
  0
VERTEX
  8
PLAN_1
 62
     2
  6
CONTINUOUS
 10
-0.677043
 20
0.475173
  0
VERTEX
  8
PLAN_1
 62
     2
  6
CONTINUOUS
 10
-0.675240
 20
0.472016
  0
VERTEX
  8
PLAN_1
 62
     2
  6
CONTINUOUS
 10
-0.674335
 20
0.469311
  0
VERTEX
  8
PLAN_1
 62
     2
  6
CONTINUOUS
 10
-0.673886
 20
0.467055
  0
VERTEX
  8
PLAN_1
 62
     2
  6
CONTINUOUS
 10
-0.673886
 20
0.465705
  0
VERTEX
  8
PLAN_1
 62
     2
  6
CONTINUOUS
 10
-0.682457
 20
0.465705
  0
SEQEND
  8
0
  0
POLYLINE
  8
PLAN_1
 62
     2
  6
CONTINUOUS
 66
     1
 40
0.003000
 41
0.003000
  0
VERTEX
  8
PLAN_1
 62
     2
  6
CONTINUOUS
 10
-0.630583
 20
0.465705
  0
VERTEX
  8
PLAN_1
 62
     2
  6
CONTINUOUS
 10
-0.630583
 20
0.467055
  0
VERTEX
  8
PLAN_1
 62
     2
  6
CONTINUOUS
 10
-0.631035
 20
0.468409
  0
VERTEX
  8
PLAN_1
 62
     2
  6
CONTINUOUS
 10
-0.631484
 20
0.469764
  0
VERTEX
  8
PLAN_1
 62
     2
  6
CONTINUOUS
 10
-0.632839
 20
0.471567
  0
VERTEX
  8
PLAN_1
 62
     2
  6
CONTINUOUS
 10
-0.634193
 20
0.472469
  0
VERTEX
  8
PLAN_1
 62
     2
  6
CONTINUOUS
 10
-0.636449
 20
0.473823
  0
VERTEX
  8
PLAN_1
 62
     2
  6
CONTINUOUS
 10
-0.639606
 20
0.474272
  0
VERTEX
  8
PLAN_1
 62
     2
  6
CONTINUOUS
 10
-0.643665
 20
0.474724
  0
VERTEX
  8
PLAN_1
 62
     2
  6
CONTINUOUS
 10
-0.644567
 20
0.474724
  0
VERTEX
  8
PLAN_1
 62
     2
  6
CONTINUOUS
 10
-0.646370
 20
0.474272
  0
VERTEX
  8
PLAN_1
 62
     2
  6
CONTINUOUS
 10
-0.648173
 20
0.473823
  0
VERTEX
  8
PLAN_1
 62
     2
  6
CONTINUOUS
 10
-0.649980
 20
0.473370
  0
VERTEX
  8
PLAN_1
 62
     2
  6
CONTINUOUS
 10
-0.651783
 20
0.472469
  0
VERTEX
  8
PLAN_1
 62
     2
  6
CONTINUOUS
 10
-0.653138
 20
0.471114
  0
VERTEX
  8
PLAN_1
 62
     2
  6
CONTINUOUS
 10
-0.654039
 20
0.469311
  0
VERTEX
  8
PLAN_1
 62
     2
  6
CONTINUOUS
 10
-0.654488
 20
0.467055
  0
VERTEX
  8
PLAN_1
 62
     2
  6
CONTINUOUS
 10
-0.654039
 20
0.465252
  0
VERTEX
  8
PLAN_1
 62
     2
  6
CONTINUOUS
 10
-0.653587
 20
0.464350
  0
VERTEX
  8
PLAN_1
 62
     2
  6
CONTINUOUS
 10
-0.653138
 20
0.462996
  0
VERTEX
  8
PLAN_1
 62
     2
  6
CONTINUOUS
 10
-0.652236
 20
0.462094
  0
VERTEX
  8
PLAN_1
 62
     2
  6
CONTINUOUS
 10
-0.650429
 20
0.461642
  0
VERTEX
  8
PLAN_1
 62
     2
  6
CONTINUOUS
 10
-0.649079
 20
0.460740
  0
VERTEX
  8
PLAN_1
 62
     2
  6
CONTINUOUS
 10
-0.646823
 20
0.460291
  0
VERTEX
  8
PLAN_1
 62
     2
  6
CONTINUOUS
 10
-0.644567
 20
0.459839
  0
VERTEX
  8
PLAN_1
 62
     2
  6
CONTINUOUS
 10
-0.635094
 20
0.457583
  0
VERTEX
  8
PLAN_1
 62
     2
  6
CONTINUOUS
 10
-0.631484
 20
0.456232
  0
VERTEX
  8
PLAN_1
 62
     2
  6
CONTINUOUS
 10
-0.627878
 20
0.454878
  0
VERTEX
  8
PLAN_1
 62
     2
  6
CONTINUOUS
 10
-0.625622
 20
0.453524
  0
VERTEX
  8
PLAN_1
 62
     2
  6
CONTINUOUS
 10
-0.623366
 20
0.451720
  0
VERTEX
  8
PLAN_1
 62
     2
  6
CONTINUOUS
 10
-0.622012
 20
0.449917
  0
VERTEX
  8
PLAN_1
 62
     2
  6
CONTINUOUS
 10
-0.620661
 20
0.448110
  0
VERTEX
  8
PLAN_1
 62
     2
  6
CONTINUOUS
 10
-0.620209
 20
0.445854
  0
VERTEX
  8
PLAN_1
 62
     2
  6
CONTINUOUS
 10
-0.619760
 20
0.443150
  0
VERTEX
  8
PLAN_1
 62
     2
  6
CONTINUOUS
 10
-0.620209
 20
0.439091
  0
VERTEX
  8
PLAN_1
 62
     2
  6
CONTINUOUS
 10
-0.621563
 20
0.435480
  0
VERTEX
  8
PLAN_1
 62
     2
  6
CONTINUOUS
 10
-0.623366
 20
0.432323
  0
VERTEX
  8
PLAN_1
 62
     2
  6
CONTINUOUS
 10
-0.626075
 20
0.429618
  0
VERTEX
  8
PLAN_1
 62
     2
  6
CONTINUOUS
 10
-0.629232
 20
0.427815
  0
VERTEX
  8
PLAN_1
 62
     2
  6
CONTINUOUS
 10
-0.632839
 20
0.426461
  0
VERTEX
  8
PLAN_1
 62
     2
  6
CONTINUOUS
 10
-0.636898
 20
0.425106
  0
VERTEX
  8
PLAN_1
 62
     2
  6
CONTINUOUS
 10
-0.641409
 20
0.425106
  0
VERTEX
  8
PLAN_1
 62
     2
  6
CONTINUOUS
 10
-0.645469
 20
0.425106
  0
VERTEX
  8
PLAN_1
 62
     2
  6
CONTINUOUS
 10
-0.648626
 20
0.425559
  0
VERTEX
  8
PLAN_1
 62
     2
  6
CONTINUOUS
 10
-0.651783
 20
0.426008
  0
VERTEX
  8
PLAN_1
 62
     2
  6
CONTINUOUS
 10
-0.654039
 20
0.426913
  0
VERTEX
  8
PLAN_1
 62
     2
  6
CONTINUOUS
 10
-0.656295
 20
0.428264
  0
VERTEX
  8
PLAN_1
 62
     2
  6
CONTINUOUS
 10
-0.658098
 20
0.429165
  0
VERTEX
  8
PLAN_1
 62
     2
  6
CONTINUOUS
 10
-0.659902
 20
0.430520
  0
VERTEX
  8
PLAN_1
 62
     2
  6
CONTINUOUS
 10
-0.661256
 20
0.431874
  0
VERTEX
  8
PLAN_1
 62
     2
  6
CONTINUOUS
 10
-0.663059
 20
0.435031
  0
VERTEX
  8
PLAN_1
 62
     2
  6
CONTINUOUS
 10
-0.663961
 20
0.438189
  0
VERTEX
  8
PLAN_1
 62
     2
  6
CONTINUOUS
 10
-0.664866
 20
0.441346
  0
VERTEX
  8
PLAN_1
 62
     2
  6
CONTINUOUS
 10
-0.664866
 20
0.444051
  0
VERTEX
  8
PLAN_1
 62
     2
  6
CONTINUOUS
 10
-0.655843
 20
0.444051
  0
VERTEX
  8
PLAN_1
 62
     2
  6
CONTINUOUS
 10
-0.655843
 20
0.442248
  0
VERTEX
  8
PLAN_1
 62
     2
  6
CONTINUOUS
 10
-0.655394
 20
0.440445
  0
VERTEX
  8
PLAN_1
 62
     2
  6
CONTINUOUS
 10
-0.654941
 20
0.438638
  0
VERTEX
  8
PLAN_1
 62
     2
  6
CONTINUOUS
 10
-0.653587
 20
0.436835
  0
VERTEX
  8
PLAN_1
 62
     2
  6
CONTINUOUS
 10
-0.651783
 20
0.435480
  0
VERTEX
  8
PLAN_1
 62
     2
  6
CONTINUOUS
 10
-0.649079
 20
0.434130
  0
VERTEX
  8
PLAN_1
 62
     2
  6
CONTINUOUS
 10
-0.645921
 20
0.433224
  0
VERTEX
  8
PLAN_1
 62
     2
  6
CONTINUOUS
 10
-0.641409
 20
0.432776
  0
VERTEX
  8
PLAN_1
 62
     2
  6
CONTINUOUS
 10
-0.639154
 20
0.433224
  0
VERTEX
  8
PLAN_1
 62
     2
  6
CONTINUOUS
 10
-0.636898
 20
0.433224
  0
VERTEX
  8
PLAN_1
 62
     2
  6
CONTINUOUS
 10
-0.634642
 20
0.434130
  0
VERTEX
  8
PLAN_1
 62
     2
  6
CONTINUOUS
 10
-0.632839
 20
0.435031
  0
VERTEX
  8
PLAN_1
 62
     2
  6
CONTINUOUS
 10
-0.631484
 20
0.436382
  0
VERTEX
  8
PLAN_1
 62
     2
  6
CONTINUOUS
 10
-0.630134
 20
0.437736
  0
VERTEX
  8
PLAN_1
 62
     2
  6
CONTINUOUS
 10
-0.629232
 20
0.439539
  0
VERTEX
  8
PLAN_1
 62
     2
  6
CONTINUOUS
 10
-0.629232
 20
0.441346
  0
VERTEX
  8
PLAN_1
 62
     2
  6
CONTINUOUS
 10
-0.629232
 20
0.443150
  0
VERTEX
  8
PLAN_1
 62
     2
  6
CONTINUOUS
 10
-0.629681
 20
0.444504
  0
VERTEX
  8
PLAN_1
 62
     2
  6
CONTINUOUS
 10
-0.630583
 20
0.445406
  0
VERTEX
  8
PLAN_1
 62
     2
  6
CONTINUOUS
 10
-0.631484
 20
0.446307
  0
VERTEX
  8
PLAN_1
 62
     2
  6
CONTINUOUS
 10
-0.633291
 20
0.447209
  0
VERTEX
  8
PLAN_1
 62
     2
  6
CONTINUOUS
 10
-0.635094
 20
0.448110
  0
VERTEX
  8
PLAN_1
 62
     2
  6
CONTINUOUS
 10
-0.637350
 20
0.448563
  0
VERTEX
  8
PLAN_1
 62
     2
  6
CONTINUOUS
 10
-0.640055
 20
0.449465
  0
VERTEX
  8
PLAN_1
 62
     2
  6
CONTINUOUS
 10
-0.650429
 20
0.452169
  0
VERTEX
  8
PLAN_1
 62
     2
  6
CONTINUOUS
 10
-0.653138
 20
0.452622
  0
VERTEX
  8
PLAN_1
 62
     2
  6
CONTINUOUS
 10
-0.655843
 20
0.453976
  0
VERTEX
  8
PLAN_1
 62
     2
  6
CONTINUOUS
 10
-0.658098
 20
0.454878
  0
VERTEX
  8
PLAN_1
 62
     2
  6
CONTINUOUS
 10
-0.659902
 20
0.456681
  0
VERTEX
  8
PLAN_1
 62
     2
  6
CONTINUOUS
 10
-0.661256
 20
0.458035
  0
VERTEX
  8
PLAN_1
 62
     2
  6
CONTINUOUS
 10
-0.662157
 20
0.460291
  0
VERTEX
  8
PLAN_1
 62
     2
  6
CONTINUOUS
 10
-0.663059
 20
0.462547
  0
VERTEX
  8
PLAN_1
 62
     2
  6
CONTINUOUS
 10
-0.663059
 20
0.465252
  0
VERTEX
  8
PLAN_1
 62
     2
  6
CONTINUOUS
 10
-0.663059
 20
0.467508
  0
VERTEX
  8
PLAN_1
 62
     2
  6
CONTINUOUS
 10
-0.662610
 20
0.469311
  0
VERTEX
  8
PLAN_1
 62
     2
  6
CONTINUOUS
 10
-0.662157
 20
0.471114
  0
VERTEX
  8
PLAN_1
 62
     2
  6
CONTINUOUS
 10
-0.661256
 20
0.472921
  0
VERTEX
  8
PLAN_1
 62
     2
  6
CONTINUOUS
 10
-0.659453
 20
0.476079
  0
VERTEX
  8
PLAN_1
 62
     2
  6
CONTINUOUS
 10
-0.656744
 20
0.478331
  0
VERTEX
  8
PLAN_1
 62
     2
  6
CONTINUOUS
 10
-0.653587
 20
0.480138
  0
VERTEX
  8
PLAN_1
 62
     2
  6
CONTINUOUS
 10
-0.650429
 20
0.481488
  0
VERTEX
  8
PLAN_1
 62
     2
  6
CONTINUOUS
 10
-0.646370
 20
0.482394
  0
VERTEX
  8
PLAN_1
 62
     2
  6
CONTINUOUS
 10
-0.642764
 20
0.482394
  0
VERTEX
  8
PLAN_1
 62
     2
  6
CONTINUOUS
 10
-0.639154
 20
0.482394
  0
VERTEX
  8
PLAN_1
 62
     2
  6
CONTINUOUS
 10
-0.635996
 20
0.481941
  0
VERTEX
  8
PLAN_1
 62
     2
  6
CONTINUOUS
 10
-0.633291
 20
0.481039
  0
VERTEX
  8
PLAN_1
 62
     2
  6
CONTINUOUS
 10
-0.631035
 20
0.480138
  0
VERTEX
  8
PLAN_1
 62
     2
  6
CONTINUOUS
 10
-0.629232
 20
0.479236
  0
VERTEX
  8
PLAN_1
 62
     2
  6
CONTINUOUS
 10
-0.627425
 20
0.477882
  0
VERTEX
  8
PLAN_1
 62
     2
  6
CONTINUOUS
 10
-0.626075
 20
0.476528
  0
VERTEX
  8
PLAN_1
 62
     2
  6
CONTINUOUS
 10
-0.624720
 20
0.475173
  0
VERTEX
  8
PLAN_1
 62
     2
  6
CONTINUOUS
 10
-0.623366
 20
0.472016
  0
VERTEX
  8
PLAN_1
 62
     2
  6
CONTINUOUS
 10
-0.622465
 20
0.469311
  0
VERTEX
  8
PLAN_1
 62
     2
  6
CONTINUOUS
 10
-0.622012
 20
0.467055
  0
VERTEX
  8
PLAN_1
 62
     2
  6
CONTINUOUS
 10
-0.621563
 20
0.465705
  0
VERTEX
  8
PLAN_1
 62
     2
  6
CONTINUOUS
 10
-0.630583
 20
0.465705
  0
SEQEND
  8
0
  0
POLYLINE
  8
PLAN_1
 62
     2
  6
CONTINUOUS
 66
     1
 40
0.003000
 41
0.003000
  0
VERTEX
  8
PLAN_1
 62
     2
  6
CONTINUOUS
 10
-0.563374
 20
0.443602
  0
VERTEX
  8
PLAN_1
 62
     2
  6
CONTINUOUS
 10
-0.563374
 20
0.442248
  0
VERTEX
  8
PLAN_1
 62
     2
  6
CONTINUOUS
 10
-0.563827
 20
0.440894
  0
VERTEX
  8
PLAN_1
 62
     2
  6
CONTINUOUS
 10
-0.564728
 20
0.439091
  0
VERTEX
  8
PLAN_1
 62
     2
  6
CONTINUOUS
 10
-0.565630
 20
0.436835
  0
VERTEX
  8
PLAN_1
 62
     2
  6
CONTINUOUS
 10
-0.566984
 20
0.434579
  0
VERTEX
  8
PLAN_1
 62
     2
  6
CONTINUOUS
 10
-0.568339
 20
0.432776
  0
VERTEX
  8
PLAN_1
 62
     2
  6
CONTINUOUS
 10
-0.570591
 20
0.430520
  0
VERTEX
  8
PLAN_1
 62
     2
  6
CONTINUOUS
 10
-0.572846
 20
0.428717
  0
VERTEX
  8
PLAN_1
 62
     2
  6
CONTINUOUS
 10
-0.573748
 20
0.428264
  0
VERTEX
  8
PLAN_1
 62
     2
  6
CONTINUOUS
 10
-0.575102
 20
0.427362
  0
VERTEX
  8
PLAN_1
 62
     2
  6
CONTINUOUS
 10
-0.576457
 20
0.426913
  0
VERTEX
  8
PLAN_1
 62
     2
  6
CONTINUOUS
 10
-0.577811
 20
0.426461
  0
VERTEX
  8
PLAN_1
 62
     2
  6
CONTINUOUS
 10
-0.579614
 20
0.425559
  0
VERTEX
  8
PLAN_1
 62
     2
  6
CONTINUOUS
 10
-0.581870
 20
0.425559
  0
VERTEX
  8
PLAN_1
 62
     2
  6
CONTINUOUS
 10
-0.584575
 20
0.425106
  0
VERTEX
  8
PLAN_1
 62
     2
  6
CONTINUOUS
 10
-0.587732
 20
0.425106
  0
VERTEX
  8
PLAN_1
 62
     2
  6
CONTINUOUS
 10
-0.590437
 20
0.425106
  0
VERTEX
  8
PLAN_1
 62
     2
  6
CONTINUOUS
 10
-0.593146
 20
0.425559
  0
VERTEX
  8
PLAN_1
 62
     2
  6
CONTINUOUS
 10
-0.595402
 20
0.426008
  0
VERTEX
  8
PLAN_1
 62
     2
  6
CONTINUOUS
 10
-0.598106
 20
0.426913
  0
VERTEX
  8
PLAN_1
 62
     2
  6
CONTINUOUS
 10
-0.599909
 20
0.428264
  0
VERTEX
  8
PLAN_1
 62
     2
  6
CONTINUOUS
 10
-0.602165
 20
0.429618
  0
VERTEX
  8
PLAN_1
 62
     2
  6
CONTINUOUS
 10
-0.603972
 20
0.430972
  0
VERTEX
  8
PLAN_1
 62
     2
  6
CONTINUOUS
 10
-0.605776
 20
0.432776
  0
VERTEX
  8
PLAN_1
 62
     2
  6
CONTINUOUS
 10
-0.607130
 20
0.434579
  0
VERTEX
  8
PLAN_1
 62
     2
  6
CONTINUOUS
 10
-0.608480
 20
0.436835
  0
VERTEX
  8
PLAN_1
 62
     2
  6
CONTINUOUS
 10
-0.609382
 20
0.439091
  0
VERTEX
  8
PLAN_1
 62
     2
  6
CONTINUOUS
 10
-0.610287
 20
0.441346
  0
VERTEX
  8
PLAN_1
 62
     2
  6
CONTINUOUS
 10
-0.611638
 20
0.446760
  0
VERTEX
  8
PLAN_1
 62
     2
  6
CONTINUOUS
 10
-0.612091
 20
0.452169
  0
VERTEX
  8
PLAN_1
 62
     2
  6
CONTINUOUS
 10
-0.611638
 20
0.458484
  0
VERTEX
  8
PLAN_1
 62
     2
  6
CONTINUOUS
 10
-0.610287
 20
0.463898
  0
VERTEX
  8
PLAN_1
 62
     2
  6
CONTINUOUS
 10
-0.609382
 20
0.466606
  0
VERTEX
  8
PLAN_1
 62
     2
  6
CONTINUOUS
 10
-0.608480
 20
0.469311
  0
VERTEX
  8
PLAN_1
 62
     2
  6
CONTINUOUS
 10
-0.607130
 20
0.471567
  0
VERTEX
  8
PLAN_1
 62
     2
  6
CONTINUOUS
 10
-0.605776
 20
0.473823
  0
VERTEX
  8
PLAN_1
 62
     2
  6
CONTINUOUS
 10
-0.603972
 20
0.475626
  0
VERTEX
  8
PLAN_1
 62
     2
  6
CONTINUOUS
 10
-0.602165
 20
0.477429
  0
VERTEX
  8
PLAN_1
 62
     2
  6
CONTINUOUS
 10
-0.599909
 20
0.478783
  0
VERTEX
  8
PLAN_1
 62
     2
  6
CONTINUOUS
 10
-0.597657
 20
0.480138
  0
VERTEX
  8
PLAN_1
 62
     2
  6
CONTINUOUS
 10
-0.594949
 20
0.481039
  0
VERTEX
  8
PLAN_1
 62
     2
  6
CONTINUOUS
 10
-0.592244
 20
0.481941
  0
VERTEX
  8
PLAN_1
 62
     2
  6
CONTINUOUS
 10
-0.589087
 20
0.482394
  0
VERTEX
  8
PLAN_1
 62
     2
  6
CONTINUOUS
 10
-0.585929
 20
0.482394
  0
VERTEX
  8
PLAN_1
 62
     2
  6
CONTINUOUS
 10
-0.583220
 20
0.482394
  0
VERTEX
  8
PLAN_1
 62
     2
  6
CONTINUOUS
 10
-0.580516
 20
0.481941
  0
VERTEX
  8
PLAN_1
 62
     2
  6
CONTINUOUS
 10
-0.577811
 20
0.481039
  0
VERTEX
  8
PLAN_1
 62
     2
  6
CONTINUOUS
 10
-0.575555
 20
0.480138
  0
VERTEX
  8
PLAN_1
 62
     2
  6
CONTINUOUS
 10
-0.573299
 20
0.479236
  0
VERTEX
  8
PLAN_1
 62
     2
  6
CONTINUOUS
 10
-0.571496
 20
0.477429
  0
VERTEX
  8
PLAN_1
 62
     2
  6
CONTINUOUS
 10
-0.569689
 20
0.476079
  0
VERTEX
  8
PLAN_1
 62
     2
  6
CONTINUOUS
 10
-0.568339
 20
0.473823
  0
VERTEX
  8
PLAN_1
 62
     2
  6
CONTINUOUS
 10
-0.566984
 20
0.471567
  0
VERTEX
  8
PLAN_1
 62
     2
  6
CONTINUOUS
 10
-0.565630
 20
0.469311
  0
VERTEX
  8
PLAN_1
 62
     2
  6
CONTINUOUS
 10
-0.564728
 20
0.466606
  0
VERTEX
  8
PLAN_1
 62
     2
  6
CONTINUOUS
 10
-0.563827
 20
0.463898
  0
VERTEX
  8
PLAN_1
 62
     2
  6
CONTINUOUS
 10
-0.562925
 20
0.457583
  0
VERTEX
  8
PLAN_1
 62
     2
  6
CONTINUOUS
 10
-0.562472
 20
0.450819
  0
VERTEX
  8
PLAN_1
 62
     2
  6
CONTINUOUS
 10
-0.602165
 20
0.450819
  0
VERTEX
  8
PLAN_1
 62
     2
  6
CONTINUOUS
 10
-0.602165
 20
0.446760
  0
VERTEX
  8
PLAN_1
 62
     2
  6
CONTINUOUS
 10
-0.601264
 20
0.443150
  0
VERTEX
  8
PLAN_1
 62
     2
  6
CONTINUOUS
 10
-0.599909
 20
0.439992
  0
VERTEX
  8
PLAN_1
 62
     2
  6
CONTINUOUS
 10
-0.598106
 20
0.437736
  0
VERTEX
  8
PLAN_1
 62
     2
  6
CONTINUOUS
 10
-0.595850
 20
0.435480
  0
VERTEX
  8
PLAN_1
 62
     2
  6
CONTINUOUS
 10
-0.593146
 20
0.434130
  0
VERTEX
  8
PLAN_1
 62
     2
  6
CONTINUOUS
 10
-0.589988
 20
0.433224
  0
VERTEX
  8
PLAN_1
 62
     2
  6
CONTINUOUS
 10
-0.586378
 20
0.432776
  0
VERTEX
  8
PLAN_1
 62
     2
  6
CONTINUOUS
 10
-0.583220
 20
0.433224
  0
VERTEX
  8
PLAN_1
 62
     2
  6
CONTINUOUS
 10
-0.580516
 20
0.434130
  0
VERTEX
  8
PLAN_1
 62
     2
  6
CONTINUOUS
 10
-0.578260
 20
0.435031
  0
VERTEX
  8
PLAN_1
 62
     2
  6
CONTINUOUS
 10
-0.576457
 20
0.436835
  0
VERTEX
  8
PLAN_1
 62
     2
  6
CONTINUOUS
 10
-0.574654
 20
0.438638
  0
VERTEX
  8
PLAN_1
 62
     2
  6
CONTINUOUS
 10
-0.573299
 20
0.440445
  0
VERTEX
  8
PLAN_1
 62
     2
  6
CONTINUOUS
 10
-0.572846
 20
0.441795
  0
VERTEX
  8
PLAN_1
 62
     2
  6
CONTINUOUS
 10
-0.572398
 20
0.443602
  0
VERTEX
  8
PLAN_1
 62
     2
  6
CONTINUOUS
 10
-0.563374
 20
0.443602
  0
SEQEND
  8
0
  0
POLYLINE
  8
PLAN_1
 62
     2
  6
CONTINUOUS
 66
     1
 40
0.003000
 41
0.003000
  0
VERTEX
  8
PLAN_1
 62
     2
  6
CONTINUOUS
 10
-0.571945
 20
0.458035
  0
VERTEX
  8
PLAN_1
 62
     2
  6
CONTINUOUS
 10
-0.572398
 20
0.461193
  0
VERTEX
  8
PLAN_1
 62
     2
  6
CONTINUOUS
 10
-0.572846
 20
0.464350
  0
VERTEX
  8
PLAN_1
 62
     2
  6
CONTINUOUS
 10
-0.574201
 20
0.467055
  0
VERTEX
  8
PLAN_1
 62
     2
  6
CONTINUOUS
 10
-0.575555
 20
0.469311
  0
VERTEX
  8
PLAN_1
 62
     2
  6
CONTINUOUS
 10
-0.577358
 20
0.471567
  0
VERTEX
  8
PLAN_1
 62
     2
  6
CONTINUOUS
 10
-0.580063
 20
0.472921
  0
VERTEX
  8
PLAN_1
 62
     2
  6
CONTINUOUS
 10
-0.583220
 20
0.473823
  0
VERTEX
  8
PLAN_1
 62
     2
  6
CONTINUOUS
 10
-0.587283
 20
0.474272
  0
VERTEX
  8
PLAN_1
 62
     2
  6
CONTINUOUS
 10
-0.589988
 20
0.473823
  0
VERTEX
  8
PLAN_1
 62
     2
  6
CONTINUOUS
 10
-0.593146
 20
0.472921
  0
VERTEX
  8
PLAN_1
 62
     2
  6
CONTINUOUS
 10
-0.595402
 20
0.471567
  0
VERTEX
  8
PLAN_1
 62
     2
  6
CONTINUOUS
 10
-0.597657
 20
0.469311
  0
VERTEX
  8
PLAN_1
 62
     2
  6
CONTINUOUS
 10
-0.599461
 20
0.467055
  0
VERTEX
  8
PLAN_1
 62
     2
  6
CONTINUOUS
 10
-0.601264
 20
0.464350
  0
VERTEX
  8
PLAN_1
 62
     2
  6
CONTINUOUS
 10
-0.601717
 20
0.461193
  0
VERTEX
  8
PLAN_1
 62
     2
  6
CONTINUOUS
 10
-0.602165
 20
0.458035
  0
VERTEX
  8
PLAN_1
 62
     2
  6
CONTINUOUS
 10
-0.571945
 20
0.458035
  0
SEQEND
  8
0
  0
SOLID
  8
PLAN_1
 62
     2
 10
-0.528193
 20
0.450819
 11
-0.553902
 21
0.450819
 12
-0.528193
 22
0.460291
 13
-0.553902
 23
0.460291
  0
POLYLINE
  8
PLAN_1
 62
     2
  6
CONTINUOUS
 66
     1
 40
0.003000
 41
0.003000
  0
VERTEX
  8
PLAN_1
 62
     2
  6
CONTINUOUS
 10
-0.528193
 20
0.450819
  0
VERTEX
  8
PLAN_1
 62
     2
  6
CONTINUOUS
 10
-0.553902
 20
0.450819
  0
VERTEX
  8
PLAN_1
 62
     2
  6
CONTINUOUS
 10
-0.553902
 20
0.460291
  0
VERTEX
  8
PLAN_1
 62
     2
  6
CONTINUOUS
 10
-0.528193
 20
0.460291
  0
VERTEX
  8
PLAN_1
 62
     2
  6
CONTINUOUS
 10
-0.528193
 20
0.450819
  0
SEQEND
  8
0
  0
POLYLINE
  8
PLAN_1
 62
     2
  6
CONTINUOUS
 66
     1
 40
0.003000
 41
0.003000
  0
VERTEX
  8
PLAN_1
 62
     2
  6
CONTINUOUS
 10
-0.470457
 20
0.443602
  0
VERTEX
  8
PLAN_1
 62
     2
  6
CONTINUOUS
 10
-0.470906
 20
0.442248
  0
VERTEX
  8
PLAN_1
 62
     2
  6
CONTINUOUS
 10
-0.471358
 20
0.440894
  0
VERTEX
  8
PLAN_1
 62
     2
  6
CONTINUOUS
 10
-0.472260
 20
0.439091
  0
VERTEX
  8
PLAN_1
 62
     2
  6
CONTINUOUS
 10
-0.473161
 20
0.436835
  0
VERTEX
  8
PLAN_1
 62
     2
  6
CONTINUOUS
 10
-0.474516
 20
0.434579
  0
VERTEX
  8
PLAN_1
 62
     2
  6
CONTINUOUS
 10
-0.475870
 20
0.432776
  0
VERTEX
  8
PLAN_1
 62
     2
  6
CONTINUOUS
 10
-0.478126
 20
0.430520
  0
VERTEX
  8
PLAN_1
 62
     2
  6
CONTINUOUS
 10
-0.480378
 20
0.428717
  0
VERTEX
  8
PLAN_1
 62
     2
  6
CONTINUOUS
 10
-0.481283
 20
0.428264
  0
VERTEX
  8
PLAN_1
 62
     2
  6
CONTINUOUS
 10
-0.482634
 20
0.427362
  0
VERTEX
  8
PLAN_1
 62
     2
  6
CONTINUOUS
 10
-0.483988
 20
0.426913
  0
VERTEX
  8
PLAN_1
 62
     2
  6
CONTINUOUS
 10
-0.485343
 20
0.426461
  0
VERTEX
  8
PLAN_1
 62
     2
  6
CONTINUOUS
 10
-0.487146
 20
0.425559
  0
VERTEX
  8
PLAN_1
 62
     2
  6
CONTINUOUS
 10
-0.489402
 20
0.425559
  0
VERTEX
  8
PLAN_1
 62
     2
  6
CONTINUOUS
 10
-0.492106
 20
0.425106
  0
VERTEX
  8
PLAN_1
 62
     2
  6
CONTINUOUS
 10
-0.495264
 20
0.425106
  0
VERTEX
  8
PLAN_1
 62
     2
  6
CONTINUOUS
 10
-0.497972
 20
0.425106
  0
VERTEX
  8
PLAN_1
 62
     2
  6
CONTINUOUS
 10
-0.500677
 20
0.425559
  0
VERTEX
  8
PLAN_1
 62
     2
  6
CONTINUOUS
 10
-0.502933
 20
0.426008
  0
VERTEX
  8
PLAN_1
 62
     2
  6
CONTINUOUS
 10
-0.505189
 20
0.426913
  0
VERTEX
  8
PLAN_1
 62
     2
  6
CONTINUOUS
 10
-0.507445
 20
0.428264
  0
VERTEX
  8
PLAN_1
 62
     2
  6
CONTINUOUS
 10
-0.509697
 20
0.429618
  0
VERTEX
  8
PLAN_1
 62
     2
  6
CONTINUOUS
 10
-0.511504
 20
0.430972
  0
VERTEX
  8
PLAN_1
 62
     2
  6
CONTINUOUS
 10
-0.512854
 20
0.432776
  0
VERTEX
  8
PLAN_1
 62
     2
  6
CONTINUOUS
 10
-0.514661
 20
0.434579
  0
VERTEX
  8
PLAN_1
 62
     2
  6
CONTINUOUS
 10
-0.515563
 20
0.436835
  0
VERTEX
  8
PLAN_1
 62
     2
  6
CONTINUOUS
 10
-0.516917
 20
0.439091
  0
VERTEX
  8
PLAN_1
 62
     2
  6
CONTINUOUS
 10
-0.517819
 20
0.441346
  0
VERTEX
  8
PLAN_1
 62
     2
  6
CONTINUOUS
 10
-0.519169
 20
0.446760
  0
VERTEX
  8
PLAN_1
 62
     2
  6
CONTINUOUS
 10
-0.519622
 20
0.452169
  0
VERTEX
  8
PLAN_1
 62
     2
  6
CONTINUOUS
 10
-0.519169
 20
0.458484
  0
VERTEX
  8
PLAN_1
 62
     2
  6
CONTINUOUS
 10
-0.517819
 20
0.463898
  0
VERTEX
  8
PLAN_1
 62
     2
  6
CONTINUOUS
 10
-0.516917
 20
0.466606
  0
VERTEX
  8
PLAN_1
 62
     2
  6
CONTINUOUS
 10
-0.516012
 20
0.469311
  0
VERTEX
  8
PLAN_1
 62
     2
  6
CONTINUOUS
 10
-0.514661
 20
0.471567
  0
VERTEX
  8
PLAN_1
 62
     2
  6
CONTINUOUS
 10
-0.513307
 20
0.473823
  0
VERTEX
  8
PLAN_1
 62
     2
  6
CONTINUOUS
 10
-0.511504
 20
0.475626
  0
VERTEX
  8
PLAN_1
 62
     2
  6
CONTINUOUS
 10
-0.509697
 20
0.477429
  0
VERTEX
  8
PLAN_1
 62
     2
  6
CONTINUOUS
 10
-0.507445
 20
0.478783
  0
VERTEX
  8
PLAN_1
 62
     2
  6
CONTINUOUS
 10
-0.505189
 20
0.480138
  0
VERTEX
  8
PLAN_1
 62
     2
  6
CONTINUOUS
 10
-0.502480
 20
0.481039
  0
VERTEX
  8
PLAN_1
 62
     2
  6
CONTINUOUS
 10
-0.499776
 20
0.481941
  0
VERTEX
  8
PLAN_1
 62
     2
  6
CONTINUOUS
 10
-0.496618
 20
0.482394
  0
VERTEX
  8
PLAN_1
 62
     2
  6
CONTINUOUS
 10
-0.493461
 20
0.482394
  0
VERTEX
  8
PLAN_1
 62
     2
  6
CONTINUOUS
 10
-0.490303
 20
0.482394
  0
VERTEX
  8
PLAN_1
 62
     2
  6
CONTINUOUS
 10
-0.488047
 20
0.481941
  0
VERTEX
  8
PLAN_1
 62
     2
  6
CONTINUOUS
 10
-0.485343
 20
0.481039
  0
VERTEX
  8
PLAN_1
 62
     2
  6
CONTINUOUS
 10
-0.483087
 20
0.480138
  0
VERTEX
  8
PLAN_1
 62
     2
  6
CONTINUOUS
 10
-0.480831
 20
0.479236
  0
VERTEX
  8
PLAN_1
 62
     2
  6
CONTINUOUS
 10
-0.479028
 20
0.477429
  0
VERTEX
  8
PLAN_1
 62
     2
  6
CONTINUOUS
 10
-0.477220
 20
0.476079
  0
VERTEX
  8
PLAN_1
 62
     2
  6
CONTINUOUS
 10
-0.475870
 20
0.473823
  0
VERTEX
  8
PLAN_1
 62
     2
  6
CONTINUOUS
 10
-0.474516
 20
0.471567
  0
VERTEX
  8
PLAN_1
 62
     2
  6
CONTINUOUS
 10
-0.473161
 20
0.469311
  0
VERTEX
  8
PLAN_1
 62
     2
  6
CONTINUOUS
 10
-0.472260
 20
0.466606
  0
VERTEX
  8
PLAN_1
 62
     2
  6
CONTINUOUS
 10
-0.471358
 20
0.463898
  0
VERTEX
  8
PLAN_1
 62
     2
  6
CONTINUOUS
 10
-0.470457
 20
0.457583
  0
VERTEX
  8
PLAN_1
 62
     2
  6
CONTINUOUS
 10
-0.470004
 20
0.450819
  0
VERTEX
  8
PLAN_1
 62
     2
  6
CONTINUOUS
 10
-0.509697
 20
0.450819
  0
VERTEX
  8
PLAN_1
 62
     2
  6
CONTINUOUS
 10
-0.509248
 20
0.446760
  0
VERTEX
  8
PLAN_1
 62
     2
  6
CONTINUOUS
 10
-0.508795
 20
0.443150
  0
VERTEX
  8
PLAN_1
 62
     2
  6
CONTINUOUS
 10
-0.507445
 20
0.439992
  0
VERTEX
  8
PLAN_1
 62
     2
  6
CONTINUOUS
 10
-0.505638
 20
0.437736
  0
VERTEX
  8
PLAN_1
 62
     2
  6
CONTINUOUS
 10
-0.503386
 20
0.435480
  0
VERTEX
  8
PLAN_1
 62
     2
  6
CONTINUOUS
 10
-0.500677
 20
0.434130
  0
VERTEX
  8
PLAN_1
 62
     2
  6
CONTINUOUS
 10
-0.497520
 20
0.433224
  0
VERTEX
  8
PLAN_1
 62
     2
  6
CONTINUOUS
 10
-0.493913
 20
0.432776
  0
VERTEX
  8
PLAN_1
 62
     2
  6
CONTINUOUS
 10
-0.490756
 20
0.433224
  0
VERTEX
  8
PLAN_1
 62
     2
  6
CONTINUOUS
 10
-0.488047
 20
0.434130
  0
VERTEX
  8
PLAN_1
 62
     2
  6
CONTINUOUS
 10
-0.485791
 20
0.435031
  0
VERTEX
  8
PLAN_1
 62
     2
  6
CONTINUOUS
 10
-0.483535
 20
0.436835
  0
VERTEX
  8
PLAN_1
 62
     2
  6
CONTINUOUS
 10
-0.482185
 20
0.438638
  0
VERTEX
  8
PLAN_1
 62
     2
  6
CONTINUOUS
 10
-0.480831
 20
0.440445
  0
VERTEX
  8
PLAN_1
 62
     2
  6
CONTINUOUS
 10
-0.479929
 20
0.441795
  0
VERTEX
  8
PLAN_1
 62
     2
  6
CONTINUOUS
 10
-0.479929
 20
0.443602
  0
VERTEX
  8
PLAN_1
 62
     2
  6
CONTINUOUS
 10
-0.470457
 20
0.443602
  0
SEQEND
  8
0
  0
SOLID
  8
PLAN_1
 62
     2
 10
-0.492106
 20
0.488256
 11
-0.499323
 21
0.488256
 12
-0.478575
 22
0.503142
 13
-0.489850
 23
0.503142
  0
POLYLINE
  8
PLAN_1
 62
     2
  6
CONTINUOUS
 66
     1
 40
0.003000
 41
0.003000
  0
VERTEX
  8
PLAN_1
 62
     2
  6
CONTINUOUS
 10
-0.492106
 20
0.488256
  0
VERTEX
  8
PLAN_1
 62
     2
  6
CONTINUOUS
 10
-0.499323
 20
0.488256
  0
VERTEX
  8
PLAN_1
 62
     2
  6
CONTINUOUS
 10
-0.489850
 20
0.503142
  0
VERTEX
  8
PLAN_1
 62
     2
  6
CONTINUOUS
 10
-0.478575
 20
0.503142
  0
VERTEX
  8
PLAN_1
 62
     2
  6
CONTINUOUS
 10
-0.492106
 20
0.488256
  0
SEQEND
  8
0
  0
POLYLINE
  8
PLAN_1
 62
     2
  6
CONTINUOUS
 66
     1
 40
0.003000
 41
0.003000
  0
VERTEX
  8
PLAN_1
 62
     2
  6
CONTINUOUS
 10
-0.479476
 20
0.458035
  0
VERTEX
  8
PLAN_1
 62
     2
  6
CONTINUOUS
 10
-0.479929
 20
0.461193
  0
VERTEX
  8
PLAN_1
 62
     2
  6
CONTINUOUS
 10
-0.480378
 20
0.464350
  0
VERTEX
  8
PLAN_1
 62
     2
  6
CONTINUOUS
 10
-0.481283
 20
0.467055
  0
VERTEX
  8
PLAN_1
 62
     2
  6
CONTINUOUS
 10
-0.483087
 20
0.469311
  0
VERTEX
  8
PLAN_1
 62
     2
  6
CONTINUOUS
 10
-0.484890
 20
0.471567
  0
VERTEX
  8
PLAN_1
 62
     2
  6
CONTINUOUS
 10
-0.487598
 20
0.472921
  0
VERTEX
  8
PLAN_1
 62
     2
  6
CONTINUOUS
 10
-0.490756
 20
0.473823
  0
VERTEX
  8
PLAN_1
 62
     2
  6
CONTINUOUS
 10
-0.494362
 20
0.474272
  0
VERTEX
  8
PLAN_1
 62
     2
  6
CONTINUOUS
 10
-0.497520
 20
0.473823
  0
VERTEX
  8
PLAN_1
 62
     2
  6
CONTINUOUS
 10
-0.500677
 20
0.472921
  0
VERTEX
  8
PLAN_1
 62
     2
  6
CONTINUOUS
 10
-0.502933
 20
0.471567
  0
VERTEX
  8
PLAN_1
 62
     2
  6
CONTINUOUS
 10
-0.505189
 20
0.469311
  0
VERTEX
  8
PLAN_1
 62
     2
  6
CONTINUOUS
 10
-0.506992
 20
0.467055
  0
VERTEX
  8
PLAN_1
 62
     2
  6
CONTINUOUS
 10
-0.508346
 20
0.464350
  0
VERTEX
  8
PLAN_1
 62
     2
  6
CONTINUOUS
 10
-0.509248
 20
0.461193
  0
VERTEX
  8
PLAN_1
 62
     2
  6
CONTINUOUS
 10
-0.509697
 20
0.458035
  0
VERTEX
  8
PLAN_1
 62
     2
  6
CONTINUOUS
 10
-0.479476
 20
0.458035
  0
SEQEND
  8
0
  0
POLYLINE
  8
PLAN_1
 62
     2
  6
CONTINUOUS
 66
     1
 40
0.003000
 41
0.003000
  0
VERTEX
  8
PLAN_1
 62
     2
  6
CONTINUOUS
 10
-0.447902
 20
0.473370
  0
VERTEX
  8
PLAN_1
 62
     2
  6
CONTINUOUS
 10
-0.447902
 20
0.438189
  0
VERTEX
  8
PLAN_1
 62
     2
  6
CONTINUOUS
 10
-0.447453
 20
0.436382
  0
VERTEX
  8
PLAN_1
 62
     2
  6
CONTINUOUS
 10
-0.447000
 20
0.435480
  0
VERTEX
  8
PLAN_1
 62
     2
  6
CONTINUOUS
 10
-0.446551
 20
0.434579
  0
VERTEX
  8
PLAN_1
 62
     2
  6
CONTINUOUS
 10
-0.445650
 20
0.434130
  0
VERTEX
  8
PLAN_1
 62
     2
  6
CONTINUOUS
 10
-0.444744
 20
0.434130
  0
VERTEX
  8
PLAN_1
 62
     2
  6
CONTINUOUS
 10
-0.443843
 20
0.433677
  0
VERTEX
  8
PLAN_1
 62
     2
  6
CONTINUOUS
 10
-0.442941
 20
0.433677
  0
VERTEX
  8
PLAN_1
 62
     2
  6
CONTINUOUS
 10
-0.442039
 20
0.433677
  0
VERTEX
  8
PLAN_1
 62
     2
  6
CONTINUOUS
 10
-0.438882
 20
0.433677
  0
VERTEX
  8
PLAN_1
 62
     2
  6
CONTINUOUS
 10
-0.438882
 20
0.426461
  0
VERTEX
  8
PLAN_1
 62
     2
  6
CONTINUOUS
 10
-0.440236
 20
0.426461
  0
VERTEX
  8
PLAN_1
 62
     2
  6
CONTINUOUS
 10
-0.441138
 20
0.426461
  0
VERTEX
  8
PLAN_1
 62
     2
  6
CONTINUOUS
 10
-0.442492
 20
0.426008
  0
VERTEX
  8
PLAN_1
 62
     2
  6
CONTINUOUS
 10
-0.443394
 20
0.426008
  0
VERTEX
  8
PLAN_1
 62
     2
  6
CONTINUOUS
 10
-0.444295
 20
0.426008
  0
VERTEX
  8
PLAN_1
 62
     2
  6
CONTINUOUS
 10
-0.444744
 20
0.426008
  0
VERTEX
  8
PLAN_1
 62
     2
  6
CONTINUOUS
 10
-0.445197
 20
0.426008
  0
VERTEX
  8
PLAN_1
 62
     2
  6
CONTINUOUS
 10
-0.445650
 20
0.426008
  0
VERTEX
  8
PLAN_1
 62
     2
  6
CONTINUOUS
 10
-0.448807
 20
0.426008
  0
VERTEX
  8
PLAN_1
 62
     2
  6
CONTINUOUS
 10
-0.451512
 20
0.426913
  0
VERTEX
  8
PLAN_1
 62
     2
  6
CONTINUOUS
 10
-0.453315
 20
0.427815
  0
VERTEX
  8
PLAN_1
 62
     2
  6
CONTINUOUS
 10
-0.454669
 20
0.429165
  0
VERTEX
  8
PLAN_1
 62
     2
  6
CONTINUOUS
 10
-0.455571
 20
0.430972
  0
VERTEX
  8
PLAN_1
 62
     2
  6
CONTINUOUS
 10
-0.456472
 20
0.432776
  0
VERTEX
  8
PLAN_1
 62
     2
  6
CONTINUOUS
 10
-0.456925
 20
0.435031
  0
VERTEX
  8
PLAN_1
 62
     2
  6
CONTINUOUS
 10
-0.456925
 20
0.437287
  0
VERTEX
  8
PLAN_1
 62
     2
  6
CONTINUOUS
 10
-0.456925
 20
0.473370
  0
VERTEX
  8
PLAN_1
 62
     2
  6
CONTINUOUS
 10
-0.464142
 20
0.473370
  0
VERTEX
  8
PLAN_1
 62
     2
  6
CONTINUOUS
 10
-0.464142
 20
0.481039
  0
VERTEX
  8
PLAN_1
 62
     2
  6
CONTINUOUS
 10
-0.456925
 20
0.481039
  0
VERTEX
  8
PLAN_1
 62
     2
  6
CONTINUOUS
 10
-0.456925
 20
0.496374
  0
VERTEX
  8
PLAN_1
 62
     2
  6
CONTINUOUS
 10
-0.447902
 20
0.496374
  0
VERTEX
  8
PLAN_1
 62
     2
  6
CONTINUOUS
 10
-0.447902
 20
0.481039
  0
VERTEX
  8
PLAN_1
 62
     2
  6
CONTINUOUS
 10
-0.438882
 20
0.481039
  0
VERTEX
  8
PLAN_1
 62
     2
  6
CONTINUOUS
 10
-0.438882
 20
0.473370
  0
VERTEX
  8
PLAN_1
 62
     2
  6
CONTINUOUS
 10
-0.447902
 20
0.473370
  0
SEQEND
  8
0
  0
POLYLINE
  8
PLAN_1
 62
     2
  6
CONTINUOUS
 66
     1
 40
0.003000
 41
0.003000
  0
VERTEX
  8
PLAN_1
 62
     2
  6
CONTINUOUS
 10
-0.407760
 20
0.482394
  0
VERTEX
  8
PLAN_1
 62
     2
  6
CONTINUOUS
 10
-0.404602
 20
0.482394
  0
VERTEX
  8
PLAN_1
 62
     2
  6
CONTINUOUS
 10
-0.401894
 20
0.481941
  0
VERTEX
  8
PLAN_1
 62
     2
  6
CONTINUOUS
 10
-0.399189
 20
0.481039
  0
VERTEX
  8
PLAN_1
 62
     2
  6
CONTINUOUS
 10
-0.396480
 20
0.480138
  0
VERTEX
  8
PLAN_1
 62
     2
  6
CONTINUOUS
 10
-0.394228
 20
0.478783
  0
VERTEX
  8
PLAN_1
 62
     2
  6
CONTINUOUS
 10
-0.392421
 20
0.476980
  0
VERTEX
  8
PLAN_1
 62
     2
  6
CONTINUOUS
 10
-0.390165
 20
0.475626
  0
VERTEX
  8
PLAN_1
 62
     2
  6
CONTINUOUS
 10
-0.388815
 20
0.473370
  0
VERTEX
  8
PLAN_1
 62
     2
  6
CONTINUOUS
 10
-0.387461
 20
0.471114
  0
VERTEX
  8
PLAN_1
 62
     2
  6
CONTINUOUS
 10
-0.386106
 20
0.469311
  0
VERTEX
  8
PLAN_1
 62
     2
  6
CONTINUOUS
 10
-0.384756
 20
0.466606
  0
VERTEX
  8
PLAN_1
 62
     2
  6
CONTINUOUS
 10
-0.383850
 20
0.464350
  0
VERTEX
  8
PLAN_1
 62
     2
  6
CONTINUOUS
 10
-0.382949
 20
0.458937
  0
VERTEX
  8
PLAN_1
 62
     2
  6
CONTINUOUS
 10
-0.382500
 20
0.453976
  0
VERTEX
  8
PLAN_1
 62
     2
  6
CONTINUOUS
 10
-0.382949
 20
0.448563
  0
VERTEX
  8
PLAN_1
 62
     2
  6
CONTINUOUS
 10
-0.383850
 20
0.443602
  0
VERTEX
  8
PLAN_1
 62
     2
  6
CONTINUOUS
 10
-0.384756
 20
0.440894
  0
VERTEX
  8
PLAN_1
 62
     2
  6
CONTINUOUS
 10
-0.386106
 20
0.438638
  0
VERTEX
  8
PLAN_1
 62
     2
  6
CONTINUOUS
 10
-0.387461
 20
0.436382
  0
VERTEX
  8
PLAN_1
 62
     2
  6
CONTINUOUS
 10
-0.388815
 20
0.434130
  0
VERTEX
  8
PLAN_1
 62
     2
  6
CONTINUOUS
 10
-0.390165
 20
0.432323
  0
VERTEX
  8
PLAN_1
 62
     2
  6
CONTINUOUS
 10
-0.392421
 20
0.430520
  0
VERTEX
  8
PLAN_1
 62
     2
  6
CONTINUOUS
 10
-0.394228
 20
0.428717
  0
VERTEX
  8
PLAN_1
 62
     2
  6
CONTINUOUS
 10
-0.396480
 20
0.427815
  0
VERTEX
  8
PLAN_1
 62
     2
  6
CONTINUOUS
 10
-0.399189
 20
0.426461
  0
VERTEX
  8
PLAN_1
 62
     2
  6
CONTINUOUS
 10
-0.401894
 20
0.425559
  0
VERTEX
  8
PLAN_1
 62
     2
  6
CONTINUOUS
 10
-0.404602
 20
0.425106
  0
VERTEX
  8
PLAN_1
 62
     2
  6
CONTINUOUS
 10
-0.407760
 20
0.425106
  0
VERTEX
  8
PLAN_1
 62
     2
  6
CONTINUOUS
 10
-0.410917
 20
0.425106
  0
VERTEX
  8
PLAN_1
 62
     2
  6
CONTINUOUS
 10
-0.414075
 20
0.425559
  0
VERTEX
  8
PLAN_1
 62
     2
  6
CONTINUOUS
 10
-0.416780
 20
0.426461
  0
VERTEX
  8
PLAN_1
 62
     2
  6
CONTINUOUS
 10
-0.419035
 20
0.427815
  0
VERTEX
  8
PLAN_1
 62
     2
  6
CONTINUOUS
 10
-0.421291
 20
0.428717
  0
VERTEX
  8
PLAN_1
 62
     2
  6
CONTINUOUS
 10
-0.423547
 20
0.430520
  0
VERTEX
  8
PLAN_1
 62
     2
  6
CONTINUOUS
 10
-0.425350
 20
0.432323
  0
VERTEX
  8
PLAN_1
 62
     2
  6
CONTINUOUS
 10
-0.427154
 20
0.434130
  0
VERTEX
  8
PLAN_1
 62
     2
  6
CONTINUOUS
 10
-0.428508
 20
0.436382
  0
VERTEX
  8
PLAN_1
 62
     2
  6
CONTINUOUS
 10
-0.429862
 20
0.438638
  0
VERTEX
  8
PLAN_1
 62
     2
  6
CONTINUOUS
 10
-0.430764
 20
0.440894
  0
VERTEX
  8
PLAN_1
 62
     2
  6
CONTINUOUS
 10
-0.431665
 20
0.443602
  0
VERTEX
  8
PLAN_1
 62
     2
  6
CONTINUOUS
 10
-0.432567
 20
0.448563
  0
VERTEX
  8
PLAN_1
 62
     2
  6
CONTINUOUS
 10
-0.433020
 20
0.453976
  0
VERTEX
  8
PLAN_1
 62
     2
  6
CONTINUOUS
 10
-0.432567
 20
0.458937
  0
VERTEX
  8
PLAN_1
 62
     2
  6
CONTINUOUS
 10
-0.431665
 20
0.464350
  0
VERTEX
  8
PLAN_1
 62
     2
  6
CONTINUOUS
 10
-0.430764
 20
0.466606
  0
VERTEX
  8
PLAN_1
 62
     2
  6
CONTINUOUS
 10
-0.429862
 20
0.469311
  0
VERTEX
  8
PLAN_1
 62
     2
  6
CONTINUOUS
 10
-0.428508
 20
0.471114
  0
VERTEX
  8
PLAN_1
 62
     2
  6
CONTINUOUS
 10
-0.427154
 20
0.473370
  0
VERTEX
  8
PLAN_1
 62
     2
  6
CONTINUOUS
 10
-0.425350
 20
0.475626
  0
VERTEX
  8
PLAN_1
 62
     2
  6
CONTINUOUS
 10
-0.423547
 20
0.476980
  0
VERTEX
  8
PLAN_1
 62
     2
  6
CONTINUOUS
 10
-0.421291
 20
0.478783
  0
VERTEX
  8
PLAN_1
 62
     2
  6
CONTINUOUS
 10
-0.419035
 20
0.480138
  0
VERTEX
  8
PLAN_1
 62
     2
  6
CONTINUOUS
 10
-0.416780
 20
0.481039
  0
VERTEX
  8
PLAN_1
 62
     2
  6
CONTINUOUS
 10
-0.414075
 20
0.481941
  0
VERTEX
  8
PLAN_1
 62
     2
  6
CONTINUOUS
 10
-0.410917
 20
0.482394
  0
VERTEX
  8
PLAN_1
 62
     2
  6
CONTINUOUS
 10
-0.407760
 20
0.482394
  0
SEQEND
  8
0
  0
POLYLINE
  8
PLAN_1
 62
     2
  6
CONTINUOUS
 66
     1
 40
0.003000
 41
0.003000
  0
VERTEX
  8
PLAN_1
 62
     2
  6
CONTINUOUS
 10
-0.407760
 20
0.433224
  0
VERTEX
  8
PLAN_1
 62
     2
  6
CONTINUOUS
 10
-0.405504
 20
0.433224
  0
VERTEX
  8
PLAN_1
 62
     2
  6
CONTINUOUS
 10
-0.403248
 20
0.433677
  0
VERTEX
  8
PLAN_1
 62
     2
  6
CONTINUOUS
 10
-0.401445
 20
0.434130
  0
VERTEX
  8
PLAN_1
 62
     2
  6
CONTINUOUS
 10
-0.399638
 20
0.435031
  0
VERTEX
  8
PLAN_1
 62
     2
  6
CONTINUOUS
 10
-0.398287
 20
0.436382
  0
VERTEX
  8
PLAN_1
 62
     2
  6
CONTINUOUS
 10
-0.396933
 20
0.437736
  0
VERTEX
  8
PLAN_1
 62
     2
  6
CONTINUOUS
 10
-0.396031
 20
0.439091
  0
VERTEX
  8
PLAN_1
 62
     2
  6
CONTINUOUS
 10
-0.395130
 20
0.440894
  0
VERTEX
  8
PLAN_1
 62
     2
  6
CONTINUOUS
 10
-0.393776
 20
0.444051
  0
VERTEX
  8
PLAN_1
 62
     2
  6
CONTINUOUS
 10
-0.392874
 20
0.447661
  0
VERTEX
  8
PLAN_1
 62
     2
  6
CONTINUOUS
 10
-0.391972
 20
0.450819
  0
VERTEX
  8
PLAN_1
 62
     2
  6
CONTINUOUS
 10
-0.391972
 20
0.453976
  0
VERTEX
  8
PLAN_1
 62
     2
  6
CONTINUOUS
 10
-0.391972
 20
0.456681
  0
VERTEX
  8
PLAN_1
 62
     2
  6
CONTINUOUS
 10
-0.392874
 20
0.460291
  0
VERTEX
  8
PLAN_1
 62
     2
  6
CONTINUOUS
 10
-0.393776
 20
0.463449
  0
VERTEX
  8
PLAN_1
 62
     2
  6
CONTINUOUS
 10
-0.395130
 20
0.467055
  0
VERTEX
  8
PLAN_1
 62
     2
  6
CONTINUOUS
 10
-0.396933
 20
0.469764
  0
VERTEX
  8
PLAN_1
 62
     2
  6
CONTINUOUS
 10
-0.399638
 20
0.472469
  0
VERTEX
  8
PLAN_1
 62
     2
  6
CONTINUOUS
 10
-0.401445
 20
0.473370
  0
VERTEX
  8
PLAN_1
 62
     2
  6
CONTINUOUS
 10
-0.403248
 20
0.473823
  0
VERTEX
  8
PLAN_1
 62
     2
  6
CONTINUOUS
 10
-0.405504
 20
0.474272
  0
VERTEX
  8
PLAN_1
 62
     2
  6
CONTINUOUS
 10
-0.407760
 20
0.474724
  0
VERTEX
  8
PLAN_1
 62
     2
  6
CONTINUOUS
 10
-0.410016
 20
0.474272
  0
VERTEX
  8
PLAN_1
 62
     2
  6
CONTINUOUS
 10
-0.412268
 20
0.473823
  0
VERTEX
  8
PLAN_1
 62
     2
  6
CONTINUOUS
 10
-0.414075
 20
0.473370
  0
VERTEX
  8
PLAN_1
 62
     2
  6
CONTINUOUS
 10
-0.415878
 20
0.472469
  0
VERTEX
  8
PLAN_1
 62
     2
  6
CONTINUOUS
 10
-0.418583
 20
0.469764
  0
VERTEX
  8
PLAN_1
 62
     2
  6
CONTINUOUS
 10
-0.420839
 20
0.467055
  0
VERTEX
  8
PLAN_1
 62
     2
  6
CONTINUOUS
 10
-0.422193
 20
0.463449
  0
VERTEX
  8
PLAN_1
 62
     2
  6
CONTINUOUS
 10
-0.423094
 20
0.460291
  0
VERTEX
  8
PLAN_1
 62
     2
  6
CONTINUOUS
 10
-0.423547
 20
0.456681
  0
VERTEX
  8
PLAN_1
 62
     2
  6
CONTINUOUS
 10
-0.423547
 20
0.453976
  0
VERTEX
  8
PLAN_1
 62
     2
  6
CONTINUOUS
 10
-0.423547
 20
0.450819
  0
VERTEX
  8
PLAN_1
 62
     2
  6
CONTINUOUS
 10
-0.423094
 20
0.447661
  0
VERTEX
  8
PLAN_1
 62
     2
  6
CONTINUOUS
 10
-0.422193
 20
0.444051
  0
VERTEX
  8
PLAN_1
 62
     2
  6
CONTINUOUS
 10
-0.420839
 20
0.440894
  0
VERTEX
  8
PLAN_1
 62
     2
  6
CONTINUOUS
 10
-0.419937
 20
0.439091
  0
VERTEX
  8
PLAN_1
 62
     2
  6
CONTINUOUS
 10
-0.418583
 20
0.437736
  0
VERTEX
  8
PLAN_1
 62
     2
  6
CONTINUOUS
 10
-0.417232
 20
0.436382
  0
VERTEX
  8
PLAN_1
 62
     2
  6
CONTINUOUS
 10
-0.415878
 20
0.435031
  0
VERTEX
  8
PLAN_1
 62
     2
  6
CONTINUOUS
 10
-0.414075
 20
0.434130
  0
VERTEX
  8
PLAN_1
 62
     2
  6
CONTINUOUS
 10
-0.412268
 20
0.433677
  0
VERTEX
  8
PLAN_1
 62
     2
  6
CONTINUOUS
 10
-0.410016
 20
0.433224
  0
VERTEX
  8
PLAN_1
 62
     2
  6
CONTINUOUS
 10
-0.407760
 20
0.433224
  0
SEQEND
  8
0
  0
POLYLINE
  8
PLAN_1
 62
     2
  6
CONTINUOUS
 66
     1
 40
0.003000
 41
0.003000
  0
VERTEX
  8
PLAN_1
 62
     2
  6
CONTINUOUS
 10
-0.336492
 20
0.426461
  0
VERTEX
  8
PLAN_1
 62
     2
  6
CONTINUOUS
 10
-0.336492
 20
0.434579
  0
VERTEX
  8
PLAN_1
 62
     2
  6
CONTINUOUS
 10
-0.336941
 20
0.434579
  0
VERTEX
  8
PLAN_1
 62
     2
  6
CONTINUOUS
 10
-0.338295
 20
0.432323
  0
VERTEX
  8
PLAN_1
 62
     2
  6
CONTINUOUS
 10
-0.340098
 20
0.430520
  0
VERTEX
  8
PLAN_1
 62
     2
  6
CONTINUOUS
 10
-0.341902
 20
0.428717
  0
VERTEX
  8
PLAN_1
 62
     2
  6
CONTINUOUS
 10
-0.343709
 20
0.427362
  0
VERTEX
  8
PLAN_1
 62
     2
  6
CONTINUOUS
 10
-0.345965
 20
0.426461
  0
VERTEX
  8
PLAN_1
 62
     2
  6
CONTINUOUS
 10
-0.348217
 20
0.425559
  0
VERTEX
  8
PLAN_1
 62
     2
  6
CONTINUOUS
 10
-0.350925
 20
0.425106
  0
VERTEX
  8
PLAN_1
 62
     2
  6
CONTINUOUS
 10
-0.354083
 20
0.425106
  0
VERTEX
  8
PLAN_1
 62
     2
  6
CONTINUOUS
 10
-0.357240
 20
0.425106
  0
VERTEX
  8
PLAN_1
 62
     2
  6
CONTINUOUS
 10
-0.360398
 20
0.426008
  0
VERTEX
  8
PLAN_1
 62
     2
  6
CONTINUOUS
 10
-0.363102
 20
0.426913
  0
VERTEX
  8
PLAN_1
 62
     2
  6
CONTINUOUS
 10
-0.365811
 20
0.428717
  0
VERTEX
  8
PLAN_1
 62
     2
  6
CONTINUOUS
 10
-0.368516
 20
0.430972
  0
VERTEX
  8
PLAN_1
 62
     2
  6
CONTINUOUS
 10
-0.370319
 20
0.433677
  0
VERTEX
  8
PLAN_1
 62
     2
  6
CONTINUOUS
 10
-0.370772
 20
0.435480
  0
VERTEX
  8
PLAN_1
 62
     2
  6
CONTINUOUS
 10
-0.371224
 20
0.437287
  0
VERTEX
  8
PLAN_1
 62
     2
  6
CONTINUOUS
 10
-0.371673
 20
0.439539
  0
VERTEX
  8
PLAN_1
 62
     2
  6
CONTINUOUS
 10
-0.371673
 20
0.441795
  0
VERTEX
  8
PLAN_1
 62
     2
  6
CONTINUOUS
 10
-0.371673
 20
0.481039
  0
VERTEX
  8
PLAN_1
 62
     2
  6
CONTINUOUS
 10
-0.362654
 20
0.481039
  0
VERTEX
  8
PLAN_1
 62
     2
  6
CONTINUOUS
 10
-0.362654
 20
0.444953
  0
VERTEX
  8
PLAN_1
 62
     2
  6
CONTINUOUS
 10
-0.362654
 20
0.441795
  0
VERTEX
  8
PLAN_1
 62
     2
  6
CONTINUOUS
 10
-0.361752
 20
0.439091
  0
VERTEX
  8
PLAN_1
 62
     2
  6
CONTINUOUS
 10
-0.360846
 20
0.437287
  0
VERTEX
  8
PLAN_1
 62
     2
  6
CONTINUOUS
 10
-0.359496
 20
0.435480
  0
VERTEX
  8
PLAN_1
 62
     2
  6
CONTINUOUS
 10
-0.358142
 20
0.434130
  0
VERTEX
  8
PLAN_1
 62
     2
  6
CONTINUOUS
 10
-0.356339
 20
0.433677
  0
VERTEX
  8
PLAN_1
 62
     2
  6
CONTINUOUS
 10
-0.354083
 20
0.433224
  0
VERTEX
  8
PLAN_1
 62
     2
  6
CONTINUOUS
 10
-0.352280
 20
0.432776
  0
VERTEX
  8
PLAN_1
 62
     2
  6
CONTINUOUS
 10
-0.350024
 20
0.433224
  0
VERTEX
  8
PLAN_1
 62
     2
  6
CONTINUOUS
 10
-0.348217
 20
0.433224
  0
VERTEX
  8
PLAN_1
 62
     2
  6
CONTINUOUS
 10
-0.346413
 20
0.434130
  0
VERTEX
  8
PLAN_1
 62
     2
  6
CONTINUOUS
 10
-0.345059
 20
0.434579
  0
VERTEX
  8
PLAN_1
 62
     2
  6
CONTINUOUS
 10
-0.342354
 20
0.436382
  0
VERTEX
  8
PLAN_1
 62
     2
  6
CONTINUOUS
 10
-0.340098
 20
0.439091
  0
VERTEX
  8
PLAN_1
 62
     2
  6
CONTINUOUS
 10
-0.338748
 20
0.441795
  0
VERTEX
  8
PLAN_1
 62
     2
  6
CONTINUOUS
 10
-0.337843
 20
0.444953
  0
VERTEX
  8
PLAN_1
 62
     2
  6
CONTINUOUS
 10
-0.337394
 20
0.448110
  0
VERTEX
  8
PLAN_1
 62
     2
  6
CONTINUOUS
 10
-0.336941
 20
0.450819
  0
VERTEX
  8
PLAN_1
 62
     2
  6
CONTINUOUS
 10
-0.336941
 20
0.481039
  0
VERTEX
  8
PLAN_1
 62
     2
  6
CONTINUOUS
 10
-0.327921
 20
0.481039
  0
VERTEX
  8
PLAN_1
 62
     2
  6
CONTINUOUS
 10
-0.327921
 20
0.426461
  0
VERTEX
  8
PLAN_1
 62
     2
  6
CONTINUOUS
 10
-0.336492
 20
0.426461
  0
SEQEND
  8
0
  0
POLYLINE
  8
PLAN_1
 62
     2
  6
CONTINUOUS
 66
     1
 40
0.003000
 41
0.003000
  0
VERTEX
  8
PLAN_1
 62
     2
  6
CONTINUOUS
 10
-0.314839
 20
0.481039
  0
VERTEX
  8
PLAN_1
 62
     2
  6
CONTINUOUS
 10
-0.306268
 20
0.481039
  0
VERTEX
  8
PLAN_1
 62
     2
  6
CONTINUOUS
 10
-0.306268
 20
0.473370
  0
VERTEX
  8
PLAN_1
 62
     2
  6
CONTINUOUS
 10
-0.305366
 20
0.474724
  0
VERTEX
  8
PLAN_1
 62
     2
  6
CONTINUOUS
 10
-0.304016
 20
0.476079
  0
VERTEX
  8
PLAN_1
 62
     2
  6
CONTINUOUS
 10
-0.302661
 20
0.477429
  0
VERTEX
  8
PLAN_1
 62
     2
  6
CONTINUOUS
 10
-0.300858
 20
0.479236
  0
VERTEX
  8
PLAN_1
 62
     2
  6
CONTINUOUS
 10
-0.298602
 20
0.480587
  0
VERTEX
  8
PLAN_1
 62
     2
  6
CONTINUOUS
 10
-0.296346
 20
0.481488
  0
VERTEX
  8
PLAN_1
 62
     2
  6
CONTINUOUS
 10
-0.293189
 20
0.482394
  0
VERTEX
  8
PLAN_1
 62
     2
  6
CONTINUOUS
 10
-0.290031
 20
0.482394
  0
VERTEX
  8
PLAN_1
 62
     2
  6
CONTINUOUS
 10
-0.287327
 20
0.482394
  0
VERTEX
  8
PLAN_1
 62
     2
  6
CONTINUOUS
 10
-0.284618
 20
0.481941
  0
VERTEX
  8
PLAN_1
 62
     2
  6
CONTINUOUS
 10
-0.282362
 20
0.481488
  0
VERTEX
  8
PLAN_1
 62
     2
  6
CONTINUOUS
 10
-0.280106
 20
0.480587
  0
VERTEX
  8
PLAN_1
 62
     2
  6
CONTINUOUS
 10
-0.278303
 20
0.479236
  0
VERTEX
  8
PLAN_1
 62
     2
  6
CONTINUOUS
 10
-0.276500
 20
0.477882
  0
VERTEX
  8
PLAN_1
 62
     2
  6
CONTINUOUS
 10
-0.274697
 20
0.476528
  0
VERTEX
  8
PLAN_1
 62
     2
  6
CONTINUOUS
 10
-0.272890
 20
0.474724
  0
VERTEX
  8
PLAN_1
 62
     2
  6
CONTINUOUS
 10
-0.270634
 20
0.470665
  0
VERTEX
  8
PLAN_1
 62
     2
  6
CONTINUOUS
 10
-0.268831
 20
0.466154
  0
VERTEX
  8
PLAN_1
 62
     2
  6
CONTINUOUS
 10
-0.267476
 20
0.460740
  0
VERTEX
  8
PLAN_1
 62
     2
  6
CONTINUOUS
 10
-0.267028
 20
0.455327
  0
VERTEX
  8
PLAN_1
 62
     2
  6
CONTINUOUS
 10
-0.267476
 20
0.450366
  0
VERTEX
  8
PLAN_1
 62
     2
  6
CONTINUOUS
 10
-0.268382
 20
0.444953
  0
VERTEX
  8
PLAN_1
 62
     2
  6
CONTINUOUS
 10
-0.269732
 20
0.439992
  0
VERTEX
  8
PLAN_1
 62
     2
  6
CONTINUOUS
 10
-0.271988
 20
0.435480
  0
VERTEX
  8
PLAN_1
 62
     2
  6
CONTINUOUS
 10
-0.273791
 20
0.433224
  0
VERTEX
  8
PLAN_1
 62
     2
  6
CONTINUOUS
 10
-0.275598
 20
0.430972
  0
VERTEX
  8
PLAN_1
 62
     2
  6
CONTINUOUS
 10
-0.277402
 20
0.429618
  0
VERTEX
  8
PLAN_1
 62
     2
  6
CONTINUOUS
 10
-0.279657
 20
0.427815
  0
VERTEX
  8
PLAN_1
 62
     2
  6
CONTINUOUS
 10
-0.281913
 20
0.426913
  0
VERTEX
  8
PLAN_1
 62
     2
  6
CONTINUOUS
 10
-0.284618
 20
0.425559
  0
VERTEX
  8
PLAN_1
 62
     2
  6
CONTINUOUS
 10
-0.287776
 20
0.425106
  0
VERTEX
  8
PLAN_1
 62
     2
  6
CONTINUOUS
 10
-0.290933
 20
0.425106
  0
VERTEX
  8
PLAN_1
 62
     2
  6
CONTINUOUS
 10
-0.293642
 20
0.425106
  0
VERTEX
  8
PLAN_1
 62
     2
  6
CONTINUOUS
 10
-0.295894
 20
0.425559
  0
VERTEX
  8
PLAN_1
 62
     2
  6
CONTINUOUS
 10
-0.298150
 20
0.426461
  0
VERTEX
  8
PLAN_1
 62
     2
  6
CONTINUOUS
 10
-0.299953
 20
0.427362
  0
VERTEX
  8
PLAN_1
 62
     2
  6
CONTINUOUS
 10
-0.301760
 20
0.428264
  0
VERTEX
  8
PLAN_1
 62
     2
  6
CONTINUOUS
 10
-0.303110
 20
0.429618
  0
VERTEX
  8
PLAN_1
 62
     2
  6
CONTINUOUS
 10
-0.304465
 20
0.430972
  0
VERTEX
  8
PLAN_1
 62
     2
  6
CONTINUOUS
 10
-0.305366
 20
0.432323
  0
VERTEX
  8
PLAN_1
 62
     2
  6
CONTINUOUS
 10
-0.305819
 20
0.432323
  0
VERTEX
  8
PLAN_1
 62
     2
  6
CONTINUOUS
 10
-0.305819
 20
0.405260
  0
VERTEX
  8
PLAN_1
 62
     2
  6
CONTINUOUS
 10
-0.314839
 20
0.405260
  0
VERTEX
  8
PLAN_1
 62
     2
  6
CONTINUOUS
 10
-0.314839
 20
0.481039
  0
SEQEND
  8
0
  0
POLYLINE
  8
PLAN_1
 62
     2
  6
CONTINUOUS
 66
     1
 40
0.003000
 41
0.003000
  0
VERTEX
  8
PLAN_1
 62
     2
  6
CONTINUOUS
 10
-0.291386
 20
0.432776
  0
VERTEX
  8
PLAN_1
 62
     2
  6
CONTINUOUS
 10
-0.287776
 20
0.433224
  0
VERTEX
  8
PLAN_1
 62
     2
  6
CONTINUOUS
 10
-0.284618
 20
0.434579
  0
VERTEX
  8
PLAN_1
 62
     2
  6
CONTINUOUS
 10
-0.282362
 20
0.436382
  0
VERTEX
  8
PLAN_1
 62
     2
  6
CONTINUOUS
 10
-0.280106
 20
0.439091
  0
VERTEX
  8
PLAN_1
 62
     2
  6
CONTINUOUS
 10
-0.278756
 20
0.442248
  0
VERTEX
  8
PLAN_1
 62
     2
  6
CONTINUOUS
 10
-0.277402
 20
0.445406
  0
VERTEX
  8
PLAN_1
 62
     2
  6
CONTINUOUS
 10
-0.276949
 20
0.449465
  0
VERTEX
  8
PLAN_1
 62
     2
  6
CONTINUOUS
 10
-0.276500
 20
0.453976
  0
VERTEX
  8
PLAN_1
 62
     2
  6
CONTINUOUS
 10
-0.276500
 20
0.456681
  0
VERTEX
  8
PLAN_1
 62
     2
  6
CONTINUOUS
 10
-0.276949
 20
0.459839
  0
VERTEX
  8
PLAN_1
 62
     2
  6
CONTINUOUS
 10
-0.277854
 20
0.463449
  0
VERTEX
  8
PLAN_1
 62
     2
  6
CONTINUOUS
 10
-0.278756
 20
0.466606
  0
VERTEX
  8
PLAN_1
 62
     2
  6
CONTINUOUS
 10
-0.279657
 20
0.468409
  0
VERTEX
  8
PLAN_1
 62
     2
  6
CONTINUOUS
 10
-0.280559
 20
0.469764
  0
VERTEX
  8
PLAN_1
 62
     2
  6
CONTINUOUS
 10
-0.281913
 20
0.471114
  0
VERTEX
  8
PLAN_1
 62
     2
  6
CONTINUOUS
 10
-0.283264
 20
0.472016
  0
VERTEX
  8
PLAN_1
 62
     2
  6
CONTINUOUS
 10
-0.285071
 20
0.472921
  0
VERTEX
  8
PLAN_1
 62
     2
  6
CONTINUOUS
 10
-0.286874
 20
0.473823
  0
VERTEX
  8
PLAN_1
 62
     2
  6
CONTINUOUS
 10
-0.289130
 20
0.474272
  0
VERTEX
  8
PLAN_1
 62
     2
  6
CONTINUOUS
 10
-0.291386
 20
0.474272
  0
VERTEX
  8
PLAN_1
 62
     2
  6
CONTINUOUS
 10
-0.294091
 20
0.474272
  0
VERTEX
  8
PLAN_1
 62
     2
  6
CONTINUOUS
 10
-0.295894
 20
0.473823
  0
VERTEX
  8
PLAN_1
 62
     2
  6
CONTINUOUS
 10
-0.297701
 20
0.472921
  0
VERTEX
  8
PLAN_1
 62
     2
  6
CONTINUOUS
 10
-0.299504
 20
0.472016
  0
VERTEX
  8
PLAN_1
 62
     2
  6
CONTINUOUS
 10
-0.300858
 20
0.470665
  0
VERTEX
  8
PLAN_1
 62
     2
  6
CONTINUOUS
 10
-0.302209
 20
0.469311
  0
VERTEX
  8
PLAN_1
 62
     2
  6
CONTINUOUS
 10
-0.303110
 20
0.467957
  0
VERTEX
  8
PLAN_1
 62
     2
  6
CONTINUOUS
 10
-0.304016
 20
0.466154
  0
VERTEX
  8
PLAN_1
 62
     2
  6
CONTINUOUS
 10
-0.304917
 20
0.462547
  0
VERTEX
  8
PLAN_1
 62
     2
  6
CONTINUOUS
 10
-0.305819
 20
0.458484
  0
VERTEX
  8
PLAN_1
 62
     2
  6
CONTINUOUS
 10
-0.306268
 20
0.454878
  0
VERTEX
  8
PLAN_1
 62
     2
  6
CONTINUOUS
 10
-0.306268
 20
0.451268
  0
VERTEX
  8
PLAN_1
 62
     2
  6
CONTINUOUS
 10
-0.305819
 20
0.446307
  0
VERTEX
  8
PLAN_1
 62
     2
  6
CONTINUOUS
 10
-0.304917
 20
0.442248
  0
VERTEX
  8
PLAN_1
 62
     2
  6
CONTINUOUS
 10
-0.303110
 20
0.439091
  0
VERTEX
  8
PLAN_1
 62
     2
  6
CONTINUOUS
 10
-0.300858
 20
0.436835
  0
VERTEX
  8
PLAN_1
 62
     2
  6
CONTINUOUS
 10
-0.298602
 20
0.435031
  0
VERTEX
  8
PLAN_1
 62
     2
  6
CONTINUOUS
 10
-0.295894
 20
0.433677
  0
VERTEX
  8
PLAN_1
 62
     2
  6
CONTINUOUS
 10
-0.293642
 20
0.433224
  0
VERTEX
  8
PLAN_1
 62
     2
  6
CONTINUOUS
 10
-0.291386
 20
0.432776
  0
SEQEND
  8
0
  0
POLYLINE
  8
PLAN_1
 62
     2
  6
CONTINUOUS
 66
     1
 40
0.003000
 41
0.003000
  0
VERTEX
  8
PLAN_1
 62
     2
  6
CONTINUOUS
 10
-0.210193
 20
0.443602
  0
VERTEX
  8
PLAN_1
 62
     2
  6
CONTINUOUS
 10
-0.210193
 20
0.442248
  0
VERTEX
  8
PLAN_1
 62
     2
  6
CONTINUOUS
 10
-0.210646
 20
0.440894
  0
VERTEX
  8
PLAN_1
 62
     2
  6
CONTINUOUS
 10
-0.211547
 20
0.439091
  0
VERTEX
  8
PLAN_1
 62
     2
  6
CONTINUOUS
 10
-0.212449
 20
0.436835
  0
VERTEX
  8
PLAN_1
 62
     2
  6
CONTINUOUS
 10
-0.213803
 20
0.434579
  0
VERTEX
  8
PLAN_1
 62
     2
  6
CONTINUOUS
 10
-0.215606
 20
0.432776
  0
VERTEX
  8
PLAN_1
 62
     2
  6
CONTINUOUS
 10
-0.217409
 20
0.430520
  0
VERTEX
  8
PLAN_1
 62
     2
  6
CONTINUOUS
 10
-0.219665
 20
0.428717
  0
VERTEX
  8
PLAN_1
 62
     2
  6
CONTINUOUS
 10
-0.221020
 20
0.428264
  0
VERTEX
  8
PLAN_1
 62
     2
  6
CONTINUOUS
 10
-0.221921
 20
0.427362
  0
VERTEX
  8
PLAN_1
 62
     2
  6
CONTINUOUS
 10
-0.223276
 20
0.426913
  0
VERTEX
  8
PLAN_1
 62
     2
  6
CONTINUOUS
 10
-0.224626
 20
0.426461
  0
VERTEX
  8
PLAN_1
 62
     2
  6
CONTINUOUS
 10
-0.226882
 20
0.425559
  0
VERTEX
  8
PLAN_1
 62
     2
  6
CONTINUOUS
 10
-0.229138
 20
0.425559
  0
VERTEX
  8
PLAN_1
 62
     2
  6
CONTINUOUS
 10
-0.231394
 20
0.425106
  0
VERTEX
  8
PLAN_1
 62
     2
  6
CONTINUOUS
 10
-0.234551
 20
0.425106
  0
VERTEX
  8
PLAN_1
 62
     2
  6
CONTINUOUS
 10
-0.237256
 20
0.425106
  0
VERTEX
  8
PLAN_1
 62
     2
  6
CONTINUOUS
 10
-0.239965
 20
0.425559
  0
VERTEX
  8
PLAN_1
 62
     2
  6
CONTINUOUS
 10
-0.242669
 20
0.426008
  0
VERTEX
  8
PLAN_1
 62
     2
  6
CONTINUOUS
 10
-0.244925
 20
0.426913
  0
VERTEX
  8
PLAN_1
 62
     2
  6
CONTINUOUS
 10
-0.247181
 20
0.428264
  0
VERTEX
  8
PLAN_1
 62
     2
  6
CONTINUOUS
 10
-0.248984
 20
0.429618
  0
VERTEX
  8
PLAN_1
 62
     2
  6
CONTINUOUS
 10
-0.250787
 20
0.430972
  0
VERTEX
  8
PLAN_1
 62
     2
  6
CONTINUOUS
 10
-0.252594
 20
0.432776
  0
VERTEX
  8
PLAN_1
 62
     2
  6
CONTINUOUS
 10
-0.253945
 20
0.434579
  0
VERTEX
  8
PLAN_1
 62
     2
  6
CONTINUOUS
 10
-0.255299
 20
0.436835
  0
VERTEX
  8
PLAN_1
 62
     2
  6
CONTINUOUS
 10
-0.256201
 20
0.439091
  0
VERTEX
  8
PLAN_1
 62
     2
  6
CONTINUOUS
 10
-0.257102
 20
0.441346
  0
VERTEX
  8
PLAN_1
 62
     2
  6
CONTINUOUS
 10
-0.258457
 20
0.446760
  0
VERTEX
  8
PLAN_1
 62
     2
  6
CONTINUOUS
 10
-0.258909
 20
0.452169
  0
VERTEX
  8
PLAN_1
 62
     2
  6
CONTINUOUS
 10
-0.258457
 20
0.458484
  0
VERTEX
  8
PLAN_1
 62
     2
  6
CONTINUOUS
 10
-0.257555
 20
0.463898
  0
VERTEX
  8
PLAN_1
 62
     2
  6
CONTINUOUS
 10
-0.256654
 20
0.466606
  0
VERTEX
  8
PLAN_1
 62
     2
  6
CONTINUOUS
 10
-0.255299
 20
0.469311
  0
VERTEX
  8
PLAN_1
 62
     2
  6
CONTINUOUS
 10
-0.253945
 20
0.471567
  0
VERTEX
  8
PLAN_1
 62
     2
  6
CONTINUOUS
 10
-0.252594
 20
0.473823
  0
VERTEX
  8
PLAN_1
 62
     2
  6
CONTINUOUS
 10
-0.250787
 20
0.475626
  0
VERTEX
  8
PLAN_1
 62
     2
  6
CONTINUOUS
 10
-0.248984
 20
0.477429
  0
VERTEX
  8
PLAN_1
 62
     2
  6
CONTINUOUS
 10
-0.246728
 20
0.478783
  0
VERTEX
  8
PLAN_1
 62
     2
  6
CONTINUOUS
 10
-0.244472
 20
0.480138
  0
VERTEX
  8
PLAN_1
 62
     2
  6
CONTINUOUS
 10
-0.241768
 20
0.481039
  0
VERTEX
  8
PLAN_1
 62
     2
  6
CONTINUOUS
 10
-0.239063
 20
0.481941
  0
VERTEX
  8
PLAN_1
 62
     2
  6
CONTINUOUS
 10
-0.235906
 20
0.482394
  0
VERTEX
  8
PLAN_1
 62
     2
  6
CONTINUOUS
 10
-0.232748
 20
0.482394
  0
VERTEX
  8
PLAN_1
 62
     2
  6
CONTINUOUS
 10
-0.230039
 20
0.482394
  0
VERTEX
  8
PLAN_1
 62
     2
  6
CONTINUOUS
 10
-0.227335
 20
0.481941
  0
VERTEX
  8
PLAN_1
 62
     2
  6
CONTINUOUS
 10
-0.224626
 20
0.481039
  0
VERTEX
  8
PLAN_1
 62
     2
  6
CONTINUOUS
 10
-0.222370
 20
0.480138
  0
VERTEX
  8
PLAN_1
 62
     2
  6
CONTINUOUS
 10
-0.220567
 20
0.479236
  0
VERTEX
  8
PLAN_1
 62
     2
  6
CONTINUOUS
 10
-0.218311
 20
0.477429
  0
VERTEX
  8
PLAN_1
 62
     2
  6
CONTINUOUS
 10
-0.216961
 20
0.476079
  0
VERTEX
  8
PLAN_1
 62
     2
  6
CONTINUOUS
 10
-0.215154
 20
0.473823
  0
VERTEX
  8
PLAN_1
 62
     2
  6
CONTINUOUS
 10
-0.213803
 20
0.471567
  0
VERTEX
  8
PLAN_1
 62
     2
  6
CONTINUOUS
 10
-0.212449
 20
0.469311
  0
VERTEX
  8
PLAN_1
 62
     2
  6
CONTINUOUS
 10
-0.211547
 20
0.466606
  0
VERTEX
  8
PLAN_1
 62
     2
  6
CONTINUOUS
 10
-0.210646
 20
0.463898
  0
VERTEX
  8
PLAN_1
 62
     2
  6
CONTINUOUS
 10
-0.209744
 20
0.457583
  0
VERTEX
  8
PLAN_1
 62
     2
  6
CONTINUOUS
 10
-0.209291
 20
0.450819
  0
VERTEX
  8
PLAN_1
 62
     2
  6
CONTINUOUS
 10
-0.248984
 20
0.450819
  0
VERTEX
  8
PLAN_1
 62
     2
  6
CONTINUOUS
 10
-0.248984
 20
0.446760
  0
VERTEX
  8
PLAN_1
 62
     2
  6
CONTINUOUS
 10
-0.248083
 20
0.443150
  0
VERTEX
  8
PLAN_1
 62
     2
  6
CONTINUOUS
 10
-0.246728
 20
0.439992
  0
VERTEX
  8
PLAN_1
 62
     2
  6
CONTINUOUS
 10
-0.245378
 20
0.437736
  0
VERTEX
  8
PLAN_1
 62
     2
  6
CONTINUOUS
 10
-0.243122
 20
0.435480
  0
VERTEX
  8
PLAN_1
 62
     2
  6
CONTINUOUS
 10
-0.240413
 20
0.434130
  0
VERTEX
  8
PLAN_1
 62
     2
  6
CONTINUOUS
 10
-0.236807
 20
0.433224
  0
VERTEX
  8
PLAN_1
 62
     2
  6
CONTINUOUS
 10
-0.233197
 20
0.432776
  0
VERTEX
  8
PLAN_1
 62
     2
  6
CONTINUOUS
 10
-0.230039
 20
0.433224
  0
VERTEX
  8
PLAN_1
 62
     2
  6
CONTINUOUS
 10
-0.227335
 20
0.434130
  0
VERTEX
  8
PLAN_1
 62
     2
  6
CONTINUOUS
 10
-0.225079
 20
0.435031
  0
VERTEX
  8
PLAN_1
 62
     2
  6
CONTINUOUS
 10
-0.223276
 20
0.436835
  0
VERTEX
  8
PLAN_1
 62
     2
  6
CONTINUOUS
 10
-0.221469
 20
0.438638
  0
VERTEX
  8
PLAN_1
 62
     2
  6
CONTINUOUS
 10
-0.220567
 20
0.440445
  0
VERTEX
  8
PLAN_1
 62
     2
  6
CONTINUOUS
 10
-0.219665
 20
0.441795
  0
VERTEX
  8
PLAN_1
 62
     2
  6
CONTINUOUS
 10
-0.219213
 20
0.443602
  0
VERTEX
  8
PLAN_1
 62
     2
  6
CONTINUOUS
 10
-0.210193
 20
0.443602
  0
SEQEND
  8
0
  0
POLYLINE
  8
PLAN_1
 62
     2
  6
CONTINUOUS
 66
     1
 40
0.003000
 41
0.003000
  0
VERTEX
  8
PLAN_1
 62
     2
  6
CONTINUOUS
 10
-0.218764
 20
0.458035
  0
VERTEX
  8
PLAN_1
 62
     2
  6
CONTINUOUS
 10
-0.219213
 20
0.461193
  0
VERTEX
  8
PLAN_1
 62
     2
  6
CONTINUOUS
 10
-0.220118
 20
0.464350
  0
VERTEX
  8
PLAN_1
 62
     2
  6
CONTINUOUS
 10
-0.221020
 20
0.467055
  0
VERTEX
  8
PLAN_1
 62
     2
  6
CONTINUOUS
 10
-0.222370
 20
0.469311
  0
VERTEX
  8
PLAN_1
 62
     2
  6
CONTINUOUS
 10
-0.224626
 20
0.471567
  0
VERTEX
  8
PLAN_1
 62
     2
  6
CONTINUOUS
 10
-0.226882
 20
0.472921
  0
VERTEX
  8
PLAN_1
 62
     2
  6
CONTINUOUS
 10
-0.230039
 20
0.473823
  0
VERTEX
  8
PLAN_1
 62
     2
  6
CONTINUOUS
 10
-0.234098
 20
0.474272
  0
VERTEX
  8
PLAN_1
 62
     2
  6
CONTINUOUS
 10
-0.237256
 20
0.473823
  0
VERTEX
  8
PLAN_1
 62
     2
  6
CONTINUOUS
 10
-0.239965
 20
0.472921
  0
VERTEX
  8
PLAN_1
 62
     2
  6
CONTINUOUS
 10
-0.242669
 20
0.471567
  0
VERTEX
  8
PLAN_1
 62
     2
  6
CONTINUOUS
 10
-0.244925
 20
0.469311
  0
VERTEX
  8
PLAN_1
 62
     2
  6
CONTINUOUS
 10
-0.246728
 20
0.467055
  0
VERTEX
  8
PLAN_1
 62
     2
  6
CONTINUOUS
 10
-0.248083
 20
0.464350
  0
VERTEX
  8
PLAN_1
 62
     2
  6
CONTINUOUS
 10
-0.248984
 20
0.461193
  0
VERTEX
  8
PLAN_1
 62
     2
  6
CONTINUOUS
 10
-0.248984
 20
0.458035
  0
VERTEX
  8
PLAN_1
 62
     2
  6
CONTINUOUS
 10
-0.218764
 20
0.458035
  0
SEQEND
  8
0
  0
POLYLINE
  8
PLAN_1
 62
     2
  6
CONTINUOUS
 66
     1
 40
0.003000
 41
0.003000
  0
VERTEX
  8
PLAN_1
 62
     2
  6
CONTINUOUS
 10
-0.138925
 20
0.426461
  0
VERTEX
  8
PLAN_1
 62
     2
  6
CONTINUOUS
 10
-0.148850
 20
0.426461
  0
VERTEX
  8
PLAN_1
 62
     2
  6
CONTINUOUS
 10
-0.148850
 20
0.478331
  0
VERTEX
  8
PLAN_1
 62
     2
  6
CONTINUOUS
 10
-0.165539
 20
0.478331
  0
VERTEX
  8
PLAN_1
 62
     2
  6
CONTINUOUS
 10
-0.165539
 20
0.485551
  0
VERTEX
  8
PLAN_1
 62
     2
  6
CONTINUOUS
 10
-0.161480
 20
0.486000
  0
VERTEX
  8
PLAN_1
 62
     2
  6
CONTINUOUS
 10
-0.157870
 20
0.486453
  0
VERTEX
  8
PLAN_1
 62
     2
  6
CONTINUOUS
 10
-0.155165
 20
0.487354
  0
VERTEX
  8
PLAN_1
 62
     2
  6
CONTINUOUS
 10
-0.152457
 20
0.488709
  0
VERTEX
  8
PLAN_1
 62
     2
  6
CONTINUOUS
 10
-0.150654
 20
0.490059
  0
VERTEX
  8
PLAN_1
 62
     2
  6
CONTINUOUS
 10
-0.148850
 20
0.492768
  0
VERTEX
  8
PLAN_1
 62
     2
  6
CONTINUOUS
 10
-0.147043
 20
0.495925
  0
VERTEX
  8
PLAN_1
 62
     2
  6
CONTINUOUS
 10
-0.146142
 20
0.499531
  0
VERTEX
  8
PLAN_1
 62
     2
  6
CONTINUOUS
 10
-0.138925
 20
0.499531
  0
VERTEX
  8
PLAN_1
 62
     2
  6
CONTINUOUS
 10
-0.138925
 20
0.426461
  0
SEQEND
  8
0
  0
POLYLINE
  8
PLAN_1
 62
     2
  6
CONTINUOUS
 66
     1
 40
0.003000
 41
0.003000
  0
VERTEX
  8
PLAN_1
 62
     2
  6
CONTINUOUS
 10
-0.081189
 20
0.426461
  0
VERTEX
  8
PLAN_1
 62
     2
  6
CONTINUOUS
 10
-0.090661
 20
0.426461
  0
VERTEX
  8
PLAN_1
 62
     2
  6
CONTINUOUS
 10
-0.090661
 20
0.478331
  0
VERTEX
  8
PLAN_1
 62
     2
  6
CONTINUOUS
 10
-0.107803
 20
0.478331
  0
VERTEX
  8
PLAN_1
 62
     2
  6
CONTINUOUS
 10
-0.107803
 20
0.485551
  0
VERTEX
  8
PLAN_1
 62
     2
  6
CONTINUOUS
 10
-0.103744
 20
0.486000
  0
VERTEX
  8
PLAN_1
 62
     2
  6
CONTINUOUS
 10
-0.100134
 20
0.486453
  0
VERTEX
  8
PLAN_1
 62
     2
  6
CONTINUOUS
 10
-0.096976
 20
0.487354
  0
VERTEX
  8
PLAN_1
 62
     2
  6
CONTINUOUS
 10
-0.094720
 20
0.488709
  0
VERTEX
  8
PLAN_1
 62
     2
  6
CONTINUOUS
 10
-0.092465
 20
0.490059
  0
VERTEX
  8
PLAN_1
 62
     2
  6
CONTINUOUS
 10
-0.090661
 20
0.492768
  0
VERTEX
  8
PLAN_1
 62
     2
  6
CONTINUOUS
 10
-0.089307
 20
0.495925
  0
VERTEX
  8
PLAN_1
 62
     2
  6
CONTINUOUS
 10
-0.087957
 20
0.499531
  0
VERTEX
  8
PLAN_1
 62
     2
  6
CONTINUOUS
 10
-0.081189
 20
0.499531
  0
VERTEX
  8
PLAN_1
 62
     2
  6
CONTINUOUS
 10
-0.081189
 20
0.426461
  0
SEQEND
  8
0
  0
SOLID
  8
PLAN_1
 62
     2
 10
-1.597661
 20
0.699354
 11
-1.543984
 21
0.670035
 12
-1.597661
 22
0.699354
 13
-1.536768
 23
0.700705
  0
POLYLINE
  8
PLAN_1
 62
     2
  6
CONTINUOUS
 66
     1
 40
0.003000
 41
0.003000
  0
VERTEX
  8
PLAN_1
 62
     2
  6
CONTINUOUS
 10
-1.597661
 20
0.699354
  0
VERTEX
  8
PLAN_1
 62
     2
  6
CONTINUOUS
 10
-1.543984
 20
0.670035
  0
VERTEX
  8
PLAN_1
 62
     2
  6
CONTINUOUS
 10
-1.536768
 20
0.700705
  0
VERTEX
  8
PLAN_1
 62
     2
  6
CONTINUOUS
 10
-1.597661
 20
0.699354
  0
SEQEND
  8
0
  0
POLYLINE
  8
PLAN_1
 62
     2
  6
CONTINUOUS
 66
     1
 40
0.004059
 41
0.004059
  0
VERTEX
  8
PLAN_1
 62
     2
  6
CONTINUOUS
 10
-1.561575
 20
0.690331
  0
VERTEX
  8
PLAN_1
 62
     2
  6
CONTINUOUS
 10
-0.921969
 20
0.527949
  0
VERTEX
  8
PLAN_1
 62
     2
  6
CONTINUOUS
 10
0.103748
 20
0.527949
  0
SEQEND
  8
0
  0
POLYLINE
  8
PLAN_1
 62
     2
  6
CONTINUOUS
 66
     1
 40
0.004059
 41
0.004059
  0
VERTEX
  8
PLAN_1
 62
     2
  6
CONTINUOUS
 10
-1.087059
 20
0.391276
  0
VERTEX
  8
PLAN_1
 62
     2
  6
CONTINUOUS
 10
-1.087059
 20
0.546894
  0
SEQEND
  8
0
  0
POLYLINE
  8
PLAN_1
 62
     2
  6
CONTINUOUS
 66
     1
 40
0.004059
 41
0.004059
  0
VERTEX
  8
PLAN_1
 62
     2
  6
CONTINUOUS
 10
-1.087059
 20
0.594256
  0
VERTEX
  8
PLAN_1
 62
     2
  6
CONTINUOUS
 10
-1.087059
 20
0.741752
  0
SEQEND
  8
0
  0
POLYLINE
  8
PLAN_1
  6
CONTINUOUS
 66
     1
 40
0.004059
 41
0.004059
  0
VERTEX
  8
PLAN_1
  6
CONTINUOUS
 10
-1.124949
 20
0.703862
  0
VERTEX
  8
PLAN_1
  6
CONTINUOUS
 10
-1.110965
 20
0.703862
  0
SEQEND
  8
0
  0
POLYLINE
  8
PLAN_1
  6
CONTINUOUS
 66
     1
 40
0.004059
 41
0.004059
  0
VERTEX
  8
PLAN_1
  6
CONTINUOUS
 10
-1.064055
 20
0.703862
  0
VERTEX
  8
PLAN_1
  6
CONTINUOUS
 10
-0.906181
 20
0.703862
  0
SEQEND
  8
0
  0
POLYLINE
  8
PLAN_1
 62
     2
  6
CONTINUOUS
 66
     1
 40
0.003000
 41
0.003000
  0
VERTEX
  8
PLAN_1
 62
     2
  6
CONTINUOUS
 10
-1.007220
 20
2.140949
  0
VERTEX
  8
PLAN_1
 62
     2
  6
CONTINUOUS
 10
-1.009476
 20
2.140047
  0
VERTEX
  8
PLAN_1
 62
     2
  6
CONTINUOUS
 10
-1.011732
 20
2.139594
  0
VERTEX
  8
PLAN_1
 62
     2
  6
CONTINUOUS
 10
-1.013535
 20
2.138244
  0
VERTEX
  8
PLAN_1
 62
     2
  6
CONTINUOUS
 10
-1.015339
 20
2.136890
  0
VERTEX
  8
PLAN_1
 62
     2
  6
CONTINUOUS
 10
-1.016693
 20
2.135087
  0
VERTEX
  8
PLAN_1
 62
     2
  6
CONTINUOUS
 10
-1.017594
 20
2.133280
  0
VERTEX
  8
PLAN_1
 62
     2
  6
CONTINUOUS
 10
-1.018496
 20
2.131028
  0
VERTEX
  8
PLAN_1
 62
     2
  6
CONTINUOUS
 10
-1.018496
 20
2.128319
  0
VERTEX
  8
PLAN_1
 62
     2
  6
CONTINUOUS
 10
-1.018496
 20
2.125614
  0
VERTEX
  8
PLAN_1
 62
     2
  6
CONTINUOUS
 10
-1.017594
 20
2.123358
  0
VERTEX
  8
PLAN_1
 62
     2
  6
CONTINUOUS
 10
-1.016693
 20
2.121102
  0
VERTEX
  8
PLAN_1
 62
     2
  6
CONTINUOUS
 10
-1.015339
 20
2.119299
  0
VERTEX
  8
PLAN_1
 62
     2
  6
CONTINUOUS
 10
-1.013988
 20
2.117945
  0
VERTEX
  8
PLAN_1
 62
     2
  6
CONTINUOUS
 10
-1.012181
 20
2.116142
  0
VERTEX
  8
PLAN_1
 62
     2
  6
CONTINUOUS
 10
-1.009925
 20
2.115240
  0
VERTEX
  8
PLAN_1
 62
     2
  6
CONTINUOUS
 10
-1.007673
 20
2.113886
  0
VERTEX
  8
PLAN_1
 62
     2
  6
CONTINUOUS
 10
-1.003614
 20
2.112531
  0
VERTEX
  8
PLAN_1
 62
     2
  6
CONTINUOUS
 10
-0.999102
 20
2.111630
  0
VERTEX
  8
PLAN_1
 62
     2
  6
CONTINUOUS
 10
-0.995043
 20
2.110728
  0
VERTEX
  8
PLAN_1
 62
     2
  6
CONTINUOUS
 10
-0.991433
 20
2.110728
  0
VERTEX
  8
PLAN_1
 62
     2
  6
CONTINUOUS
 10
-0.991433
 20
2.111177
  0
VERTEX
  8
PLAN_1
 62
     2
  6
CONTINUOUS
 10
-0.992787
 20
2.112083
  0
VERTEX
  8
PLAN_1
 62
     2
  6
CONTINUOUS
 10
-0.994142
 20
2.113433
  0
VERTEX
  8
PLAN_1
 62
     2
  6
CONTINUOUS
 10
-0.995945
 20
2.114787
  0
VERTEX
  8
PLAN_1
 62
     2
  6
CONTINUOUS
 10
-0.997299
 20
2.116591
  0
VERTEX
  8
PLAN_1
 62
     2
  6
CONTINUOUS
 10
-0.998201
 20
2.119299
  0
VERTEX
  8
PLAN_1
 62
     2
  6
CONTINUOUS
 10
-0.999551
 20
2.121555
  0
VERTEX
  8
PLAN_1
 62
     2
  6
CONTINUOUS
 10
-1.000004
 20
2.124713
  0
VERTEX
  8
PLAN_1
 62
     2
  6
CONTINUOUS
 10
-1.000004
 20
2.128319
  0
VERTEX
  8
PLAN_1
 62
     2
  6
CONTINUOUS
 10
-1.000004
 20
2.131929
  0
VERTEX
  8
PLAN_1
 62
     2
  6
CONTINUOUS
 10
-0.999102
 20
2.135535
  0
VERTEX
  8
PLAN_1
 62
     2
  6
CONTINUOUS
 10
-0.997299
 20
2.139594
  0
VERTEX
  8
PLAN_1
 62
     2
  6
CONTINUOUS
 10
-0.995043
 20
2.143205
  0
VERTEX
  8
PLAN_1
 62
     2
  6
CONTINUOUS
 10
-0.993689
 20
2.145008
  0
VERTEX
  8
PLAN_1
 62
     2
  6
CONTINUOUS
 10
-0.991886
 20
2.146362
  0
VERTEX
  8
PLAN_1
 62
     2
  6
CONTINUOUS
 10
-0.990079
 20
2.147717
  0
VERTEX
  8
PLAN_1
 62
     2
  6
CONTINUOUS
 10
-0.987827
 20
2.149067
  0
VERTEX
  8
PLAN_1
 62
     2
  6
CONTINUOUS
 10
-0.985571
 20
2.149969
  0
VERTEX
  8
PLAN_1
 62
     2
  6
CONTINUOUS
 10
-0.982862
 20
2.150421
  0
VERTEX
  8
PLAN_1
 62
     2
  6
CONTINUOUS
 10
-0.980157
 20
2.151323
  0
VERTEX
  8
PLAN_1
 62
     2
  6
CONTINUOUS
 10
-0.977000
 20
2.151323
  0
VERTEX
  8
PLAN_1
 62
     2
  6
CONTINUOUS
 10
-0.974291
 20
2.151323
  0
VERTEX
  8
PLAN_1
 62
     2
  6
CONTINUOUS
 10
-0.971587
 20
2.150874
  0
VERTEX
  8
PLAN_1
 62
     2
  6
CONTINUOUS
 10
-0.969331
 20
2.150421
  0
VERTEX
  8
PLAN_1
 62
     2
  6
CONTINUOUS
 10
-0.967075
 20
2.149520
  0
VERTEX
  8
PLAN_1
 62
     2
  6
CONTINUOUS
 10
-0.964819
 20
2.148618
  0
VERTEX
  8
PLAN_1
 62
     2
  6
CONTINUOUS
 10
-0.962567
 20
2.147264
  0
VERTEX
  8
PLAN_1
 62
     2
  6
CONTINUOUS
 10
-0.960760
 20
2.145909
  0
VERTEX
  8
PLAN_1
 62
     2
  6
CONTINUOUS
 10
-0.958508
 20
2.144106
  0
VERTEX
  8
PLAN_1
 62
     2
  6
CONTINUOUS
 10
-0.957154
 20
2.142752
  0
VERTEX
  8
PLAN_1
 62
     2
  6
CONTINUOUS
 10
-0.955799
 20
2.141402
  0
VERTEX
  8
PLAN_1
 62
     2
  6
CONTINUOUS
 10
-0.954445
 20
2.139594
  0
VERTEX
  8
PLAN_1
 62
     2
  6
CONTINUOUS
 10
-0.953543
 20
2.137339
  0
VERTEX
  8
PLAN_1
 62
     2
  6
CONTINUOUS
 10
-0.952642
 20
2.135087
  0
VERTEX
  8
PLAN_1
 62
     2
  6
CONTINUOUS
 10
-0.952193
 20
2.132378
  0
VERTEX
  8
PLAN_1
 62
     2
  6
CONTINUOUS
 10
-0.951740
 20
2.129220
  0
VERTEX
  8
PLAN_1
 62
     2
  6
CONTINUOUS
 10
-0.951740
 20
2.125614
  0
VERTEX
  8
PLAN_1
 62
     2
  6
CONTINUOUS
 10
-0.951740
 20
2.123358
  0
VERTEX
  8
PLAN_1
 62
     2
  6
CONTINUOUS
 10
-0.952193
 20
2.121102
  0
VERTEX
  8
PLAN_1
 62
     2
  6
CONTINUOUS
 10
-0.952642
 20
2.118846
  0
VERTEX
  8
PLAN_1
 62
     2
  6
CONTINUOUS
 10
-0.953996
 20
2.116142
  0
VERTEX
  8
PLAN_1
 62
     2
  6
CONTINUOUS
 10
-0.955350
 20
2.113886
  0
VERTEX
  8
PLAN_1
 62
     2
  6
CONTINUOUS
 10
-0.957154
 20
2.111177
  0
VERTEX
  8
PLAN_1
 62
     2
  6
CONTINUOUS
 10
-0.959409
 20
2.108925
  0
VERTEX
  8
PLAN_1
 62
     2
  6
CONTINUOUS
 10
-0.962114
 20
2.107118
  0
VERTEX
  8
PLAN_1
 62
     2
  6
CONTINUOUS
 10
-0.964819
 20
2.105315
  0
VERTEX
  8
PLAN_1
 62
     2
  6
CONTINUOUS
 10
-0.967528
 20
2.104413
  0
VERTEX
  8
PLAN_1
 62
     2
  6
CONTINUOUS
 10
-0.970685
 20
2.103059
  0
VERTEX
  8
PLAN_1
 62
     2
  6
CONTINUOUS
 10
-0.973843
 20
2.102610
  0
VERTEX
  8
PLAN_1
 62
     2
  6
CONTINUOUS
 10
-0.977000
 20
2.102157
  0
VERTEX
  8
PLAN_1
 62
     2
  6
CONTINUOUS
 10
-0.980606
 20
2.101705
  0
VERTEX
  8
PLAN_1
 62
     2
  6
CONTINUOUS
 10
-0.984217
 20
2.101256
  0
VERTEX
  8
PLAN_1
 62
     2
  6
CONTINUOUS
 10
-0.987374
 20
2.101256
  0
VERTEX
  8
PLAN_1
 62
     2
  6
CONTINUOUS
 10
-0.993689
 20
2.101705
  0
VERTEX
  8
PLAN_1
 62
     2
  6
CONTINUOUS
 10
-1.000457
 20
2.102610
  0
VERTEX
  8
PLAN_1
 62
     2
  6
CONTINUOUS
 10
-1.003614
 20
2.103059
  0
VERTEX
  8
PLAN_1
 62
     2
  6
CONTINUOUS
 10
-1.007220
 20
2.103961
  0
VERTEX
  8
PLAN_1
 62
     2
  6
CONTINUOUS
 10
-1.010378
 20
2.105315
  0
VERTEX
  8
PLAN_1
 62
     2
  6
CONTINUOUS
 10
-1.013083
 20
2.106669
  0
VERTEX
  8
PLAN_1
 62
     2
  6
CONTINUOUS
 10
-1.015791
 20
2.108472
  0
VERTEX
  8
PLAN_1
 62
     2
  6
CONTINUOUS
 10
-1.018496
 20
2.110276
  0
VERTEX
  8
PLAN_1
 62
     2
  6
CONTINUOUS
 10
-1.020752
 20
2.112531
  0
VERTEX
  8
PLAN_1
 62
     2
  6
CONTINUOUS
 10
-1.023008
 20
2.114787
  0
VERTEX
  8
PLAN_1
 62
     2
  6
CONTINUOUS
 10
-1.024362
 20
2.117945
  0
VERTEX
  8
PLAN_1
 62
     2
  6
CONTINUOUS
 10
-1.025713
 20
2.121102
  0
VERTEX
  8
PLAN_1
 62
     2
  6
CONTINUOUS
 10
-1.026618
 20
2.124260
  0
VERTEX
  8
PLAN_1
 62
     2
  6
CONTINUOUS
 10
-1.026618
 20
2.128319
  0
VERTEX
  8
PLAN_1
 62
     2
  6
CONTINUOUS
 10
-1.026618
 20
2.131476
  0
VERTEX
  8
PLAN_1
 62
     2
  6
CONTINUOUS
 10
-1.025713
 20
2.135087
  0
VERTEX
  8
PLAN_1
 62
     2
  6
CONTINUOUS
 10
-1.024362
 20
2.138693
  0
VERTEX
  8
PLAN_1
 62
     2
  6
CONTINUOUS
 10
-1.022555
 20
2.141850
  0
VERTEX
  8
PLAN_1
 62
     2
  6
CONTINUOUS
 10
-1.019850
 20
2.144559
  0
VERTEX
  8
PLAN_1
 62
     2
  6
CONTINUOUS
 10
-1.016693
 20
2.147264
  0
VERTEX
  8
PLAN_1
 62
     2
  6
CONTINUOUS
 10
-1.014437
 20
2.148165
  0
VERTEX
  8
PLAN_1
 62
     2
  6
CONTINUOUS
 10
-1.012181
 20
2.149067
  0
VERTEX
  8
PLAN_1
 62
     2
  6
CONTINUOUS
 10
-1.009925
 20
2.149520
  0
VERTEX
  8
PLAN_1
 62
     2
  6
CONTINUOUS
 10
-1.007220
 20
2.149520
  0
VERTEX
  8
PLAN_1
 62
     2
  6
CONTINUOUS
 10
-1.007220
 20
2.140949
  0
SEQEND
  8
0
  0
POLYLINE
  8
PLAN_1
 62
     2
  6
CONTINUOUS
 66
     1
 40
0.003000
 41
0.003000
  0
VERTEX
  8
PLAN_1
 62
     2
  6
CONTINUOUS
 10
-0.959858
 20
2.127417
  0
VERTEX
  8
PLAN_1
 62
     2
  6
CONTINUOUS
 10
-0.960311
 20
2.130575
  0
VERTEX
  8
PLAN_1
 62
     2
  6
CONTINUOUS
 10
-0.961213
 20
2.133280
  0
VERTEX
  8
PLAN_1
 62
     2
  6
CONTINUOUS
 10
-0.962567
 20
2.135988
  0
VERTEX
  8
PLAN_1
 62
     2
  6
CONTINUOUS
 10
-0.964370
 20
2.137791
  0
VERTEX
  8
PLAN_1
 62
     2
  6
CONTINUOUS
 10
-0.967075
 20
2.139594
  0
VERTEX
  8
PLAN_1
 62
     2
  6
CONTINUOUS
 10
-0.969783
 20
2.140949
  0
VERTEX
  8
PLAN_1
 62
     2
  6
CONTINUOUS
 10
-0.972941
 20
2.141402
  0
VERTEX
  8
PLAN_1
 62
     2
  6
CONTINUOUS
 10
-0.976547
 20
2.141850
  0
VERTEX
  8
PLAN_1
 62
     2
  6
CONTINUOUS
 10
-0.979256
 20
2.141402
  0
VERTEX
  8
PLAN_1
 62
     2
  6
CONTINUOUS
 10
-0.981512
 20
2.140949
  0
VERTEX
  8
PLAN_1
 62
     2
  6
CONTINUOUS
 10
-0.984217
 20
2.140047
  0
VERTEX
  8
PLAN_1
 62
     2
  6
CONTINUOUS
 10
-0.986472
 20
2.138693
  0
VERTEX
  8
PLAN_1
 62
     2
  6
CONTINUOUS
 10
-0.988728
 20
2.136890
  0
VERTEX
  8
PLAN_1
 62
     2
  6
CONTINUOUS
 10
-0.990531
 20
2.134181
  0
VERTEX
  8
PLAN_1
 62
     2
  6
CONTINUOUS
 10
-0.991433
 20
2.131028
  0
VERTEX
  8
PLAN_1
 62
     2
  6
CONTINUOUS
 10
-0.991886
 20
2.126965
  0
VERTEX
  8
PLAN_1
 62
     2
  6
CONTINUOUS
 10
-0.991433
 20
2.123358
  0
VERTEX
  8
PLAN_1
 62
     2
  6
CONTINUOUS
 10
-0.990531
 20
2.120201
  0
VERTEX
  8
PLAN_1
 62
     2
  6
CONTINUOUS
 10
-0.989177
 20
2.117945
  0
VERTEX
  8
PLAN_1
 62
     2
  6
CONTINUOUS
 10
-0.987374
 20
2.115689
  0
VERTEX
  8
PLAN_1
 62
     2
  6
CONTINUOUS
 10
-0.984669
 20
2.113886
  0
VERTEX
  8
PLAN_1
 62
     2
  6
CONTINUOUS
 10
-0.981961
 20
2.112984
  0
VERTEX
  8
PLAN_1
 62
     2
  6
CONTINUOUS
 10
-0.979256
 20
2.112083
  0
VERTEX
  8
PLAN_1
 62
     2
  6
CONTINUOUS
 10
-0.976098
 20
2.112083
  0
VERTEX
  8
PLAN_1
 62
     2
  6
CONTINUOUS
 10
-0.972941
 20
2.112083
  0
VERTEX
  8
PLAN_1
 62
     2
  6
CONTINUOUS
 10
-0.970232
 20
2.112984
  0
VERTEX
  8
PLAN_1
 62
     2
  6
CONTINUOUS
 10
-0.967528
 20
2.113886
  0
VERTEX
  8
PLAN_1
 62
     2
  6
CONTINUOUS
 10
-0.964819
 20
2.115689
  0
VERTEX
  8
PLAN_1
 62
     2
  6
CONTINUOUS
 10
-0.963016
 20
2.117945
  0
VERTEX
  8
PLAN_1
 62
     2
  6
CONTINUOUS
 10
-0.961213
 20
2.120650
  0
VERTEX
  8
PLAN_1
 62
     2
  6
CONTINUOUS
 10
-0.960311
 20
2.123807
  0
VERTEX
  8
PLAN_1
 62
     2
  6
CONTINUOUS
 10
-0.959858
 20
2.127417
  0
SEQEND
  8
0
  0
POLYLINE
  8
PLAN_1
 62
     2
  6
CONTINUOUS
 66
     1
 40
0.003000
 41
0.003000
  0
VERTEX
  8
PLAN_1
 62
     2
  6
CONTINUOUS
 10
-0.995043
 20
2.178386
  0
VERTEX
  8
PLAN_1
 62
     2
  6
CONTINUOUS
 10
-0.995043
 20
2.179287
  0
VERTEX
  8
PLAN_1
 62
     2
  6
CONTINUOUS
 10
-0.995043
 20
2.179740
  0
VERTEX
  8
PLAN_1
 62
     2
  6
CONTINUOUS
 10
-0.995043
 20
2.180193
  0
VERTEX
  8
PLAN_1
 62
     2
  6
CONTINUOUS
 10
-0.995043
 20
2.181094
  0
VERTEX
  8
PLAN_1
 62
     2
  6
CONTINUOUS
 10
-0.995043
 20
2.181543
  0
VERTEX
  8
PLAN_1
 62
     2
  6
CONTINUOUS
 10
-0.995043
 20
2.181996
  0
VERTEX
  8
PLAN_1
 62
     2
  6
CONTINUOUS
 10
-0.995043
 20
2.182898
  0
VERTEX
  8
PLAN_1
 62
     2
  6
CONTINUOUS
 10
-0.995043
 20
2.183350
  0
VERTEX
  8
PLAN_1
 62
     2
  6
CONTINUOUS
 10
-0.995043
 20
2.186055
  0
VERTEX
  8
PLAN_1
 62
     2
  6
CONTINUOUS
 10
-0.995492
 20
2.188311
  0
VERTEX
  8
PLAN_1
 62
     2
  6
CONTINUOUS
 10
-0.996394
 20
2.191016
  0
VERTEX
  8
PLAN_1
 62
     2
  6
CONTINUOUS
 10
-0.997748
 20
2.192823
  0
VERTEX
  8
PLAN_1
 62
     2
  6
CONTINUOUS
 10
-0.999102
 20
2.194626
  0
VERTEX
  8
PLAN_1
 62
     2
  6
CONTINUOUS
 10
-1.001358
 20
2.195980
  0
VERTEX
  8
PLAN_1
 62
     2
  6
CONTINUOUS
 10
-1.003614
 20
2.196882
  0
VERTEX
  8
PLAN_1
 62
     2
  6
CONTINUOUS
 10
-1.006768
 20
2.197331
  0
VERTEX
  8
PLAN_1
 62
     2
  6
CONTINUOUS
 10
-1.008575
 20
2.197331
  0
VERTEX
  8
PLAN_1
 62
     2
  6
CONTINUOUS
 10
-1.010378
 20
2.196882
  0
VERTEX
  8
PLAN_1
 62
     2
  6
CONTINUOUS
 10
-1.012634
 20
2.195980
  0
VERTEX
  8
PLAN_1
 62
     2
  6
CONTINUOUS
 10
-1.014437
 20
2.194626
  0
VERTEX
  8
PLAN_1
 62
     2
  6
CONTINUOUS
 10
-1.015791
 20
2.192823
  0
VERTEX
  8
PLAN_1
 62
     2
  6
CONTINUOUS
 10
-1.017146
 20
2.190567
  0
VERTEX
  8
PLAN_1
 62
     2
  6
CONTINUOUS
 10
-1.018047
 20
2.187409
  0
VERTEX
  8
PLAN_1
 62
     2
  6
CONTINUOUS
 10
-1.018496
 20
2.183799
  0
VERTEX
  8
PLAN_1
 62
     2
  6
CONTINUOUS
 10
-1.018496
 20
2.181543
  0
VERTEX
  8
PLAN_1
 62
     2
  6
CONTINUOUS
 10
-1.018047
 20
2.179287
  0
VERTEX
  8
PLAN_1
 62
     2
  6
CONTINUOUS
 10
-1.017594
 20
2.177484
  0
VERTEX
  8
PLAN_1
 62
     2
  6
CONTINUOUS
 10
-1.016693
 20
2.176130
  0
VERTEX
  8
PLAN_1
 62
     2
  6
CONTINUOUS
 10
-1.014890
 20
2.173425
  0
VERTEX
  8
PLAN_1
 62
     2
  6
CONTINUOUS
 10
-1.012634
 20
2.172071
  0
VERTEX
  8
PLAN_1
 62
     2
  6
CONTINUOUS
 10
-1.009925
 20
2.170720
  0
VERTEX
  8
PLAN_1
 62
     2
  6
CONTINUOUS
 10
-1.007220
 20
2.170268
  0
VERTEX
  8
PLAN_1
 62
     2
  6
CONTINUOUS
 10
-1.004965
 20
2.169819
  0
VERTEX
  8
PLAN_1
 62
     2
  6
CONTINUOUS
 10
-1.002709
 20
2.169366
  0
VERTEX
  8
PLAN_1
 62
     2
  6
CONTINUOUS
 10
-1.002709
 20
2.160795
  0
VERTEX
  8
PLAN_1
 62
     2
  6
CONTINUOUS
 10
-1.006768
 20
2.160795
  0
VERTEX
  8
PLAN_1
 62
     2
  6
CONTINUOUS
 10
-1.010831
 20
2.161697
  0
VERTEX
  8
PLAN_1
 62
     2
  6
CONTINUOUS
 10
-1.014890
 20
2.163051
  0
VERTEX
  8
PLAN_1
 62
     2
  6
CONTINUOUS
 10
-1.018949
 20
2.165307
  0
VERTEX
  8
PLAN_1
 62
     2
  6
CONTINUOUS
 10
-1.020303
 20
2.166661
  0
VERTEX
  8
PLAN_1
 62
     2
  6
CONTINUOUS
 10
-1.022106
 20
2.168465
  0
VERTEX
  8
PLAN_1
 62
     2
  6
CONTINUOUS
 10
-1.023461
 20
2.170268
  0
VERTEX
  8
PLAN_1
 62
     2
  6
CONTINUOUS
 10
-1.024362
 20
2.172524
  0
VERTEX
  8
PLAN_1
 62
     2
  6
CONTINUOUS
 10
-1.025264
 20
2.174780
  0
VERTEX
  8
PLAN_1
 62
     2
  6
CONTINUOUS
 10
-1.026165
 20
2.177484
  0
VERTEX
  8
PLAN_1
 62
     2
  6
CONTINUOUS
 10
-1.026618
 20
2.180642
  0
VERTEX
  8
PLAN_1
 62
     2
  6
CONTINUOUS
 10
-1.026618
 20
2.184252
  0
VERTEX
  8
PLAN_1
 62
     2
  6
CONTINUOUS
 10
-1.026165
 20
2.189213
  0
VERTEX
  8
PLAN_1
 62
     2
  6
CONTINUOUS
 10
-1.025264
 20
2.193724
  0
VERTEX
  8
PLAN_1
 62
     2
  6
CONTINUOUS
 10
-1.023461
 20
2.197331
  0
VERTEX
  8
PLAN_1
 62
     2
  6
CONTINUOUS
 10
-1.021205
 20
2.200941
  0
VERTEX
  8
PLAN_1
 62
     2
  6
CONTINUOUS
 10
-1.018496
 20
2.203197
  0
VERTEX
  8
PLAN_1
 62
     2
  6
CONTINUOUS
 10
-1.015339
 20
2.205000
  0
VERTEX
  8
PLAN_1
 62
     2
  6
CONTINUOUS
 10
-1.011280
 20
2.206354
  0
VERTEX
  8
PLAN_1
 62
     2
  6
CONTINUOUS
 10
-1.007673
 20
2.206803
  0
VERTEX
  8
PLAN_1
 62
     2
  6
CONTINUOUS
 10
-1.004063
 20
2.206354
  0
VERTEX
  8
PLAN_1
 62
     2
  6
CONTINUOUS
 10
-1.001358
 20
2.205902
  0
VERTEX
  8
PLAN_1
 62
     2
  6
CONTINUOUS
 10
-0.999102
 20
2.205000
  0
VERTEX
  8
PLAN_1
 62
     2
  6
CONTINUOUS
 10
-0.996846
 20
2.203646
  0
VERTEX
  8
PLAN_1
 62
     2
  6
CONTINUOUS
 10
-0.995043
 20
2.202295
  0
VERTEX
  8
PLAN_1
 62
     2
  6
CONTINUOUS
 10
-0.994142
 20
2.200488
  0
VERTEX
  8
PLAN_1
 62
     2
  6
CONTINUOUS
 10
-0.993236
 20
2.199138
  0
VERTEX
  8
PLAN_1
 62
     2
  6
CONTINUOUS
 10
-0.992335
 20
2.197331
  0
VERTEX
  8
PLAN_1
 62
     2
  6
CONTINUOUS
 10
-0.990984
 20
2.200039
  0
VERTEX
  8
PLAN_1
 62
     2
  6
CONTINUOUS
 10
-0.990079
 20
2.202295
  0
VERTEX
  8
PLAN_1
 62
     2
  6
CONTINUOUS
 10
-0.988276
 20
2.204547
  0
VERTEX
  8
PLAN_1
 62
     2
  6
CONTINUOUS
 10
-0.986472
 20
2.206354
  0
VERTEX
  8
PLAN_1
 62
     2
  6
CONTINUOUS
 10
-0.984217
 20
2.207705
  0
VERTEX
  8
PLAN_1
 62
     2
  6
CONTINUOUS
 10
-0.981512
 20
2.208610
  0
VERTEX
  8
PLAN_1
 62
     2
  6
CONTINUOUS
 10
-0.978354
 20
2.209512
  0
VERTEX
  8
PLAN_1
 62
     2
  6
CONTINUOUS
 10
-0.975197
 20
2.209512
  0
VERTEX
  8
PLAN_1
 62
     2
  6
CONTINUOUS
 10
-0.970685
 20
2.209059
  0
VERTEX
  8
PLAN_1
 62
     2
  6
CONTINUOUS
 10
-0.966173
 20
2.208157
  0
VERTEX
  8
PLAN_1
 62
     2
  6
CONTINUOUS
 10
-0.964370
 20
2.207256
  0
VERTEX
  8
PLAN_1
 62
     2
  6
CONTINUOUS
 10
-0.962567
 20
2.206354
  0
VERTEX
  8
PLAN_1
 62
     2
  6
CONTINUOUS
 10
-0.960760
 20
2.205000
  0
VERTEX
  8
PLAN_1
 62
     2
  6
CONTINUOUS
 10
-0.958957
 20
2.203197
  0
VERTEX
  8
PLAN_1
 62
     2
  6
CONTINUOUS
 10
-0.957154
 20
2.201843
  0
VERTEX
  8
PLAN_1
 62
     2
  6
CONTINUOUS
 10
-0.955799
 20
2.199587
  0
VERTEX
  8
PLAN_1
 62
     2
  6
CONTINUOUS
 10
-0.954445
 20
2.197783
  0
VERTEX
  8
PLAN_1
 62
     2
  6
CONTINUOUS
 10
-0.953543
 20
2.195075
  0
VERTEX
  8
PLAN_1
 62
     2
  6
CONTINUOUS
 10
-0.952642
 20
2.192370
  0
VERTEX
  8
PLAN_1
 62
     2
  6
CONTINUOUS
 10
-0.952193
 20
2.189665
  0
VERTEX
  8
PLAN_1
 62
     2
  6
CONTINUOUS
 10
-0.951740
 20
2.186508
  0
VERTEX
  8
PLAN_1
 62
     2
  6
CONTINUOUS
 10
-0.951740
 20
2.183350
  0
VERTEX
  8
PLAN_1
 62
     2
  6
CONTINUOUS
 10
-0.951740
 20
2.181094
  0
VERTEX
  8
PLAN_1
 62
     2
  6
CONTINUOUS
 10
-0.951740
 20
2.179287
  0
VERTEX
  8
PLAN_1
 62
     2
  6
CONTINUOUS
 10
-0.952193
 20
2.177484
  0
VERTEX
  8
PLAN_1
 62
     2
  6
CONTINUOUS
 10
-0.952642
 20
2.175681
  0
VERTEX
  8
PLAN_1
 62
     2
  6
CONTINUOUS
 10
-0.953094
 20
2.174327
  0
VERTEX
  8
PLAN_1
 62
     2
  6
CONTINUOUS
 10
-0.953543
 20
2.172524
  0
VERTEX
  8
PLAN_1
 62
     2
  6
CONTINUOUS
 10
-0.953996
 20
2.171169
  0
VERTEX
  8
PLAN_1
 62
     2
  6
CONTINUOUS
 10
-0.954898
 20
2.169819
  0
VERTEX
  8
PLAN_1
 62
     2
  6
CONTINUOUS
 10
-0.956701
 20
2.167110
  0
VERTEX
  8
PLAN_1
 62
     2
  6
CONTINUOUS
 10
-0.958957
 20
2.164854
  0
VERTEX
  8
PLAN_1
 62
     2
  6
CONTINUOUS
 10
-0.961213
 20
2.163051
  0
VERTEX
  8
PLAN_1
 62
     2
  6
CONTINUOUS
 10
-0.963917
 20
2.161248
  0
VERTEX
  8
PLAN_1
 62
     2
  6
CONTINUOUS
 10
-0.966626
 20
2.160346
  0
VERTEX
  8
PLAN_1
 62
     2
  6
CONTINUOUS
 10
-0.969783
 20
2.159441
  0
VERTEX
  8
PLAN_1
 62
     2
  6
CONTINUOUS
 10
-0.972941
 20
2.158992
  0
VERTEX
  8
PLAN_1
 62
     2
  6
CONTINUOUS
 10
-0.976098
 20
2.158992
  0
VERTEX
  8
PLAN_1
 62
     2
  6
CONTINUOUS
 10
-0.976098
 20
2.168465
  0
VERTEX
  8
PLAN_1
 62
     2
  6
CONTINUOUS
 10
-0.973390
 20
2.168465
  0
VERTEX
  8
PLAN_1
 62
     2
  6
CONTINUOUS
 10
-0.970685
 20
2.168913
  0
VERTEX
  8
PLAN_1
 62
     2
  6
CONTINUOUS
 10
-0.967976
 20
2.169819
  0
VERTEX
  8
PLAN_1
 62
     2
  6
CONTINUOUS
 10
-0.965272
 20
2.171169
  0
VERTEX
  8
PLAN_1
 62
     2
  6
CONTINUOUS
 10
-0.963016
 20
2.172972
  0
VERTEX
  8
PLAN_1
 62
     2
  6
CONTINUOUS
 10
-0.961213
 20
2.175681
  0
VERTEX
  8
PLAN_1
 62
     2
  6
CONTINUOUS
 10
-0.960760
 20
2.177484
  0
VERTEX
  8
PLAN_1
 62
     2
  6
CONTINUOUS
 10
-0.960311
 20
2.179287
  0
VERTEX
  8
PLAN_1
 62
     2
  6
CONTINUOUS
 10
-0.959858
 20
2.181543
  0
VERTEX
  8
PLAN_1
 62
     2
  6
CONTINUOUS
 10
-0.959858
 20
2.183799
  0
VERTEX
  8
PLAN_1
 62
     2
  6
CONTINUOUS
 10
-0.959858
 20
2.187409
  0
VERTEX
  8
PLAN_1
 62
     2
  6
CONTINUOUS
 10
-0.960760
 20
2.190114
  0
VERTEX
  8
PLAN_1
 62
     2
  6
CONTINUOUS
 10
-0.962114
 20
2.192823
  0
VERTEX
  8
PLAN_1
 62
     2
  6
CONTINUOUS
 10
-0.963917
 20
2.195528
  0
VERTEX
  8
PLAN_1
 62
     2
  6
CONTINUOUS
 10
-0.965724
 20
2.197331
  0
VERTEX
  8
PLAN_1
 62
     2
  6
CONTINUOUS
 10
-0.968429
 20
2.198685
  0
VERTEX
  8
PLAN_1
 62
     2
  6
CONTINUOUS
 10
-0.971134
 20
2.199587
  0
VERTEX
  8
PLAN_1
 62
     2
  6
CONTINUOUS
 10
-0.973843
 20
2.199587
  0
VERTEX
  8
PLAN_1
 62
     2
  6
CONTINUOUS
 10
-0.976098
 20
2.199587
  0
VERTEX
  8
PLAN_1
 62
     2
  6
CONTINUOUS
 10
-0.977902
 20
2.199138
  0
VERTEX
  8
PLAN_1
 62
     2
  6
CONTINUOUS
 10
-0.979705
 20
2.198685
  0
VERTEX
  8
PLAN_1
 62
     2
  6
CONTINUOUS
 10
-0.981059
 20
2.197783
  0
VERTEX
  8
PLAN_1
 62
     2
  6
CONTINUOUS
 10
-0.983764
 20
2.195980
  0
VERTEX
  8
PLAN_1
 62
     2
  6
CONTINUOUS
 10
-0.985118
 20
2.193724
  0
VERTEX
  8
PLAN_1
 62
     2
  6
CONTINUOUS
 10
-0.986472
 20
2.191016
  0
VERTEX
  8
PLAN_1
 62
     2
  6
CONTINUOUS
 10
-0.986921
 20
2.187858
  0
VERTEX
  8
PLAN_1
 62
     2
  6
CONTINUOUS
 10
-0.987374
 20
2.185154
  0
VERTEX
  8
PLAN_1
 62
     2
  6
CONTINUOUS
 10
-0.987374
 20
2.182898
  0
VERTEX
  8
PLAN_1
 62
     2
  6
CONTINUOUS
 10
-0.987374
 20
2.181996
  0
VERTEX
  8
PLAN_1
 62
     2
  6
CONTINUOUS
 10
-0.987374
 20
2.181543
  0
VERTEX
  8
PLAN_1
 62
     2
  6
CONTINUOUS
 10
-0.987374
 20
2.181094
  0
VERTEX
  8
PLAN_1
 62
     2
  6
CONTINUOUS
 10
-0.987374
 20
2.180642
  0
VERTEX
  8
PLAN_1
 62
     2
  6
CONTINUOUS
 10
-0.987374
 20
2.180193
  0
VERTEX
  8
PLAN_1
 62
     2
  6
CONTINUOUS
 10
-0.987374
 20
2.179740
  0
VERTEX
  8
PLAN_1
 62
     2
  6
CONTINUOUS
 10
-0.987374
 20
2.179287
  0
VERTEX
  8
PLAN_1
 62
     2
  6
CONTINUOUS
 10
-0.987374
 20
2.178386
  0
VERTEX
  8
PLAN_1
 62
     2
  6
CONTINUOUS
 10
-0.995043
 20
2.178386
  0
SEQEND
  8
0
  0
POLYLINE
  8
PLAN_1
 62
     2
  6
CONTINUOUS
 66
     1
 40
0.003000
 41
0.003000
  0
VERTEX
  8
PLAN_1
 62
     2
  6
CONTINUOUS
 10
-0.964819
 20
2.222142
  0
VERTEX
  8
PLAN_1
 62
     2
  6
CONTINUOUS
 10
-0.964819
 20
2.232965
  0
VERTEX
  8
PLAN_1
 62
     2
  6
CONTINUOUS
 10
-0.954445
 20
2.232965
  0
VERTEX
  8
PLAN_1
 62
     2
  6
CONTINUOUS
 10
-0.949484
 20
2.232516
  0
VERTEX
  8
PLAN_1
 62
     2
  6
CONTINUOUS
 10
-0.945878
 20
2.231614
  0
VERTEX
  8
PLAN_1
 62
     2
  6
CONTINUOUS
 10
-0.943169
 20
2.230260
  0
VERTEX
  8
PLAN_1
 62
     2
  6
CONTINUOUS
 10
-0.941366
 20
2.228457
  0
VERTEX
  8
PLAN_1
 62
     2
  6
CONTINUOUS
 10
-0.940012
 20
2.226650
  0
VERTEX
  8
PLAN_1
 62
     2
  6
CONTINUOUS
 10
-0.939110
 20
2.224846
  0
VERTEX
  8
PLAN_1
 62
     2
  6
CONTINUOUS
 10
-0.938657
 20
2.223492
  0
VERTEX
  8
PLAN_1
 62
     2
  6
CONTINUOUS
 10
-0.938209
 20
2.222142
  0
VERTEX
  8
PLAN_1
 62
     2
  6
CONTINUOUS
 10
-0.943169
 20
2.222142
  0
VERTEX
  8
PLAN_1
 62
     2
  6
CONTINUOUS
 10
-0.943622
 20
2.223492
  0
VERTEX
  8
PLAN_1
 62
     2
  6
CONTINUOUS
 10
-0.944071
 20
2.224846
  0
VERTEX
  8
PLAN_1
 62
     2
  6
CONTINUOUS
 10
-0.945425
 20
2.225748
  0
VERTEX
  8
PLAN_1
 62
     2
  6
CONTINUOUS
 10
-0.946780
 20
2.226650
  0
VERTEX
  8
PLAN_1
 62
     2
  6
CONTINUOUS
 10
-0.948130
 20
2.227102
  0
VERTEX
  8
PLAN_1
 62
     2
  6
CONTINUOUS
 10
-0.949937
 20
2.227551
  0
VERTEX
  8
PLAN_1
 62
     2
  6
CONTINUOUS
 10
-0.951740
 20
2.227551
  0
VERTEX
  8
PLAN_1
 62
     2
  6
CONTINUOUS
 10
-0.953543
 20
2.227551
  0
VERTEX
  8
PLAN_1
 62
     2
  6
CONTINUOUS
 10
-0.953543
 20
2.222142
  0
VERTEX
  8
PLAN_1
 62
     2
  6
CONTINUOUS
 10
-0.964819
 20
2.222142
  0
SEQEND
  8
0
  0
POLYLINE
  8
PLAN_1
 62
     2
  6
CONTINUOUS
 66
     1
 40
0.003000
 41
0.003000
  0
VERTEX
  8
PLAN_1
 62
     2
  6
CONTINUOUS
 10
-1.007220
 20
2.285287
  0
VERTEX
  8
PLAN_1
 62
     2
  6
CONTINUOUS
 10
-1.009476
 20
2.284839
  0
VERTEX
  8
PLAN_1
 62
     2
  6
CONTINUOUS
 10
-1.011732
 20
2.283937
  0
VERTEX
  8
PLAN_1
 62
     2
  6
CONTINUOUS
 10
-1.013535
 20
2.283035
  0
VERTEX
  8
PLAN_1
 62
     2
  6
CONTINUOUS
 10
-1.015339
 20
2.281681
  0
VERTEX
  8
PLAN_1
 62
     2
  6
CONTINUOUS
 10
-1.016693
 20
2.279878
  0
VERTEX
  8
PLAN_1
 62
     2
  6
CONTINUOUS
 10
-1.017594
 20
2.278071
  0
VERTEX
  8
PLAN_1
 62
     2
  6
CONTINUOUS
 10
-1.018496
 20
2.275815
  0
VERTEX
  8
PLAN_1
 62
     2
  6
CONTINUOUS
 10
-1.018496
 20
2.273110
  0
VERTEX
  8
PLAN_1
 62
     2
  6
CONTINUOUS
 10
-1.018496
 20
2.270406
  0
VERTEX
  8
PLAN_1
 62
     2
  6
CONTINUOUS
 10
-1.017594
 20
2.268150
  0
VERTEX
  8
PLAN_1
 62
     2
  6
CONTINUOUS
 10
-1.016693
 20
2.265894
  0
VERTEX
  8
PLAN_1
 62
     2
  6
CONTINUOUS
 10
-1.015339
 20
2.264091
  0
VERTEX
  8
PLAN_1
 62
     2
  6
CONTINUOUS
 10
-1.013988
 20
2.262283
  0
VERTEX
  8
PLAN_1
 62
     2
  6
CONTINUOUS
 10
-1.012181
 20
2.260933
  0
VERTEX
  8
PLAN_1
 62
     2
  6
CONTINUOUS
 10
-1.009925
 20
2.260028
  0
VERTEX
  8
PLAN_1
 62
     2
  6
CONTINUOUS
 10
-1.007673
 20
2.258677
  0
VERTEX
  8
PLAN_1
 62
     2
  6
CONTINUOUS
 10
-1.003614
 20
2.257323
  0
VERTEX
  8
PLAN_1
 62
     2
  6
CONTINUOUS
 10
-0.999102
 20
2.256421
  0
VERTEX
  8
PLAN_1
 62
     2
  6
CONTINUOUS
 10
-0.995043
 20
2.255520
  0
VERTEX
  8
PLAN_1
 62
     2
  6
CONTINUOUS
 10
-0.991433
 20
2.255520
  0
VERTEX
  8
PLAN_1
 62
     2
  6
CONTINUOUS
 10
-0.992787
 20
2.256870
  0
VERTEX
  8
PLAN_1
 62
     2
  6
CONTINUOUS
 10
-0.994142
 20
2.258224
  0
VERTEX
  8
PLAN_1
 62
     2
  6
CONTINUOUS
 10
-0.995945
 20
2.259579
  0
VERTEX
  8
PLAN_1
 62
     2
  6
CONTINUOUS
 10
-0.997299
 20
2.261382
  0
VERTEX
  8
PLAN_1
 62
     2
  6
CONTINUOUS
 10
-0.998201
 20
2.263638
  0
VERTEX
  8
PLAN_1
 62
     2
  6
CONTINUOUS
 10
-0.999551
 20
2.266343
  0
VERTEX
  8
PLAN_1
 62
     2
  6
CONTINUOUS
 10
-1.000004
 20
2.269500
  0
VERTEX
  8
PLAN_1
 62
     2
  6
CONTINUOUS
 10
-1.000004
 20
2.273110
  0
VERTEX
  8
PLAN_1
 62
     2
  6
CONTINUOUS
 10
-1.000004
 20
2.276720
  0
VERTEX
  8
PLAN_1
 62
     2
  6
CONTINUOUS
 10
-0.999102
 20
2.280327
  0
VERTEX
  8
PLAN_1
 62
     2
  6
CONTINUOUS
 10
-0.997299
 20
2.284386
  0
VERTEX
  8
PLAN_1
 62
     2
  6
CONTINUOUS
 10
-0.995043
 20
2.287996
  0
VERTEX
  8
PLAN_1
 62
     2
  6
CONTINUOUS
 10
-0.993689
 20
2.289350
  0
VERTEX
  8
PLAN_1
 62
     2
  6
CONTINUOUS
 10
-0.991886
 20
2.291154
  0
VERTEX
  8
PLAN_1
 62
     2
  6
CONTINUOUS
 10
-0.990079
 20
2.292508
  0
VERTEX
  8
PLAN_1
 62
     2
  6
CONTINUOUS
 10
-0.987827
 20
2.293858
  0
VERTEX
  8
PLAN_1
 62
     2
  6
CONTINUOUS
 10
-0.985571
 20
2.294760
  0
VERTEX
  8
PLAN_1
 62
     2
  6
CONTINUOUS
 10
-0.982862
 20
2.295213
  0
VERTEX
  8
PLAN_1
 62
     2
  6
CONTINUOUS
 10
-0.980157
 20
2.295665
  0
VERTEX
  8
PLAN_1
 62
     2
  6
CONTINUOUS
 10
-0.977000
 20
2.296114
  0
VERTEX
  8
PLAN_1
 62
     2
  6
CONTINUOUS
 10
-0.974291
 20
2.296114
  0
VERTEX
  8
PLAN_1
 62
     2
  6
CONTINUOUS
 10
-0.971587
 20
2.295665
  0
VERTEX
  8
PLAN_1
 62
     2
  6
CONTINUOUS
 10
-0.969331
 20
2.295213
  0
VERTEX
  8
PLAN_1
 62
     2
  6
CONTINUOUS
 10
-0.967075
 20
2.294311
  0
VERTEX
  8
PLAN_1
 62
     2
  6
CONTINUOUS
 10
-0.964819
 20
2.293409
  0
VERTEX
  8
PLAN_1
 62
     2
  6
CONTINUOUS
 10
-0.962567
 20
2.292055
  0
VERTEX
  8
PLAN_1
 62
     2
  6
CONTINUOUS
 10
-0.960760
 20
2.290701
  0
VERTEX
  8
PLAN_1
 62
     2
  6
CONTINUOUS
 10
-0.958508
 20
2.288898
  0
VERTEX
  8
PLAN_1
 62
     2
  6
CONTINUOUS
 10
-0.957154
 20
2.287543
  0
VERTEX
  8
PLAN_1
 62
     2
  6
CONTINUOUS
 10
-0.955799
 20
2.285740
  0
VERTEX
  8
PLAN_1
 62
     2
  6
CONTINUOUS
 10
-0.954445
 20
2.284386
  0
VERTEX
  8
PLAN_1
 62
     2
  6
CONTINUOUS
 10
-0.953543
 20
2.282130
  0
VERTEX
  8
PLAN_1
 62
     2
  6
CONTINUOUS
 10
-0.952642
 20
2.279878
  0
VERTEX
  8
PLAN_1
 62
     2
  6
CONTINUOUS
 10
-0.952193
 20
2.277169
  0
VERTEX
  8
PLAN_1
 62
     2
  6
CONTINUOUS
 10
-0.951740
 20
2.274012
  0
VERTEX
  8
PLAN_1
 62
     2
  6
CONTINUOUS
 10
-0.951740
 20
2.270406
  0
VERTEX
  8
PLAN_1
 62
     2
  6
CONTINUOUS
 10
-0.951740
 20
2.268150
  0
VERTEX
  8
PLAN_1
 62
     2
  6
CONTINUOUS
 10
-0.952193
 20
2.265894
  0
VERTEX
  8
PLAN_1
 62
     2
  6
CONTINUOUS
 10
-0.952642
 20
2.263638
  0
VERTEX
  8
PLAN_1
 62
     2
  6
CONTINUOUS
 10
-0.953996
 20
2.260933
  0
VERTEX
  8
PLAN_1
 62
     2
  6
CONTINUOUS
 10
-0.955350
 20
2.258224
  0
VERTEX
  8
PLAN_1
 62
     2
  6
CONTINUOUS
 10
-0.957154
 20
2.255969
  0
VERTEX
  8
PLAN_1
 62
     2
  6
CONTINUOUS
 10
-0.959409
 20
2.253717
  0
VERTEX
  8
PLAN_1
 62
     2
  6
CONTINUOUS
 10
-0.962114
 20
2.251461
  0
VERTEX
  8
PLAN_1
 62
     2
  6
CONTINUOUS
 10
-0.964819
 20
2.250106
  0
VERTEX
  8
PLAN_1
 62
     2
  6
CONTINUOUS
 10
-0.967528
 20
2.248752
  0
VERTEX
  8
PLAN_1
 62
     2
  6
CONTINUOUS
 10
-0.970685
 20
2.247850
  0
VERTEX
  8
PLAN_1
 62
     2
  6
CONTINUOUS
 10
-0.973843
 20
2.247402
  0
VERTEX
  8
PLAN_1
 62
     2
  6
CONTINUOUS
 10
-0.977000
 20
2.246496
  0
VERTEX
  8
PLAN_1
 62
     2
  6
CONTINUOUS
 10
-0.980606
 20
2.246496
  0
VERTEX
  8
PLAN_1
 62
     2
  6
CONTINUOUS
 10
-0.984217
 20
2.246047
  0
VERTEX
  8
PLAN_1
 62
     2
  6
CONTINUOUS
 10
-0.987374
 20
2.246047
  0
VERTEX
  8
PLAN_1
 62
     2
  6
CONTINUOUS
 10
-0.993689
 20
2.246496
  0
VERTEX
  8
PLAN_1
 62
     2
  6
CONTINUOUS
 10
-1.000457
 20
2.247402
  0
VERTEX
  8
PLAN_1
 62
     2
  6
CONTINUOUS
 10
-1.003614
 20
2.247850
  0
VERTEX
  8
PLAN_1
 62
     2
  6
CONTINUOUS
 10
-1.007220
 20
2.248752
  0
VERTEX
  8
PLAN_1
 62
     2
  6
CONTINUOUS
 10
-1.010378
 20
2.250106
  0
VERTEX
  8
PLAN_1
 62
     2
  6
CONTINUOUS
 10
-1.013083
 20
2.251461
  0
VERTEX
  8
PLAN_1
 62
     2
  6
CONTINUOUS
 10
-1.015791
 20
2.252811
  0
VERTEX
  8
PLAN_1
 62
     2
  6
CONTINUOUS
 10
-1.018496
 20
2.255067
  0
VERTEX
  8
PLAN_1
 62
     2
  6
CONTINUOUS
 10
-1.020752
 20
2.257323
  0
VERTEX
  8
PLAN_1
 62
     2
  6
CONTINUOUS
 10
-1.023008
 20
2.259579
  0
VERTEX
  8
PLAN_1
 62
     2
  6
CONTINUOUS
 10
-1.024362
 20
2.262283
  0
VERTEX
  8
PLAN_1
 62
     2
  6
CONTINUOUS
 10
-1.025713
 20
2.265441
  0
VERTEX
  8
PLAN_1
 62
     2
  6
CONTINUOUS
 10
-1.026618
 20
2.269051
  0
VERTEX
  8
PLAN_1
 62
     2
  6
CONTINUOUS
 10
-1.026618
 20
2.273110
  0
VERTEX
  8
PLAN_1
 62
     2
  6
CONTINUOUS
 10
-1.026618
 20
2.276268
  0
VERTEX
  8
PLAN_1
 62
     2
  6
CONTINUOUS
 10
-1.025713
 20
2.279878
  0
VERTEX
  8
PLAN_1
 62
     2
  6
CONTINUOUS
 10
-1.024362
 20
2.283484
  0
VERTEX
  8
PLAN_1
 62
     2
  6
CONTINUOUS
 10
-1.022555
 20
2.286642
  0
VERTEX
  8
PLAN_1
 62
     2
  6
CONTINUOUS
 10
-1.019850
 20
2.289350
  0
VERTEX
  8
PLAN_1
 62
     2
  6
CONTINUOUS
 10
-1.016693
 20
2.292055
  0
VERTEX
  8
PLAN_1
 62
     2
  6
CONTINUOUS
 10
-1.014437
 20
2.292957
  0
VERTEX
  8
PLAN_1
 62
     2
  6
CONTINUOUS
 10
-1.012181
 20
2.293409
  0
VERTEX
  8
PLAN_1
 62
     2
  6
CONTINUOUS
 10
-1.009925
 20
2.294311
  0
VERTEX
  8
PLAN_1
 62
     2
  6
CONTINUOUS
 10
-1.007220
 20
2.294311
  0
VERTEX
  8
PLAN_1
 62
     2
  6
CONTINUOUS
 10
-1.007220
 20
2.285287
  0
SEQEND
  8
0
  0
POLYLINE
  8
PLAN_1
 62
     2
  6
CONTINUOUS
 66
     1
 40
0.003000
 41
0.003000
  0
VERTEX
  8
PLAN_1
 62
     2
  6
CONTINUOUS
 10
-0.959858
 20
2.272209
  0
VERTEX
  8
PLAN_1
 62
     2
  6
CONTINUOUS
 10
-0.960311
 20
2.275366
  0
VERTEX
  8
PLAN_1
 62
     2
  6
CONTINUOUS
 10
-0.961213
 20
2.278071
  0
VERTEX
  8
PLAN_1
 62
     2
  6
CONTINUOUS
 10
-0.962567
 20
2.280327
  0
VERTEX
  8
PLAN_1
 62
     2
  6
CONTINUOUS
 10
-0.964370
 20
2.282583
  0
VERTEX
  8
PLAN_1
 62
     2
  6
CONTINUOUS
 10
-0.967075
 20
2.284386
  0
VERTEX
  8
PLAN_1
 62
     2
  6
CONTINUOUS
 10
-0.969783
 20
2.285287
  0
VERTEX
  8
PLAN_1
 62
     2
  6
CONTINUOUS
 10
-0.972941
 20
2.286193
  0
VERTEX
  8
PLAN_1
 62
     2
  6
CONTINUOUS
 10
-0.976547
 20
2.286642
  0
VERTEX
  8
PLAN_1
 62
     2
  6
CONTINUOUS
 10
-0.979256
 20
2.286193
  0
VERTEX
  8
PLAN_1
 62
     2
  6
CONTINUOUS
 10
-0.981512
 20
2.285740
  0
VERTEX
  8
PLAN_1
 62
     2
  6
CONTINUOUS
 10
-0.984217
 20
2.284839
  0
VERTEX
  8
PLAN_1
 62
     2
  6
CONTINUOUS
 10
-0.986472
 20
2.283484
  0
VERTEX
  8
PLAN_1
 62
     2
  6
CONTINUOUS
 10
-0.988728
 20
2.281228
  0
VERTEX
  8
PLAN_1
 62
     2
  6
CONTINUOUS
 10
-0.990531
 20
2.278972
  0
VERTEX
  8
PLAN_1
 62
     2
  6
CONTINUOUS
 10
-0.991433
 20
2.275815
  0
VERTEX
  8
PLAN_1
 62
     2
  6
CONTINUOUS
 10
-0.991886
 20
2.271756
  0
VERTEX
  8
PLAN_1
 62
     2
  6
CONTINUOUS
 10
-0.991433
 20
2.268150
  0
VERTEX
  8
PLAN_1
 62
     2
  6
CONTINUOUS
 10
-0.990531
 20
2.264992
  0
VERTEX
  8
PLAN_1
 62
     2
  6
CONTINUOUS
 10
-0.989177
 20
2.262736
  0
VERTEX
  8
PLAN_1
 62
     2
  6
CONTINUOUS
 10
-0.987374
 20
2.260480
  0
VERTEX
  8
PLAN_1
 62
     2
  6
CONTINUOUS
 10
-0.984669
 20
2.258677
  0
VERTEX
  8
PLAN_1
 62
     2
  6
CONTINUOUS
 10
-0.981961
 20
2.257776
  0
VERTEX
  8
PLAN_1
 62
     2
  6
CONTINUOUS
 10
-0.979256
 20
2.256870
  0
VERTEX
  8
PLAN_1
 62
     2
  6
CONTINUOUS
 10
-0.976098
 20
2.256870
  0
VERTEX
  8
PLAN_1
 62
     2
  6
CONTINUOUS
 10
-0.972941
 20
2.256870
  0
VERTEX
  8
PLAN_1
 62
     2
  6
CONTINUOUS
 10
-0.970232
 20
2.257776
  0
VERTEX
  8
PLAN_1
 62
     2
  6
CONTINUOUS
 10
-0.967528
 20
2.258677
  0
VERTEX
  8
PLAN_1
 62
     2
  6
CONTINUOUS
 10
-0.964819
 20
2.260480
  0
VERTEX
  8
PLAN_1
 62
     2
  6
CONTINUOUS
 10
-0.963016
 20
2.262736
  0
VERTEX
  8
PLAN_1
 62
     2
  6
CONTINUOUS
 10
-0.961213
 20
2.265441
  0
VERTEX
  8
PLAN_1
 62
     2
  6
CONTINUOUS
 10
-0.960311
 20
2.268598
  0
VERTEX
  8
PLAN_1
 62
     2
  6
CONTINUOUS
 10
-0.959858
 20
2.272209
  0
SEQEND
  8
0
  0
POLYLINE
  8
PLAN_1
 62
     2
  6
CONTINUOUS
 66
     1
 40
0.004059
 41
0.004059
  0
VERTEX
  8
PLAN_1
 62
     2
  6
CONTINUOUS
 10
-1.063602
 20
3.352504
  0
VERTEX
  8
PLAN_1
 62
     2
  6
CONTINUOUS
 10
-0.906181
 20
3.352504
  0
SEQEND
  8
0
  0
POLYLINE
  8
PLAN_1
 62
     2
  6
CONTINUOUS
 66
     1
 40
0.004059
 41
0.004059
  0
VERTEX
  8
PLAN_1
 62
     2
  6
CONTINUOUS
 10
-1.290941
 20
3.375508
  0
VERTEX
  8
PLAN_1
 62
     2
  6
CONTINUOUS
 10
-1.290941
 20
3.532929
  0
SEQEND
  8
0
  0
POLYLINE
  8
PLAN_1
 62
     2
  6
CONTINUOUS
 66
     1
 40
0.004059
 41
0.004059
  0
VERTEX
  8
PLAN_1
 62
     2
  6
CONTINUOUS
 10
-1.087059
 20
3.375508
  0
VERTEX
  8
PLAN_1
 62
     2
  6
CONTINUOUS
 10
-1.087059
 20
3.532929
  0
SEQEND
  8
0
  0
ENDSEC
  0
EOF
