999
DXF file: C:\Users\sesa63760\Dev\_Creo\CAD\MCADID0002873_3D-CAD\drw0001_1.dxf
999
Pro/ENGINEER 2019471 by Parametric Technology Corporation
  0
SECTION
  2
HEADER
  9
$ACADVER
  1
AC1024
  9
$DWGCODEPAGE
  3
ANSI_1252
  9
$EXTMAX
 10
86.292805241
 20
122.042681698
 30
0.0
  9
$EXTMIN
 10
0.0
 20
0.0
 30
0.0
  9
$LIMMIN
 10
0.0
 20
0.0
  9
$LIMMAX
 10
86.292805241
 20
122.042681698
  9
$VIEWCTR
 10
43.1464026205
 20
61.021340849
  9
$VIEWSIZE
 40
122.042681698
  9
$CLAYER
  8
0
  9
$LTSCALE
 40
7.955374807
  9
$CELTYPE
  6
BYLAYER
  9
$DIMSCALE
 40
1.0
  9
$DIMASZ
 40
1.0272953005
  9
$DIMEXO
 40
1.0
  9
$DIMDLI
 40
5.4964407757
  9
$DIMEXE
 40
1.0
  9
$DIMCEN
 40
1.3017886048
  9
$DIMLFAC
 40
1.0
  9
$DIMBLK
  1
_FILLED
  9
$DIMALT
 70
0
  9
$DIMALTF
 40
0.0393700787
  9
$DIMTXT
 40
1.4382134207
  9
$DIMTOL
 70
1
  9
$DIMLIM
 70
0
  9
$DIMTFAC
 40
1.0
  9
$DIMTP
 40
0.01
  9
$DIMTM
 40
0.01
  9
$DIMGAP
 40
0.625
  9
$DIMDSEP
 70
46
  9
$AUNITS
 70
0
  9
$PDMODE
 70
3
  9
$PDSIZE
 40
0.3125
  9
$HANDSEED
  5
27C
  9
$TILEMODE
 70
1
  9
$MEASUREMENT
 70
1
  9
$INSUNITS
 70
4
  0
ENDSEC
  0
SECTION
  2
CLASSES
  0
CLASS
  1
ACDBDICTIONARYWDFLT
  2
AcDbDictionaryWithDefault
  3
AutoCAD 2000
 90
0
 91
1
280
0
281
0
  0
CLASS
  1
ACDBPLACEHOLDER
  2
AcDbPlaceHolder
  3
AutoCAD 2000
 90
0
 91
1
280
0
281
0
  0
CLASS
  1
LAYOUT
  2
AcDbLayout
  3
AutoCAD 2000
 90
0
 91
0
280
0
281
0
  0
ENDSEC
  0
SECTION
  2
TABLES
  0
TABLE
  2
VPORT
  5
8
100
AcDbSymbolTable
 70
2
  0
VPORT
  5
1F4
100
AcDbSymbolTableRecord
100
AcDbViewportTableRecord
  2
*ACTIVE
 70
0
 10
0.0
 20
0.0
 11
1.0
 21
1.0
 12
43.1464026205
 22
61.021340849
 13
0.0
 23
0.0
 14
1.0
 24
1.0
 15
0.0
 25
0.0
 16
0.0
 26
0.0
 36
1.0
 17
0.0
 27
0.0
 37
0.0
 40
122.042681698
 41
0.7070707071
 42
50.0
 43
0.0
 44
0.0
 50
0.0
 51
0.0
 71
0
 72
100
 73
1
 74
1
 75
0
 76
0
 77
0
 78
0
  0
ENDTAB
  0
TABLE
  2
LTYPE
  5
5
100
AcDbSymbolTable
 70
6
  0
LTYPE
  5
14
100
AcDbSymbolTableRecord
100
AcDbLinetypeTableRecord
  2
BYBLOCK
 70
0
  3

 72
65
 73
0
 40
0.0
  0
LTYPE
  5
15
100
AcDbSymbolTableRecord
100
AcDbLinetypeTableRecord
  2
BYLAYER
 70
0
  3

 72
65
 73
0
 40
0.0
  0
LTYPE
  5
16
100
AcDbSymbolTableRecord
100
AcDbLinetypeTableRecord
  2
CONTINUOUS
 70
64
  3
Solid line
 72
65
 73
0
 40
0.0
  0
LTYPE
  5
1F5
100
AcDbSymbolTableRecord
100
AcDbLinetypeTableRecord
  2
CENTER
 70
64
  3
____ _ ____ _ ____ _ ____ _ ____ _ ____ _ ____
 72
65
 73
4
 40
0.6
 49
0.375
 74
0
 49
-0.075
 74
0
 49
0.075
 74
0
 49
-0.075
 74
0
  0
LTYPE
  5
1F6
100
AcDbSymbolTableRecord
100
AcDbLinetypeTableRecord
  2
HIDDEN
 70
64
  3
- - - - - - - - - - - - - - - - - - - -
 72
65
 73
2
 40
0.2
 49
0.1
 74
0
 49
-0.1
 74
0
  0
LTYPE
  5
1F7
100
AcDbSymbolTableRecord
100
AcDbLinetypeTableRecord
  2
PHANTOM
 70
64
  3
_____ _ _ _____ _ _ _____ _ _ _____
 72
65
 73
6
 40
0.8
 49
0.45
 74
0
 49
-0.05
 74
0
 49
0.1
 74
0
 49
-0.05
 74
0
 49
0.1
 74
0
 49
-0.05
 74
0
  0
LTYPE
  5
1F8
100
AcDbSymbolTableRecord
100
AcDbLinetypeTableRecord
  2
DOT
 70
64
  3
. . . . . . . . . . . . . . . . . . . .
 72
65
 73
2
 40
0.2
 49
0.1
 74
0
 49
-0.1
 74
0
  0
LTYPE
  5
1F9
100
AcDbSymbolTableRecord
100
AcDbLinetypeTableRecord
  2
DASHED
 70
64
  3
- - - - - - - - - - - - - - - - - - - -
 72
65
 73
2
 40
0.2
 49
0.1
 74
0
 49
-0.1
 74
0
  0
ENDTAB
  0
TABLE
  2
LAYER
  5
2
100
AcDbSymbolTable
 70
36
  0
LAYER
  5
10
100
AcDbSymbolTableRecord
100
AcDbLayerTableRecord
  2
0
 70
0
 62
7
  6
CONTINUOUS
370
-3
390
F
  0
LAYER
  5
1FA
100
AcDbSymbolTableRecord
100
AcDbLayerTableRecord
  2
DEFAULT_1
 70
0
 62
7
  6
CENTER
370
-3
390
F
  0
LAYER
  5
1FB
100
AcDbSymbolTableRecord
100
AcDbLayerTableRecord
  2
DEFAULT_2
 70
0
 62
7
  6
HIDDEN
370
-3
390
F
  0
LAYER
  5
1FC
100
AcDbSymbolTableRecord
100
AcDbLayerTableRecord
  2
DEFAULT_3
 70
0
 62
7
  6
PHANTOM
370
-3
390
F
  0
LAYER
  5
1FD
100
AcDbSymbolTableRecord
100
AcDbLayerTableRecord
  2
00_COMPONENTS
 70
0
 62
7
  6
CONTINUOUS
370
-3
390
F
  0
LAYER
  5
1FE
100
AcDbSymbolTableRecord
100
AcDbLayerTableRecord
  2
01_1_DEFAULT_DATUMS
 70
0
 62
7
  6
CONTINUOUS
370
-3
390
F
  0
LAYER
  5
1FF
100
AcDbSymbolTableRecord
100
AcDbLayerTableRecord
  2
01_PLANES
 70
0
 62
7
  6
CONTINUOUS
370
-3
390
F
  0
LAYER
  5
200
100
AcDbSymbolTableRecord
100
AcDbLayerTableRecord
  2
02_COORD_SYS
 70
0
 62
7
  6
CONTINUOUS
370
-3
390
F
  0
LAYER
  5
201
100
AcDbSymbolTableRecord
100
AcDbLayerTableRecord
  2
03_AXES
 70
0
 62
7
  6
CONTINUOUS
370
-3
390
F
  0
LAYER
  5
202
100
AcDbSymbolTableRecord
100
AcDbLayerTableRecord
  2
04_POINTS
 70
0
 62
7
  6
CONTINUOUS
370
-3
390
F
  0
LAYER
  5
203
100
AcDbSymbolTableRecord
100
AcDbLayerTableRecord
  2
05_CURVES
 70
0
 62
7
  6
CONTINUOUS
370
-3
390
F
  0
LAYER
  5
204
100
AcDbSymbolTableRecord
100
AcDbLayerTableRecord
  2
06_SURFS
 70
0
 62
7
  6
CONTINUOUS
370
-3
390
F
  0
LAYER
  5
205
100
AcDbSymbolTableRecord
100
AcDbLayerTableRecord
  2
07_COSMETICS
 70
0
 62
7
  6
CONTINUOUS
370
-3
390
F
  0
LAYER
  5
206
100
AcDbSymbolTableRecord
100
AcDbLayerTableRecord
  2
10_NOTES
 70
0
 62
7
  6
CONTINUOUS
370
-3
390
F
  0
LAYER
  5
207
100
AcDbSymbolTableRecord
100
AcDbLayerTableRecord
  2
11_NOTES_PUB
 70
0
 62
7
  6
CONTINUOUS
370
-3
390
F
  0
LAYER
  5
208
100
AcDbSymbolTableRecord
100
AcDbLayerTableRecord
  2
13_REF_GTOL
 70
0
 62
7
  6
CONTINUOUS
370
-3
390
F
  0
LAYER
  5
209
100
AcDbSymbolTableRecord
100
AcDbLayerTableRecord
  2
16_MISC
 70
0
 62
7
  6
CONTINUOUS
370
-3
390
F
  0
LAYER
  5
20A
100
AcDbSymbolTableRecord
100
AcDbLayerTableRecord
  2
17_NO_PRINT
 70
0
 62
7
  6
CONTINUOUS
370
-3
390
F
  0
LAYER
  5
20B
100
AcDbSymbolTableRecord
100
AcDbLayerTableRecord
  2
18_DATUM_CAMS_JOINTS
 70
0
 62
7
  6
CONTINUOUS
370
-3
390
F
  0
LAYER
  5
20C
100
AcDbSymbolTableRecord
100
AcDbLayerTableRecord
  2
19_DATUM_FUNCTIONAL
 70
0
 62
7
  6
CONTINUOUS
370
-3
390
F
  0
LAYER
  5
20D
100
AcDbSymbolTableRecord
100
AcDbLayerTableRecord
  2
20_DATUM_KINEMATIC_SCHEME
 70
0
 62
7
  6
CONTINUOUS
370
-3
390
F
  0
ENDTAB
  0
TABLE
  2
STYLE
  5
3
100
AcDbSymbolTable
 70
1
  0
STYLE
  5
11
100
AcDbSymbolTableRecord
100
AcDbTextStyleTableRecord
  2
STANDARD
 70
0
 40
0.0
 41
1.0
 50
0.0
 71
0
 42
0.2
  3
ARIAL.TTF
  4

  0
STYLE
  5
20E
100
AcDbSymbolTableRecord
100
AcDbTextStyleTableRecord
  2
TEXTSTYLE_1
 70
0
 40
0.0
 41
0.8
 50
0.0
 71
0
 42
0.2
  3
gdt
  4

  0
ENDTAB
  0
TABLE
  2
VIEW
  5
6
100
AcDbSymbolTable
 70
0
  0
ENDTAB
  0
TABLE
  2
UCS
  5
7
100
AcDbSymbolTable
 70
0
  0
ENDTAB
  0
TABLE
  2
APPID
  5
9
100
AcDbSymbolTable
 70
1
  0
APPID
  5
20F
100
AcDbSymbolTableRecord
100
AcDbRegAppTableRecord
  2
ACAD
 70
0
  0
ENDTAB
  0
TABLE
  2
BLOCK_RECORD
  5
1
100
AcDbSymbolTable
 70
0
  0
BLOCK_RECORD
  5
210
100
AcDbSymbolTableRecord
100
AcDbBlockTableRecord
  2
*Model_Space
  0
BLOCK_RECORD
  5
211
100
AcDbSymbolTableRecord
100
AcDbBlockTableRecord
  2
*Paper_Space
  0
BLOCK_RECORD
  5
212
100
AcDbSymbolTableRecord
100
AcDbBlockTableRecord
  2
_FILLED
  0
ENDTAB
  0
TABLE
  2
DIMSTYLE
  5
A
100
AcDbSymbolTable
 70
1
100
AcDbDimStyleTable
 71
0
  0
DIMSTYLE
105
213
100
AcDbSymbolTableRecord
100
AcDbDimStyleTableRecord
  2
STANDARD
 70
0
  3

  4

 40
1.0
 41
1.0272953005
 42
1.0
 43
0.38
 44
1.0
 45
0.0
 46
0.0
 47
0.01
 48
0.01
140
1.4382134207
141
0.09
142
0.0
143
25.4
144
1.0
145
0.0
146
1.0
147
0.625
 71
1
 72
0
 73
0
 74
0
 75
0
 76
0
 77
1
 78
8
 79
2
170
0
171
1
172
0
173
0
174
0
175
0
176
0
177
0
178
0
270
2
179
2
271
2
272
2
273
2
274
2
275
0
280
0
281
0
282
0
283
1
284
8
285
0
286
0
287
3
288
0
340
11
278
46
341
212
342
212
343
212
344
212
  0
ENDTAB
  0
ENDSEC
  0
SECTION
  2
BLOCKS
  0
BLOCK
  5
20
100
AcDbEntity
  8
0
100
AcDbBlockBegin
  2
*Model_Space
 70
0
 10
0.0
 20
0.0
 30
0.0
  3
*Model_Space
  1

  0
ENDBLK
  5
21
100
AcDbEntity
  8
0
100
AcDbBlockEnd
  0
BLOCK
  5
1C
100
AcDbEntity
  8
0
100
AcDbBlockBegin
  2
*Paper_Space
 70
0
 10
0.0
 20
0.0
 30
0.0
  3
*Paper_Space
  1

  0
ENDBLK
  5
1D
100
AcDbEntity
  8
0
100
AcDbBlockEnd
  0
BLOCK
  5
214
100
AcDbEntity
  8
0
100
AcDbBlockBegin
  2
_FILLED
 70
64
 10
0.0
 20
0.0
  3
_FILLED
  1

  0
SOLID
  5
215
100
AcDbEntity
  8
0
  6
BYBLOCK
 62
0
100
AcDbTrace
 10
0.0
 20
0.0
 11
-1.0
 21
0.25
 12
-1.0
 22
-0.25
 13
-1.0
 23
-0.25
  0
ENDBLK
  5
216
100
AcDbEntity
  8
0
  6
BYBLOCK
 62
0
100
AcDbBlockEnd
  0
ENDSEC
  0
SECTION
  2
ENTITIES
  0
LINE
  5
217
100
AcDbEntity
  8
0
100
AcDbLine
 62
7
  6
BYLAYER
 10
50.3307191065
 20
80.5949013349
 11
42.9061288158
 21
76.3083377193
  0
LWPOLYLINE
  5
218
100
AcDbEntity
  8
0
100
AcDbPolyline
 62
7
  6
BYLAYER
 90
3
 70
0
 10
37.6592770931
 20
66.5240964778
 10
36.0853855618
 20
64.9068352991
 10
35.829365194
 20
63.9820341692
  0
LWPOLYLINE
  5
219
100
AcDbEntity
  8
0
100
AcDbPolyline
 62
7
  6
BYLAYER
 90
3
 70
0
 10
40.1526090532
 20
69.2626499306
 10
38.508802849
 20
67.6280565051
 10
38.2025154868
 20
66.6833295961
  0
LINE
  5
21A
100
AcDbEntity
  8
0
100
AcDbLine
 62
7
  6
BYLAYER
 10
66.1828383912
 20
83.5116984378
 11
59.3597382414
 21
79.572403244
  0
LINE
  5
21B
100
AcDbEntity
  8
0
100
AcDbLine
 62
7
  6
BYLAYER
 10
33.6191677974
 20
50.0543032104
 11
36.0991077197
 21
50.5741370104
  0
LINE
  5
21C
100
AcDbEntity
  8
0
100
AcDbLine
 62
7
  6
BYLAYER
 10
30.4259470479
 20
55.5851568029
 11
32.1161160443
 21
57.4729221383
  0
LINE
  5
21D
100
AcDbEntity
  8
0
100
AcDbLine
 62
7
  6
BYLAYER
 10
15.4253723382
 20
47.8561931901
 11
12.010967184
 21
45.8848972223
  0
LINE
  5
21E
100
AcDbEntity
  8
0
100
AcDbLine
 62
7
  6
BYLAYER
 10
23.1108651633
 20
44.2375284673
 11
19.6591189075
 21
41.0989856241
  0
LINE
  5
21F
100
AcDbEntity
  8
0
100
AcDbLine
 62
7
  6
BYLAYER
 10
30.8249543294
 20
55.5923941114
 11
20.0294358222
 21
49.3596357998
  0
LINE
  5
220
100
AcDbEntity
  8
0
100
AcDbLine
 62
7
  6
BYLAYER
 10
19.6591189075
 20
41.0989856241
 11
19.4253544307
 21
40.927979621
  0
LINE
  5
221
100
AcDbEntity
  8
0
100
AcDbLine
 62
7
  6
BYLAYER
 10
15.4253723382
 20
47.8561931901
 11
15.690350724
 21
47.9731347942
  0
LINE
  5
222
100
AcDbEntity
  8
0
100
AcDbLine
 62
7
  6
BYLAYER
 10
33.8249408988
 20
50.3962339346
 11
23.0294223916
 21
44.1634756229
  0
LINE
  5
223
100
AcDbEntity
  8
0
100
AcDbLine
 62
7
  6
BYLAYER
 10
19.4253544307
 20
40.927979621
 11
16.0109492765
 21
38.9566836532
  0
LINE
  5
224
100
AcDbEntity
  8
0
100
AcDbLine
 62
7
  6
BYLAYER
 10
20.1342890257
 20
49.3931403448
 11
15.690350724
 21
47.9731347942
  0
LINE
  5
225
100
AcDbEntity
  8
0
100
AcDbLine
 62
7
  6
BYLAYER
 10
45.4075040302
 20
64.1366117926
 11
42.9342441099
 21
66.1501935796
  0
LINE
  5
226
100
AcDbEntity
  8
0
100
AcDbLine
 62
7
  6
BYLAYER
 10
46.4292026138
 20
68.4839821256
 11
47.2352599632
 21
68.2048162149
  0
LINE
  5
227
100
AcDbEntity
  8
0
100
AcDbLine
 62
7
  6
BYLAYER
 10
48.5700629327
 20
66.782278554
 11
45.9900735518
 21
68.8330322185
  0
LWPOLYLINE
  5
228
100
AcDbEntity
  8
0
100
AcDbPolyline
 62
7
  6
BYLAYER
 90
6
 70
0
 10
47.2352599632
 20
68.2048162149
 10
49.4248348103
 20
66.4373894598
 10
51.2751695584
 20
63.9421854938
 10
52.5183139102
 20
61.0770896951
 10
52.9528014592
 20
58.3007472578
 10
52.7466234426
 20
57.220144673
  0
LWPOLYLINE
  5
229
100
AcDbEntity
  8
0
100
AcDbPolyline
 62
7
  6
BYLAYER
 90
6
 70
0
 10
46.7092365773
 20
50.8490132776
 10
48.2831281086
 20
52.4662744564
 10
49.0064213153
 20
55.0789664879
 10
48.6648267324
 20
58.2302417845
 10
47.3935855988
 20
61.3766306575
 10
45.4075040302
 20
64.1366117926
  0
LINE
  5
22A
100
AcDbEntity
  8
0
100
AcDbLine
 62
7
  6
BYLAYER
 10
75.6827958608
 20
67.057191211
 11
68.6802168227
 21
63.0142744513
  0
LWPOLYLINE
  5
22B
100
AcDbEntity
  8
0
100
AcDbPolyline
 62
7
  6
BYLAYER
 90
7
 70
0
 10
53.9458904247
 20
52.4290000505
 10
55.7547044331
 20
54.2428231718
 10
56.668353405
 20
57.1356249909
 10
56.4647729785
 20
60.6941000882
 10
55.9657871801
 20
62.5465073132
 10
54.2954882671
 20
66.1314178687
 10
51.9081894218
 20
69.2424297763
  0
LWPOLYLINE
  5
22C
100
AcDbEntity
  8
0
100
AcDbPolyline
 62
7
  6
BYLAYER
 90
7
 70
0
 10
50.327563501
 20
51.6390066641
 10
51.9713697053
 20
53.2736000895
 10
52.816238008
 20
55.8795509671
 10
52.6494605363
 20
59.091247075
 10
52.205907224
 20
60.7594873934
 10
50.7123448488
 20
63.9834177871
 10
48.5700629327
 20
66.782278554
  0
LINE
  5
22D
100
AcDbEntity
  8
0
100
AcDbLine
 62
7
  6
BYLAYER
 10
51.9081894218
 20
69.2424297763
 11
49.0459029938
 21
71.5158708573
  0
LINE
  5
22E
100
AcDbEntity
  8
0
100
AcDbLine
 62
7
  6
BYLAYER
 10
65.230652401
 20
54.7873057898
 11
57.8060621103
 21
50.5007421742
  0
LINE
  5
22F
100
AcDbEntity
  8
0
100
AcDbLine
 62
7
  6
BYLAYER
 10
58.3243070531
 20
79.4911959446
 11
58.6431641994
 21
79.5202555831
  0
LINE
  5
230
100
AcDbEntity
  8
0
100
AcDbLine
 62
7
  6
BYLAYER
 10
59.4063551226
 20
78.7862818315
 11
60.7505218701
 21
78.2851927949
  0
ARC
  5
231
100
AcDbEntity
  8
0
100
AcDbCircle
 62
7
  6
BYLAYER
 10
50.388921312
 20
67.0651162417
 40
14.7739705227
100
AcDbArc
 50
55.970124724
 51
59.9785959949
  0
ARC
  5
232
100
AcDbEntity
  8
0
100
AcDbCircle
 62
7
  6
BYLAYER
 10
57.6219146041
 20
63.815635168
 40
14.5248953461
100
AcDbArc
 50
238.0289060113
 51
239.9846421066
  0
ARC
  5
233
100
AcDbEntity
  8
0
100
AcDbCircle
 62
7
  6
BYLAYER
 10
37.5854578154
 20
54.6731560454
 40
5.1448812569
100
AcDbArc
 50
238.1508111267
 51
239.986175422
  0
ARC
  5
234
100
AcDbEntity
  8
0
100
AcDbCircle
 62
7
  6
BYLAYER
 10
14.0109582303
 20
42.4207904377
 40
4.0
100
AcDbArc
 50
119.9998519061
 51
299.9998519061
  0
SPLINE
  5
235
100
AcDbEntity
  8
0
100
AcDbSpline
 62
7
  6
BYLAYER
 70
0
 71
3
 72
9
 73
5
 74
0
 42
0.0000001
 43
0.0000001
 44
0.0000000001
 40
0.0
 40
0.0
 40
0.0
 40
0.0
 40
0.2579825718
 40
1.0
 40
1.0
 40
1.0
 40
1.0
 10
33.269077868
 20
50.0298848672
 30
0.0
 10
33.2992547431
 20
50.0281634474
 30
0.0
 10
33.4163796893
 20
50.0249688913
 30
0.0
 10
33.534061469
 20
50.0365091084
 30
0.0
 10
33.6191486495
 20
50.0543464968
 30
0.0
  0
SPLINE
  5
236
100
AcDbEntity
  8
0
100
AcDbSpline
 62
7
  6
BYLAYER
 70
0
 71
3
 72
15
 73
11
 74
0
 42
0.0000001
 43
0.0000001
 44
0.0000000001
 40
0.0
 40
0.0
 40
0.0
 40
0.0
 40
0.1080110028
 40
0.218058199
 40
0.3319994386
 40
0.451356528
 40
0.5772620738
 40
0.7104933273
 40
0.8514587837
 40
1.0
 40
1.0
 40
1.0
 40
1.0
 10
66.1828518465
 20
83.5116753784
 30
0.0
 10
66.3385943054
 20
83.6016122815
 30
0.0
 10
66.6692917267
 20
83.7564457641
 30
0.0
 10
67.2043574941
 20
83.90444778
 30
0.0
 10
67.7747698765
 20
83.9680105886
 30
0.0
 10
68.374410249
 20
83.9472095332
 30
0.0
 10
68.9975402045
 20
83.8426737494
 30
0.0
 10
69.6384447003
 20
83.6558762588
 30
0.0
 10
70.2908640359
 20
83.3887329406
 30
0.0
 10
70.7186211307
 20
83.164881105
 30
0.0
 10
70.932817126
 20
83.0412177871
 30
0.0
  0
SPLINE
  5
237
100
AcDbEntity
  8
0
100
AcDbSpline
 62
7
  6
BYLAYER
 70
0
 71
3
 72
10
 73
6
 74
0
 42
0.0000001
 43
0.0000001
 44
0.0000000001
 40
0.0
 40
0.0
 40
0.0
 40
0.0
 40
0.2264366942
 40
0.594534604
 40
1.0
 40
1.0
 40
1.0
 40
1.0
 10
58.6008482779
 20
79.6438821356
 30
0.0
 10
58.8624978856
 20
79.6416454315
 30
0.0
 10
59.549695803
 20
79.5776152236
 30
0.0
 10
60.6686989897
 20
79.2599650759
 30
0.0
 10
61.4761216548
 20
78.8664590491
 30
0.0
 10
61.8818880096
 20
78.6321950347
 30
0.0
  0
SPLINE
  5
238
100
AcDbEntity
  8
0
100
AcDbSpline
 62
7
  6
BYLAYER
 70
0
 71
3
 72
15
 73
11
 74
0
 42
0.0000001
 43
0.0000001
 44
0.0000000001
 40
0.0
 40
0.0
 40
0.0
 40
0.0
 40
0.1068165405
 40
0.2158567249
 40
0.3291259483
 40
0.4482439867
 40
0.5743815639
 40
0.7082512372
 40
0.8501445528
 40
1.0
 40
1.0
 40
1.0
 40
1.0
 10
42.9061421648
 20
76.3083143159
 30
0.0
 10
42.6490176753
 20
76.1598867123
 30
0.0
 10
42.1555032467
 20
75.8121073921
 30
0.0
 10
41.508918431
 20
75.158951201
 30
0.0
 10
40.9595157467
 20
74.3802257203
 30
0.0
 10
40.5126294742
 20
73.4857746976
 30
0.0
 10
40.1720580523
 20
72.4855658637
 30
0.0
 10
39.9406512699
 20
71.3903050817
 30
0.0
 10
39.8201065795
 20
70.2115586756
 30
0.0
 10
39.8145608837
 20
69.3993970913
 30
0.0
 10
39.8290514521
 20
68.9831350396
 30
0.0
  0
SPLINE
  5
239
100
AcDbEntity
  8
0
100
AcDbSpline
 62
7
  6
BYLAYER
 70
0
 71
3
 72
15
 73
11
 74
0
 42
0.0000001
 43
0.0000001
 44
0.0000000001
 40
0.0
 40
0.0
 40
0.0
 40
0.0
 40
0.1080137743
 40
0.2180614182
 40
0.3319976061
 40
0.4513595334
 40
0.5772700781
 40
0.7104895929
 40
0.851435583
 40
1.0
 40
1.0
 40
1.0
 40
1.0
 10
50.3307323218
 20
80.5948781862
 30
0.0
 10
50.57503105
 20
80.735902261
 30
0.0
 10
51.0936751814
 20
80.9788269768
 30
0.0
 10
51.9329106011
 20
81.2108470141
 30
0.0
 10
52.827540858
 20
81.3106972016
 30
0.0
 10
53.7680436519
 20
81.2779063567
 30
0.0
 10
54.7453768758
 20
81.1140306988
 30
0.0
 10
55.7505102757
 20
80.8210273306
 30
0.0
 10
56.7737918598
 20
80.4021217789
 30
0.0
 10
57.444683264
 20
80.050976317
 30
0.0
 10
57.7806857538
 20
79.8569895776
 30
0.0
  0
SPLINE
  5
23A
100
AcDbEntity
  8
0
100
AcDbSpline
 62
7
  6
BYLAYER
 70
0
 71
3
 72
14
 73
10
 74
0
 42
0.0000001
 43
0.0000001
 44
0.0000000001
 40
0.0
 40
0.0
 40
0.0
 40
0.0
 40
0.2699035638
 40
0.3982557168
 40
0.5228640211
 40
0.6445376514
 40
0.7641463122
 40
0.8822753433
 40
1.0
 40
1.0
 40
1.0
 40
1.0
 10
49.0459029938
 20
71.5158708573
 30
0.0
 10
48.5222843824
 20
71.8181753645
 30
0.0
 10
47.7082556204
 20
72.2013386598
 30
0.0
 10
46.5795945223
 20
72.5220503538
 30
0.0
 10
45.7484801668
 20
72.6539699172
 30
0.0
 10
44.9264821373
 20
72.6746249777
 30
0.0
 10
44.124112819
 20
72.5774372334
 30
0.0
 10
43.3548405163
 20
72.3595718767
 30
0.0
 10
42.8743283816
 20
72.1330621048
 30
0.0
 10
42.6459410134
 20
72.0012033834
 30
0.0
  0
SPLINE
  5
23B
100
AcDbEntity
  8
0
100
AcDbSpline
 62
7
  6
BYLAYER
 70
0
 71
3
 72
15
 73
11
 74
0
 42
0.0000001
 43
0.0000001
 44
0.0000000001
 40
0.0
 40
0.0
 40
0.0
 40
0.0
 40
0.1485634047
 40
0.2895069003
 40
0.422725584
 40
0.5486364828
 40
0.6679989705
 40
0.7819359676
 40
0.8919847775
 40
1.0
 40
1.0
 40
1.0
 40
1.0
 10
50.3560954631
 20
51.2386539315
 30
0.0
 10
50.692095679
 20
51.0446685049
 30
0.0
 10
51.3629775321
 20
50.6935243193
 30
0.0
 10
52.386249565
 20
50.2746254254
 30
0.0
 10
53.391373877
 20
49.9816188601
 30
0.0
 10
54.3687069172
 20
49.8177406333
 30
0.0
 10
55.3092140446
 20
49.7849433615
 30
0.0
 10
56.2038513013
 20
49.8847922851
 30
0.0
 10
57.0430960378
 20
50.1168124917
 30
0.0
 10
57.561746631
 20
50.3597398051
 30
0.0
 10
57.8060487613
 20
50.5007655776
 30
0.0
  0
SPLINE
  5
23C
100
AcDbEntity
  8
0
100
AcDbSpline
 62
7
  6
BYLAYER
 70
0
 71
3
 72
11
 73
7
 74
0
 42
0.0000001
 43
0.0000001
 44
0.0000000001
 40
0.0
 40
0.0
 40
0.0
 40
0.0
 40
0.2560861721
 40
0.5068892956
 40
0.7540532976
 40
1.0
 40
1.0
 40
1.0
 40
1.0
 10
50.5372396576
 20
51.8302835269
 30
0.0
 10
50.8349627763
 20
51.7883622085
 30
0.0
 10
51.4310719484
 20
51.7457508433
 30
0.0
 10
52.3170072294
 20
51.8208761373
 30
0.0
 10
53.1667697455
 20
52.0403602435
 30
0.0
 10
53.6958202781
 20
52.2846228459
 30
0.0
 10
53.9458904247
 20
52.4290000505
 30
0.0
  0
SPLINE
  5
23D
100
AcDbEntity
  8
0
100
AcDbSpline
 62
7
  6
BYLAYER
 70
0
 71
3
 72
25
 73
21
 74
0
 42
0.0000001
 43
0.0000001
 44
0.0000000001
 40
0.0
 40
0.0
 40
0.0
 40
0.0
 40
0.0646019277
 40
0.1326630989
 40
0.2034687174
 40
0.2761463531
 40
0.3497530138
 40
0.4233029477
 40
0.4958134991
 40
0.5663458593
 40
0.6340462241
 40
0.6981925272
 40
0.7582474589
 40
0.8139217872
 40
0.8652494034
 40
0.9126683878
 40
0.9352103415
 40
0.9571540594
 40
0.9786833474
 40
1.0
 40
1.0
 40
1.0
 40
1.0
 10
58.656806129
 20
79.308983509
 30
0.0
 10
59.1692679106
 20
78.9637359506
 30
0.0
 10
60.1809793183
 20
78.1930846102
 30
0.0
 10
61.6051489142
 20
76.8626935268
 30
0.0
 10
62.9532581467
 20
75.3502019688
 30
0.0
 10
64.198416052
 20
73.685494762
 30
0.0
 10
65.316009631
 20
71.901627976
 30
0.0
 10
66.2838141271
 20
70.0340553889
 30
0.0
 10
67.0825934441
 20
68.1198963314
 30
0.0
 10
67.6964946541
 20
66.1971248091
 30
0.0
 10
68.113330162
 20
64.3037320511
 30
0.0
 10
68.3247339863
 20
62.4768780788
 30
0.0
 10
68.3262064336
 20
60.7521235609
 30
0.0
 10
68.116645435
 20
59.1625223124
 30
0.0
 10
67.6985738985
 20
57.7390007836
 30
0.0
 10
67.1704087071
 20
56.6965291811
 30
0.0
 10
66.6506684062
 20
55.9855838267
 30
0.0
 10
66.2217925648
 20
55.5201601637
 30
0.0
 10
65.7498359006
 20
55.1163570746
 30
0.0
 10
65.40722114
 20
54.8892627756
 30
0.0
 10
65.2306391858
 20
54.7873289386
 30
0.0
  0
SPLINE
  5
23E
100
AcDbEntity
  8
0
100
AcDbSpline
 62
7
  6
BYLAYER
 70
0
 71
3
 72
11
 73
7
 74
0
 42
0.0000001
 43
0.0000001
 44
0.0000000001
 40
0.0
 40
0.0
 40
0.0
 40
0.0
 40
0.2463468189
 40
0.4935877274
 40
0.7443554177
 40
1.0
 40
1.0
 40
1.0
 40
1.0
 10
42.6459410134
 20
72.0012033834
 30
0.0
 10
42.4045116439
 20
71.8618149039
 30
0.0
 10
41.9443592795
 20
71.5392255271
 30
0.0
 10
41.3458813137
 20
70.9410046541
 30
0.0
 10
40.8465740343
 20
70.2453137775
 30
0.0
 10
40.5855033073
 20
69.7325529924
 30
0.0
 10
40.4719724531
 20
69.4664604455
 30
0.0
  0
SPLINE
  5
23F
100
AcDbEntity
  8
0
100
AcDbSpline
 62
7
  6
BYLAYER
 70
0
 71
3
 72
16
 73
12
 74
0
 42
0.0000001
 43
0.0000001
 44
0.0000000001
 40
0.0
 40
0.0
 40
0.0
 40
0.0
 40
0.0557556715
 40
0.114017311
 40
0.236870907
 40
0.3661898947
 40
0.4989489645
 40
0.6318614726
 40
0.7616234016
 40
0.8851794578
 40
1.0
 40
1.0
 40
1.0
 40
1.0
 10
58.6645655503
 20
79.2854290673
 30
0.0
 10
58.9824042449
 20
79.1019289627
 30
0.0
 10
59.6164808902
 20
78.6985891033
 30
0.0
 10
60.865385391
 20
77.7632223368
 30
0.0
 10
62.3655670408
 20
76.3660269608
 30
0.0
 10
63.9977197205
 20
74.4207201458
 30
0.0
 10
65.4345500038
 20
72.2471941128
 30
0.0
 10
66.6232088173
 20
69.9255503013
 30
0.0
 10
67.5202375618
 20
67.540356889
 30
0.0
 10
68.0927688119
 20
65.1794621345
 30
0.0
 10
68.2506649516
 20
63.6111429893
 30
0.0
 10
68.2620680809
 20
62.8554336539
 30
0.0
  0
SPLINE
  5
240
100
AcDbEntity
  8
0
100
AcDbSpline
 62
7
  6
BYLAYER
 70
0
 71
3
 72
19
 73
15
 74
0
 42
0.0000001
 43
0.0000001
 44
0.0000000001
 40
0.0
 40
0.0
 40
0.0
 40
0.0
 40
0.0571842998
 40
0.1172619899
 40
0.1798506109
 40
0.244564673
 40
0.3783626211
 40
0.5145211487
 40
0.6485826051
 40
0.7763015518
 40
0.8366805365
 40
0.8942316663
 40
0.9487110336
 40
1.0
 40
1.0
 40
1.0
 40
1.0
 10
60.7505218701
 20
78.2851927949
 30
0.0
 10
61.0432983881
 20
78.1161620174
 30
0.0
 10
61.6268046117
 20
77.7397311243
 30
0.0
 10
62.4682154388
 20
77.0878871793
 30
0.0
 10
63.2884966618
 20
76.3417062937
 30
0.0
 10
64.3519389581
 20
75.2213309267
 30
0.0
 10
65.5613810483
 20
73.6474240114
 30
0.0
 10
66.7665084145
 20
71.5779646736
 30
0.0
 10
67.684529097
 20
69.4049189884
 30
0.0
 10
68.1833901779
 20
67.5590526957
 30
0.0
 10
68.3939779138
 20
66.1207017209
 30
0.0
 10
68.4551298801
 20
65.1018379266
 30
0.0
 10
68.4215923303
 20
64.135413558
 30
0.0
 10
68.3335865621
 20
63.5147182502
 30
0.0
 10
68.2724351272
 20
63.2177339518
 30
0.0
  0
SPLINE
  5
241
100
AcDbEntity
  8
0
100
AcDbSpline
 62
7
  6
BYLAYER
 70
0
 71
3
 72
14
 73
10
 74
0
 42
0.0000001
 43
0.0000001
 44
0.0000000001
 40
0.0
 40
0.0
 40
0.0
 40
0.0
 40
0.2682832634
 40
0.3962474662
 40
0.520769078
 40
0.6426506064
 40
0.7627291282
 40
0.8815105949
 40
1.0
 40
1.0
 40
1.0
 40
1.0
 10
45.9900735518
 20
68.8330322185
 30
0.0
 10
45.5153967919
 20
69.1070807738
 30
0.0
 10
44.7765080811
 20
69.454379903
 30
0.0
 10
43.7510010576
 20
69.7447242829
 30
0.0
 10
42.993404578
 20
69.8640175756
 30
0.0
 10
42.2425001489
 20
69.8818910682
 30
0.0
 10
41.5081479939
 20
69.791994751
 30
0.0
 10
40.803029832
 20
69.5916487935
 30
0.0
 10
40.3622528902
 20
69.3836871338
 30
0.0
 10
40.1526090532
 20
69.2626499306
 30
0.0
  0
SPLINE
  5
242
100
AcDbEntity
  8
0
100
AcDbSpline
 62
7
  6
BYLAYER
 70
0
 71
3
 72
23
 73
19
 74
0
 42
0.0000001
 43
0.0000001
 44
0.0000000001
 40
0.0
 40
0.0
 40
0.0
 40
0.0
 40
0.0599356371
 40
0.1233485678
 40
0.1896888354
 40
0.2583423339
 40
0.3285748025
 40
0.3996042182
 40
0.4706194723
 40
0.5408081399
 40
0.6093872103
 40
0.6756327509
 40
0.7389119995
 40
0.7987178336
 40
0.8547099488
 40
0.9067659452
 40
0.9550364461
 40
1.0
 40
1.0
 40
1.0
 40
1.0
 10
61.8818880096
 20
78.6321950347
 30
0.0
 10
62.217054074
 20
78.4386911948
 30
0.0
 10
62.8839411782
 20
77.9999089286
 30
0.0
 10
63.8362582255
 20
77.2269197784
 30
0.0
 10
64.7551626788
 20
76.3318482656
 30
0.0
 10
65.625028874
 20
75.3302296973
 30
0.0
 10
66.4311450018
 20
74.2388421278
 30
0.0
 10
67.1598155755
 20
73.0763159274
 30
0.0
 10
67.7986724894
 20
71.8624296828
 30
0.0
 10
68.3368204563
 20
70.6178318384
 30
0.0
 10
68.7650755439
 20
69.3636773372
 30
0.0
 10
69.0761835377
 20
68.1212383993
 30
0.0
 10
69.2648540195
 20
66.9114835922
 30
0.0
 10
69.3277677561
 20
65.7546762814
 30
0.0
 10
69.2635548719
 20
64.670081414
 30
0.0
 10
69.0725715222
 20
63.6754786744
 30
0.0
 10
68.7571388978
 20
62.7878025947
 30
0.0
 10
68.4565353903
 20
62.2611899165
 30
0.0
 10
68.2871773296
 20
62.0253648785
 30
0.0
  0
SPLINE
  5
243
100
AcDbEntity
  8
0
100
AcDbSpline
 62
7
  6
BYLAYER
 70
0
 71
3
 72
24
 73
20
 74
0
 42
0.0000001
 43
0.0000001
 44
0.0000000001
 40
0.0
 40
0.0
 40
0.0
 40
0.0
 40
0.062380893
 40
0.1287351519
 40
0.1983277635
 40
0.2703103454
 40
0.3436916061
 40
0.4174293395
 40
0.490459976
 40
0.5617523572
 40
0.6303554713
 40
0.6954484933
 40
0.7564005787
 40
0.8128418827
 40
0.8647464963
 40
0.9125255058
 40
0.9571039201
 40
0.9786660506
 40
1.0
 40
1.0
 40
1.0
 40
1.0
 10
70.932817126
 20
83.0412177871
 30
0.0
 10
71.2740992637
 20
82.8441829106
 30
0.0
 10
71.9521503433
 20
82.3910163946
 30
0.0
 10
72.9124023982
 20
81.5830032669
 30
0.0
 10
73.8302577379
 20
80.6405351083
 30
0.0
 10
74.6861740956
 20
79.5840333842
 30
0.0
 10
75.4619857391
 20
78.4357352835
 30
0.0
 10
76.1411436278
 20
77.2201999083
 30
0.0
 10
76.7091747635
 20
75.9633451508
 30
0.0
 10
77.1539700968
 20
74.6919638561
 30
0.0
 10
77.4660593924
 20
73.4330531863
 30
0.0
 10
77.6387443326
 20
72.2131750639
 30
0.0
 10
77.6681252575
 20
71.0578165843
 30
0.0
 10
77.5530456658
 20
69.990844934
 30
0.0
 10
77.2944304832
 20
69.0340853693
 30
0.0
 10
76.8955459701
 20
68.2080163788
 30
0.0
 10
76.4442676635
 20
67.6380649542
 30
0.0
 10
76.0257483363
 20
67.2753543108
 30
0.0
 10
75.7994923572
 20
67.1246109951
 30
0.0
 10
75.6827824054
 20
67.0572142704
 30
0.0
  0
SPLINE
  5
244
100
AcDbEntity
  8
0
100
AcDbSpline
 62
7
  6
BYLAYER
 70
0
 71
3
 72
11
 73
7
 74
0
 42
0.0000001
 43
0.0000001
 44
0.0000000001
 40
0.0
 40
0.0
 40
0.0
 40
0.0
 40
0.256110594
 40
0.5068374097
 40
0.7540258895
 40
1.0
 40
1.0
 40
1.0
 40
1.0
 10
46.9892835225
 20
51.1211161247
 30
0.0
 10
47.2788749806
 20
51.0699358657
 30
0.0
 10
47.8603477478
 20
51.0092354452
 30
0.0
 10
48.7287599122
 20
51.0605382086
 30
0.0
 10
49.563714345
 20
51.2616116631
 30
0.0
 10
50.0829628643
 20
51.4977872636
 30
0.0
 10
50.327563501
 20
51.6390066641
 30
0.0
  0
SPLINE
  5
245
100
AcDbEntity
  8
0
100
AcDbSpline
 62
7
  6
BYLAYER
 70
0
 71
3
 72
13
 73
9
 74
0
 42
0.0000001
 43
0.0000001
 44
0.0000000001
 40
0.0
 40
0.0
 40
0.0
 40
0.0
 40
0.2616194186
 40
0.5119382249
 40
0.634805884
 40
0.756895336
 40
0.8783953132
 40
1.0
 40
1.0
 40
1.0
 40
1.0
 10
36.8225852261
 20
60.7845163018
 30
0.0
 10
36.4938333294
 20
60.974317004
 30
0.0
 10
35.8160426266
 20
61.2909322798
 30
0.0
 10
34.906915884
 20
61.4915177525
 30
0.0
 10
34.1862164889
 20
61.5033146436
 30
0.0
 10
33.6568605802
 20
61.4348720658
 30
0.0
 10
33.1458363563
 20
61.2870785422
 30
0.0
 10
32.8254214207
 20
61.1352129288
 30
0.0
 10
32.6726131727
 20
61.0469895723
 30
0.0
  0
SPLINE
  5
246
100
AcDbEntity
  8
0
100
AcDbSpline
 62
7
  6
BYLAYER
 70
0
 71
3
 72
11
 73
7
 74
0
 42
0.0000001
 43
0.0000001
 44
0.0000000001
 40
0.0
 40
0.0
 40
0.0
 40
0.0
 40
0.2466674787
 40
0.4940795432
 40
0.7442563247
 40
1.0
 40
1.0
 40
1.0
 40
1.0
 10
39.4725827299
 20
49.2690265047
 30
0.0
 10
39.7022932129
 20
49.4016491223
 30
0.0
 10
40.1314886625
 20
49.7252466598
 30
0.0
 10
40.6426722799
 20
50.349746177
 30
0.0
 10
41.0112454527
 20
51.0773663674
 30
0.0
 10
41.1608762881
 20
51.6038472889
 30
0.0
 10
41.2144953986
 20
51.8735757098
 30
0.0
  0
SPLINE
  5
247
100
AcDbEntity
  8
0
100
AcDbSpline
 62
7
  6
BYLAYER
 70
0
 71
3
 72
9
 73
5
 74
0
 42
0.0000001
 43
0.0000001
 44
0.0000000001
 40
0.0
 40
0.0
 40
0.0
 40
0.0
 40
0.2442133378
 40
1.0
 40
1.0
 40
1.0
 40
1.0
 10
41.2144953986
 20
51.8735757098
 30
0.0
 10
41.2374037388
 20
51.9888150412
 30
0.0
 10
41.3148546144
 20
52.463907138
 30
0.0
 10
41.3299211029
 20
52.9482833099
 30
0.0
 10
41.3127117139
 20
53.3114947025
 30
0.0
  0
SPLINE
  5
248
100
AcDbEntity
  8
0
100
AcDbSpline
 62
7
  6
BYLAYER
 70
0
 71
3
 72
15
 73
11
 74
0
 42
0.0000001
 43
0.0000001
 44
0.0000000001
 40
0.0
 40
0.0
 40
0.0
 40
0.0
 40
0.1175632906
 40
0.2396315313
 40
0.3654130257
 40
0.4936551039
 40
0.6228151076
 40
0.7512631192
 40
0.8774214941
 40
1.0
 40
1.0
 40
1.0
 40
1.0
 10
41.3127117139
 20
53.3114947025
 30
0.0
 10
41.2984283894
 20
53.6129502728
 30
0.0
 10
41.2292218265
 20
54.2259877128
 30
0.0
 10
41.0191123781
 20
55.1419107433
 30
0.0
 10
40.7073345622
 20
56.0573474987
 30
0.0
 10
40.3014660803
 20
56.9549669478
 30
0.0
 10
39.8105304411
 20
57.8168778804
 30
0.0
 10
39.2446884665
 20
58.6251313459
 30
0.0
 10
38.6152043564
 20
59.3627636781
 30
0.0
 10
38.1524381832
 20
59.80482601
 30
0.0
 10
37.9129087412
 20
60.0088890362
 30
0.0
  0
SPLINE
  5
249
100
AcDbEntity
  8
0
100
AcDbSpline
 62
7
  6
BYLAYER
 70
0
 71
3
 72
9
 73
5
 74
0
 42
0.0000001
 43
0.0000001
 44
0.0000000001
 40
0.0
 40
0.0
 40
0.0
 40
0.0
 40
0.2559260951
 40
1.0
 40
1.0
 40
1.0
 40
1.0
 10
37.9129087412
 20
60.0088890362
 30
0.0
 10
37.8259522688
 20
60.0829701209
 30
0.0
 10
37.4802422339
 20
60.3653170681
 30
0.0
 10
37.1102127543
 20
60.6184582277
 30
0.0
 10
36.8225852261
 20
60.7845163018
 30
0.0
  0
SPLINE
  5
24A
100
AcDbEntity
  8
0
100
AcDbSpline
 62
7
  6
BYLAYER
 70
0
 71
3
 72
13
 73
9
 74
0
 42
0.0000001
 43
0.0000001
 44
0.0000000001
 40
0.0
 40
0.0
 40
0.0
 40
0.0
 40
0.2616194186
 40
0.5119382249
 40
0.634805884
 40
0.756895336
 40
0.8783953132
 40
1.0
 40
1.0
 40
1.0
 40
1.0
 10
35.3226106766
 20
49.5314997752
 30
0.0
 10
35.6513625733
 20
49.341699073
 30
0.0
 10
36.329153276
 20
49.0250837973
 30
0.0
 10
37.2382800187
 20
48.8244983245
 30
0.0
 10
37.9589794138
 20
48.8127014334
 30
0.0
 10
38.4883353224
 20
48.8811440113
 30
0.0
 10
38.9993595463
 20
49.0289375348
 30
0.0
 10
39.319774482
 20
49.1808031483
 30
0.0
 10
39.4725827299
 20
49.2690265047
 30
0.0
  0
SPLINE
  5
24B
100
AcDbEntity
  8
0
100
AcDbSpline
 62
7
  6
BYLAYER
 70
0
 71
3
 72
15
 73
11
 74
0
 42
0.0000001
 43
0.0000001
 44
0.0000000001
 40
0.0
 40
0.0
 40
0.0
 40
0.0
 40
0.1192351885
 40
0.2384710521
 40
0.358617338
 40
0.4801997814
 40
0.604296661
 40
0.7319041165
 40
0.8636972494
 40
1.0
 40
1.0
 40
1.0
 40
1.0
 10
32.6726131727
 20
61.0469895723
 30
0.0
 10
32.4851712312
 20
60.9387705629
 30
0.0
 10
32.1308605284
 20
60.6842054241
 30
0.0
 10
31.6841572474
 20
60.20555813
 30
0.0
 10
31.3296401538
 20
59.6504218542
 30
0.0
 10
31.0705389697
 20
59.03594523
 30
0.0
 10
30.9027072294
 20
58.3771620726
 30
0.0
 10
30.8214443542
 20
57.6839613186
 30
0.0
 10
30.8217383392
 20
56.9642671944
 30
0.0
 10
30.872869653
 20
56.4793664987
 30
0.0
 10
30.9102018839
 20
56.23477867
 30
0.0
  0
SPLINE
  5
24C
100
AcDbEntity
  8
0
100
AcDbSpline
 62
7
  6
BYLAYER
 70
0
 71
3
 72
9
 73
5
 74
0
 42
0.0000001
 43
0.0000001
 44
0.0000000001
 40
0.0
 40
0.0
 40
0.0
 40
0.0
 40
0.2549897462
 40
1.0
 40
1.0
 40
1.0
 40
1.0
 10
34.4323931132
 20
50.1420707165
 30
0.0
 10
34.5041425733
 20
50.0848065946
 30
0.0
 10
34.7893797404
 20
49.8651405879
 30
0.0
 10
35.0903298506
 20
49.6656041388
 30
0.0
 10
35.3226106766
 20
49.5314997752
 30
0.0
  0
SPLINE
  5
24D
100
AcDbEntity
  8
0
100
AcDbSpline
 62
7
  6
BYLAYER
 70
0
 71
3
 72
9
 73
5
 74
0
 42
0.0000001
 43
0.0000001
 44
0.0000000001
 40
0.0
 40
0.0
 40
0.0
 40
0.0
 40
0.2445041794
 40
1.0
 40
1.0
 40
1.0
 40
1.0
 10
30.4259531921
 20
55.5851484458
 30
0.0
 10
30.4103051449
 20
55.567668126
 30
0.0
 10
30.3484172059
 20
55.4942983634
 30
0.0
 10
30.2951000149
 20
55.4138177917
 30
0.0
 10
30.2597160627
 20
55.3505472453
 30
0.0
  0
SPLINE
  5
24E
100
AcDbEntity
  8
0
100
AcDbSpline
 62
7
  6
BYLAYER
 70
0
 71
3
 72
14
 73
10
 74
0
 42
0.0000001
 43
0.0000001
 44
0.0000000001
 40
0.0
 40
0.0
 40
0.0
 40
0.0
 40
0.2663874298
 40
0.3939053397
 40
0.5183343389
 40
0.640465155
 40
0.761092323
 40
0.8806304001
 40
1.0
 40
1.0
 40
1.0
 40
1.0
 10
42.9342441099
 20
66.1501935796
 30
0.0
 10
42.5083965415
 20
66.3960512258
 30
0.0
 10
41.8444741205
 20
66.7075412632
 30
0.0
 10
40.9219102816
 20
66.9675008539
 30
0.0
 10
40.2377589269
 20
67.074104667
 30
0.0
 10
39.5579705063
 20
67.0891145768
 30
0.0
 10
38.8917563984
 20
67.0064529145
 30
0.0
 10
38.2509965713
 20
66.8236250772
 30
0.0
 10
37.8501008202
 20
66.6342679504
 30
0.0
 10
37.6592770931
 20
66.5240964778
 30
0.0
  0
SPLINE
  5
24F
100
AcDbEntity
  8
0
100
AcDbSpline
 62
7
  6
BYLAYER
 70
0
 71
3
 72
12
 73
8
 74
0
 42
0.0000001
 43
0.0000001
 44
0.0000000001
 40
0.0
 40
0.0
 40
0.0
 40
0.0
 40
0.2558044434
 40
0.5063230689
 40
0.6304317319
 40
0.7538664558
 40
1.0
 40
1.0
 40
1.0
 40
1.0
 10
43.4883018408
 20
50.4109625108
 30
0.0
 10
43.7654508752
 20
50.3524656462
 30
0.0
 10
44.3236598124
 20
50.2767871591
 30
0.0
 10
45.0252581702
 20
50.3011781006
 30
0.0
 10
45.5691388052
 20
50.3973359236
 30
0.0
 10
46.0964126531
 20
50.5438475855
 30
0.0
 10
46.4732040862
 20
50.7127406688
 30
0.0
 10
46.7092365773
 20
50.8490132776
 30
0.0
  0
SPLINE
  5
250
100
AcDbEntity
  8
0
100
AcDbSpline
 62
7
  6
BYLAYER
 70
0
 71
3
 72
13
 73
9
 74
0
 42
0.0000001
 43
0.0000001
 44
0.0000000001
 40
0.0
 40
0.0
 40
0.0
 40
0.0
 40
0.2642717852
 40
0.5152681498
 40
0.6377586642
 40
0.7590863162
 40
0.8795605449
 40
1.0
 40
1.0
 40
1.0
 40
1.0
 10
39.878414668
 20
63.4673549407
 30
0.0
 10
39.5012352623
 20
63.6851146457
 30
0.0
 10
38.7269908784
 20
64.0479926858
 30
0.0
 10
37.6904471064
 20
64.280194634
 30
0.0
 10
36.8726841713
 20
64.2962581003
 30
0.0
 10
36.2747524693
 20
64.2207722458
 30
0.0
 10
35.6986496127
 20
64.0554569917
 30
0.0
 10
35.3378404903
 20
63.8847862635
 30
0.0
 10
35.1659451329
 20
63.7855430251
 30
0.0
  0
SPLINE
  5
251
100
AcDbEntity
  8
0
100
AcDbSpline
 62
7
  6
BYLAYER
 70
0
 71
3
 72
21
 73
17
 74
0
 42
0.0000001
 43
0.0000001
 44
0.0000000001
 40
0.0
 40
0.0
 40
0.0
 40
0.0
 40
0.0534599827
 40
0.1070628602
 40
0.1613322703
 40
0.2166723995
 40
0.2449476869
 40
0.2737002637
 40
0.3328075776
 40
0.3942735309
 40
0.4581211295
 40
0.5241280497
 40
0.5918852187
 40
0.7302145003
 40
0.86795763
 40
1.0
 40
1.0
 40
1.0
 40
1.0
 10
43.0909096536
 20
50.0590198912
 30
0.0
 10
43.3163810837
 20
50.189195105
 30
0.0
 10
43.7412011556
 20
50.4996263991
 30
0.0
 10
44.2674943922
 20
51.0899601425
 30
0.0
 10
44.6744572251
 20
51.7780528829
 30
0.0
 10
44.9103934752
 20
52.4102025082
 30
0.0
 10
45.0421207918
 20
52.9417329722
 30
0.0
 10
45.1383387236
 20
53.4995207099
 30
0.0
 10
45.188639636
 20
54.2271400269
 30
0.0
 10
45.1445295828
 20
55.1259600085
 30
0.0
 10
45.0014897663
 20
56.0482127266
 30
0.0
 10
44.7640910986
 20
56.9822664425
 30
0.0
 10
44.3256928265
 20
58.2341788501
 30
0.0
 10
43.576102963
 20
59.7405982054
 30
0.0
 10
42.4172163768
 20
61.3646444876
 30
0.0
 10
41.480130394
 20
62.2980220013
 30
0.0
 10
40.9810097598
 20
62.7034746899
 30
0.0
  0
SPLINE
  5
252
100
AcDbEntity
  8
0
100
AcDbSpline
 62
7
  6
BYLAYER
 70
0
 71
3
 72
9
 73
5
 74
0
 42
0.0000001
 43
0.0000001
 44
0.0000000001
 40
0.0
 40
0.0
 40
0.0
 40
0.0
 40
0.2556654445
 40
1.0
 40
1.0
 40
1.0
 40
1.0
 10
40.9810097598
 20
62.7034746899
 30
0.0
 10
40.8922320229
 20
62.7755918689
 30
0.0
 10
40.5398981126
 20
63.0512896109
 30
0.0
 10
40.1667995687
 20
63.3008596073
 30
0.0
 10
39.878414668
 20
63.4673549407
 30
0.0
  0
SPLINE
  5
253
100
AcDbEntity
  8
0
100
AcDbSpline
 62
7
  6
BYLAYER
 70
0
 71
3
 72
11
 73
7
 74
0
 42
0.0000001
 43
0.0000001
 44
0.0000000001
 40
0.0
 40
0.0
 40
0.0
 40
0.0
 40
0.2468463995
 40
0.4942976895
 40
0.7447611337
 40
1.0
 40
1.0
 40
1.0
 40
1.0
 10
35.1659451329
 20
63.7855430251
 30
0.0
 10
34.9432537099
 20
63.6569728395
 30
0.0
 10
34.5233975019
 20
63.3510433785
 30
0.0
 10
34.0015480213
 20
62.7701890343
 30
0.0
 10
33.5959387803
 20
62.0935306012
 30
0.0
 10
33.4071898963
 20
61.5987730511
 30
0.0
 10
33.3313315223
 20
61.3439401371
 30
0.0
  0
SPLINE
  5
254
100
AcDbEntity
  8
0
100
AcDbSpline
 62
7
  6
BYLAYER
 70
0
 71
3
 72
12
 73
8
 74
0
 42
0.0000001
 43
0.0000001
 44
0.0000000001
 40
0.0
 40
0.0
 40
0.0
 40
0.0
 40
0.2554528797
 40
0.5057708648
 40
0.6299508214
 40
0.7535353876
 40
1.0
 40
1.0
 40
1.0
 40
1.0
 10
39.9864994555
 20
49.7088590362
 30
0.0
 10
40.2506794368
 20
49.6418855196
 30
0.0
 10
40.7850265407
 20
49.5490078499
 30
0.0
 10
41.4613041183
 20
49.5523437398
 30
0.0
 10
41.9873160461
 20
49.6337119938
 30
0.0
 10
42.4981844516
 20
49.7668224019
 30
0.0
 10
42.863189847
 20
49.9275465843
 30
0.0
 10
43.0909096536
 20
50.0590198912
 30
0.0
  0
SPLINE
  5
255
100
AcDbEntity
  8
0
100
AcDbSpline
 62
7
  6
BYLAYER
 70
0
 71
3
 72
15
 73
11
 74
0
 42
0.0000001
 43
0.0000001
 44
0.0000000001
 40
0.0
 40
0.0
 40
0.0
 40
0.0
 40
0.1503786675
 40
0.292057669
 40
0.4249483426
 40
0.5497363607
 40
0.6676427901
 40
0.7804136609
 40
0.8903313265
 40
1.0
 40
1.0
 40
1.0
 40
1.0
 10
41.1236010794
 20
64.2387818962
 30
0.0
 10
40.9322887009
 20
64.3492336507
 30
0.0
 10
40.550398808
 20
64.546615604
 30
0.0
 10
39.9672380058
 20
64.7729772394
 30
0.0
 10
39.396990792
 20
64.917658353
 30
0.0
 10
38.846622515
 20
64.9785211579
 30
0.0
 10
38.3226239985
 20
64.9542482436
 30
0.0
 10
37.8317074543
 20
64.8440869267
 30
0.0
 10
37.3809886513
 20
64.6490503504
 30
0.0
 10
37.1132914833
 20
64.4649155556
 30
0.0
 10
36.9896718578
 20
64.3616068475
 30
0.0
  0
SPLINE
  5
256
100
AcDbEntity
  8
0
100
AcDbSpline
 62
7
  6
BYLAYER
 70
0
 71
3
 72
25
 73
21
 74
0
 42
0.0000001
 43
0.0000001
 44
0.0000000001
 40
0.0
 40
0.0
 40
0.0
 40
0.0
 40
0.0216535266
 40
0.0432370626
 40
0.0650032185
 40
0.0871928731
 40
0.1336113758
 40
0.1839226439
 40
0.2388644552
 40
0.2986256135
 40
0.3629535243
 40
0.4312593151
 40
0.5027071001
 40
0.5762910439
 40
0.6508970304
 40
0.7253615304
 40
0.7985319433
 40
0.8693048484
 40
0.9367367371
 40
1.0
 40
1.0
 40
1.0
 40
1.0
 10
44.5112551964
 20
51.3538950799
 30
0.0
 10
44.6160845346
 20
51.3927560442
 30
0.0
 10
44.8206431046
 20
51.4840556283
 30
0.0
 10
45.1069633907
 20
51.6609753552
 30
0.0
 10
45.3695682334
 20
51.8759700415
 30
0.0
 10
45.6904965439
 20
52.2162405771
 30
0.0
 10
46.0244485728
 20
52.7386784543
 30
0.0
 10
46.2988322447
 20
53.4771671135
 30
0.0
 10
46.4507204941
 20
54.3193431338
 30
0.0
 10
46.4781904597
 20
55.2461647489
 30
0.0
 10
46.3815626993
 20
56.2371430155
 30
0.0
 10
46.1633203139
 20
57.2699752146
 30
0.0
 10
45.8286142185
 20
58.3211640025
 30
0.0
 10
45.3851674319
 20
59.3665790197
 30
0.0
 10
44.8432257308
 20
60.3821130271
 30
0.0
 10
44.2152802736
 20
61.34430792
 30
0.0
 10
43.5158374575
 20
62.2308525347
 30
0.0
 10
42.7609985597
 20
63.0215476529
 30
0.0
 10
41.9681664003
 20
63.6977954373
 30
0.0
 10
41.406479623
 20
64.0754655876
 30
0.0
 10
41.1236010794
 20
64.2387818962
 30
0.0
  0
SPLINE
  5
257
100
AcDbEntity
  8
0
100
AcDbSpline
 62
7
  6
BYLAYER
 70
0
 71
3
 72
9
 73
5
 74
0
 42
0.0000001
 43
0.0000001
 44
0.0000000001
 40
0.0
 40
0.0
 40
0.0
 40
0.0
 40
0.2384812346
 40
1.0
 40
1.0
 40
1.0
 40
1.0
 10
40.1851377097
 20
63.2351318258
 30
0.0
 10
40.2632669722
 20
63.211186853
 30
0.0
 10
40.5875616707
 20
63.1000303677
 30
0.0
 10
40.8976222026
 20
62.9491923905
 30
0.0
 10
41.1236010794
 20
62.8187263767
 30
0.0
  0
SPLINE
  5
258
100
AcDbEntity
  8
0
100
AcDbSpline
 62
7
  6
BYLAYER
 70
0
 71
3
 72
15
 73
11
 74
0
 42
0.0000001
 43
0.0000001
 44
0.0000000001
 40
0.0
 40
0.0
 40
0.0
 40
0.0
 40
0.117518962
 40
0.2452052991
 40
0.3794752632
 40
0.5159901033
 40
0.6501955917
 40
0.777764305
 40
0.895114705
 40
1.0
 40
1.0
 40
1.0
 40
1.0
 10
41.1236010794
 20
62.8187263767
 30
0.0
 10
41.4476067105
 20
62.6316658702
 30
0.0
 10
42.0848689096
 20
62.172548525
 30
0.0
 10
42.9452158813
 20
61.3189691791
 30
0.0
 10
43.7170432716
 20
60.3074274501
 30
0.0
 10
44.3624047778
 20
59.1872028575
 30
0.0
 10
44.8501413794
 20
58.0128116553
 30
0.0
 10
45.1564229465
 20
56.840740532
 30
0.0
 10
45.2665356057
 20
55.7277148696
 30
0.0
 10
45.200094924
 20
55.016431837
 30
0.0
 10
45.1260786223
 20
54.6908311893
 30
0.0
  0
SPLINE
  5
259
100
AcDbEntity
  8
0
100
AcDbSpline
 62
7
  6
BYLAYER
 70
0
 71
3
 72
25
 73
21
 74
0
 42
0.0000001
 43
0.0000001
 44
0.0000000001
 40
0.0
 40
0.0
 40
0.0
 40
0.0
 40
0.0213325527
 40
0.0428935986
 40
0.0648992063
 40
0.0875446254
 40
0.1353203489
 40
0.187221541
 40
0.2436591691
 40
0.3046068266
 40
0.3696942749
 40
0.4382912311
 40
0.5095773667
 40
0.582601286
 40
0.6563329022
 40
0.7297088551
 40
0.8016849354
 40
0.8712755184
 40
0.9376187239
 40
1.0
 40
1.0
 40
1.0
 40
1.0
 10
57.8060487613
 20
50.5007655776
 30
0.0
 10
57.9891178861
 20
50.6064440041
 30
0.0
 10
58.3439873987
 20
50.842833207
 30
0.0
 10
58.8310063453
 20
51.2652075457
 30
0.0
 10
59.2714789645
 20
51.7536411353
 30
0.0
 10
59.8024763119
 20
52.5020259738
 30
0.0
 10
60.3341249176
 20
53.6016440703
 30
0.0
 10
60.7393467043
 20
55.1019207967
 30
0.0
 10
60.9199405988
 20
56.7755015066
 30
0.0
 10
60.8737969596
 20
58.5875596743
 30
0.0
 10
60.6029748954
 20
60.5008383354
 30
0.0
 10
60.11350098
 20
62.475318173
 30
0.0
 10
59.4158750856
 20
64.4693498309
 30
0.0
 10
58.5249592942
 20
66.4405987591
 30
0.0
 10
57.4597387373
 20
68.3470457646
 30
0.0
 10
56.2429606156
 20
70.1480575224
 30
0.0
 10
54.9005446543
 20
71.8051495226
 30
0.0
 10
53.4609527345
 20
73.2832748474
 30
0.0
 10
51.954899837
 20
74.5506482183
 30
0.0
 10
50.891413599
 20
75.2613668839
 30
0.0
 10
50.3560954631
 20
75.570425962
 30
0.0
  0
SPLINE
  5
25A
100
AcDbEntity
  8
0
100
AcDbSpline
 62
7
  6
BYLAYER
 70
0
 71
3
 72
12
 73
8
 74
0
 42
0.0000001
 43
0.0000001
 44
0.0000000001
 40
0.0
 40
0.0
 40
0.0
 40
0.0
 40
0.2892176818
 40
0.5484422168
 40
0.781662824
 40
0.8919209947
 40
1.0
 40
1.0
 40
1.0
 40
1.0
 10
32.3249476141
 20
55.6479468787
 30
0.0
 10
32.1839118801
 20
55.7293720556
 30
0.0
 10
31.9033057718
 20
55.8631106042
 30
0.0
 10
31.4724509619
 20
55.9691016984
 30
0.0
 10
31.127869626
 20
55.9627321683
 30
0.0
 10
30.8810386477
 20
55.8977603804
 30
0.0
 10
30.7682810662
 20
55.8470524384
 30
0.0
 10
30.7151002304
 20
55.8174651464
 30
0.0
  0
SPLINE
  5
25B
100
AcDbEntity
  8
0
100
AcDbSpline
 62
7
  6
BYLAYER
 70
0
 71
3
 72
9
 73
5
 74
0
 42
0.0000001
 43
0.0000001
 44
0.0000000001
 40
0.0
 40
0.0
 40
0.0
 40
0.0
 40
0.4957577069
 40
1.0
 40
1.0
 40
1.0
 40
1.0
 10
30.7151002304
 20
55.8174651464
 30
0.0
 10
30.6613499464
 20
55.7875610405
 30
0.0
 10
30.5579144882
 20
55.7178244891
 30
0.0
 10
30.4676804505
 20
55.6317616626
 30
0.0
 10
30.4259531921
 20
55.5851484458
 30
0.0
  0
SPLINE
  5
25C
100
AcDbEntity
  8
0
100
AcDbSpline
 62
7
  6
BYLAYER
 70
0
 71
3
 72
15
 73
11
 74
0
 42
0.0000001
 43
0.0000001
 44
0.0000000001
 40
0.0
 40
0.0
 40
0.0
 40
0.0
 40
0.1498231682
 40
0.291318391
 40
0.4243905475
 40
0.549622293
 40
0.6680573001
 40
0.7812044986
 40
0.8910720962
 40
1.0
 40
1.0
 40
1.0
 40
1.0
 10
44.1794305213
 20
66.9216205351
 30
0.0
 10
43.9680121846
 20
67.0436802074
 30
0.0
 10
43.5459544356
 20
67.262784722
 30
0.0
 10
42.9017036682
 20
67.5176104731
 30
0.0
 10
42.2707061079
 20
67.6860488572
 30
0.0
 10
41.6600647645
 20
67.7658400553
 30
0.0
 10
41.0764074281
 20
67.7556349256
 30
0.0
 10
40.5265072008
 20
67.6544881311
 30
0.0
 10
40.0175216862
 20
67.4632070207
 30
0.0
 10
39.7106438358
 20
67.2770814038
 30
0.0
 10
39.5679049957
 20
67.1715933916
 30
0.0
  0
SPLINE
  5
25D
100
AcDbEntity
  8
0
100
AcDbSpline
 62
7
  6
BYLAYER
 70
0
 71
3
 72
25
 73
21
 74
0
 42
0.0000001
 43
0.0000001
 44
0.0000000001
 40
0.0
 40
0.0
 40
0.0
 40
0.0
 40
0.0216972264
 40
0.0432984057
 40
0.0650574855
 40
0.0872200168
 40
0.1335370913
 40
0.1837180564
 40
0.2385321846
 40
0.2981884353
 40
0.3624447971
 40
0.4307170219
 40
0.5021699878
 40
0.5757934247
 40
0.6504664831
 40
0.7250158251
 40
0.7982801963
 40
0.869149813
 40
0.9366626506
 40
1.0
 40
1.0
 40
1.0
 40
1.0
 10
48.0331243017
 20
52.1027286116
 30
0.0
 10
48.1547063717
 20
52.1458895456
 30
0.0
 10
48.3920524938
 20
52.2479293901
 30
0.0
 10
48.7247959484
 20
52.4473793883
 30
0.0
 10
49.0303639703
 20
52.6909665856
 30
0.0
 10
49.4039935298
 20
53.0779078816
 30
0.0
 10
49.7940679631
 20
53.6743291913
 30
0.0
 10
50.1161762545
 20
54.5203605447
 30
0.0
 10
50.2966765281
 20
55.4871179531
 30
0.0
 10
50.3332799946
 20
56.5525845705
 30
0.0
 10
50.2263205958
 20
57.6930460085
 30
0.0
 10
49.9786157905
 20
58.8826967149
 30
0.0
 10
49.5960149298
 20
60.0943052227
 30
0.0
 10
49.0873988194
 20
61.2998857037
 30
0.0
 10
48.464575937
 20
62.4714347355
 30
0.0
 10
47.7420558229
 20
63.5817401013
 30
0.0
 10
46.9366217439
 20
64.6049040957
 30
0.0
 10
46.0669203303
 20
65.5173954772
 30
0.0
 10
45.1531534909
 20
66.2977133654
 30
0.0
 10
44.5055911328
 20
66.7333158783
 30
0.0
 10
44.1794305213
 20
66.9216205351
 30
0.0
  0
SPLINE
  5
25E
100
AcDbEntity
  8
0
100
AcDbSpline
 62
7
  6
BYLAYER
 70
0
 71
3
 72
9
 73
5
 74
0
 42
0.0000001
 43
0.0000001
 44
0.0000000001
 40
0.0
 40
0.0
 40
0.0
 40
0.0
 40
0.2434243369
 40
1.0
 40
1.0
 40
1.0
 40
1.0
 10
43.5182560238
 20
65.7697368258
 30
0.0
 10
43.5735670576
 20
65.7465839276
 30
0.0
 10
43.7991391969
 20
65.6475560341
 30
0.0
 10
44.0180344038
 20
65.5335073182
 30
0.0
 10
44.1794305213
 20
65.4403273343
 30
0.0
  0
SPLINE
  5
25F
100
AcDbEntity
  8
0
100
AcDbSpline
 62
7
  6
BYLAYER
 70
0
 71
3
 72
15
 73
11
 74
0
 42
0.0000001
 43
0.0000001
 44
0.0000000001
 40
0.0
 40
0.0
 40
0.0
 40
0.0
 40
0.1164139803
 40
0.2426504197
 40
0.3754670509
 40
0.510914626
 40
0.6448068524
 40
0.7730949895
 40
0.8923016465
 40
1.0
 40
1.0
 40
1.0
 40
1.0
 10
44.1794305213
 20
65.4403273343
 30
0.0
 10
44.5469902129
 20
65.2281214481
 30
0.0
 10
45.2708675207
 20
64.7108090129
 30
0.0
 10
46.2538239887
 20
63.7522015603
 30
0.0
 10
47.1431156881
 20
62.6166511181
 30
0.0
 10
47.8981689005
 20
61.3555171205
 30
0.0
 10
48.48510225
 20
60.0258064505
 30
0.0
 10
48.8773108364
 20
58.6871014321
 30
0.0
 10
49.0572415291
 20
57.3998441108
 30
0.0
 10
49.0276037028
 20
56.5666323839
 30
0.0
 10
48.9684228303
 20
56.1784742228
 30
0.0
  0
SPLINE
  5
260
100
AcDbEntity
  8
0
100
AcDbSpline
 62
7
  6
BYLAYER
 70
0
 71
3
 72
20
 73
16
 74
0
 42
0.0000001
 43
0.0000001
 44
0.0000000001
 40
0.0
 40
0.0
 40
0.0
 40
0.0
 40
0.0623914769
 40
0.1288092329
 40
0.2703023438
 40
0.4173637591
 40
0.5616155016
 40
0.6302519252
 40
0.695378722
 40
0.7563612202
 40
0.812830639
 40
0.8647635759
 40
0.9125656052
 40
0.9571670977
 40
1.0
 40
1.0
 40
1.0
 40
1.0
 10
32.3249476141
 20
55.4438212744
 30
0.0
 10
32.432683695
 20
55.3816212263
 30
0.0
 10
32.6468049967
 20
55.238463544
 30
0.0
 10
33.0598265683
 20
54.8909671631
 30
0.0
 10
33.5300169511
 20
54.3559174417
 30
0.0
 10
33.9838388086
 20
53.6177039681
 30
0.0
 10
34.2544690805
 20
52.9484693154
 30
0.0
 10
34.3880510129
 20
52.4096781427
 30
0.0
 10
34.4426058192
 20
52.0244419711
 30
0.0
 10
34.4518738969
 20
51.6595994512
 30
0.0
 10
34.4155155069
 20
51.3226603311
 30
0.0
 10
34.333921938
 20
51.020529215
 30
0.0
 10
34.2077902871
 20
50.7596381193
 30
0.0
 10
34.039113085
 20
50.5462502295
 30
0.0
 10
33.8988869636
 20
50.4389644299
 30
0.0
 10
33.8249319846
 20
50.3962493838
 30
0.0
  0
SPLINE
  5
261
100
AcDbEntity
  8
0
100
AcDbSpline
 62
7
  6
BYLAYER
 70
0
 71
3
 72
15
 73
11
 74
0
 42
0.0000001
 43
0.0000001
 44
0.0000000001
 40
0.0
 40
0.0
 40
0.0
 40
0.0
 40
0.1494054581
 40
0.2907454733
 40
0.4239009232
 40
0.5493901675
 40
0.6681575627
 40
0.781570766
 40
0.8914621869
 40
1.0
 40
1.0
 40
1.0
 40
1.0
 10
47.2352599632
 20
69.604459174
 30
0.0
 10
47.0026663161
 20
69.7387441408
 30
0.0
 10
46.5382776787
 20
69.9805014217
 30
0.0
 10
45.8296078527
 20
70.2642593512
 30
0.0
 10
45.1347787863
 20
70.4557114765
 30
0.0
 10
44.4612383335
 20
70.5525150606
 30
0.0
 10
43.8158879663
 20
70.5531567794
 30
0.0
 10
43.2057296878
 20
70.4566867767
 30
0.0
 10
42.6381804627
 20
70.2636736229
 30
0.0
 10
42.2928492139
 20
70.0715826795
 30
0.0
 10
42.1315036541
 20
69.9618762825
 30
0.0
  0
SPLINE
  5
262
100
AcDbEntity
  8
0
100
AcDbSpline
 62
7
  6
BYLAYER
 70
0
 71
3
 72
25
 73
21
 74
0
 42
0.0000001
 43
0.0000001
 44
0.0000000001
 40
0.0
 40
0.0
 40
0.0
 40
0.0
 40
0.0216049751
 40
0.0431715448
 40
0.064948368
 40
0.0871735776
 40
0.1337142778
 40
0.1841801788
 40
0.2392745001
 40
0.2991615416
 40
0.3635738194
 40
0.4319169184
 40
0.5033568308
 40
0.5768927187
 40
0.651418868
 40
0.7257800374
 40
0.7988354112
 40
0.8694957433
 40
0.9368187984
 40
1.0
 40
1.0
 40
1.0
 40
1.0
 10
51.6841352402
 20
52.899316949
 30
0.0
 10
51.8186868455
 20
52.9517228829
 30
0.0
 10
52.0810696412
 20
53.0741268993
 30
0.0
 10
52.4476574189
 20
53.3088433511
 30
0.0
 10
52.7834935201
 20
53.5923571215
 30
0.0
 10
53.1932958487
 20
54.0395618556
 30
0.0
 10
53.6183944267
 20
54.7226332504
 30
0.0
 10
53.9654606807
 20
55.6844649418
 30
0.0
 10
54.154621879
 20
56.7787814979
 30
0.0
 10
54.1834797546
 20
57.9810539465
 30
0.0
 10
54.0525935365
 20
59.264870863
 30
0.0
 10
53.7652923493
 20
60.601552204
 30
0.0
 10
53.3282513397
 20
61.9609095478
 30
0.0
 10
52.7514683685
 20
63.3119777884
 30
0.0
 10
52.0481446036
 20
64.6238122989
 30
0.0
 10
51.234429301
 20
65.8663697502
 30
0.0
 10
50.3289607278
 20
67.011077445
 30
0.0
 10
49.3524017191
 20
68.0319927607
 30
0.0
 10
48.3271116779
 20
68.9053894279
 30
0.0
 10
47.6009605076
 20
69.3933266427
 30
0.0
 10
47.2352599632
 20
69.604459174
 30
0.0
  0
SPLINE
  5
263
100
AcDbEntity
  8
0
100
AcDbSpline
 62
7
  6
BYLAYER
 70
0
 71
3
 72
11
 73
7
 74
0
 42
0.0000001
 43
0.0000001
 44
0.0000000001
 40
0.0
 40
0.0
 40
0.0
 40
0.0
 40
0.2477642351
 40
0.5025689591
 40
0.756058427
 40
1.0
 40
1.0
 40
1.0
 40
1.0
 10
56.0074258
 20
62.6025504799
 30
0.0
 10
55.8342116395
 20
63.2124105593
 30
0.0
 10
55.3917904696
 20
64.4249382685
 30
0.0
 10
54.4961598607
 20
66.1454059851
 30
0.0
 10
53.3952187847
 20
67.7304538068
 30
0.0
 10
52.5337577321
 20
68.6742577902
 30
0.0
 10
52.0789322424
 20
69.1017614514
 30
0.0
  0
SPLINE
  5
264
100
AcDbEntity
  8
0
100
AcDbSpline
 62
7
  6
BYLAYER
 70
0
 71
3
 72
15
 73
11
 74
0
 42
0.0000001
 43
0.0000001
 44
0.0000000001
 40
0.0
 40
0.0
 40
0.0
 40
0.0
 40
0.1485634047
 40
0.2895069003
 40
0.422725584
 40
0.5486364828
 40
0.6679989705
 40
0.7819359676
 40
0.8919847775
 40
1.0
 40
1.0
 40
1.0
 40
1.0
 10
50.3560954631
 20
75.570425962
 30
0.0
 10
50.0200952471
 20
75.7644113886
 30
0.0
 10
49.349213394
 20
76.1155555742
 30
0.0
 10
48.3259413611
 20
76.5344544681
 30
0.0
 10
47.3208170491
 20
76.8274610333
 30
0.0
 10
46.3434840089
 20
76.9913392601
 30
0.0
 10
45.4029768815
 20
77.0241365319
 30
0.0
 10
44.5083396248
 20
76.9242876084
 30
0.0
 10
43.6690948883
 20
76.6922674018
 30
0.0
 10
43.1504442951
 20
76.4493400883
 30
0.0
 10
42.9061421648
 20
76.3083143159
 30
0.0
  0
SPLINE
  5
265
100
AcDbEntity
  8
0
100
AcDbSpline
 62
7
  6
BYLAYER
 70
0
 71
3
 72
15
 73
11
 74
0
 42
0.0000001
 43
0.0000001
 44
0.0000000001
 40
0.0
 40
0.0
 40
0.0
 40
0.0
 40
0.1153792232
 40
0.2402308896
 40
0.3716357849
 40
0.5060200255
 40
0.6395578147
 40
0.7684883333
 40
0.8894764401
 40
1.0
 40
1.0
 40
1.0
 40
1.0
 10
50.3560954631
 20
70.5897612175
 30
0.0
 10
50.8079929046
 20
70.3288640102
 30
0.0
 10
51.6991099443
 20
69.6972864383
 30
0.0
 10
52.9161466284
 20
68.5312080512
 30
0.0
 10
54.0262742767
 20
67.1508747008
 30
0.0
 10
54.9827145704
 20
65.6139827586
 30
0.0
 10
55.7457695839
 20
63.9847448838
 30
0.0
 10
56.2834878211
 20
62.3308113859
 30
0.0
 10
56.5735203079
 20
60.7214405952
 30
0.0
 10
56.5940960532
 20
59.6679908489
 30
0.0
 10
56.5525672836
 20
59.1698755152
 30
0.0
  0
SPLINE
  5
266
100
AcDbEntity
  8
0
100
AcDbSpline
 62
7
  6
BYLAYER
 70
0
 71
3
 72
11
 73
7
 74
0
 42
0.0000001
 43
0.0000001
 44
0.0000000001
 40
0.0
 40
0.0
 40
0.0
 40
0.0
 40
0.284755362
 40
0.5445371578
 40
0.7809945157
 40
1.0
 40
1.0
 40
1.0
 40
1.0
 10
21.435548521
 20
49.1568613048
 30
0.0
 10
21.3238809497
 20
49.2213311486
 30
0.0
 10
21.1014627804
 20
49.330344534
 30
0.0
 10
20.7603709074
 20
49.4310735496
 30
0.0
 10
20.4349975036
 20
49.4578624249
 30
0.0
 10
20.2287704127
 20
49.4232811504
 30
0.0
 10
20.1342992481
 20
49.3931192413
 30
0.0
  0
SPLINE
  5
267
100
AcDbEntity
  8
0
100
AcDbSpline
 62
7
  6
BYLAYER
 70
0
 71
3
 72
13
 73
9
 74
0
 42
0.0000001
 43
0.0000001
 44
0.0000000001
 40
0.0
 40
0.0
 40
0.0
 40
0.0
 40
0.2893720193
 40
0.5483067721
 40
0.6677364495
 40
0.7817619509
 40
0.8919029047
 40
1.0
 40
1.0
 40
1.0
 40
1.0
 10
14.0109582303
 20
45.6868001063
 30
0.0
 10
13.835399778
 20
45.7881565329
 30
0.0
 10
13.4864743526
 20
45.9543210259
 30
0.0
 10
13.0270521464
 20
46.0650270429
 30
0.0
 10
12.681266896
 20
46.0770399927
 30
0.0
 10
12.4411067072
 20
46.0502169321
 30
0.0
 10
12.2157864524
 20
45.9879883703
 30
0.0
 10
12.076559175
 20
45.9227409546
 30
0.0
 10
12.0109785423
 20
45.8848775491
 30
0.0
  0
SPLINE
  5
268
100
AcDbEntity
  8
0
100
AcDbSpline
 62
7
  6
BYLAYER
 70
0
 71
3
 72
20
 73
16
 74
0
 42
0.0000001
 43
0.0000001
 44
0.0000000001
 40
0.0
 40
0.0
 40
0.0
 40
0.0
 40
0.0611966081
 40
0.126161475
 40
0.2644558589
 40
0.4087369114
 40
0.5516463716
 40
0.6203874303
 40
0.6862075092
 40
0.7484587623
 40
0.8066756848
 40
0.8606442788
 40
0.9104567106
 40
0.9566002661
 40
1.0
 40
1.0
 40
1.0
 40
1.0
 10
17.4253633844
 20
47.6580960741
 30
0.0
 10
17.5611662152
 20
47.5796920469
 30
0.0
 10
17.8312539246
 20
47.4005178445
 30
0.0
 10
18.3542235006
 20
46.9681259176
 30
0.0
 10
18.9555124133
 20
46.3041948325
 30
0.0
 10
19.5491485915
 20
45.3847916499
 30
0.0
 10
19.919188075
 20
44.5461637503
 30
0.0
 10
20.1199400158
 20
43.8632560094
 30
0.0
 10
20.2169674842
 20
43.3675352303
 30
0.0
 10
20.2604757307
 20
42.891244187
 30
0.0
 10
20.2494749454
 20
42.4432601875
 30
0.0
 10
20.1840432902
 20
42.031903634
 30
0.0
 10
20.064643504
 20
41.6647852737
 30
0.0
 10
19.8929031362
 20
41.3491937524
 30
0.0
 10
19.7413915576
 20
41.1738084026
 30
0.0
 10
19.6591179992
 20
41.0989869631
 30
0.0
  0
SPLINE
  5
269
100
AcDbEntity
  8
0
100
AcDbSpline
 62
7
  6
BYLAYER
 70
0
 71
3
 72
23
 73
19
 74
0
 42
0.0000001
 43
0.0000001
 44
0.0000000001
 40
0.0
 40
0.0
 40
0.0
 40
0.0
 40
0.064019826
 40
0.1323979643
 40
0.2041935911
 40
0.2783840412
 40
0.4288990593
 40
0.5028679216
 40
0.5743170756
 40
0.6421987997
 40
0.7056819878
 40
0.764238792
 40
0.7916433646
 40
0.8178197413
 40
0.8667573988
 40
0.9122058055
 40
0.9559090095
 40
1.0
 40
1.0
 40
1.0
 40
1.0
 10
34.4847914477
 20
57.5512419191
 30
0.0
 10
34.642366099
 20
57.4602682098
 30
0.0
 10
34.9550980035
 20
57.2488100111
 30
0.0
 10
35.3951840865
 20
56.868854752
 30
0.0
 10
35.8126739261
 20
56.4236068382
 30
0.0
 10
36.327348828
 20
55.7551882519
 30
0.0
 10
36.7507637217
 20
55.0128132729
 30
0.0
 10
37.0630042465
 20
54.2308224338
 30
0.0
 10
37.2319723254
 20
53.6474837531
 30
0.0
 10
37.3328342533
 20
53.0787223834
 30
0.0
 10
37.3630662162
 20
52.5383862746
 30
0.0
 10
37.3276765299
 20
52.1132914271
 30
0.0
 10
37.26119656
 20
51.8011760216
 30
0.0
 10
37.1746723444
 20
51.5226363553
 30
0.0
 10
37.0252842577
 20
51.2110991632
 30
0.0
 10
36.7741645924
 20
50.9039157617
 30
0.0
 10
36.4609041104
 20
50.6827912806
 30
0.0
 10
36.2217450288
 20
50.5998537517
 30
0.0
 10
36.0990956938
 20
50.5741643252
 30
0.0
  0
SPLINE
  5
26A
100
AcDbEntity
  8
0
100
AcDbSpline
 62
7
  6
BYLAYER
 70
0
 71
3
 72
21
 73
17
 74
0
 42
0.0000001
 43
0.0000001
 44
0.0000000001
 40
0.0
 40
0.0
 40
0.0
 40
0.0
 40
0.1437180945
 40
0.2098148019
 40
0.272192411
 40
0.3312775946
 40
0.3876926613
 40
0.4422454208
 40
0.4959218655
 40
0.5497898394
 40
0.6048980511
 40
0.6621782384
 40
0.7223810654
 40
0.7860446751
 40
0.8534995461
 40
1.0
 40
1.0
 40
1.0
 40
1.0
 10
35.0119421955
 20
58.8731046185
 30
0.0
 10
34.7743325399
 20
59.0102855137
 30
0.0
 10
34.4092932649
 20
59.1832850606
 30
0.0
 10
33.9086422755
 20
59.3259197392
 30
0.0
 10
33.5539515416
 20
59.3818871396
 30
0.0
 10
33.2132936005
 20
59.3888511167
 30
0.0
 10
32.8900507566
 20
59.3466327358
 30
0.0
 10
32.5878042427
 20
59.2550544741
 30
0.0
 10
32.3100585771
 20
59.115057619
 30
0.0
 10
32.0601901403
 20
58.9280881378
 30
0.0
 10
31.8409435977
 20
58.6965906902
 30
0.0
 10
31.6546056676
 20
58.4232990957
 30
0.0
 10
31.5027808044
 20
58.111381126
 30
0.0
 10
31.3867122282
 20
57.7640657455
 30
0.0
 10
31.2779389306
 20
57.2444551222
 30
0.0
 10
31.258196647
 20
56.8332595984
 30
0.0
 10
31.2666648336
 20
56.5537096928
 30
0.0
  0
SPLINE
  5
26B
100
AcDbEntity
  8
0
100
AcDbSpline
 62
7
  6
BYLAYER
 70
0
 71
3
 72
28
 73
24
 74
0
 42
0.0000001
 43
0.0000001
 44
0.0000000001
 40
0.0
 40
0.0
 40
0.0
 40
0.0
 40
0.0603367191
 40
0.0881413919
 40
0.1144120977
 40
0.1393140362
 40
0.1630890486
 40
0.1860516442
 40
0.2085887867
 40
0.2311258981
 40
0.2540887822
 40
0.2778626593
 40
0.3027684085
 40
0.3567470744
 40
0.4170858165
 40
0.4836271344
 40
0.5554244749
 40
0.6309985346
 40
0.7085390384
 40
0.7860805775
 40
0.861655042
 40
0.9334590785
 40
1.0
 40
1.0
 40
1.0
 40
1.0
 10
35.0119421955
 20
50.2181789969
 30
0.0
 10
35.2445744059
 20
50.0838717661
 30
0.0
 10
35.6017665531
 20
49.9138811023
 30
0.0
 10
36.0915980912
 20
49.7710501163
 30
0.0
 10
36.4392828882
 20
49.7127118538
 30
0.0
 10
36.7738084383
 20
49.7011502754
 30
0.0
 10
37.0920165038
 20
49.7365946034
 30
0.0
 10
37.3905993258
 20
49.8191888348
 30
0.0
 10
37.6662509287
 20
49.9482480043
 30
0.0
 10
37.9158459341
 20
50.1224467628
 30
0.0
 10
38.1366399016
 20
50.3397410551
 30
0.0
 10
38.3265096593
 20
50.597578266
 30
0.0
 10
38.5417404258
 20
51.0023326739
 30
0.0
 10
38.7191349677
 20
51.6029900946
 30
0.0
 10
38.7831995348
 20
52.4098967175
 30
0.0
 10
38.7053590647
 20
53.2944895722
 30
0.0
 10
38.4890337159
 20
54.2247159628
 30
0.0
 10
38.1425266254
 20
55.1666713188
 30
0.0
 10
37.6787615402
 20
56.0853170369
 30
0.0
 10
37.1150946274
 20
56.9462608672
 30
0.0
 10
36.4725414166
 20
57.7174136201
 30
0.0
 10
35.7752524786
 20
58.369745275
 30
0.0
 10
35.2684951187
 20
58.7249870701
 30
0.0
 10
35.0119421955
 20
58.8731046185
 30
0.0
  0
SPLINE
  5
26C
100
AcDbEntity
  8
0
100
AcDbSpline
 62
7
  6
BYLAYER
 70
0
 71
3
 72
15
 73
11
 74
0
 42
0.0000001
 43
0.0000001
 44
0.0000000001
 40
0.0
 40
0.0
 40
0.0
 40
0.0
 40
0.1122563233
 40
0.2227740494
 40
0.3347815909
 40
0.4512931491
 40
0.5747340086
 40
0.7068438462
 40
0.8486169832
 40
1.0
 40
1.0
 40
1.0
 40
1.0
 10
32.1161293715
 20
57.4729039529
 30
0.0
 10
32.1803437424
 20
57.544642292
 30
0.0
 10
32.3221650396
 20
57.6750219931
 30
0.0
 10
32.5714193169
 20
57.8217379995
 30
0.0
 10
32.8494180067
 20
57.9139311971
 30
0.0
 10
33.1509041977
 20
57.9504281859
 30
0.0
 10
33.4709576518
 20
57.9313761637
 30
0.0
 10
33.8049449882
 20
57.8577315831
 30
0.0
 10
34.1479336208
 20
57.730883843
 30
0.0
 10
34.3723474279
 20
57.6161600355
 30
0.0
 10
34.4847914477
 20
57.5512419191
 30
0.0
  0
SPLINE
  5
26D
100
AcDbEntity
  8
0
100
AcDbSpline
 62
7
  6
BYLAYER
 70
0
 71
3
 72
18
 73
14
 74
0
 42
0.0000001
 43
0.0000001
 44
0.0000000001
 40
0.0
 40
0.0
 40
0.0
 40
0.0
 40
0.142344706
 40
0.269967789
 40
0.3291155464
 40
0.3858184114
 40
0.4408590004
 40
0.4951460584
 40
0.5496599168
 40
0.6053603812
 40
0.723291101
 40
0.8541826909
 40
1.0
 40
1.0
 40
1.0
 40
1.0
 10
31.4650617171
 20
56.773231478
 30
0.0
 10
31.4744434883
 20
57.0149012961
 30
0.0
 10
31.5293875601
 20
57.4732617552
 30
0.0
 10
31.7131697922
 20
58.0075810062
 30
0.0
 10
31.9244276818
 20
58.3647332947
 30
0.0
 10
32.1077920664
 20
58.591312002
 30
0.0
 10
32.3182389923
 20
58.7810039752
 30
0.0
 10
32.5539061636
 20
58.9315693258
 30
0.0
 10
32.8122657664
 20
59.0415147767
 30
0.0
 10
33.1902039583
 20
59.1341810047
 30
0.0
 10
33.7152067247
 20
59.1378672682
 30
0.0
 10
34.3705424968
 20
58.9732014015
 30
0.0
 10
34.7973814516
 20
58.7690831041
 30
0.0
 10
35.0119421955
 20
58.6452092033
 30
0.0
  0
SPLINE
  5
26E
100
AcDbEntity
  8
0
100
AcDbSpline
 62
7
  6
BYLAYER
 70
0
 71
3
 72
9
 73
5
 74
0
 42
0.0000001
 43
0.0000001
 44
0.0000000001
 40
0.0
 40
0.0
 40
0.0
 40
0.0
 40
0.5042739165
 40
1.0
 40
1.0
 40
1.0
 40
1.0
 10
33.6191486495
 20
50.0543464968
 30
0.0
 10
33.6773074695
 20
50.0665387149
 30
0.0
 10
33.7910395683
 20
50.0993474416
 30
0.0
 10
33.8981263382
 20
50.1499086892
 30
0.0
 10
33.9487477505
 20
50.1790613227
 30
0.0
  0
SPLINE
  5
26F
100
AcDbEntity
  8
0
100
AcDbSpline
 62
7
  6
BYLAYER
 70
0
 71
3
 72
20
 73
16
 74
0
 42
0.0000001
 43
0.0000001
 44
0.0000000001
 40
0.0
 40
0.0
 40
0.0
 40
0.0
 40
0.0428309601
 40
0.0874245514
 40
0.1352150074
 40
0.1871354352
 40
0.2435936681
 40
0.3045666028
 40
0.3696870278
 40
0.4383204392
 40
0.5825783136
 40
0.7296593557
 40
0.8711750823
 40
0.9376022108
 40
1.0
 40
1.0
 40
1.0
 40
1.0
 10
33.9487477505
 20
50.1790613227
 30
0.0
 10
34.0289372936
 20
50.2252421037
 30
0.0
 10
34.1810125073
 20
50.3412889417
 30
0.0
 10
34.3639994441
 20
50.5722845907
 30
0.0
 10
34.500882188
 20
50.8547999762
 30
0.0
 10
34.5894972302
 20
51.1820466148
 30
0.0
 10
34.6290681517
 20
51.5470513178
 30
0.0
 10
34.6191939582
 20
51.9423268337
 30
0.0
 10
34.5602198814
 20
52.3597331283
 30
0.0
 10
34.4156296367
 20
52.9435774624
 30
0.0
 10
34.1225069152
 20
53.6688399054
 30
0.0
 10
33.6308179792
 20
54.4688979782
 30
0.0
 10
33.1213150625
 20
55.0487890468
 30
0.0
 10
32.6737366532
 20
55.4253986033
 30
0.0
 10
32.4416979521
 20
55.5805425645
 30
0.0
 10
32.3249476141
 20
55.6479468787
 30
0.0
  0
SPLINE
  5
270
100
AcDbEntity
  8
0
100
AcDbSpline
 62
7
  6
BYLAYER
 70
0
 71
3
 72
12
 73
8
 74
0
 42
0.0000001
 43
0.0000001
 44
0.0000000001
 40
0.0
 40
0.0
 40
0.0
 40
0.0
 40
0.1081636227
 40
0.2183746931
 40
0.4513430053
 40
0.7104814042
 40
1.0
 40
1.0
 40
1.0
 40
1.0
 10
30.8249632436
 20
55.5923786623
 30
0.0
 10
30.8741434405
 20
55.6207842464
 30
0.0
 10
30.9785979138
 20
55.669669139
 30
0.0
 10
31.207914388
 20
55.7331093024
 30
0.0
 10
31.5291441141
 20
55.7417327308
 30
0.0
 10
31.9313763162
 20
55.6443863195
 30
0.0
 10
32.1932943916
 20
55.5198295783
 30
0.0
 10
32.3249476141
 20
55.4438212744
 30
0.0
  0
SPLINE
  5
271
100
AcDbEntity
  8
0
100
AcDbSpline
 62
7
  6
BYLAYER
 70
0
 71
3
 72
11
 73
7
 74
0
 42
0.0000001
 43
0.0000001
 44
0.0000000001
 40
0.0
 40
0.0
 40
0.0
 40
0.0
 40
0.2190162253
 40
0.4554735681
 40
0.7152058948
 40
1.0
 40
1.0
 40
1.0
 40
1.0
 10
15.6903518564
 20
47.9731324568
 30
0.0
 10
15.8163153227
 20
48.0133653396
 30
0.0
 10
16.0913112492
 20
48.0593876289
 30
0.0
 10
16.5251103352
 20
48.0237131204
 30
0.0
 10
16.9799125163
 20
47.889443654
 30
0.0
 10
17.2764524565
 20
47.7440678934
 30
0.0
 10
17.4253633844
 20
47.6580960741
 30
0.0
  0
SPLINE
  5
272
100
AcDbEntity
  8
0
100
AcDbSpline
 62
7
  6
BYLAYER
 70
0
 71
3
 72
15
 73
11
 74
0
 42
0.0000001
 43
0.0000001
 44
0.0000000001
 40
0.0
 40
0.0
 40
0.0
 40
0.0
 40
0.1509064802
 40
0.2926773411
 40
0.425275561
 40
0.5495173871
 40
0.666825043
 40
0.7792240883
 40
0.8893195167
 40
1.0
 40
1.0
 40
1.0
 40
1.0
 10
38.0677716374
 20
61.5559432574
 30
0.0
 10
37.8981493883
 20
61.6538724931
 30
0.0
 10
37.5596299191
 20
61.828020793
 30
0.0
 10
37.0424747238
 20
62.0245442591
 30
0.0
 10
36.5377216672
 20
62.1452774294
 30
0.0
 10
36.0520289063
 20
62.1881356866
 30
0.0
 10
35.5916798577
 20
62.1519791664
 30
0.0
 10
35.1632763082
 20
62.0360933712
 30
0.0
 10
34.7737655868
 20
61.8418816138
 30
0.0
 10
34.5465358723
 20
61.6636968167
 30
0.0
 10
34.4424565516
 20
61.5646841554
 30
0.0
  0
SPLINE
  5
273
100
AcDbEntity
  8
0
100
AcDbSpline
 62
7
  6
BYLAYER
 70
0
 71
3
 72
9
 73
5
 74
0
 42
0.0000001
 43
0.0000001
 44
0.0000000001
 40
0.0
 40
0.0
 40
0.0
 40
0.0
 40
0.5007493043
 40
1.0
 40
1.0
 40
1.0
 40
1.0
 10
40.7897187023
 20
50.5382014391
 30
0.0
 10
40.9466607976
 20
50.5832160127
 30
0.0
 10
41.251439515
 20
50.7076241018
 30
0.0
 10
41.5195710542
 20
50.8986830827
 30
0.0
 10
41.6409819636
 20
51.007113741
 30
0.0
  0
SPLINE
  5
274
100
AcDbEntity
  8
0
100
AcDbSpline
 62
7
  6
BYLAYER
 70
0
 71
3
 72
21
 73
17
 74
0
 42
0.0000001
 43
0.0000001
 44
0.0000000001
 40
0.0
 40
0.0
 40
0.0
 40
0.0
 40
0.0433487424
 40
0.0894094646
 40
0.1391274291
 40
0.1930024951
 40
0.2511418613
 40
0.3133352569
 40
0.379122313
 40
0.4478544692
 40
0.5908087267
 40
0.7351883489
 40
0.8056482229
 40
0.8737419231
 40
0.9387480542
 40
1.0
 40
1.0
 40
1.0
 40
1.0
 10
41.6409819636
 20
51.007113741
 30
0.0
 10
41.7742858418
 20
51.1261658701
 30
0.0
 10
42.0200782745
 20
51.4059428114
 30
0.0
 10
42.2994593639
 20
51.9110558734
 30
0.0
 10
42.4943507732
 20
52.4997185554
 30
0.0
 10
42.6023237745
 20
53.1600881601
 30
0.0
 10
42.6223737994
 20
53.8799272697
 30
0.0
 10
42.5544960342
 20
54.6458038901
 30
0.0
 10
42.4001866502
 20
55.4433745869
 30
0.0
 10
42.0790610395
 20
56.5428160684
 30
0.0
 10
41.4853679574
 20
57.8932427036
 30
0.0
 10
40.6828272071
 20
59.1390673781
 30
0.0
 10
39.9334529679
 20
60.0346605646
 30
0.0
 10
39.3396787004
 20
60.6295330066
 30
0.0
 10
38.721353492
 20
61.1411288967
 30
0.0
 10
38.2864806057
 20
61.4296744322
 30
0.0
 10
38.0677716374
 20
61.5559432574
 30
0.0
  0
SPLINE
  5
275
100
AcDbEntity
  8
0
100
AcDbSpline
 62
7
  6
BYLAYER
 70
0
 71
3
 72
9
 73
5
 74
0
 42
0.0000001
 43
0.0000001
 44
0.0000000001
 40
0.0
 40
0.0
 40
0.0
 40
0.0
 40
0.2380416344
 40
1.0
 40
1.0
 40
1.0
 40
1.0
 10
37.2776558446
 20
60.5026978511
 30
0.0
 10
37.3433920181
 20
60.4832745543
 30
0.0
 10
37.6167103142
 20
60.3921464238
 30
0.0
 10
37.8777550843
 20
60.2660039245
 30
0.0
 10
38.0677716374
 20
60.1563002983
 30
0.0
  0
SPLINE
  5
276
100
AcDbEntity
  8
0
100
AcDbSpline
 62
7
  6
BYLAYER
 70
0
 71
3
 72
16
 73
12
 74
0
 42
0.0000001
 43
0.0000001
 44
0.0000000001
 40
0.0
 40
0.0
 40
0.0
 40
0.0
 40
0.118665525
 40
0.2478362301
 40
0.3835687661
 40
0.5211237653
 40
0.6555750958
 40
0.7823316327
 40
0.8416923625
 40
0.8978846449
 40
1.0
 40
1.0
 40
1.0
 40
1.0
 10
38.0677716374
 20
60.1563002983
 30
0.0
 10
38.3405488684
 20
59.9988158533
 30
0.0
 10
38.8763334112
 20
59.6097417046
 30
0.0
 10
39.595495517
 20
58.8842411849
 30
0.0
 10
40.2350952048
 20
58.0243860601
 30
0.0
 10
40.7614469605
 20
57.0750726464
 30
0.0
 10
41.1471807465
 20
56.0859387092
 30
0.0
 10
41.3390207807
 20
55.2529786723
 30
0.0
 10
41.4005744278
 20
54.6117730623
 30
0.0
 10
41.4008951171
 20
54.033727871
 30
0.0
 10
41.3357932664
 20
53.6130613369
 30
0.0
 10
41.255697797
 20
53.3541209061
 30
0.0
  0
SPLINE
  5
277
100
AcDbEntity
  8
0
100
AcDbSpline
 62
7
  6
BYLAYER
 70
0
 71
3
 72
20
 73
16
 74
0
 42
0.0000001
 43
0.0000001
 44
0.0000000001
 40
0.0
 40
0.0
 40
0.0
 40
0.0
 40
0.0428321633
 40
0.0874336566
 40
0.1352375408
 40
0.1871678656
 40
0.2436394943
 40
0.3046235224
 40
0.3697484097
 40
0.4383868243
 40
0.5826401394
 40
0.7297025577
 40
0.8711944427
 40
0.9376013744
 40
1.0
 40
1.0
 40
1.0
 40
1.0
 10
16.0109379182
 20
38.9567033263
 30
0.0
 10
16.1095528323
 20
39.0136392894
 30
0.0
 10
16.2965051761
 20
39.1567040359
 30
0.0
 10
16.5214706751
 20
39.4411807061
 30
0.0
 10
16.6895489138
 20
39.789084195
 30
0.0
 10
16.7984325369
 20
40.1918983369
 30
0.0
 10
16.8468810197
 20
40.6411674702
 30
0.0
 10
16.8344805117
 20
41.1276240057
 30
0.0
 10
16.7618147712
 20
41.641289987
 30
0.0
 10
16.5836227264
 20
42.359667524
 30
0.0
 10
16.222834799
 20
43.2520091226
 30
0.0
 10
15.6177170369
 20
44.2363021298
 30
0.0
 10
14.9907787569
 20
44.9496412397
 30
0.0
 10
14.4401282191
 20
45.4130085379
 30
0.0
 10
14.1546233191
 20
45.603856905
 30
0.0
 10
14.0109582303
 20
45.6868001063
 30
0.0
  0
SPLINE
  5
278
100
AcDbEntity
  8
0
100
AcDbSpline
 62
7
  6
BYLAYER
 70
0
 71
3
 72
18
 73
14
 74
0
 42
0.0000001
 43
0.0000001
 44
0.0000000001
 40
0.0
 40
0.0
 40
0.0
 40
0.0
 40
0.0434128435
 40
0.0895709853
 40
0.1394016785
 40
0.1933845673
 40
0.2516234975
 40
0.3138930789
 40
0.4483524492
 40
0.5913074197
 40
0.7356363013
 40
0.8739755296
 40
1.0
 40
1.0
 40
1.0
 40
1.0
 10
23.1108586333
 20
44.2375380953
 30
0.0
 10
23.1725768022
 20
44.2936369566
 30
0.0
 10
23.2861820899
 20
44.4251982693
 30
0.0
 10
23.4150381264
 20
44.6618644867
 30
0.0
 10
23.5045116842
 20
44.9372269039
 30
0.0
 10
23.553669199
 20
45.2457276076
 30
0.0
 10
23.5618641097
 20
45.5817309764
 30
0.0
 10
23.5171920224
 20
46.0704099332
 30
0.0
 10
23.3568012307
 20
46.7073570412
 30
0.0
 10
23.0285085156
 20
47.4516927087
 30
0.0
 10
22.582972554
 20
48.14166572
 30
0.0
 10
22.0535838509
 20
48.7261406422
 30
0.0
 10
21.6452281417
 20
49.035805458
 30
0.0
 10
21.435548521
 20
49.1568613048
 30
0.0
  0
SPLINE
  5
279
100
AcDbEntity
  8
0
100
AcDbSpline
 62
7
  6
BYLAYER
 70
0
 71
3
 72
27
 73
23
 74
0
 42
0.0000001
 43
0.0000001
 44
0.0000000001
 40
0.0
 40
0.0
 40
0.0
 40
0.0
 40
0.066513437
 40
0.138237301
 40
0.2137254216
 40
0.2912319462
 40
0.3688446082
 40
0.4446463525
 40
0.5168570138
 40
0.5840000886
 40
0.6450905179
 40
0.699871516
 40
0.7490980692
 40
0.7722733392
 40
0.7949047867
 40
0.8173978747
 40
0.840171109
 40
0.8636190791
 40
0.8880738431
 40
0.9137978622
 40
0.9409800389
 40
1.0
 40
1.0
 40
1.0
 40
1.0
 10
35.0119421955
 20
58.6452092033
 30
0.0
 10
35.2515590295
 20
58.5068694893
 30
0.0
 10
35.7250339132
 20
58.1758095709
 30
0.0
 10
36.3776273906
 20
57.5686878216
 30
0.0
 10
36.9803697888
 20
56.8512770529
 30
0.0
 10
37.5112152821
 20
56.0498862626
 30
0.0
 10
37.9508823911
 20
55.1935830575
 30
0.0
 10
38.283357977
 20
54.3136130069
 30
0.0
 10
38.4965174573
 20
53.4418350064
 30
0.0
 10
38.5825703289
 20
52.6094469201
 30
0.0
 10
38.5375806645
 20
51.8453818127
 30
0.0
 10
38.3614582403
 20
51.1760085202
 30
0.0
 10
38.099723339
 20
50.7072912056
 30
0.0
 10
37.830863779
 20
50.4153559831
 30
0.0
 10
37.6060026301
 20
50.2395153244
 30
0.0
 10
37.3562165769
 20
50.104830988
 30
0.0
 10
37.0843291672
 20
50.0125143308
 30
0.0
 10
36.7932310497
 20
49.9636065842
 30
0.0
 10
36.4859900189
 20
49.9580083671
 30
0.0
 10
36.1654847449
 20
49.995738098
 30
0.0
 10
35.7122156582
 20
50.1058144661
 30
0.0
 10
35.3797199543
 20
50.2481436244
 30
0.0
 10
35.1626213561
 20
50.3627936577
 30
0.0
  0
ENDSEC
  0
SECTION
  2
OBJECTS
  0
DICTIONARY
  5
C
100
AcDbDictionary
280
0
281
1
  3
ACAD_GROUP
350
D
  3
ACAD_MLINESTYLE
350
17
  3
ACAD_LAYOUT
350
1A
  3
ACAD_PLOTSETTINGS
350
19
  3
ACAD_PLOTSTYLENAME
350
E
  0
DICTIONARY
  5
D
102
{ACAD_REACTORS
330
C
102
}
100
AcDbDictionary
280
0
281
1
  0
ACDBDICTIONARYWDFLT
  5
E
102
{ACAD_REACTORS
330
C
102
}
100
AcDbDictionary
281
1
  3
Normal
350
F
100
AcDbDictionaryWithDefault
340
F
  0
DICTIONARY
  5
17
102
{ACAD_REACTORS
330
C
102
}
100
AcDbDictionary
280
0
281
1
  3
Standard
350
18
  0
DICTIONARY
  5
19
102
{ACAD_REACTORS
330
C
102
}
100
AcDbDictionary
281
1
  0
DICTIONARY
  5
1A
102
{ACAD_REACTORS
330
C
102
}
100
AcDbDictionary
281
1
  3
Model
350
27A
  3
Layout1
350
27B
  0
ACDBPLACEHOLDER
  5
F
102
{ACAD_REACTORS
330
E
102
}
  0
MLINESTYLE
  5
18
102
{ACAD_REACTORS
330
17
102
}
100
AcDbMlineStyle
  2
STANDARD
 70
0
  3

 62
256
 51
90.0
 52
90.0
 71
2
 49
0.5
 62
256
  6
BYLAYER
 49
-0.5
 62
256
  6
BYLAYER
  0
LAYOUT
  5
27A
102
{ACAD_REACTORS
330
1A
102
}
100
AcDbPlotSettings
  1

  2
none_device
  4

  6

 40
0.0
 41
0.0
 42
0.0
 43
0.0
 44
210.0
 45
297.0
 46
0.0
 47
0.0
 48
0.0
 49
0.0
140
0.0
141
0.0
142
1.0
143
1.0
 70
1024
 72
1
 73
0
 74
0
  7

 75
0
147
1.0
148
0.0
149
0.0
100
AcDbLayout
  1
Model
 70
0
 71
0
 10
0.0
 20
0.0
 11
210.0
 21
297.0
 12
0.0
 22
0.0
 32
0.0
 14
0.0
 24
0.0
 34
0.0
 15
0.0
 25
0.0
 35
0.0
146
0.0
 13
0.0
 23
0.0
 33
0.0
 16
1.0
 26
0.0
 36
0.0
 17
0.0
 27
1.0
 37
0.0
 76
0
330
210
345
0
346
0
  0
LAYOUT
  5
27B
102
{ACAD_REACTORS
330
1A
102
}
100
AcDbPlotSettings
  1

  2
none_device
  4

  6

 40
0.0
 41
0.0
 42
0.0
 43
0.0
 44
210.0
 45
297.0
 46
0.0
 47
0.0
 48
0.0
 49
0.0
140
0.0
141
0.0
142
1.0
143
1.0
 70
0
 72
1
 73
0
 74
0
  7

 75
0
147
1.0
148
0.0
149
0.0
100
AcDbLayout
  1
Layout1
 70
0
 71
1
 10
0.0
 20
0.0
 11
210.0
 21
297.0
 12
0.0
 22
0.0
 32
0.0
 14
0.0
 24
0.0
 34
0.0
 15
0.0
 25
0.0
 35
0.0
146
0.0
 13
0.0
 23
0.0
 33
0.0
 16
1.0
 26
0.0
 36
0.0
 17
0.0
 27
1.0
 37
0.0
 76
0
330
211
345
0
346
0
  0
ENDSEC
  0
EOF
