999
DXF file: C:\Users\sesa63760\Dev\_Creo\CAD\MCADUE0002364_3D-CAD\drw0001_1.dxf
999
Pro/ENGINEER 2019471 by Parametric Technology Corporation
  0
SECTION
  2
HEADER
  9
$ACADVER
  1
AC1024
  9
$DWGCODEPAGE
  3
ANSI_1252
  9
$EXTMAX
 10
76.85393753
 20
108.6934259353
 30
0.0
  9
$EXTMIN
 10
0.0
 20
0.0
 30
0.0
  9
$LIMMIN
 10
0.0
 20
0.0
  9
$LIMMAX
 10
76.85393753
 20
108.6934259353
  9
$VIEWCTR
 10
38.426968765
 20
54.3467129677
  9
$VIEWSIZE
 40
108.6934259353
  9
$CLAYER
  8
0
  9
$LTSCALE
 40
7.085201098
  9
$CELTYPE
  6
BYLAYER
  9
$DIMSCALE
 40
1.0
  9
$DIMASZ
 40
0.9149278277
  9
$DIMEXO
 40
1.0
  9
$DIMDLI
 40
4.8952298495
  9
$DIMEXE
 40
1.0
  9
$DIMCEN
 40
1.1593965433
  9
$DIMLFAC
 40
1.0
  9
$DIMBLK
  1
_FILLED
  9
$DIMALT
 70
0
  9
$DIMALTF
 40
0.0393700787
  9
$DIMTXT
 40
1.2808989588
  9
$DIMTOL
 70
1
  9
$DIMLIM
 70
0
  9
$DIMTFAC
 40
1.0
  9
$DIMTP
 40
0.01
  9
$DIMTM
 40
0.01
  9
$DIMGAP
 40
0.625
  9
$DIMDSEP
 70
46
  9
$AUNITS
 70
0
  9
$PDMODE
 70
3
  9
$PDSIZE
 40
0.3125
  9
$HANDSEED
  5
2EB
  9
$TILEMODE
 70
1
  9
$MEASUREMENT
 70
1
  9
$INSUNITS
 70
4
  0
ENDSEC
  0
SECTION
  2
CLASSES
  0
CLASS
  1
ACDBDICTIONARYWDFLT
  2
AcDbDictionaryWithDefault
  3
AutoCAD 2000
 90
0
 91
1
280
0
281
0
  0
CLASS
  1
ACDBPLACEHOLDER
  2
AcDbPlaceHolder
  3
AutoCAD 2000
 90
0
 91
1
280
0
281
0
  0
CLASS
  1
LAYOUT
  2
AcDbLayout
  3
AutoCAD 2000
 90
0
 91
0
280
0
281
0
  0
ENDSEC
  0
SECTION
  2
TABLES
  0
TABLE
  2
VPORT
  5
8
100
AcDbSymbolTable
 70
2
  0
VPORT
  5
1F4
100
AcDbSymbolTableRecord
100
AcDbViewportTableRecord
  2
*ACTIVE
 70
0
 10
0.0
 20
0.0
 11
1.0
 21
1.0
 12
38.426968765
 22
54.3467129677
 13
0.0
 23
0.0
 14
1.0
 24
1.0
 15
0.0
 25
0.0
 16
0.0
 26
0.0
 36
1.0
 17
0.0
 27
0.0
 37
0.0
 40
108.6934259353
 41
0.7070707071
 42
50.0
 43
0.0
 44
0.0
 50
0.0
 51
0.0
 71
0
 72
100
 73
1
 74
1
 75
0
 76
0
 77
0
 78
0
  0
ENDTAB
  0
TABLE
  2
LTYPE
  5
5
100
AcDbSymbolTable
 70
6
  0
LTYPE
  5
14
100
AcDbSymbolTableRecord
100
AcDbLinetypeTableRecord
  2
BYBLOCK
 70
0
  3

 72
65
 73
0
 40
0.0
  0
LTYPE
  5
15
100
AcDbSymbolTableRecord
100
AcDbLinetypeTableRecord
  2
BYLAYER
 70
0
  3

 72
65
 73
0
 40
0.0
  0
LTYPE
  5
16
100
AcDbSymbolTableRecord
100
AcDbLinetypeTableRecord
  2
CONTINUOUS
 70
64
  3
Solid line
 72
65
 73
0
 40
0.0
  0
LTYPE
  5
1F5
100
AcDbSymbolTableRecord
100
AcDbLinetypeTableRecord
  2
CENTER
 70
64
  3
____ _ ____ _ ____ _ ____ _ ____ _ ____ _ ____
 72
65
 73
4
 40
0.6
 49
0.375
 74
0
 49
-0.075
 74
0
 49
0.075
 74
0
 49
-0.075
 74
0
  0
LTYPE
  5
1F6
100
AcDbSymbolTableRecord
100
AcDbLinetypeTableRecord
  2
HIDDEN
 70
64
  3
- - - - - - - - - - - - - - - - - - - -
 72
65
 73
2
 40
0.2
 49
0.1
 74
0
 49
-0.1
 74
0
  0
LTYPE
  5
1F7
100
AcDbSymbolTableRecord
100
AcDbLinetypeTableRecord
  2
PHANTOM
 70
64
  3
_____ _ _ _____ _ _ _____ _ _ _____
 72
65
 73
6
 40
0.8
 49
0.45
 74
0
 49
-0.05
 74
0
 49
0.1
 74
0
 49
-0.05
 74
0
 49
0.1
 74
0
 49
-0.05
 74
0
  0
LTYPE
  5
1F8
100
AcDbSymbolTableRecord
100
AcDbLinetypeTableRecord
  2
DOT
 70
64
  3
. . . . . . . . . . . . . . . . . . . .
 72
65
 73
2
 40
0.2
 49
0.1
 74
0
 49
-0.1
 74
0
  0
LTYPE
  5
1F9
100
AcDbSymbolTableRecord
100
AcDbLinetypeTableRecord
  2
DASHED
 70
64
  3
- - - - - - - - - - - - - - - - - - - -
 72
65
 73
2
 40
0.2
 49
0.1
 74
0
 49
-0.1
 74
0
  0
ENDTAB
  0
TABLE
  2
LAYER
  5
2
100
AcDbSymbolTable
 70
36
  0
LAYER
  5
10
100
AcDbSymbolTableRecord
100
AcDbLayerTableRecord
  2
0
 70
0
 62
7
  6
CONTINUOUS
370
-3
390
F
  0
LAYER
  5
1FA
100
AcDbSymbolTableRecord
100
AcDbLayerTableRecord
  2
DEFAULT_1
 70
0
 62
7
  6
CENTER
370
-3
390
F
  0
LAYER
  5
1FB
100
AcDbSymbolTableRecord
100
AcDbLayerTableRecord
  2
DEFAULT_2
 70
0
 62
8
  6
HIDDEN
370
-3
390
F
  0
LAYER
  5
1FC
100
AcDbSymbolTableRecord
100
AcDbLayerTableRecord
  2
DEFAULT_3
 70
0
 62
7
  6
PHANTOM
370
-3
390
F
  0
LAYER
  5
1FD
100
AcDbSymbolTableRecord
100
AcDbLayerTableRecord
  2
00_COMPONENTS
 70
0
 62
7
  6
CONTINUOUS
370
-3
390
F
  0
LAYER
  5
1FE
100
AcDbSymbolTableRecord
100
AcDbLayerTableRecord
  2
01_1_DEFAULT_DATUMS
 70
0
 62
7
  6
CONTINUOUS
370
-3
390
F
  0
LAYER
  5
1FF
100
AcDbSymbolTableRecord
100
AcDbLayerTableRecord
  2
01_PLANES
 70
0
 62
7
  6
CONTINUOUS
370
-3
390
F
  0
LAYER
  5
200
100
AcDbSymbolTableRecord
100
AcDbLayerTableRecord
  2
02_COORD_SYS
 70
0
 62
7
  6
CONTINUOUS
370
-3
390
F
  0
LAYER
  5
201
100
AcDbSymbolTableRecord
100
AcDbLayerTableRecord
  2
03_AXES
 70
0
 62
7
  6
CONTINUOUS
370
-3
390
F
  0
LAYER
  5
202
100
AcDbSymbolTableRecord
100
AcDbLayerTableRecord
  2
04_POINTS
 70
0
 62
7
  6
CONTINUOUS
370
-3
390
F
  0
LAYER
  5
203
100
AcDbSymbolTableRecord
100
AcDbLayerTableRecord
  2
05_CURVES
 70
0
 62
7
  6
CONTINUOUS
370
-3
390
F
  0
LAYER
  5
204
100
AcDbSymbolTableRecord
100
AcDbLayerTableRecord
  2
06_SURFS
 70
0
 62
7
  6
CONTINUOUS
370
-3
390
F
  0
LAYER
  5
205
100
AcDbSymbolTableRecord
100
AcDbLayerTableRecord
  2
07_COSMETICS
 70
0
 62
7
  6
CONTINUOUS
370
-3
390
F
  0
LAYER
  5
206
100
AcDbSymbolTableRecord
100
AcDbLayerTableRecord
  2
10_NOTES
 70
0
 62
7
  6
CONTINUOUS
370
-3
390
F
  0
LAYER
  5
207
100
AcDbSymbolTableRecord
100
AcDbLayerTableRecord
  2
11_NOTES_PUB
 70
0
 62
7
  6
CONTINUOUS
370
-3
390
F
  0
LAYER
  5
208
100
AcDbSymbolTableRecord
100
AcDbLayerTableRecord
  2
13_REF_GTOL
 70
0
 62
7
  6
CONTINUOUS
370
-3
390
F
  0
LAYER
  5
209
100
AcDbSymbolTableRecord
100
AcDbLayerTableRecord
  2
16_MISC
 70
0
 62
7
  6
CONTINUOUS
370
-3
390
F
  0
LAYER
  5
20A
100
AcDbSymbolTableRecord
100
AcDbLayerTableRecord
  2
17_NO_PRINT
 70
0
 62
7
  6
CONTINUOUS
370
-3
390
F
  0
LAYER
  5
20B
100
AcDbSymbolTableRecord
100
AcDbLayerTableRecord
  2
18_DATUM_CAMS_JOINTS
 70
0
 62
7
  6
CONTINUOUS
370
-3
390
F
  0
LAYER
  5
20C
100
AcDbSymbolTableRecord
100
AcDbLayerTableRecord
  2
19_DATUM_FUNCTIONAL
 70
0
 62
7
  6
CONTINUOUS
370
-3
390
F
  0
LAYER
  5
20D
100
AcDbSymbolTableRecord
100
AcDbLayerTableRecord
  2
20_DATUM_KINEMATIC_SCHEME
 70
0
 62
7
  6
CONTINUOUS
370
-3
390
F
  0
ENDTAB
  0
TABLE
  2
STYLE
  5
3
100
AcDbSymbolTable
 70
1
  0
STYLE
  5
11
100
AcDbSymbolTableRecord
100
AcDbTextStyleTableRecord
  2
STANDARD
 70
0
 40
0.0
 41
0.8
 50
0.0
 71
0
 42
0.2
  3
txt
  4

  0
STYLE
  5
20E
100
AcDbSymbolTableRecord
100
AcDbTextStyleTableRecord
  2
TEXTSTYLE_1
 70
0
 40
0.0
 41
0.8
 50
0.0
 71
0
 42
0.2
  3
gdt
  4

  0
ENDTAB
  0
TABLE
  2
VIEW
  5
6
100
AcDbSymbolTable
 70
0
  0
ENDTAB
  0
TABLE
  2
UCS
  5
7
100
AcDbSymbolTable
 70
0
  0
ENDTAB
  0
TABLE
  2
APPID
  5
9
100
AcDbSymbolTable
 70
1
  0
APPID
  5
20F
100
AcDbSymbolTableRecord
100
AcDbRegAppTableRecord
  2
ACAD
 70
0
  0
ENDTAB
  0
TABLE
  2
BLOCK_RECORD
  5
1
100
AcDbSymbolTable
 70
0
  0
BLOCK_RECORD
  5
210
100
AcDbSymbolTableRecord
100
AcDbBlockTableRecord
  2
*Model_Space
  0
BLOCK_RECORD
  5
211
100
AcDbSymbolTableRecord
100
AcDbBlockTableRecord
  2
*Paper_Space
  0
BLOCK_RECORD
  5
212
100
AcDbSymbolTableRecord
100
AcDbBlockTableRecord
  2
_FILLED
  0
ENDTAB
  0
TABLE
  2
DIMSTYLE
  5
A
100
AcDbSymbolTable
 70
1
100
AcDbDimStyleTable
 71
0
  0
DIMSTYLE
105
213
100
AcDbSymbolTableRecord
100
AcDbDimStyleTableRecord
  2
STANDARD
 70
0
  3

  4

 40
1.0
 41
0.9149278277
 42
1.0
 43
0.38
 44
1.0
 45
0.0
 46
0.0
 47
0.01
 48
0.01
140
1.2808989588
141
0.09
142
0.0
143
25.4
144
1.0
145
0.0
146
1.0
147
0.625
 71
1
 72
0
 73
0
 74
0
 75
0
 76
0
 77
1
 78
8
 79
2
170
0
171
1
172
0
173
0
174
0
175
0
176
0
177
0
178
0
270
2
179
2
271
2
272
2
273
2
274
2
275
0
280
0
281
0
282
0
283
1
284
8
285
0
286
0
287
3
288
0
340
11
278
46
341
212
342
212
343
212
344
212
  0
ENDTAB
  0
ENDSEC
  0
SECTION
  2
BLOCKS
  0
BLOCK
  5
20
100
AcDbEntity
  8
0
100
AcDbBlockBegin
  2
*Model_Space
 70
0
 10
0.0
 20
0.0
 30
0.0
  3
*Model_Space
  1

  0
ENDBLK
  5
21
100
AcDbEntity
  8
0
100
AcDbBlockEnd
  0
BLOCK
  5
1C
100
AcDbEntity
  8
0
100
AcDbBlockBegin
  2
*Paper_Space
 70
0
 10
0.0
 20
0.0
 30
0.0
  3
*Paper_Space
  1

  0
ENDBLK
  5
1D
100
AcDbEntity
  8
0
100
AcDbBlockEnd
  0
BLOCK
  5
214
100
AcDbEntity
  8
0
100
AcDbBlockBegin
  2
_FILLED
 70
64
 10
0.0
 20
0.0
  3
_FILLED
  1

  0
SOLID
  5
215
100
AcDbEntity
  8
0
  6
BYBLOCK
 62
0
100
AcDbTrace
 10
0.0
 20
0.0
 11
-1.0
 21
0.25
 12
-1.0
 22
-0.25
 13
-1.0
 23
-0.25
  0
ENDBLK
  5
216
100
AcDbEntity
  8
0
  6
BYBLOCK
 62
0
100
AcDbBlockEnd
  0
ENDSEC
  0
SECTION
  2
ENTITIES
  0
LINE
  5
217
100
AcDbEntity
  8
0
100
AcDbLine
 62
7
  6
CONTINUOUS
 10
14.893810948
 20
74.9937929399
 11
15.2849952909
 21
75.419235774
  0
LINE
  5
218
100
AcDbEntity
  8
0
100
AcDbLine
 62
7
  6
CONTINUOUS
 10
10.7640249929
 20
70.8422874259
 11
11.128708609
 21
71.2131714089
  0
LINE
  5
219
100
AcDbEntity
  8
0
100
AcDbLine
 62
7
  6
CONTINUOUS
 10
8.9232300945
 20
65.2339189948
 11
8.9227411554
 21
65.398621412
  0
LINE
  5
21A
100
AcDbEntity
  8
0
100
AcDbLine
 62
7
  6
CONTINUOUS
 10
8.9212551403
 20
57.0603307241
 11
8.9285543146
 21
57.2502984328
  0
LINE
  5
21B
100
AcDbEntity
  8
0
100
AcDbLine
 62
7
  6
CONTINUOUS
 10
19.2910116152
 20
77.73634401
 11
19.255816565
 21
77.7117768209
  0
LINE
  5
21C
100
AcDbEntity
  8
0
100
AcDbLine
 62
7
  6
CONTINUOUS
 10
19.2909537862
 20
77.7364441698
 11
19.2539630854
 21
77.7149761351
  0
LINE
  5
21D
100
AcDbEntity
  8
0
100
AcDbLine
 62
7
  6
CONTINUOUS
 10
20.351605939
 20
78.3488166226
 11
19.5257177024
 21
77.8719926731
  0
LINE
  5
21E
100
AcDbEntity
  8
0
100
AcDbLine
 62
7
  6
CONTINUOUS
 10
19.5276183142
 20
77.8687006973
 11
15.2849952909
 21
75.419235774
  0
LINE
  5
21F
100
AcDbEntity
  8
0
100
AcDbLine
 62
7
  6
CONTINUOUS
 10
24.1865154006
 20
79.087488413
 11
19.9438923773
 21
76.6380234898
  0
LINE
  5
220
100
AcDbEntity
  8
0
100
AcDbLine
 62
7
  6
CONTINUOUS
 10
12.2831304071
 20
71.8796731663
 11
11.128708609
 21
71.2131714089
  0
LINE
  5
221
100
AcDbEntity
  8
0
100
AcDbLine
 62
7
  6
CONTINUOUS
 10
11.9177223689
 20
71.6085646977
 11
11.128708609
 21
71.2131714089
  0
LINE
  5
222
100
AcDbEntity
  8
0
100
AcDbLine
 62
7
  6
CONTINUOUS
 10
32.5890978193
 20
79.7366868042
 11
30.2745108017
 21
78.756516856
  0
LINE
  5
223
100
AcDbEntity
  8
0
100
AcDbLine
 62
7
  6
CONTINUOUS
 10
19.2166223221
 20
34.7168884121
 11
19.2628501494
 21
34.6748817987
  0
LINE
  5
224
100
AcDbEntity
  8
0
100
AcDbLine
 62
7
  6
CONTINUOUS
 10
25.9594158067
 20
28.2947735194
 11
25.996139216
 21
28.2593127744
  0
LINE
  5
225
100
AcDbEntity
  8
0
100
AcDbLine
 62
7
  6
CONTINUOUS
 10
10.6262006537
 20
50.0103555984
 11
10.6242965977
 21
50.0143631676
  0
LINE
  5
226
100
AcDbEntity
  8
0
100
AcDbLine
 62
7
  6
CONTINUOUS
 10
14.7951852286
 20
40.9776586808
 11
14.7920820104
 21
40.9846548821
  0
LINE
  5
227
100
AcDbEntity
  8
0
100
AcDbLine
 62
7
  6
CONTINUOUS
 10
30.9115285189
 20
77.7280193434
 11
26.6689054956
 21
75.2785544202
  0
LINE
  5
228
100
AcDbEntity
  8
0
100
AcDbLine
 62
7
  6
CONTINUOUS
 10
36.6702420179
 20
74.4032997698
 11
32.4276189946
 21
71.9538348466
  0
LINE
  5
229
100
AcDbEntity
  8
0
100
AcDbLine
 62
7
  6
CONTINUOUS
 10
43.3952551362
 20
67.9975682434
 11
39.1526321129
 21
65.5481033202
  0
LINE
  5
22A
100
AcDbEntity
  8
0
100
AcDbLine
 62
7
  6
CONTINUOUS
 10
40.5516316288
 20
75.9011098877
 11
41.0390228989
 21
76.9328708909
  0
LINE
  5
22B
100
AcDbEntity
  8
0
100
AcDbLine
 62
7
  6
CONTINUOUS
 10
44.7942546521
 20
78.3505748109
 11
45.2816459222
 21
79.3823358142
  0
LINE
  5
22C
100
AcDbEntity
  8
0
100
AcDbLine
 62
7
  6
CONTINUOUS
 10
49.0368776754
 20
80.8000397341
 11
49.5242689454
 21
81.8318007374
  0
LINE
  5
22D
100
AcDbEntity
  8
0
100
AcDbLine
 62
7
  6
CONTINUOUS
 10
48.0541522226
 20
61.3992712545
 11
43.8115291993
 21
58.9498063312
  0
LWPOLYLINE
  5
22E
100
AcDbEntity
  8
0
100
AcDbPolyline
 62
7
  6
CONTINUOUS
 90
5
 70
0
 10
37.8003498689
 20
51.4561512545
 10
38.0298731226
 20
50.3928563907
 10
39.5153454559
 20
47.2617698739
 10
41.6065446678
 20
44.5554200837
 10
41.801141616
 20
44.4008681097
  0
LINE
  5
22F
100
AcDbEntity
  8
0
100
AcDbLine
 62
7
  6
CONTINUOUS
 10
52.2104389045
 20
52.3940489915
 11
47.9678158813
 21
49.9445840683
  0
LINE
  5
230
100
AcDbEntity
  8
0
100
AcDbLine
 62
7
  6
CONTINUOUS
 10
37.7539542632
 20
74.9807832591
 11
43.0263497463
 21
70.2300999959
  0
LWPOLYLINE
  5
231
100
AcDbEntity
  8
0
100
AcDbPolyline
 62
7
  6
CONTINUOUS
 90
3
 70
0
 10
46.9488399289
 20
67.1471729973
 10
42.0483059733
 20
72.5106008789
 10
36.6621840548
 20
76.4969923257
  0
LWPOLYLINE
  5
232
100
AcDbEntity
  8
0
100
AcDbPolyline
 62
7
  6
CONTINUOUS
 90
3
 70
0
 10
43.0263497463
 20
70.2300999959
 10
47.7923214383
 20
64.1309741369
 10
51.6027485435
 20
57.2207215546
  0
LINE
  5
233
100
AcDbEntity
  8
0
100
AcDbLine
 62
7
  6
CONTINUOUS
 10
48.0159730375
 20
65.4895392301
 11
49.6985742049
 21
63.2406590718
  0
LWPOLYLINE
  5
234
100
AcDbEntity
  8
0
100
AcDbPolyline
 62
7
  6
CONTINUOUS
 90
3
 70
0
 10
49.6985742049
 20
63.2406590718
 10
52.8815561426
 20
57.078215491
 10
53.7720144899
 20
54.6863641016
  0
LWPOLYLINE
  5
235
100
AcDbEntity
  8
0
100
AcDbPolyline
 62
7
  6
CONTINUOUS
 90
3
 70
0
 10
53.6959503856
 20
54.6535417591
 10
51.0286132959
 20
60.8098472777
 10
46.9488399289
 20
67.1471729973
  0
LWPOLYLINE
  5
236
100
AcDbEntity
  8
0
100
AcDbPolyline
 62
7
  6
CONTINUOUS
 90
7
 70
0
 10
51.6027485435
 20
57.2207215546
 10
54.1713331757
 20
50.0171826417
 10
55.3100192426
 20
43.036619526
 10
55.3096368849
 20
39.8023552687
 10
54.1723151845
 20
34.1454534781
 10
51.6089953969
 20
29.9117878573
 10
49.3513994751
 20
28.1194010098
  0
LINE
  5
237
100
AcDbEntity
  8
0
100
AcDbLine
 62
7
  6
CONTINUOUS
 10
53.9899792414
 20
45.0424997691
 11
49.7473562182
 21
42.5930348459
  0
LWPOLYLINE
  5
238
100
AcDbEntity
  8
0
100
AcDbPolyline
 62
7
  6
CONTINUOUS
 90
4
 70
0
 10
55.4295201563
 20
39.3674274716
 10
56.4615626908
 20
42.9378822283
 10
56.4101606261
 20
48.6296904903
 10
54.9316487312
 20
55.0021979422
  0
LWPOLYLINE
  5
239
100
AcDbEntity
  8
0
100
AcDbPolyline
 62
7
  6
CONTINUOUS
 90
3
 70
0
 10
38.9177273716
 20
75.7089491524
 10
33.9835292451
 20
77.6941366961
 10
33.780389391
 20
77.7032374965
  0
LWPOLYLINE
  5
23A
100
AcDbEntity
  8
0
100
AcDbPolyline
 62
7
  6
CONTINUOUS
 90
3
 70
0
 10
36.6621840548
 20
76.4969923257
 10
31.3189448257
 20
78.7335349211
 10
29.897829643
 20
78.8517793418
  0
LWPOLYLINE
  5
23B
100
AcDbEntity
  8
0
100
AcDbPolyline
 62
7
  6
CONTINUOUS
 90
6
 70
0
 10
54.6089605666
 20
36.3172752614
 10
55.258087224
 20
37.7573643138
 10
55.8966746339
 20
43.7548471092
 10
54.9956841964
 20
50.4787317885
 10
53.9996729568
 20
53.9525396441
 10
53.8308072045
 20
54.3422875941
  0
LWPOLYLINE
  5
23C
100
AcDbEntity
  8
0
100
AcDbPolyline
 62
7
  6
CONTINUOUS
 90
5
 70
0
 10
54.7776277389
 20
37.1562055559
 10
56.1788261536
 20
38.8908545188
 10
57.5182329056
 20
43.5249786054
 10
57.4747696411
 20
49.2184092759
 10
55.9954626425
 20
55.605528387
  0
LINE
  5
23D
100
AcDbEntity
  8
0
100
AcDbLine
 62
7
  6
CONTINUOUS
 10
53.9899792414
 20
36.8774755979
 11
49.7473562182
 21
34.4280106746
  0
LWPOLYLINE
  5
23E
100
AcDbEntity
  8
0
100
AcDbPolyline
 62
7
  6
CONTINUOUS
 90
3
 70
0
 10
59.0487177465
 20
38.9473801626
 10
59.9107557871
 20
39.3131586757
 10
62.5268124666
 20
42.5348117227
  0
LWPOLYLINE
  5
23F
100
AcDbEntity
  8
0
100
AcDbPolyline
 62
7
  6
CONTINUOUS
 90
6
 70
0
 10
54.8060947232
 20
36.4979152393
 10
55.6681327639
 20
36.8636937525
 10
58.2841894433
 20
40.0853467994
 10
59.6389331767
 20
44.7386163794
 10
59.5935757467
 20
50.463156535
 10
58.1218683205
 20
56.8127392474
  0
LWPOLYLINE
  5
240
100
AcDbEntity
  8
0
100
AcDbPolyline
 62
7
  6
CONTINUOUS
 90
6
 70
0
 10
60.3184853395
 20
39.8152743849
 10
62.0435008831
 20
40.5455819244
 10
64.6640722002
 20
43.7897843653
 10
66.0034789521
 20
48.4239084518
 10
65.9600156877
 20
54.1173391224
 10
64.4838868674
 20
60.4949221489
  0
LWPOLYLINE
  5
241
100
AcDbEntity
  8
0
100
AcDbPolyline
 62
7
  6
CONTINUOUS
 90
6
 70
0
 10
56.0758623162
 20
37.3658094616
 10
57.8008778598
 20
38.0961170011
 10
60.4214491769
 20
41.340319442
 10
61.7608559288
 20
45.9744435286
 10
61.7173926644
 20
51.6678741991
 10
60.2380856658
 20
58.0549933103
  0
LWPOLYLINE
  5
242
100
AcDbEntity
  8
0
100
AcDbPolyline
 62
7
  6
CONTINUOUS
 90
6
 70
0
 10
62.2418622977
 20
40.7911484469
 10
63.0924528165
 20
41.1507741419
 10
65.7158434758
 20
44.3848332326
 10
67.0653343656
 20
49.0405779711
 10
67.0182990234
 20
54.747265914
 10
65.5402513184
 20
61.1209397997
  0
LWPOLYLINE
  5
243
100
AcDbEntity
  8
0
100
AcDbPolyline
 62
7
  6
CONTINUOUS
 90
6
 70
0
 10
57.9990484467
 20
38.3414472836
 10
58.8469461842
 20
38.6981077579
 10
61.4856681096
 20
41.9580347363
 10
62.8252529991
 20
46.6164867014
 10
62.77512276
 20
52.2994157516
 10
61.2991718531
 20
58.6672623906
  0
LWPOLYLINE
  5
244
100
AcDbEntity
  8
0
100
AcDbPolyline
 62
7
  6
CONTINUOUS
 90
6
 70
0
 10
60.1081612494
 20
39.5562619365
 10
60.9440321727
 20
39.9058882294
 10
63.5941280812
 20
43.157077547
 10
64.9468087374
 20
47.8368120747
 10
64.8954066726
 20
53.5286203367
 10
63.4168947779
 20
59.9011277884
  0
LWPOLYLINE
  5
245
100
AcDbEntity
  8
0
100
AcDbPolyline
 62
7
  6
CONTINUOUS
 90
6
 70
0
 10
55.8655382262
 20
37.1067970132
 10
56.7014091494
 20
37.4564233062
 10
59.3515050579
 20
40.7076126238
 10
60.7041857141
 20
45.3873471515
 10
60.6527836493
 20
51.0791554135
 10
59.1742717545
 20
57.4516628654
  0
LWPOLYLINE
  5
246
100
AcDbEntity
  8
0
100
AcDbPolyline
 62
7
  6
CONTINUOUS
 90
6
 70
0
 10
63.2914609579
 20
41.3961070612
 10
64.1301083276
 20
41.746768464
 10
66.7778495234
 20
44.9994339638
 10
68.1271810401
 20
49.6619948757
 10
68.0811651658
 20
55.3415559956
 10
66.6045819435
 20
61.7220707066
  0
LWPOLYLINE
  5
247
100
AcDbEntity
  8
0
100
AcDbPolyline
 62
7
  6
CONTINUOUS
 90
3
 70
0
 10
39.9783572472
 20
76.3199129012
 10
34.9996938897
 20
78.3166408164
 10
32.0176660258
 20
78.4410681872
  0
LWPOLYLINE
  5
248
100
AcDbEntity
  8
0
100
AcDbPolyline
 62
7
  6
CONTINUOUS
 90
4
 70
0
 10
41.0390228989
 20
76.9328708909
 10
36.0824761885
 20
78.9243175778
 10
31.5156106519
 20
79.1217607684
 10
30.7220076769
 20
78.7832033
  0
LWPOLYLINE
  5
249
100
AcDbEntity
  8
0
100
AcDbPolyline
 62
7
  6
CONTINUOUS
 90
3
 70
0
 10
42.0996819472
 20
77.5446756273
 10
37.1327426804
 20
79.5397591023
 10
32.5890978193
 20
79.7366868042
  0
LWPOLYLINE
  5
24A
100
AcDbEntity
  8
0
100
AcDbPolyline
 62
7
  6
CONTINUOUS
 90
4
 70
0
 10
62.5268124666
 20
42.5348117227
 10
63.8815561999
 20
47.1880813026
 10
63.83619877
 20
52.9126214583
 10
62.364491344
 20
59.26220417
  0
LINE
  5
24B
100
AcDbEntity
  8
0
100
AcDbLine
 62
7
  6
CONTINUOUS
 10
52.2104389045
 20
31.5807160751
 11
47.9678158813
 21
29.1312511518
  0
LINE
  5
24C
100
AcDbEntity
  8
0
100
AcDbLine
 62
7
  6
CONTINUOUS
 10
48.0541522226
 20
27.3746517099
 11
43.8115291993
 21
24.9251867867
  0
LINE
  5
24D
100
AcDbEntity
  8
0
100
AcDbLine
 62
7
  6
CONTINUOUS
 10
49.3514761095
 20
28.1192682462
 11
48.2908203536
 21
27.5069020154
  0
LINE
  5
24E
100
AcDbEntity
  8
0
100
AcDbLine
 62
7
  6
CONTINUOUS
 10
48.0541522226
 20
27.3746517099
 11
48.2907589216
 21
27.5070083972
  0
LINE
  5
24F
100
AcDbEntity
  8
0
100
AcDbLine
 62
7
  6
CONTINUOUS
 10
43.8115291993
 20
24.9251867867
 11
43.787004077
 21
24.9114830061
  0
LINE
  5
250
100
AcDbEntity
  8
0
100
AcDbLine
 62
7
  6
CONTINUOUS
 10
47.8621615245
 20
29.0783429468
 11
47.9678158813
 21
29.1312511518
  0
LWPOLYLINE
  5
251
100
AcDbEntity
  8
0
100
AcDbPolyline
 62
7
  6
CONTINUOUS
 90
4
 70
0
 10
42.4687752917
 20
82.5930665425
 10
37.8941559296
 20
82.7980125301
 10
34.0772344726
 20
81.1768428587
 10
33.8777995055
 20
80.9352396201
  0
LINE
  5
252
100
AcDbEntity
  8
0
100
AcDbLine
 62
7
  6
CONTINUOUS
 10
47.4029734181
 20
80.6078789988
 11
42.4687752917
 21
82.5930665425
  0
ARC
  5
253
100
AcDbEntity
  8
0
100
AcDbCircle
 62
7
  6
CONTINUOUS
 10
13.7110825872
 20
40.4260281836
 40
42.4986885794
100
AcDbArc
 50
19.1152571054
 51
19.5622868567
  0
ARC
  5
254
100
AcDbEntity
  8
0
100
AcDbCircle
 62
7
  6
CONTINUOUS
 10
18.0086700628
 20
42.4156545305
 40
37.8079859351
100
AcDbArc
 50
17.9633104372
 51
18.4216666033
  0
ARC
  5
255
100
AcDbEntity
  8
0
100
AcDbCircle
 62
7
  6
CONTINUOUS
 10
18.0142473246
 20
48.410081774
 40
33.1150046733
100
AcDbArc
 50
53.4045762756
 51
53.6456657076
  0
ARC
  5
256
100
AcDbEntity
  8
0
100
AcDbCircle
 62
7
  6
CONTINUOUS
 10
57.646405331
 20
22.8746699196
 40
10.5953365123
100
AcDbArc
 50
153.4906792497
 51
154.8674737168
  0
ARC
  5
257
100
AcDbEntity
  8
0
100
AcDbCircle
 62
7
  6
CONTINUOUS
 10
43.4360116408
 20
35.9135007411
 40
9.7077252833
100
AcDbArc
 50
300.0064232558
 51
307.2077917125
  0
ARC
  5
258
100
AcDbEntity
  8
0
100
AcDbCircle
 62
7
  6
CONTINUOUS
 10
55.5186942896
 20
24.2936155459
 40
8.0275219766
100
AcDbArc
 50
135.3412403546
 51
135.8143279488
  0
ARC
  5
259
100
AcDbEntity
  8
0
100
AcDbCircle
 62
7
  6
CONTINUOUS
 10
50.4288536718
 20
23.1036943621
 40
6.5026226079
100
AcDbArc
 50
113.2484363504
 51
119.9871837492
  0
SPLINE
  5
25A
100
AcDbEntity
  8
0
100
AcDbSpline
 62
7
  6
CONTINUOUS
 70
0
 71
3
 72
14
 73
10
 74
0
 42
0.0000001
 43
0.0000001
 44
0.0000000001
 40
0.0
 40
0.0
 40
0.0
 40
0.0
 40
0.1080449989
 40
0.2181276476
 40
0.332108638
 40
0.4514982794
 40
0.5774433207
 40
0.710728085
 40
1.0
 40
1.0
 40
1.0
 40
1.0
 10
22.0936299352
 20
66.9785539693
 30
0.0
 10
22.2001952852
 20
67.0400799822
 30
0.0
 10
22.426468549
 20
67.1459964572
 30
0.0
 10
22.7925590707
 20
67.2472997529
 30
0.0
 10
23.1828461238
 20
67.2907452769
 30
0.0
 10
23.5931118779
 20
67.2765612217
 30
0.0
 10
24.0195084633
 20
67.2050117351
 30
0.0
 10
24.6202443322
 20
67.0298667712
 30
0.0
 10
25.0582989063
 20
66.8213744775
 30
0.0
 10
25.3436114852
 20
66.6566529097
 30
0.0
  0
SPLINE
  5
25B
100
AcDbEntity
  8
0
100
AcDbSpline
 62
7
  6
CONTINUOUS
 70
0
 71
3
 72
24
 73
20
 74
0
 42
0.0000001
 43
0.0000001
 44
0.0000000001
 40
0.0
 40
0.0
 40
0.0
 40
0.0
 40
0.0623809284
 40
0.1287352761
 40
0.198327885
 40
0.2703104175
 40
0.3436916956
 40
0.4174295828
 40
0.4904602378
 40
0.5617525472
 40
0.6303556264
 40
0.6954486299
 40
0.7564007068
 40
0.8128419957
 40
0.8647465767
 40
0.9125255285
 40
0.9571038876
 40
0.9786660283
 40
1.0
 40
1.0
 40
1.0
 40
1.0
 10
35.5587037408
 20
53.2342104671
 30
0.0
 10
35.8999860727
 20
53.0371754784
 30
0.0
 10
36.5780377406
 20
52.5840084189
 30
0.0
 10
37.5382902976
 20
51.7759946947
 30
0.0
 10
38.4561457213
 20
50.8335262878
 30
0.0
 10
39.3120617693
 20
49.7770245999
 30
0.0
 10
40.0878737966
 20
48.628725814
 30
0.0
 10
40.7670316836
 20
47.4131890635
 30
0.0
 10
41.3350631128
 20
46.1563337424
 30
0.0
 10
41.7798577412
 20
44.8849527848
 30
0.0
 10
42.0919466666
 20
43.6260428426
 30
0.0
 10
42.2646311469
 20
42.4061650398
 30
0.0
 10
42.2940116752
 20
41.2508068221
 30
0.0
 10
42.1789319096
 20
40.1838355481
 30
0.0
 10
41.9203166311
 20
39.2270766995
 30
0.0
 10
41.5214324058
 20
38.4010086114
 30
0.0
 10
41.070154476
 20
37.8310577181
 30
0.0
 10
40.6516351482
 20
37.4683472855
 30
0.0
 10
40.4253789816
 20
37.3176038935
 30
0.0
 10
40.3086689333
 20
37.2502070539
 30
0.0
  0
SPLINE
  5
25C
100
AcDbEntity
  8
0
100
AcDbSpline
 62
7
  6
CONTINUOUS
 70
0
 71
3
 72
13
 73
9
 74
0
 42
0.0000001
 43
0.0000001
 44
0.0000000001
 40
0.0
 40
0.0
 40
0.0
 40
0.0
 40
0.1108828697
 40
0.2279229568
 40
0.3501681574
 40
0.4766532067
 40
0.7373879485
 40
1.0
 40
1.0
 40
1.0
 40
1.0
 10
19.2951800624
 20
60.1742405697
 30
0.0
 10
19.4901917735
 20
60.0616530528
 30
0.0
 10
19.8785088369
 20
59.8080376434
 30
0.0
 10
20.4351913889
 20
59.3641372403
 30
0.0
 10
20.9745827934
 20
58.8521514772
 30
0.0
 10
21.6664721029
 20
58.0817032569
 30
0.0
 10
22.4347127652
 20
57.0027628187
 30
0.0
 10
22.9256542965
 20
56.055495851
 30
0.0
 10
23.1357033542
 20
55.5652954575
 30
0.0
  0
SPLINE
  5
25D
100
AcDbEntity
  8
0
100
AcDbSpline
 62
7
  6
CONTINUOUS
 70
0
 71
3
 72
17
 73
13
 74
0
 42
0.0000001
 43
0.0000001
 44
0.0000000001
 40
0.0
 40
0.0
 40
0.0
 40
0.0
 40
0.1569719505
 40
0.3073980242
 40
0.4488460477
 40
0.5795446019
 40
0.6986664507
 40
0.8066737286
 40
0.8571966804
 40
0.9058847224
 40
0.9532777254
 40
1.0
 40
1.0
 40
1.0
 40
1.0
 10
23.1357033542
 20
55.5652954575
 30
0.0
 10
23.2773427581
 20
55.2347455742
 30
0.0
 10
23.5227668875
 20
54.5730717579
 30
0.0
 10
23.7755113728
 20
53.5741743471
 30
0.0
 10
23.9003246211
 20
52.6115346025
 30
0.0
 10
23.8931812351
 20
51.711832449
 30
0.0
 10
23.7534776186
 20
50.8998842685
 30
0.0
 10
23.5219224882
 20
50.3011964386
 30
0.0
 10
23.2714687331
 20
49.8965324771
 30
0.0
 10
23.0581679902
 20
49.6357094339
 30
0.0
 10
22.8168005302
 20
49.4132791244
 30
0.0
 10
22.6378601454
 20
49.2913280275
 30
0.0
 10
22.5451616124
 20
49.2378080874
 30
0.0
  0
SPLINE
  5
25E
100
AcDbEntity
  8
0
100
AcDbSpline
 62
7
  6
CONTINUOUS
 70
0
 71
3
 72
23
 73
19
 74
0
 42
0.0000001
 43
0.0000001
 44
0.0000000001
 40
0.0
 40
0.0
 40
0.0
 40
0.0
 40
0.0623830983
 40
0.1287484568
 40
0.1983455949
 40
0.2703350405
 40
0.3437231079
 40
0.4174657811
 40
0.4905026682
 40
0.5618016927
 40
0.6304101511
 40
0.6955077131
 40
0.7564651001
 40
0.8129119642
 40
0.8648206728
 40
0.9126030721
 40
0.9571852853
 40
1.0
 40
1.0
 40
1.0
 40
1.0
 10
25.3436114852
 20
46.7078592077
 30
0.0
 10
25.5771085247
 20
46.5730526789
 30
0.0
 10
26.0410369329
 20
46.2629727725
 30
0.0
 10
26.6980686289
 20
45.710137285
 30
0.0
 10
27.3260844165
 20
45.0652710391
 30
0.0
 10
27.9117133654
 20
44.342404608
 30
0.0
 10
28.4425193023
 20
43.5567189493
 30
0.0
 10
28.9071964449
 20
42.7250366169
 30
0.0
 10
29.2958626241
 20
41.8650941583
 30
0.0
 10
29.6002081223
 20
40.9952050344
 30
0.0
 10
29.8137188325
 20
40.1338433372
 30
0.0
 10
29.9318520001
 20
39.2991939544
 30
0.0
 10
29.9519780483
 20
38.5086921084
 30
0.0
 10
29.8732443948
 20
37.7786411759
 30
0.0
 10
29.6963508742
 20
37.1240592283
 30
0.0
 10
29.4231724838
 20
36.5587420149
 30
0.0
 10
29.0576119026
 20
36.0964769711
 30
0.0
 10
28.7538453055
 20
35.8639491378
 30
0.0
 10
28.5935930353
 20
35.7714267255
 30
0.0
  0
SPLINE
  5
25F
100
AcDbEntity
  8
0
100
AcDbSpline
 62
7
  6
CONTINUOUS
 70
0
 71
3
 72
23
 73
19
 74
0
 42
0.0000001
 43
0.0000001
 44
0.0000000001
 40
0.0
 40
0.0
 40
0.0
 40
0.0
 40
0.0623830983
 40
0.1287484568
 40
0.1983455949
 40
0.2703350405
 40
0.3437231079
 40
0.4174657811
 40
0.4905026682
 40
0.5618016927
 40
0.6304101511
 40
0.6955077131
 40
0.7564651001
 40
0.8129119642
 40
0.8648206728
 40
0.9126030721
 40
0.9571852853
 40
1.0
 40
1.0
 40
1.0
 40
1.0
 10
25.3436114852
 20
66.6566529097
 30
0.0
 10
25.5771085247
 20
66.5218463809
 30
0.0
 10
26.0410369329
 20
66.2117664745
 30
0.0
 10
26.6980686289
 20
65.658930987
 30
0.0
 10
27.3260844165
 20
65.0140647411
 30
0.0
 10
27.9117133654
 20
64.29119831
 30
0.0
 10
28.4425193023
 20
63.5055126513
 30
0.0
 10
28.9071964449
 20
62.6738303189
 30
0.0
 10
29.2958626241
 20
61.8138878603
 30
0.0
 10
29.6002081223
 20
60.9439987364
 30
0.0
 10
29.8137188325
 20
60.0826370392
 30
0.0
 10
29.9318520001
 20
59.2479876564
 30
0.0
 10
29.9519780483
 20
58.4574858104
 30
0.0
 10
29.8732443948
 20
57.7274348779
 30
0.0
 10
29.6963508742
 20
57.0728529303
 30
0.0
 10
29.4231724838
 20
56.5075357169
 30
0.0
 10
29.0576119026
 20
56.0452706731
 30
0.0
 10
28.7538453055
 20
55.8127428398
 30
0.0
 10
28.5935930353
 20
55.7202204275
 30
0.0
  0
SPLINE
  5
260
100
AcDbEntity
  8
0
100
AcDbSpline
 62
7
  6
CONTINUOUS
 70
0
 71
3
 72
14
 73
10
 74
0
 42
0.0000001
 43
0.0000001
 44
0.0000000001
 40
0.0
 40
0.0
 40
0.0
 40
0.0
 40
0.1080449989
 40
0.2181276476
 40
0.332108638
 40
0.4514982794
 40
0.5774433207
 40
0.710728085
 40
1.0
 40
1.0
 40
1.0
 40
1.0
 10
22.0936299352
 20
47.0297602673
 30
0.0
 10
22.2001952852
 20
47.0912862802
 30
0.0
 10
22.426468549
 20
47.1972027552
 30
0.0
 10
22.7925590707
 20
47.2985060509
 30
0.0
 10
23.1828461238
 20
47.3419515749
 30
0.0
 10
23.5931118779
 20
47.3277675197
 30
0.0
 10
24.0195084633
 20
47.2562180331
 30
0.0
 10
24.6202443322
 20
47.0810730692
 30
0.0
 10
25.0582989063
 20
46.8725807755
 30
0.0
 10
25.3436114852
 20
46.7078592077
 30
0.0
  0
SPLINE
  5
261
100
AcDbEntity
  8
0
100
AcDbSpline
 62
7
  6
CONTINUOUS
 70
0
 71
3
 72
14
 73
10
 74
0
 42
0.0000001
 43
0.0000001
 44
0.0000000001
 40
0.0
 40
0.0
 40
0.0
 40
0.0
 40
0.1080449989
 40
0.2181276476
 40
0.332108638
 40
0.4514982794
 40
0.5774433207
 40
0.710728085
 40
1.0
 40
1.0
 40
1.0
 40
1.0
 10
16.0451985123
 20
60.4961416292
 30
0.0
 10
16.1517638623
 20
60.5576676421
 30
0.0
 10
16.3780371261
 20
60.6635841171
 30
0.0
 10
16.7441276478
 20
60.7648874128
 30
0.0
 10
17.1344147009
 20
60.8083329368
 30
0.0
 10
17.5446804551
 20
60.7941488816
 30
0.0
 10
17.9710770405
 20
60.722599395
 30
0.0
 10
18.5718129094
 20
60.5474544311
 30
0.0
 10
19.0098674835
 20
60.3389621374
 30
0.0
 10
19.2951800624
 20
60.1742405697
 30
0.0
  0
SPLINE
  5
262
100
AcDbEntity
  8
0
100
AcDbSpline
 62
7
  6
CONTINUOUS
 70
0
 71
3
 72
15
 73
11
 74
0
 42
0.0000001
 43
0.0000001
 44
0.0000000001
 40
0.0
 40
0.0
 40
0.0
 40
0.0
 40
0.1080110466
 40
0.2180581192
 40
0.331999161
 40
0.4513560694
 40
0.577261558
 40
0.710492939
 40
0.8514586487
 40
1.0
 40
1.0
 40
1.0
 40
1.0
 10
30.8087385482
 20
53.7046679548
 30
0.0
 10
30.9644810362
 20
53.7946049536
 30
0.0
 10
31.2951781721
 20
53.9494387802
 30
0.0
 10
31.8302436212
 20
54.097440271
 30
0.0
 10
32.4006551038
 20
54.1610032715
 30
0.0
 10
33.0002947712
 20
54.140202457
 30
0.0
 10
33.6234245678
 20
54.0356668885
 30
0.0
 10
34.264329682
 20
53.8488695597
 30
0.0
 10
34.9167497986
 20
53.5817258703
 30
0.0
 10
35.3445075505
 20
53.3578738976
 30
0.0
 10
35.5587037408
 20
53.2342104671
 30
0.0
  0
SPLINE
  5
263
100
AcDbEntity
  8
0
100
AcDbSpline
 62
7
  6
CONTINUOUS
 70
0
 71
3
 72
11
 73
7
 74
0
 42
0.0000001
 43
0.0000001
 44
0.0000000001
 40
0.0
 40
0.0
 40
0.0
 40
0.0
 40
0.2645763008
 40
0.520552258
 40
0.7661722626
 40
1.0
 40
1.0
 40
1.0
 40
1.0
 10
56.2539843111
 20
74.732535209
 30
0.0
 10
55.6586090557
 20
75.4044982324
 30
0.0
 10
54.4410205041
 20
76.6866546322
 30
0.0
 10
52.5120639372
 20
78.4336184392
 30
0.0
 10
50.5296539717
 20
79.954007158
 30
0.0
 10
49.153937387
 20
80.827708167
 30
0.0
 10
48.4636032937
 20
81.2188427477
 30
0.0
  0
SPLINE
  5
264
100
AcDbEntity
  8
0
100
AcDbSpline
 62
7
  6
CONTINUOUS
 70
0
 71
3
 72
9
 73
5
 74
0
 42
0.0000001
 43
0.0000001
 44
0.0000000001
 40
0.0
 40
0.0
 40
0.0
 40
0.0
 40
0.2439494226
 40
1.0
 40
1.0
 40
1.0
 40
1.0
 10
34.8515410242
 20
76.9126125312
 30
0.0
 10
35.0868400365
 20
76.7767656563
 30
0.0
 10
36.0430214559
 20
76.205489709
 30
0.0
 10
36.9659061015
 20
75.5789439078
 30
0.0
 10
37.6440665492
 20
75.0797974027
 30
0.0
  0
SPLINE
  5
265
100
AcDbEntity
  8
0
100
AcDbSpline
 62
7
  6
CONTINUOUS
 70
0
 71
3
 72
11
 73
7
 74
0
 42
0.0000001
 43
0.0000001
 44
0.0000000001
 40
0.0
 40
0.0
 40
0.0
 40
0.0
 40
0.2645975777
 40
0.5206267571
 40
0.7662600425
 40
1.0
 40
1.0
 40
1.0
 40
1.0
 10
57.3113809676
 20
75.3506630968
 30
0.0
 10
56.7162682918
 20
76.0220715919
 30
0.0
 10
55.4983092105
 20
77.3024692821
 30
0.0
 10
53.5696097441
 20
79.0472097182
 30
0.0
 10
51.5895390322
 20
80.5673998889
 30
0.0
 10
50.2154295599
 20
81.4410406454
 30
0.0
 10
49.5256700455
 20
81.8313997483
 30
0.0
  0
SPLINE
  5
266
100
AcDbEntity
  8
0
100
AcDbSpline
 62
7
  6
CONTINUOUS
 70
0
 71
3
 72
18
 73
14
 74
0
 42
0.0000001
 43
0.0000001
 44
0.0000000001
 40
0.0
 40
0.0
 40
0.0
 40
0.0
 40
0.1496611891
 40
0.2907557154
 40
0.4233830036
 40
0.5482323547
 40
0.6664012635
 40
0.7235149332
 40
0.7796224772
 40
0.8350175261
 40
0.8900028057
 40
0.9448910883
 40
1.0
 40
1.0
 40
1.0
 40
1.0
 10
44.2209802704
 20
78.7693778244
 30
0.0
 10
43.5943218934
 20
79.1239012593
 30
0.0
 10
42.3450071158
 20
79.7589574965
 30
0.0
 10
40.4370142911
 20
80.4839337535
 30
0.0
 10
38.5704049044
 20
80.9451071755
 30
0.0
 10
36.7677747932
 20
81.139414237
 30
0.0
 10
35.3183259306
 20
81.0735079547
 30
0.0
 10
34.2210257326
 20
80.8787712376
 30
0.0
 10
33.4370415048
 20
80.6661131668
 30
0.0
 10
32.6852729022
 20
80.3865831172
 30
0.0
 10
31.9677825715
 20
80.0413257781
 30
0.0
 10
31.2868142924
 20
79.6314613194
 30
0.0
 10
30.8601260109
 20
79.3169503864
 30
0.0
 10
30.6541772
 20
79.1499986689
 30
0.0
  0
SPLINE
  5
267
100
AcDbEntity
  8
0
100
AcDbSpline
 62
7
  6
CONTINUOUS
 70
0
 71
3
 72
17
 73
13
 74
0
 42
0.0000001
 43
0.0000001
 44
0.0000000001
 40
0.0
 40
0.0
 40
0.0
 40
0.0
 40
0.1496125957
 40
0.2907646523
 40
0.4234578081
 40
0.5482814259
 40
0.6664281796
 40
0.7796016221
 40
0.8350183331
 40
0.8900081017
 40
0.9448949193
 40
1.0
 40
1.0
 40
1.0
 40
1.0
 10
45.2816459222
 20
79.3823358142
 30
0.0
 10
44.6553445099
 20
79.736731196
 30
0.0
 10
43.4056495683
 20
80.3705738587
 30
0.0
 10
41.4977872857
 20
81.0955423267
 30
0.0
 10
39.631596478
 20
81.5584573188
 30
0.0
 10
37.8287355873
 20
81.752472074
 30
0.0
 10
36.1103503507
 20
81.6721509167
 30
0.0
 10
34.7556416469
 20
81.3742596757
 30
0.0
 10
33.7459135849
 20
81.0003618615
 30
0.0
 10
33.0284097957
 20
80.6550527433
 30
0.0
 10
32.3479610514
 20
80.2446307306
 30
0.0
 10
31.9216902063
 20
79.9297766168
 30
0.0
 10
31.7159189581
 20
79.7627171084
 30
0.0
  0
SPLINE
  5
268
100
AcDbEntity
  8
0
100
AcDbSpline
 62
7
  6
CONTINUOUS
 70
0
 71
3
 72
11
 73
7
 74
0
 42
0.0000001
 43
0.0000001
 44
0.0000000001
 40
0.0
 40
0.0
 40
0.0
 40
0.0
 40
0.2644961194
 40
0.5203904281
 40
0.7660530283
 40
1.0
 40
1.0
 40
1.0
 40
1.0
 10
58.3725023353
 20
75.9610206689
 30
0.0
 10
57.7775212289
 20
76.6324426164
 30
0.0
 10
56.5604059533
 20
77.9132287533
 30
0.0
 10
54.6325957423
 20
79.659089485
 30
0.0
 10
52.6513055339
 20
81.1796161842
 30
0.0
 10
51.2755146928
 20
82.0529045933
 30
0.0
 10
50.5851520908
 20
82.444102144
 30
0.0
  0
SPLINE
  5
269
100
AcDbEntity
  8
0
100
AcDbSpline
 62
7
  6
CONTINUOUS
 70
0
 71
3
 72
20
 73
16
 74
0
 42
0.0000001
 43
0.0000001
 44
0.0000000001
 40
0.0
 40
0.0
 40
0.0
 40
0.0
 40
0.0476715435
 40
0.0963069031
 40
0.1463189974
 40
0.1980751704
 40
0.2518911803
 40
0.3079873254
 40
0.3665077521
 40
0.4275282052
 40
0.5570612272
 40
0.6255961014
 40
0.6964836048
 40
0.8446111987
 40
1.0
 40
1.0
 40
1.0
 40
1.0
 10
54.5957651672
 20
36.2421428359
 30
0.0
 10
54.8660480532
 20
36.4471452958
 30
0.0
 10
55.3863771308
 20
36.8963209375
 30
0.0
 10
56.0884052614
 20
37.6683269402
 30
0.0
 10
56.7149040187
 20
38.5388309432
 30
0.0
 10
57.2619634638
 20
39.5037042493
 30
0.0
 10
57.7257754373
 20
40.558493172
 30
0.0
 10
58.104813481
 20
41.6972076087
 30
0.0
 10
58.3973839643
 20
42.9137892167
 30
0.0
 10
58.6768446426
 20
44.6654571729
 30
0.0
 10
58.7681970363
 20
46.5134867264
 30
0.0
 10
58.6872586857
 20
48.4263599932
 30
0.0
 10
58.4826509884
 20
50.4634238548
 30
0.0
 10
57.9997844277
 20
53.0885086557
 30
0.0
 10
57.4066547923
 20
55.1689349896
 30
0.0
 10
57.0565441172
 20
56.217797674
 30
0.0
  0
SPLINE
  5
26A
100
AcDbEntity
  8
0
100
AcDbSpline
 62
7
  6
CONTINUOUS
 70
0
 71
3
 72
18
 73
14
 74
0
 42
0.0000001
 43
0.0000001
 44
0.0000000001
 40
0.0
 40
0.0
 40
0.0
 40
0.0
 40
0.1489449412
 40
0.2898320801
 40
0.4227105446
 40
0.4863216804
 40
0.5481385264
 40
0.6668490314
 40
0.7804054827
 40
0.8358699405
 40
0.8907697388
 40
0.9453840961
 40
1.0
 40
1.0
 40
1.0
 40
1.0
 10
43.1603503948
 20
78.1584140756
 30
0.0
 10
42.5620275511
 20
78.4974159459
 30
0.0
 10
41.36707005
 20
79.1051418771
 30
0.0
 10
39.5444058188
 20
79.8122402662
 30
0.0
 10
38.0341299593
 20
80.2103384709
 30
0.0
 10
36.856072628
 20
80.4013107515
 30
0.0
 10
35.7329850491
 20
80.5058058527
 30
0.0
 10
34.369918603
 20
80.4855859961
 30
0.0
 10
33.0549885759
 20
80.254963494
 30
0.0
 10
32.0669358008
 20
79.9468654944
 30
0.0
 10
31.3614149143
 20
79.6569720123
 30
0.0
 10
30.6881493553
 20
79.3070731335
 30
0.0
 10
30.2627027856
 20
79.0347669342
 30
0.0
 10
30.0566322054
 20
78.8894335346
 30
0.0
  0
SPLINE
  5
26B
100
AcDbEntity
  8
0
100
AcDbSpline
 62
7
  6
CONTINUOUS
 70
0
 71
3
 72
18
 73
14
 74
0
 42
0.0000001
 43
0.0000001
 44
0.0000000001
 40
0.0
 40
0.0
 40
0.0
 40
0.0
 40
0.1496611891
 40
0.2907557154
 40
0.4233830036
 40
0.5482323547
 40
0.6664012635
 40
0.7235149332
 40
0.7796224772
 40
0.8350175261
 40
0.8900028057
 40
0.9448910883
 40
1.0
 40
1.0
 40
1.0
 40
1.0
 10
48.4636032937
 20
81.2188427477
 30
0.0
 10
47.8369449166
 20
81.5733661825
 30
0.0
 10
46.5876301391
 20
82.2084224197
 30
0.0
 10
44.6796373144
 20
82.9333986768
 30
0.0
 10
42.8130279276
 20
83.3945720988
 30
0.0
 10
41.0103978165
 20
83.5888791602
 30
0.0
 10
39.5609489538
 20
83.5229728779
 30
0.0
 10
38.4636487559
 20
83.3282361608
 30
0.0
 10
37.6796645281
 20
83.11557809
 30
0.0
 10
36.9278959254
 20
82.8360480404
 30
0.0
 10
36.2104055948
 20
82.4907907013
 30
0.0
 10
35.5294373156
 20
82.0809262426
 30
0.0
 10
35.1027490341
 20
81.7664153097
 30
0.0
 10
34.8968002232
 20
81.5994635922
 30
0.0
  0
SPLINE
  5
26C
100
AcDbEntity
  8
0
100
AcDbSpline
 62
7
  6
CONTINUOUS
 70
0
 71
3
 72
17
 73
13
 74
0
 42
0.0000001
 43
0.0000001
 44
0.0000000001
 40
0.0
 40
0.0
 40
0.0
 40
0.0
 40
0.149612623
 40
0.2907648205
 40
0.4234577922
 40
0.5482814733
 40
0.6664282154
 40
0.779601632
 40
0.8350183468
 40
0.8900081143
 40
0.9448949259
 40
1.0
 40
1.0
 40
1.0
 40
1.0
 10
49.5242689454
 20
81.8318007374
 30
0.0
 10
48.8979973354
 20
82.186249163
 30
0.0
 10
47.6482751954
 20
82.8200529955
 30
0.0
 10
45.7404052273
 20
83.5449872489
 30
0.0
 10
43.8742209891
 20
84.0079317394
 30
0.0
 10
42.0713584004
 20
84.2019343385
 30
0.0
 10
40.3529734897
 20
84.1216161105
 30
0.0
 10
38.99826457
 20
83.8237247664
 30
0.0
 10
37.9885366393
 20
83.4498267767
 30
0.0
 10
37.2710328161
 20
83.1045176166
 30
0.0
 10
36.5905840631
 20
82.6940956294
 30
0.0
 10
36.1643132244
 20
82.379241538
 30
0.0
 10
35.958541983
 20
82.2121820386
 30
0.0
  0
SPLINE
  5
26D
100
AcDbEntity
  8
0
100
AcDbSpline
 62
7
  6
CONTINUOUS
 70
0
 71
3
 72
18
 73
14
 74
0
 42
0.0000001
 43
0.0000001
 44
0.0000000001
 40
0.0
 40
0.0
 40
0.0
 40
0.0
 40
0.1496128424
 40
0.2907496798
 40
0.4233972602
 40
0.5482175766
 40
0.6663826133
 40
0.7235112919
 40
0.7796339119
 40
0.8350321627
 40
0.8900121876
 40
0.9448962903
 40
1.0
 40
1.0
 40
1.0
 40
1.0
 10
46.3423049705
 20
79.9941405505
 30
0.0
 10
45.7164264624
 20
80.3485204206
 30
0.0
 10
44.4673537477
 20
80.9817904353
 30
0.0
 10
42.56135765
 20
81.7076418983
 30
0.0
 10
40.6963335089
 20
82.1706637884
 30
0.0
 10
38.894816442
 20
82.3632664934
 30
0.0
 10
37.4466430715
 20
82.2976097345
 30
0.0
 10
36.3497303314
 20
82.1047067777
 30
0.0
 10
35.5656844601
 20
81.893926703
 30
0.0
 10
34.8138602575
 20
81.6159402431
 30
0.0
 10
34.0967512814
 20
81.2712093975
 30
0.0
 10
33.4164108756
 20
80.8615419911
 30
0.0
 10
32.9900157475
 20
80.5473755539
 30
0.0
 10
32.7841217982
 20
80.380698277
 30
0.0
  0
SPLINE
  5
26E
100
AcDbEntity
  8
0
100
AcDbSpline
 62
7
  6
CONTINUOUS
 70
0
 71
3
 72
15
 73
11
 74
0
 42
0.0000001
 43
0.0000001
 44
0.0000000001
 40
0.0
 40
0.0
 40
0.0
 40
0.0
 40
0.1497240051
 40
0.2908212972
 40
0.4234574096
 40
0.5483871505
 40
0.6666943568
 40
0.7798926909
 40
0.8901328978
 40
1.0
 40
1.0
 40
1.0
 40
1.0
 10
50.5851520908
 20
82.444102144
 30
0.0
 10
49.9587227819
 20
82.7990715624
 30
0.0
 10
48.7087480539
 20
83.4324448612
 30
0.0
 10
46.8012920255
 20
84.1572117129
 30
0.0
 10
44.9354170448
 20
84.6199335179
 30
0.0
 10
43.1319764716
 20
84.8135958776
 30
0.0
 10
41.4122675004
 20
84.7343547769
 30
0.0
 10
39.7986922975
 20
84.3789538481
 30
0.0
 10
38.3147057803
 20
83.7496545949
 30
0.0
 10
37.4296026673
 20
83.1559188245
 30
0.0
 10
37.0195869136
 20
82.8227022992
 30
0.0
  0
SPLINE
  5
26F
100
AcDbEntity
  8
0
100
AcDbSpline
 62
7
  6
CONTINUOUS
 70
0
 71
3
 72
18
 73
14
 74
0
 42
0.0000001
 43
0.0000001
 44
0.0000000001
 40
0.0
 40
0.0
 40
0.0
 40
0.0
 40
0.1495501069
 40
0.2906977864
 40
0.4234404126
 40
0.5482845482
 40
0.6663214143
 40
0.7233994571
 40
0.7795046429
 40
0.8349210293
 40
0.8899460044
 40
0.9448732335
 40
1.0
 40
1.0
 40
1.0
 40
1.0
 10
51.6467317279
 20
83.0562034842
 30
0.0
 10
51.0212182112
 20
83.4102706953
 30
0.0
 10
49.7727457245
 20
84.0434701236
 30
0.0
 10
47.866577408
 20
84.7681869615
 30
0.0
 10
46.0015708066
 20
85.2313928849
 30
0.0
 10
44.200717483
 20
85.4263915727
 30
0.0
 10
42.7535692691
 20
85.3595558765
 30
0.0
 10
41.6580236379
 20
85.1659899153
 30
0.0
 10
40.8744546804
 20
84.9551587198
 30
0.0
 10
40.1224421394
 20
84.6776842396
 30
0.0
 10
39.4043788515
 20
84.334253028
 30
0.0
 10
38.7227850886
 20
83.9259838261
 30
0.0
 10
38.2957837444
 20
83.6122689405
 30
0.0
 10
38.0897621981
 20
83.4456728139
 30
0.0
  0
SPLINE
  5
270
100
AcDbEntity
  8
0
100
AcDbSpline
 62
7
  6
CONTINUOUS
 70
0
 71
3
 72
22
 73
18
 74
0
 42
0.0000001
 43
0.0000001
 44
0.0000000001
 40
0.0
 40
0.0
 40
0.0
 40
0.0
 40
0.0781681622
 40
0.1550142548
 40
0.2301959812
 40
0.3034539258
 40
0.374592271
 40
0.4434497137
 40
0.5098909919
 40
0.5738073138
 40
0.6351224435
 40
0.6937982244
 40
0.8034307592
 40
0.8549441805
 40
0.9046112905
 40
0.9528133034
 40
1.0
 40
1.0
 40
1.0
 40
1.0
 10
66.9170765037
 20
64.3803642135
 30
0.0
 10
67.1317440926
 20
63.8148293167
 30
0.0
 10
67.5274485811
 20
62.6818543568
 30
0.0
 10
68.0437723172
 20
60.9763293871
 30
0.0
 10
68.4618845325
 20
59.282961427
 30
0.0
 10
68.7817824766
 20
57.6133094588
 30
0.0
 10
69.0021840371
 20
55.9769254508
 30
0.0
 10
69.1231277058
 20
54.3830391855
 30
0.0
 10
69.1442595163
 20
52.8404720913
 30
0.0
 10
69.0652272047
 20
51.3581689668
 30
0.0
 10
68.885597276
 20
49.9447568165
 30
0.0
 10
68.5194162366
 20
48.2047301564
 30
0.0
 10
67.9492534559
 20
46.588384668
 30
0.0
 10
67.167850456
 20
45.1531692983
 30
0.0
 10
66.5031974685
 20
44.2040190323
 30
0.0
 10
65.7516735615
 20
43.3665479934
 30
0.0
 10
65.1905948562
 20
42.8830030597
 30
0.0
 10
64.8985256074
 20
42.6638361186
 30
0.0
  0
SPLINE
  5
271
100
AcDbEntity
  8
0
100
AcDbSpline
 62
7
  6
CONTINUOUS
 70
0
 71
3
 72
11
 73
7
 74
0
 42
0.0000001
 43
0.0000001
 44
0.0000000001
 40
0.0
 40
0.0
 40
0.0
 40
0.0
 40
0.2645632219
 40
0.5206039869
 40
0.7662639741
 40
1.0
 40
1.0
 40
1.0
 40
1.0
 10
59.4366069824
 20
76.5692578942
 30
0.0
 10
58.8412079075
 20
77.24108709
 30
0.0
 10
57.6226583385
 20
78.5225049652
 30
0.0
 10
55.6925544755
 20
80.268428285
 30
0.0
 10
53.7112159981
 20
81.7898888293
 30
0.0
 10
52.3369255742
 20
82.6655244602
 30
0.0
 10
51.6467317279
 20
83.0562034842
 30
0.0
  0
SPLINE
  5
272
100
AcDbEntity
  8
0
100
AcDbSpline
 62
7
  6
CONTINUOUS
 70
0
 71
3
 72
11
 73
7
 74
0
 42
0.0000001
 43
0.0000001
 44
0.0000000001
 40
0.0
 40
0.0
 40
0.0
 40
0.0
 40
0.2252122738
 40
0.4677046056
 40
0.7264689321
 40
1.0
 40
1.0
 40
1.0
 40
1.0
 10
8.9285502898
 20
57.2503209566
 30
0.0
 10
9.0586636738
 20
57.8389307131
 30
0.0
 10
9.2512246422
 20
59.0792737841
 30
0.0
 10
9.3418450259
 20
61.0247609667
 30
0.0
 10
9.2405991808
 20
63.0989269327
 30
0.0
 10
9.0491457889
 20
64.5126513637
 30
0.0
 10
8.9232337659
 20
65.2338959123
 30
0.0
  0
SPLINE
  5
273
100
AcDbEntity
  8
0
100
AcDbSpline
 62
7
  6
CONTINUOUS
 70
0
 71
3
 72
9
 73
5
 74
0
 42
0.0000001
 43
0.0000001
 44
0.0000000001
 40
0.0
 40
0.0
 40
0.0
 40
0.0
 40
0.5098471788
 40
1.0
 40
1.0
 40
1.0
 40
1.0
 10
10.6242715091
 20
50.0144031985
 30
0.0
 10
10.2298961687
 20
51.1828685377
 30
0.0
 10
9.5517893031
 20
53.5082201575
 30
0.0
 10
9.0881068972
 20
55.8865189591
 30
0.0
 10
8.9212585969
 20
57.0603076701
 30
0.0
  0
SPLINE
  5
274
100
AcDbEntity
  8
0
100
AcDbSpline
 62
7
  6
CONTINUOUS
 70
0
 71
3
 72
11
 73
7
 74
0
 42
0.0000001
 43
0.0000001
 44
0.0000000001
 40
0.0
 40
0.0
 40
0.0
 40
0.0
 40
0.2442725295
 40
0.493782526
 40
0.7464149022
 40
1.0
 40
1.0
 40
1.0
 40
1.0
 10
14.7920622749
 20
40.9846870543
 30
0.0
 10
14.5531787844
 20
41.7602760353
 30
0.0
 10
14.0147678906
 20
43.3114817718
 30
0.0
 10
13.0474516869
 20
45.5966648334
 30
0.0
 10
11.9215277408
 20
47.8426357554
 30
0.0
 10
11.0735194586
 20
49.2965257563
 30
0.0
 10
10.6261591802
 20
50.0104209749
 30
0.0
  0
SPLINE
  5
275
100
AcDbEntity
  8
0
100
AcDbSpline
 62
7
  6
CONTINUOUS
 70
0
 71
3
 72
9
 73
5
 74
0
 42
0.0000001
 43
0.0000001
 44
0.0000000001
 40
0.0
 40
0.0
 40
0.0
 40
0.0
 40
0.5155504827
 40
1.0
 40
1.0
 40
1.0
 40
1.0
 10
8.9227307358
 20
65.3986723496
 30
0.0
 10
9.0875547477
 20
66.376052688
 30
0.0
 10
9.5412476628
 20
68.2530464193
 30
0.0
 10
10.3094779514
 20
70.0293791206
 30
0.0
 10
10.7640378157
 20
70.8423103243
 30
0.0
  0
SPLINE
  5
276
100
AcDbEntity
  8
0
100
AcDbSpline
 62
7
  6
CONTINUOUS
 70
0
 71
3
 72
15
 73
11
 74
0
 42
0.0000001
 43
0.0000001
 44
0.0000000001
 40
0.0
 40
0.0
 40
0.0
 40
0.0
 40
0.1080129984
 40
0.2180627101
 40
0.3320000022
 40
0.4513583736
 40
0.5772794215
 40
0.7104944566
 40
0.8514114027
 40
1.0
 40
1.0
 40
1.0
 40
1.0
 10
20.3516173925
 20
78.348796759
 30
0.0
 10
20.8270866693
 20
78.6232865704
 30
0.0
 10
21.8365504201
 20
79.0960644596
 30
0.0
 10
23.469968172
 20
79.5476891859
 30
0.0
 10
25.2112027481
 20
79.7419192251
 30
0.0
 10
27.0417601373
 20
79.6782705434
 30
0.0
 10
28.9439488896
 20
79.3591445538
 30
0.0
 10
30.9001269489
 20
78.7889079588
 30
0.0
 10
32.8917735846
 20
77.9737536696
 30
0.0
 10
34.1974691475
 20
77.2902325623
 30
0.0
 10
34.8515410242
 20
76.9126125312
 30
0.0
  0
SPLINE
  5
277
100
AcDbEntity
  8
0
100
AcDbSpline
 62
7
  6
CONTINUOUS
 70
0
 71
3
 72
9
 73
5
 74
0
 42
0.0000001
 43
0.0000001
 44
0.0000000001
 40
0.0
 40
0.0
 40
0.0
 40
0.0
 40
0.4966481286
 40
1.0
 40
1.0
 40
1.0
 40
1.0
 10
19.2165802361
 20
34.7169187377
 30
0.0
 10
18.401930426
 20
35.6910771792
 30
0.0
 10
16.8434623341
 20
37.7222093014
 30
0.0
 10
15.4519238154
 20
39.8708691041
 30
0.0
 10
14.7951499808
 20
40.9777185251
 30
0.0
  0
SPLINE
  5
278
100
AcDbEntity
  8
0
100
AcDbSpline
 62
7
  6
CONTINUOUS
 70
0
 71
3
 72
11
 73
7
 74
0
 42
0.0000001
 43
0.0000001
 44
0.0000000001
 40
0.0
 40
0.0
 40
0.0
 40
0.0
 40
0.2632605217
 40
0.5190084394
 40
0.7652041389
 40
1.0
 40
1.0
 40
1.0
 40
1.0
 10
25.9593720815
 20
28.2948062574
 30
0.0
 10
25.453099279
 20
28.9327718089
 30
0.0
 10
24.4135763946
 20
30.1583489362
 30
0.0
 10
22.7600331937
 20
31.8551306452
 30
0.0
 10
21.0523421402
 20
33.3677866484
 30
0.0
 10
19.8620953318
 20
34.264259206
 30
0.0
 10
19.2628944131
 20
34.6748511059
 30
0.0
  0
SPLINE
  5
279
100
AcDbEntity
  8
0
100
AcDbSpline
 62
7
  6
CONTINUOUS
 70
0
 71
3
 72
9
 73
5
 74
0
 42
0.0000001
 43
0.0000001
 44
0.0000000001
 40
0.0
 40
0.0
 40
0.0
 40
0.0
 40
0.484945936
 40
1.0
 40
1.0
 40
1.0
 40
1.0
 10
31.6535950209
 20
24.999849267
 30
0.0
 10
30.6775552962
 20
25.4064064381
 30
0.0
 10
28.7229017633
 20
26.3879219452
 30
0.0
 10
26.9001895917
 20
27.5930992612
 30
0.0
 10
25.99616797
 20
28.2592918085
 30
0.0
  0
SPLINE
  5
27A
100
AcDbEntity
  8
0
100
AcDbSpline
 62
7
  6
CONTINUOUS
 70
0
 71
3
 72
11
 73
7
 74
0
 42
0.0000001
 43
0.0000001
 44
0.0000000001
 40
0.0
 40
0.0
 40
0.0
 40
0.0
 40
0.2645655683
 40
0.5205346864
 40
0.7661554237
 40
1.0
 40
1.0
 40
1.0
 40
1.0
 10
52.0005616714
 20
72.2952563415
 30
0.0
 10
51.4058791123
 20
72.9658669443
 30
0.0
 10
50.1897775238
 20
74.2454488452
 30
0.0
 10
48.2634782184
 20
75.9890502285
 30
0.0
 10
46.2838796069
 20
77.506612575
 30
0.0
 10
44.9101733823
 20
78.3786867838
 30
0.0
 10
44.2209802704
 20
78.7693778244
 30
0.0
  0
SPLINE
  5
27B
100
AcDbEntity
  8
0
100
AcDbSpline
 62
7
  6
CONTINUOUS
 70
0
 71
3
 72
11
 73
7
 74
0
 42
0.0000001
 43
0.0000001
 44
0.0000000001
 40
0.0
 40
0.0
 40
0.0
 40
0.0
 40
0.2816672441
 40
0.5416054668
 40
0.7803645016
 40
1.0
 40
1.0
 40
1.0
 40
1.0
 10
38.3617710828
 20
23.6508572755
 30
0.0
 10
37.8089787482
 20
23.9109206952
 30
0.0
 10
36.719472544
 20
24.3576552329
 30
0.0
 10
35.0837054113
 20
24.8096946709
 30
0.0
 10
33.534426355
 20
25.0175552849
 30
0.0
 10
32.5350688264
 20
24.9953426824
 30
0.0
 10
32.0617041681
 20
24.9419193226
 30
0.0
  0
SPLINE
  5
27C
100
AcDbEntity
  8
0
100
AcDbSpline
 62
7
  6
CONTINUOUS
 70
0
 71
3
 72
9
 73
5
 74
0
 42
0.0000001
 43
0.0000001
 44
0.0000000001
 40
0.0
 40
0.0
 40
0.0
 40
0.0
 40
0.4994371883
 40
1.0
 40
1.0
 40
1.0
 40
1.0
 10
38.3617751767
 20
23.6508651994
 30
0.0
 10
38.4177943606
 20
23.6245246698
 30
0.0
 10
38.5365443015
 20
23.5846153339
 30
0.0
 10
38.6614350911
 20
23.5745485961
 30
0.0
 10
38.7234375241
 20
23.5767763983
 30
0.0
  0
SPLINE
  5
27D
100
AcDbEntity
  8
0
100
AcDbSpline
 62
7
  6
CONTINUOUS
 70
0
 71
3
 72
9
 73
5
 74
0
 42
0.0000001
 43
0.0000001
 44
0.0000000001
 40
0.0
 40
0.0
 40
0.0
 40
0.0
 40
0.5009091307
 40
1.0
 40
1.0
 40
1.0
 40
1.0
 10
32.0617017776
 20
24.9419183087
 30
0.0
 10
31.9927490812
 20
24.9341434126
 30
0.0
 10
31.8525164029
 20
24.9356886096
 30
0.0
 10
31.7174271255
 20
24.9732961901
 30
0.0
 10
31.6535982196
 20
24.9998650058
 30
0.0
  0
SPLINE
  5
27E
100
AcDbEntity
  8
0
100
AcDbSpline
 62
7
  6
CONTINUOUS
 70
0
 71
3
 72
11
 73
7
 74
0
 42
0.0000001
 43
0.0000001
 44
0.0000000001
 40
0.0
 40
0.0
 40
0.0
 40
0.0
 40
0.2456597715
 40
0.4931779883
 40
0.7441476179
 40
1.0
 40
1.0
 40
1.0
 40
1.0
 10
43.7870122106
 20
24.9114874026
 30
0.0
 10
43.4066269558
 20
24.7058733972
 30
0.0
 10
42.6170066812
 20
24.3392561283
 30
0.0
 10
41.3686233082
 20
23.9332181762
 30
0.0
 10
40.0641709156
 20
23.6710041999
 30
0.0
 10
39.1734844894
 20
23.5929539288
 30
0.0
 10
38.7234343136
 20
23.5767728859
 30
0.0
  0
SPLINE
  5
27F
100
AcDbEntity
  8
0
100
AcDbSpline
 62
7
  6
CONTINUOUS
 70
0
 71
3
 72
11
 73
7
 74
0
 42
0.0000001
 43
0.0000001
 44
0.0000000001
 40
0.0
 40
0.0
 40
0.0
 40
0.0
 40
0.2341323934
 40
0.4753536018
 40
0.7290602079
 40
1.0
 40
1.0
 40
1.0
 40
1.0
 10
11.9177223689
 20
71.6085646977
 30
0.0
 10
12.2268812157
 20
71.7870565757
 30
0.0
 10
12.8252837007
 20
72.2028112268
 30
0.0
 10
13.6261609496
 20
72.9802403884
 30
0.0
 10
14.3306040768
 20
73.9168531756
 30
0.0
 10
14.7175524016
 20
74.6202056819
 30
0.0
 10
14.893822317
 20
74.9938172841
 30
0.0
  0
SPLINE
  5
280
100
AcDbEntity
  8
0
100
AcDbSpline
 62
7
  6
CONTINUOUS
 70
0
 71
3
 72
11
 73
7
 74
0
 42
0.0000001
 43
0.0000001
 44
0.0000000001
 40
0.0
 40
0.0
 40
0.0
 40
0.0
 40
0.2645783712
 40
0.5205238222
 40
0.766140669
 40
1.0
 40
1.0
 40
1.0
 40
1.0
 10
53.076543223
 20
72.8906747262
 30
0.0
 10
52.4810615653
 20
73.5633610097
 30
0.0
 10
51.2629585289
 20
74.8465762306
 30
0.0
 10
49.3322891479
 20
76.5941297916
 30
0.0
 10
47.3486852763
 20
78.1155748278
 30
0.0
 10
45.9727077406
 20
78.9911792838
 30
0.0
 10
45.2816480673
 20
79.382335302
 30
0.0
  0
SPLINE
  5
281
100
AcDbEntity
  8
0
100
AcDbSpline
 62
7
  6
CONTINUOUS
 70
0
 71
3
 72
11
 73
7
 74
0
 42
0.0000001
 43
0.0000001
 44
0.0000000001
 40
0.0
 40
0.0
 40
0.0
 40
0.0
 40
0.2645268827
 40
0.5205262396
 40
0.7661983059
 40
1.0
 40
1.0
 40
1.0
 40
1.0
 10
54.1231601247
 20
73.5191189827
 30
0.0
 10
53.5283143463
 20
74.1895888116
 30
0.0
 10
52.3112889225
 20
75.4686140614
 30
0.0
 10
50.3849993398
 20
77.2129044406
 30
0.0
 10
48.4061205986
 20
78.7323039099
 30
0.0
 10
47.0316728049
 20
79.6038122673
 30
0.0
 10
46.3423049705
 20
79.9941405505
 30
0.0
  0
SPLINE
  5
282
100
AcDbEntity
  8
0
100
AcDbSpline
 62
7
  6
CONTINUOUS
 70
0
 71
3
 72
11
 73
7
 74
0
 42
0.0000001
 43
0.0000001
 44
0.0000000001
 40
0.0
 40
0.0
 40
0.0
 40
0.0
 40
0.2645243451
 40
0.5204525169
 40
0.7661174588
 40
1.0
 40
1.0
 40
1.0
 40
1.0
 10
46.7035632231
 20
69.2277781819
 30
0.0
 10
46.1088022272
 20
69.8992042092
 30
0.0
 10
44.8912296581
 20
71.1792597092
 30
0.0
 10
42.9625577452
 20
72.9234230655
 30
0.0
 10
40.982217936
 20
74.4437883344
 30
0.0
 10
39.6077364822
 20
75.3179990466
 30
0.0
 10
38.9177273716
 20
75.7089491524
 30
0.0
  0
SPLINE
  5
283
100
AcDbEntity
  8
0
100
AcDbSpline
 62
7
  6
CONTINUOUS
 70
0
 71
3
 72
11
 73
7
 74
0
 42
0.0000001
 43
0.0000001
 44
0.0000000001
 40
0.0
 40
0.0
 40
0.0
 40
0.0
 40
0.2645243451
 40
0.5204525169
 40
0.7661174588
 40
1.0
 40
1.0
 40
1.0
 40
1.0
 10
55.1888092697
 20
74.1267080283
 30
0.0
 10
54.5940482738
 20
74.7981340557
 30
0.0
 10
53.3764757046
 20
76.0781895556
 30
0.0
 10
51.4478037918
 20
77.822352912
 30
0.0
 10
49.4674639826
 20
79.3427181808
 30
0.0
 10
48.0929825287
 20
80.216928893
 30
0.0
 10
47.4029734181
 20
80.6078789988
 30
0.0
  0
SPLINE
  5
284
100
AcDbEntity
  8
0
100
AcDbSpline
 62
7
  6
CONTINUOUS
 70
0
 71
3
 72
11
 73
7
 74
0
 42
0.0000001
 43
0.0000001
 44
0.0000000001
 40
0.0
 40
0.0
 40
0.0
 40
0.0
 40
0.2645243451
 40
0.5204525169
 40
0.7661174588
 40
1.0
 40
1.0
 40
1.0
 40
1.0
 10
50.9461862467
 20
71.6772431048
 30
0.0
 10
50.3514252508
 20
72.3486691321
 30
0.0
 10
49.1338526816
 20
73.6287246322
 30
0.0
 10
47.2051807687
 20
75.3728879886
 30
0.0
 10
45.2248409594
 20
76.8932532575
 30
0.0
 10
43.8503595055
 20
77.7674639698
 30
0.0
 10
43.1603503948
 20
78.1584140756
 30
0.0
  0
SPLINE
  5
285
100
AcDbEntity
  8
0
100
AcDbSpline
 62
7
  6
CONTINUOUS
 70
0
 71
3
 72
11
 73
7
 74
0
 42
0.0000001
 43
0.0000001
 44
0.0000000001
 40
0.0
 40
0.0
 40
0.0
 40
0.0
 40
0.2645268827
 40
0.5205262396
 40
0.7661983059
 40
1.0
 40
1.0
 40
1.0
 40
1.0
 10
49.8805371015
 20
71.0696540594
 30
0.0
 10
49.2856913231
 20
71.7401238883
 30
0.0
 10
48.0686658992
 20
73.0191491381
 30
0.0
 10
46.1423763165
 20
74.7634395173
 30
0.0
 10
44.1634975754
 20
76.2828389867
 30
0.0
 10
42.7890497817
 20
77.1543473441
 30
0.0
 10
42.0996819472
 20
77.5446756273
 30
0.0
  0
SPLINE
  5
286
100
AcDbEntity
  8
0
100
AcDbSpline
 62
7
  6
CONTINUOUS
 70
0
 71
3
 72
11
 73
7
 74
0
 42
0.0000001
 43
0.0000001
 44
0.0000000001
 40
0.0
 40
0.0
 40
0.0
 40
0.0
 40
0.2645783712
 40
0.5205238222
 40
0.766140669
 40
1.0
 40
1.0
 40
1.0
 40
1.0
 10
48.8339202
 20
70.4412098026
 30
0.0
 10
48.2384385423
 20
71.1138960862
 30
0.0
 10
47.0203355059
 20
72.3971113071
 30
0.0
 10
45.0896661248
 20
74.1446648683
 30
0.0
 10
43.1060622531
 20
75.6661099045
 30
0.0
 10
41.7300847174
 20
76.5417143605
 30
0.0
 10
41.039025044
 20
76.9328703788
 30
0.0
  0
SPLINE
  5
287
100
AcDbEntity
  8
0
100
AcDbSpline
 62
7
  6
CONTINUOUS
 70
0
 71
3
 72
11
 73
7
 74
0
 42
0.0000001
 43
0.0000001
 44
0.0000000001
 40
0.0
 40
0.0
 40
0.0
 40
0.0
 40
0.2645655683
 40
0.5205346864
 40
0.7661554237
 40
1.0
 40
1.0
 40
1.0
 40
1.0
 10
47.7579386477
 20
69.8457914187
 30
0.0
 10
47.1632560887
 20
70.5164020215
 30
0.0
 10
45.9471545002
 20
71.7959839223
 30
0.0
 10
44.0208551949
 20
73.5395853055
 30
0.0
 10
42.0412565835
 20
75.0571476519
 30
0.0
 10
40.667550359
 20
75.9292218606
 30
0.0
 10
39.9783572472
 20
76.3199129012
 30
0.0
  0
SPLINE
  5
288
100
AcDbEntity
  8
0
100
AcDbSpline
 62
7
  6
CONTINUOUS
 70
0
 71
3
 72
11
 73
7
 74
0
 42
0.0000001
 43
0.0000001
 44
0.0000000001
 40
0.0
 40
0.0
 40
0.0
 40
0.0
 40
0.2285077549
 40
0.4702531928
 40
0.7271150132
 40
1.0
 40
1.0
 40
1.0
 40
1.0
 10
31.0120452024
 20
25.838593133
 30
0.0
 10
31.5411595521
 20
25.8881665521
 30
0.0
 10
32.639970746
 20
25.8991835868
 30
0.0
 10
34.3202654301
 20
25.6684406311
 30
0.0
 10
36.055432375
 20
25.1948872598
 30
0.0
 10
37.2016339684
 20
24.7356482204
 30
0.0
 10
37.7783556809
 20
24.4707757549
 30
0.0
  0
SPLINE
  5
289
100
AcDbEntity
  8
0
100
AcDbSpline
 62
7
  6
CONTINUOUS
 70
0
 71
3
 72
9
 73
5
 74
0
 42
0.0000001
 43
0.0000001
 44
0.0000000001
 40
0.0
 40
0.0
 40
0.0
 40
0.0
 40
0.5162448264
 40
1.0
 40
1.0
 40
1.0
 40
1.0
 10
25.9631677762
 20
28.7534979301
 30
0.0
 10
26.775318552
 20
28.16182857
 30
0.0
 10
28.4050687103
 20
27.0906622017
 30
0.0
 10
30.1458387339
 20
26.2077294829
 30
0.0
 10
31.0120452024
 20
25.838593133
 30
0.0
  0
SPLINE
  5
28A
100
AcDbEntity
  8
0
100
AcDbSpline
 62
7
  6
CONTINUOUS
 70
0
 71
3
 72
11
 73
7
 74
0
 42
0.0000001
 43
0.0000001
 44
0.0000000001
 40
0.0
 40
0.0
 40
0.0
 40
0.0
 40
0.274286302
 40
0.5314884226
 40
0.7726676295
 40
1.0
 40
1.0
 40
1.0
 40
1.0
 10
24.1865154006
 20
79.087488413
 30
0.0
 10
24.7600869253
 20
78.81533339
 30
0.0
 10
25.9000305743
 20
78.344810898
 30
0.0
 10
27.6281126644
 20
77.8655324645
 30
0.0
 10
29.2986744036
 20
77.6422598809
 30
0.0
 10
30.3887314216
 20
77.6684095737
 30
0.0
 10
30.9115285189
 20
77.7280193434
 30
0.0
  0
SPLINE
  5
28B
100
AcDbEntity
  8
0
100
AcDbSpline
 62
7
  6
CONTINUOUS
 70
0
 71
3
 72
11
 73
7
 74
0
 42
0.0000001
 43
0.0000001
 44
0.0000000001
 40
0.0
 40
0.0
 40
0.0
 40
0.0
 40
0.2687412427
 40
0.5244600817
 40
0.7678161732
 40
1.0
 40
1.0
 40
1.0
 40
1.0
 10
30.9115285189
 20
77.7280193434
 30
0.0
 10
30.3395365852
 20
77.9645826941
 30
0.0
 10
29.2028703591
 20
78.3791611386
 30
0.0
 10
27.4882139458
 20
78.8240436305
 30
0.0
 10
25.8190233002
 20
79.0724046831
 30
0.0
 10
24.7209717645
 20
79.1060739782
 30
0.0
 10
24.1865154006
 20
79.087488413
 30
0.0
  0
SPLINE
  5
28C
100
AcDbEntity
  8
0
100
AcDbSpline
 62
7
  6
CONTINUOUS
 70
0
 71
3
 72
11
 73
7
 74
0
 42
0.0000001
 43
0.0000001
 44
0.0000000001
 40
0.0
 40
0.0
 40
0.0
 40
0.0
 40
0.2368407434
 40
0.4834735351
 40
0.7384300479
 40
1.0
 40
1.0
 40
1.0
 40
1.0
 10
19.1968572976
 20
35.1985661534
 30
0.0
 10
19.8044640462
 20
34.7760353013
 30
0.0
 10
21.0084877854
 20
33.8603511083
 30
0.0
 10
22.7351482687
 20
32.3267446237
 30
0.0
 10
24.402825369
 20
30.6195619157
 30
0.0
 10
25.4521636701
 20
29.3914179447
 30
0.0
 10
25.9631677762
 20
28.7534979301
 30
0.0
  0
SPLINE
  5
28D
100
AcDbEntity
  8
0
100
AcDbSpline
 62
7
  6
CONTINUOUS
 70
0
 71
3
 72
9
 73
5
 74
0
 42
0.0000001
 43
0.0000001
 44
0.0000000001
 40
0.0
 40
0.0
 40
0.0
 40
0.0
 40
0.5034081642
 40
1.0
 40
1.0
 40
1.0
 40
1.0
 10
15.1122296574
 20
40.9835375232
 30
0.0
 10
15.7227485311
 20
39.9630242036
 30
0.0
 10
17.0117627952
 20
37.9804407374
 30
0.0
 10
18.447836646
 20
36.101401153
 30
0.0
 10
19.1968572976
 20
35.1985661534
 30
0.0
  0
SPLINE
  5
28E
100
AcDbEntity
  8
0
100
AcDbSpline
 62
7
  6
CONTINUOUS
 70
0
 71
3
 72
24
 73
20
 74
0
 42
0.0000001
 43
0.0000001
 44
0.0000000001
 40
0.0
 40
0.0
 40
0.0
 40
0.0
 40
0.0623809284
 40
0.1287352761
 40
0.198327885
 40
0.2703104175
 40
0.3436916956
 40
0.4174295828
 40
0.4904602378
 40
0.5617525472
 40
0.6303556264
 40
0.6954486299
 40
0.7564007068
 40
0.8128419957
 40
0.8647465767
 40
0.9125255285
 40
0.9571038876
 40
0.9786660283
 40
1.0
 40
1.0
 40
1.0
 40
1.0
 10
35.5587037408
 20
37.7206645416
 30
0.0
 10
35.2174214088
 20
37.9176995303
 30
0.0
 10
34.5393697409
 20
38.3708665898
 30
0.0
 10
33.5791171839
 20
39.178880314
 30
0.0
 10
32.6612617602
 20
40.1213487209
 30
0.0
 10
31.8053457122
 20
41.1778504088
 30
0.0
 10
31.0295336849
 20
42.3261491947
 30
0.0
 10
30.350375798
 20
43.5416859452
 30
0.0
 10
29.7823443687
 20
44.7985412663
 30
0.0
 10
29.3375497403
 20
46.0699222239
 30
0.0
 10
29.025460815
 20
47.3288321661
 30
0.0
 10
28.8527763346
 20
48.5487099689
 30
0.0
 10
28.8233958063
 20
49.7040681866
 30
0.0
 10
28.9384755719
 20
50.7710394606
 30
0.0
 10
29.1970908504
 20
51.7277983092
 30
0.0
 10
29.5959750757
 20
52.5538663973
 30
0.0
 10
30.0472530055
 20
53.1238172906
 30
0.0
 10
30.4657723333
 20
53.4865277232
 30
0.0
 10
30.6920284999
 20
53.6372711152
 30
0.0
 10
30.8087385482
 20
53.7046679548
 30
0.0
  0
SPLINE
  5
28F
100
AcDbEntity
  8
0
100
AcDbSpline
 62
7
  6
CONTINUOUS
 70
0
 71
3
 72
12
 73
8
 74
0
 42
0.0000001
 43
0.0000001
 44
0.0000000001
 40
0.0
 40
0.0
 40
0.0
 40
0.0
 40
0.2484465808
 40
0.3745952661
 40
0.5012113409
 40
0.7532961199
 40
1.0
 40
1.0
 40
1.0
 40
1.0
 10
56.4807952128
 20
74.4785958551
 30
0.0
 10
57.3527341905
 20
73.4945057931
 30
0.0
 10
58.5890885057
 20
71.9390465966
 30
0.0
 10
60.0813506486
 20
69.7453337145
 30
0.0
 10
61.4748007313
 20
67.4646148413
 30
0.0
 10
62.9929364912
 20
64.5175259302
 30
0.0
 10
63.9634507168
 20
62.0568957519
 30
0.0
 10
64.3762323299
 20
60.81828543
 30
0.0
  0
SPLINE
  5
290
100
AcDbEntity
  8
0
100
AcDbSpline
 62
7
  6
CONTINUOUS
 70
0
 71
3
 72
14
 73
10
 74
0
 42
0.0000001
 43
0.0000001
 44
0.0000000001
 40
0.0
 40
0.0
 40
0.0
 40
0.0
 40
0.1080449989
 40
0.2181276476
 40
0.332108638
 40
0.4514982794
 40
0.5774433207
 40
0.710728085
 40
1.0
 40
1.0
 40
1.0
 40
1.0
 10
28.5935930353
 20
55.7202204275
 30
0.0
 10
28.4870276853
 20
55.6586944146
 30
0.0
 10
28.2607544215
 20
55.5527779396
 30
0.0
 10
27.8946638998
 20
55.4514746439
 30
0.0
 10
27.5043768467
 20
55.4080291199
 30
0.0
 10
27.0941110925
 20
55.4222131751
 30
0.0
 10
26.6677145072
 20
55.4937626617
 30
0.0
 10
26.0669786382
 20
55.6689076256
 30
0.0
 10
25.6289240642
 20
55.8773999193
 30
0.0
 10
25.3436114852
 20
56.042121487
 30
0.0
  0
SPLINE
  5
291
100
AcDbEntity
  8
0
100
AcDbSpline
 62
7
  6
CONTINUOUS
 70
0
 71
3
 72
23
 73
19
 74
0
 42
0.0000001
 43
0.0000001
 44
0.0000000001
 40
0.0
 40
0.0
 40
0.0
 40
0.0
 40
0.0623830983
 40
0.1287484568
 40
0.1983455949
 40
0.2703350405
 40
0.3437231079
 40
0.4174657811
 40
0.4905026682
 40
0.5618016927
 40
0.6304101511
 40
0.6955077131
 40
0.7564651001
 40
0.8129119642
 40
0.8648206728
 40
0.9126030721
 40
0.9571852853
 40
1.0
 40
1.0
 40
1.0
 40
1.0
 10
19.2951800624
 20
49.559709147
 30
0.0
 10
19.0616830229
 20
49.6945156758
 30
0.0
 10
18.5977546148
 20
50.0045955822
 30
0.0
 10
17.9407229188
 20
50.5574310697
 30
0.0
 10
17.3127071311
 20
51.2022973156
 30
0.0
 10
16.7270781822
 20
51.9251637467
 30
0.0
 10
16.1962722454
 20
52.7108494054
 30
0.0
 10
15.7315951027
 20
53.5425317378
 30
0.0
 10
15.3429289235
 20
54.4024741965
 30
0.0
 10
15.0385834254
 20
55.2723633203
 30
0.0
 10
14.8250727151
 20
56.1337250175
 30
0.0
 10
14.7069395475
 20
56.9683744003
 30
0.0
 10
14.6868134994
 20
57.7588762463
 30
0.0
 10
14.7655471529
 20
58.4889271788
 30
0.0
 10
14.9424406735
 20
59.1435091264
 30
0.0
 10
15.2156190639
 20
59.7088263398
 30
0.0
 10
15.581179645
 20
60.1710913836
 30
0.0
 10
15.8849462422
 20
60.4036192169
 30
0.0
 10
16.0451985123
 20
60.4961416292
 30
0.0
  0
SPLINE
  5
292
100
AcDbEntity
  8
0
100
AcDbSpline
 62
7
  6
CONTINUOUS
 70
0
 71
3
 72
11
 73
7
 74
0
 42
0.0000001
 43
0.0000001
 44
0.0000000001
 40
0.0
 40
0.0
 40
0.0
 40
0.0
 40
0.2846060296
 40
0.5440737058
 40
0.7803037447
 40
1.0
 40
1.0
 40
1.0
 40
1.0
 10
9.370230876
 20
56.4894350934
 30
0.0
 10
9.3091206937
 20
56.5257146835
 30
0.0
 10
9.1970324686
 20
56.6037217116
 30
0.0
 10
9.0587208586
 20
56.7427568439
 30
0.0
 10
8.9625648257
 20
56.8952883162
 30
0.0
 10
8.929006878
 20
57.0059949349
 30
0.0
 10
8.9212733403
 20
57.0603067177
 30
0.0
  0
SPLINE
  5
293
100
AcDbEntity
  8
0
100
AcDbSpline
 62
7
  6
CONTINUOUS
 70
0
 71
3
 72
23
 73
19
 74
0
 42
0.0000001
 43
0.0000001
 44
0.0000000001
 40
0.0
 40
0.0
 40
0.0
 40
0.0
 40
0.0623830983
 40
0.1287484568
 40
0.1983455949
 40
0.2703350405
 40
0.3437231079
 40
0.4174657811
 40
0.4905026682
 40
0.5618016927
 40
0.6304101511
 40
0.6955077131
 40
0.7564651001
 40
0.8129119642
 40
0.8648206728
 40
0.9126030721
 40
0.9571852853
 40
1.0
 40
1.0
 40
1.0
 40
1.0
 10
25.3436114852
 20
36.093327785
 30
0.0
 10
25.1101144458
 20
36.2281343139
 30
0.0
 10
24.6461860376
 20
36.5382142203
 30
0.0
 10
23.9891543416
 20
37.0910497078
 30
0.0
 10
23.361138554
 20
37.7359159537
 30
0.0
 10
22.7755096051
 20
38.4587823848
 30
0.0
 10
22.2447036682
 20
39.2444680435
 30
0.0
 10
21.7800265256
 20
40.0761503759
 30
0.0
 10
21.3913603464
 20
40.9360928345
 30
0.0
 10
21.0870148482
 20
41.8059819584
 30
0.0
 10
20.873504138
 20
42.6673436556
 30
0.0
 10
20.7553709704
 20
43.5019930384
 30
0.0
 10
20.7352449222
 20
44.2924948843
 30
0.0
 10
20.8139785757
 20
45.0225458168
 30
0.0
 10
20.9908720963
 20
45.6771277645
 30
0.0
 10
21.2640504867
 20
46.2424449778
 30
0.0
 10
21.6296110679
 20
46.7047100216
 30
0.0
 10
21.933377665
 20
46.937237855
 30
0.0
 10
22.0936299352
 20
47.0297602673
 30
0.0
  0
SPLINE
  5
294
100
AcDbEntity
  8
0
100
AcDbSpline
 62
7
  6
CONTINUOUS
 70
0
 71
3
 72
11
 73
7
 74
0
 42
0.0000001
 43
0.0000001
 44
0.0000000001
 40
0.0
 40
0.0
 40
0.0
 40
0.0
 40
0.2287792105
 40
0.4721210737
 40
0.7295483686
 40
1.0
 40
1.0
 40
1.0
 40
1.0
 10
53.9899792414
 20
45.0424997691
 30
0.0
 10
53.8529351569
 20
44.431255294
 30
0.0
 10
53.6509419672
 20
43.1508494765
 30
0.0
 10
53.556697646
 20
41.1522211981
 30
0.0
 10
53.6621400225
 20
39.0402442046
 30
0.0
 10
53.8601366943
 20
37.6065256196
 30
0.0
 10
53.9899792414
 20
36.8774755979
 30
0.0
  0
SPLINE
  5
295
100
AcDbEntity
  8
0
100
AcDbSpline
 62
7
  6
CONTINUOUS
 70
0
 71
3
 72
11
 73
7
 74
0
 42
0.0000001
 43
0.0000001
 44
0.0000000001
 40
0.0
 40
0.0
 40
0.0
 40
0.0
 40
0.2336435457
 40
0.4784696587
 40
0.7341318444
 40
1.0
 40
1.0
 40
1.0
 40
1.0
 10
53.9899792414
 20
36.8774755979
 30
0.0
 10
54.0945584073
 20
37.5070057286
 30
0.0
 10
54.2491914258
 20
38.8066225507
 30
0.0
 10
54.3226603653
 20
40.8123538395
 30
0.0
 10
54.2425660315
 20
42.9057559721
 30
0.0
 10
54.0902284462
 20
44.3232793036
 30
0.0
 10
53.9899792414
 20
45.0424997691
 30
0.0
  0
SPLINE
  5
296
100
AcDbEntity
  8
0
100
AcDbSpline
 62
7
  6
CONTINUOUS
 70
0
 71
3
 72
11
 73
7
 74
0
 42
0.0000001
 43
0.0000001
 44
0.0000000001
 40
0.0
 40
0.0
 40
0.0
 40
0.0
 40
0.2445567735
 40
0.4941157676
 40
0.7466360576
 40
1.0
 40
1.0
 40
1.0
 40
1.0
 10
48.0541522226
 20
61.3992712545
 30
0.0
 10
48.2902011504
 20
60.6236494093
 30
0.0
 10
48.8240664141
 20
59.0733455883
 30
0.0
 10
49.7878937873
 20
56.7915776514
 30
0.0
 10
50.9129203461
 20
54.5521486723
 30
0.0
 10
51.7621078465
 20
53.1043327949
 30
0.0
 10
52.2104389045
 20
52.3940489915
 30
0.0
  0
SPLINE
  5
297
100
AcDbEntity
  8
0
100
AcDbSpline
 62
7
  6
CONTINUOUS
 70
0
 71
3
 72
9
 73
5
 74
0
 42
0.0000001
 43
0.0000001
 44
0.0000000001
 40
0.0
 40
0.0
 40
0.0
 40
0.0
 40
0.4954644088
 40
1.0
 40
1.0
 40
1.0
 40
1.0
 10
52.2104389045
 20
52.3940489915
 30
0.0
 10
51.681849011
 20
53.9466865396
 30
0.0
 10
50.4439899873
 20
57.0241602314
 30
0.0
 10
48.9027374225
 20
59.960730934
 30
0.0
 10
48.0541522226
 20
61.3992712545
 30
0.0
  0
SPLINE
  5
298
100
AcDbEntity
  8
0
100
AcDbSpline
 62
7
  6
CONTINUOUS
 70
0
 71
3
 72
11
 73
7
 74
0
 42
0.0000001
 43
0.0000001
 44
0.0000000001
 40
0.0
 40
0.0
 40
0.0
 40
0.0
 40
0.2282495261
 40
0.4692726372
 40
0.7265620411
 40
1.0
 40
1.0
 40
1.0
 40
1.0
 10
31.6535982196
 20
24.9998650058
 30
0.0
 10
31.576892505
 20
25.0317937999
 30
0.0
 10
31.4284259617
 20
25.1215078237
 30
0.0
 10
31.2439573398
 20
25.3145577036
 30
0.0
 10
31.1000691337
 20
25.5582890728
 30
0.0
 10
31.0363736417
 20
25.7420773945
 30
0.0
 10
31.0120452023
 20
25.838593133
 30
0.0
  0
SPLINE
  5
299
100
AcDbEntity
  8
0
100
AcDbSpline
 62
7
  6
CONTINUOUS
 70
0
 71
3
 72
11
 73
7
 74
0
 42
0.0000001
 43
0.0000001
 44
0.0000000001
 40
0.0
 40
0.0
 40
0.0
 40
0.0
 40
0.2622453956
 40
0.5175338101
 40
0.7639893061
 40
1.0
 40
1.0
 40
1.0
 40
1.0
 10
36.6702420179
 20
74.4032997698
 30
0.0
 10
37.1746275321
 20
73.7633882553
 30
0.0
 10
38.2126104987
 20
72.5333589919
 30
0.0
 10
39.8690382503
 20
70.8302863514
 30
0.0
 10
41.587558174
 20
69.3101248294
 30
0.0
 10
42.7889344208
 20
68.4099770138
 30
0.0
 10
43.3952551362
 20
67.9975682434
 30
0.0
  0
SPLINE
  5
29A
100
AcDbEntity
  8
0
100
AcDbSpline
 62
7
  6
CONTINUOUS
 70
0
 71
3
 72
11
 73
7
 74
0
 42
0.0000001
 43
0.0000001
 44
0.0000000001
 40
0.0
 40
0.0
 40
0.0
 40
0.0
 40
0.2595847137
 40
0.5135086134
 40
0.7606453626
 40
1.0
 40
1.0
 40
1.0
 40
1.0
 10
43.3952551362
 20
67.9975682434
 30
0.0
 10
42.8770053127
 20
68.6140000432
 30
0.0
 10
41.8195376993
 20
69.8067548538
 30
0.0
 10
40.1584327832
 20
71.4846449755
 30
0.0
 10
38.4496467357
 20
73.0216905541
 30
0.0
 10
37.2668436557
 20
73.961160508
 30
0.0
 10
36.6702420179
 20
74.4032997698
 30
0.0
  0
SPLINE
  5
29B
100
AcDbEntity
  8
0
100
AcDbSpline
 62
7
  6
CONTINUOUS
 70
0
 71
3
 72
12
 73
8
 74
0
 42
0.0000001
 43
0.0000001
 44
0.0000000001
 40
0.0
 40
0.0
 40
0.0
 40
0.0
 40
0.2467253344
 40
0.3724461528
 40
0.4989154392
 40
0.7515915841
 40
1.0
 40
1.0
 40
1.0
 40
1.0
 10
64.4838774063
 20
60.4949225715
 30
0.0
 10
64.0535934507
 20
61.7860313685
 30
0.0
 10
63.2977290388
 20
63.7014969767
 30
0.0
 10
62.0991413327
 20
66.1795431475
 30
0.0
 10
60.7653186878
 20
68.6253291584
 30
0.0
 10
58.887327837
 20
71.5399731244
 30
0.0
 10
57.162656312
 20
73.7069736332
 30
0.0
 10
56.2539843111
 20
74.732535209
 30
0.0
  0
SPLINE
  5
29C
100
AcDbEntity
  8
0
100
AcDbSpline
 62
7
  6
CONTINUOUS
 70
0
 71
3
 72
13
 73
9
 74
0
 42
0.0000001
 43
0.0000001
 44
0.0000000001
 40
0.0
 40
0.0
 40
0.0
 40
0.0
 40
0.3957606154
 40
0.557911693
 40
0.6949361095
 40
0.8065040594
 40
0.893101938
 40
1.0
 40
1.0
 40
1.0
 40
1.0
 10
10.9304198032
 20
50.0440595903
 30
0.0
 10
10.8907201749
 20
50.0326727204
 30
0.0
 10
10.8344346292
 20
50.017684543
 30
0.0
 10
10.7633109784
 20
50.0031257482
 30
0.0
 10
10.7210432358
 20
49.9966391835
 30
0.0
 10
10.6857652494
 20
49.9939403834
 30
0.0
 10
10.654934186
 20
49.9948423961
 30
0.0
 10
10.6320956635
 20
50.0009669058
 30
0.0
 10
10.6261806551
 20
50.0104251904
 30
0.0
  0
SPLINE
  5
29D
100
AcDbEntity
  8
0
100
AcDbSpline
 62
7
  6
CONTINUOUS
 70
0
 71
3
 72
23
 73
19
 74
0
 42
0.0000001
 43
0.0000001
 44
0.0000000001
 40
0.0
 40
0.0
 40
0.0
 40
0.0
 40
0.0623830983
 40
0.1287484568
 40
0.1983455949
 40
0.2703350405
 40
0.3437231079
 40
0.4174657811
 40
0.4905026682
 40
0.5618016927
 40
0.6304101511
 40
0.6955077131
 40
0.7564651001
 40
0.8129119642
 40
0.8648206728
 40
0.9126030721
 40
0.9571852853
 40
1.0
 40
1.0
 40
1.0
 40
1.0
 10
25.3436114852
 20
56.042121487
 30
0.0
 10
25.1101144458
 20
56.1769280159
 30
0.0
 10
24.6461860376
 20
56.4870079223
 30
0.0
 10
23.9891543416
 20
57.0398434098
 30
0.0
 10
23.361138554
 20
57.6847096557
 30
0.0
 10
22.7755096051
 20
58.4075760868
 30
0.0
 10
22.2447036682
 20
59.1932617455
 30
0.0
 10
21.7800265256
 20
60.0249440779
 30
0.0
 10
21.3913603464
 20
60.8848865365
 30
0.0
 10
21.0870148482
 20
61.7547756604
 30
0.0
 10
20.873504138
 20
62.6161373576
 30
0.0
 10
20.7553709704
 20
63.4507867404
 30
0.0
 10
20.7352449222
 20
64.2412885863
 30
0.0
 10
20.8139785757
 20
64.9713395188
 30
0.0
 10
20.9908720963
 20
65.6259214665
 30
0.0
 10
21.2640504867
 20
66.1912386798
 30
0.0
 10
21.6296110679
 20
66.6535037236
 30
0.0
 10
21.933377665
 20
66.886031557
 30
0.0
 10
22.0936299352
 20
66.9785539693
 30
0.0
  0
SPLINE
  5
29E
100
AcDbEntity
  8
0
100
AcDbSpline
 62
7
  6
CONTINUOUS
 70
0
 71
3
 72
13
 73
9
 74
0
 42
0.0000001
 43
0.0000001
 44
0.0000000001
 40
0.0
 40
0.0
 40
0.0
 40
0.0
 40
0.1111307728
 40
0.2267615445
 40
0.3474403516
 40
0.4730411311
 40
0.7341521499
 40
1.0
 40
1.0
 40
1.0
 40
1.0
 10
43.7870098142
 20
24.9114907296
 30
0.0
 10
43.7155785145
 20
24.8729034201
 30
0.0
 10
43.5597345121
 20
24.8117212307
 30
0.0
 10
43.3070166884
 20
24.7732452407
 30
0.0
 10
43.0412726186
 20
24.7869261911
 30
0.0
 10
42.6791181547
 20
24.8737580991
 30
0.0
 10
42.2509186468
 20
25.1022649506
 30
0.0
 10
41.9763212549
 20
25.381614334
 30
0.0
 10
41.8629833212
 20
25.539332089
 30
0.0
  0
SPLINE
  5
29F
100
AcDbEntity
  8
0
100
AcDbSpline
 62
7
  6
CONTINUOUS
 70
0
 71
3
 72
14
 73
10
 74
0
 42
0.0000001
 43
0.0000001
 44
0.0000000001
 40
0.0
 40
0.0
 40
0.0
 40
0.0
 40
0.1234116438
 40
0.2484687503
 40
0.3745942651
 40
0.5011826696
 40
0.6276286823
 40
0.7533218685
 40
1.0
 40
1.0
 40
1.0
 40
1.0
 10
52.2265187422
 20
72.0405602043
 30
0.0
 10
52.6599848614
 20
71.5515193483
 30
0.0
 10
53.5068010599
 20
70.5436528411
 30
0.0
 10
54.7046548558
 20
68.9616369079
 30
0.0
 10
55.8319085336
 20
67.3080889139
 30
0.0
 10
56.8793005616
 20
65.5942645681
 30
0.0
 10
57.8400629561
 20
63.8329191938
 30
0.0
 10
58.9904635306
 20
61.4545493361
 30
0.0
 10
59.7169779763
 20
59.6165244889
 30
0.0
 10
60.130620802
 20
58.3775303996
 30
0.0
  0
SPLINE
  5
2A0
100
AcDbEntity
  8
0
100
AcDbSpline
 62
7
  6
CONTINUOUS
 70
0
 71
3
 72
11
 73
7
 74
0
 42
0.0000001
 43
0.0000001
 44
0.0000000001
 40
0.0
 40
0.0
 40
0.0
 40
0.0
 40
0.2876726256
 40
0.5481217381
 40
0.7832009564
 40
1.0
 40
1.0
 40
1.0
 40
1.0
 10
9.370230876
 20
64.7045995304
 30
0.0
 10
9.3105134365
 20
64.7381009765
 30
0.0
 10
9.2008687513
 20
64.8099454067
 30
0.0
 10
9.0641524938
 20
64.9383673055
 30
0.0
 10
8.9675597523
 20
65.0796134316
 30
0.0
 10
8.9321409077
 20
65.1830617012
 30
0.0
 10
8.9232524612
 20
65.2338936442
 30
0.0
  0
SPLINE
  5
2A1
100
AcDbEntity
  8
0
100
AcDbSpline
 62
7
  6
CONTINUOUS
 70
0
 71
3
 72
12
 73
8
 74
0
 42
0.0000001
 43
0.0000001
 44
0.0000000001
 40
0.0
 40
0.0
 40
0.0
 40
0.0
 40
0.2484621373
 40
0.5011403389
 40
0.7532453339
 40
0.8775989214
 40
1.0
 40
1.0
 40
1.0
 40
1.0
 10
57.5354810939
 20
75.096171499
 30
0.0
 10
58.407349224
 20
74.1124814117
 30
0.0
 10
60.0619460701
 20
72.0339225963
 30
0.0
 10
62.2255848272
 20
68.6805228741
 30
0.0
 10
63.7511334651
 20
65.7155871163
 30
0.0
 10
64.7802385314
 20
63.2844186359
 30
0.0
 10
65.2274122975
 20
62.0571895442
 30
0.0
 10
65.4326355588
 20
61.4430222323
 30
0.0
  0
SPLINE
  5
2A2
100
AcDbEntity
  8
0
100
AcDbSpline
 62
7
  6
CONTINUOUS
 70
0
 71
3
 72
14
 73
10
 74
0
 42
0.0000001
 43
0.0000001
 44
0.0000000001
 40
0.0
 40
0.0
 40
0.0
 40
0.0
 40
0.1080449989
 40
0.2181276476
 40
0.332108638
 40
0.4514982794
 40
0.5774433207
 40
0.710728085
 40
1.0
 40
1.0
 40
1.0
 40
1.0
 10
28.5935930353
 20
35.7714267255
 30
0.0
 10
28.4870276853
 20
35.7099007126
 30
0.0
 10
28.2607544215
 20
35.6039842376
 30
0.0
 10
27.8946638998
 20
35.5026809419
 30
0.0
 10
27.5043768467
 20
35.4592354179
 30
0.0
 10
27.0941110925
 20
35.4734194731
 30
0.0
 10
26.6677145072
 20
35.5449689597
 30
0.0
 10
26.0669786382
 20
35.7201139236
 30
0.0
 10
25.6289240642
 20
35.9286062173
 30
0.0
 10
25.3436114852
 20
36.093327785
 30
0.0
  0
SPLINE
  5
2A3
100
AcDbEntity
  8
0
100
AcDbSpline
 62
7
  6
CONTINUOUS
 70
0
 71
3
 72
12
 73
8
 74
0
 42
0.0000001
 43
0.0000001
 44
0.0000000001
 40
0.0
 40
0.0
 40
0.0
 40
0.0
 40
0.246746581
 40
0.3724739438
 40
0.4989463316
 40
0.7516164109
 40
1.0
 40
1.0
 40
1.0
 40
1.0
 10
60.2380748807
 20
58.0549937858
 30
0.0
 10
59.807245161
 20
59.3465837751
 30
0.0
 10
59.0505072945
 20
61.2627046259
 30
0.0
 10
57.8506644949
 20
63.7414834779
 30
0.0
 10
56.5155797022
 20
66.1877979357
 30
0.0
 10
54.6359686322
 20
69.1027722399
 30
0.0
 10
52.9099176169
 20
71.2697953969
 30
0.0
 10
52.0005616714
 20
72.2952563415
 30
0.0
  0
SPLINE
  5
2A4
100
AcDbEntity
  8
0
100
AcDbSpline
 62
7
  6
CONTINUOUS
 70
0
 71
3
 72
11
 73
7
 74
0
 42
0.0000001
 43
0.0000001
 44
0.0000000001
 40
0.0
 40
0.0
 40
0.0
 40
0.0
 40
0.2685879986
 40
0.5263099696
 40
0.7699029309
 40
1.0
 40
1.0
 40
1.0
 40
1.0
 10
10.9304198032
 20
69.3484647949
 30
0.0
 10
10.8499518148
 20
69.4644594017
 30
0.0
 10
10.7172515332
 20
69.7105544917
 30
0.0
 10
10.6153120567
 20
70.1066082177
 30
0.0
 10
10.6222872803
 20
70.4961213146
 30
0.0
 10
10.7050096157
 20
70.7367487194
 30
0.0
 10
10.7640391636
 20
70.8423064442
 30
0.0
  0
SPLINE
  5
2A5
100
AcDbEntity
  8
0
100
AcDbSpline
 62
7
  6
CONTINUOUS
 70
0
 71
3
 72
11
 73
7
 74
0
 42
0.0000001
 43
0.0000001
 44
0.0000000001
 40
0.0
 40
0.0
 40
0.0
 40
0.0
 40
0.2532067105
 40
0.5055449055
 40
0.7550928328
 40
1.0
 40
1.0
 40
1.0
 40
1.0
 10
10.9304198032
 20
50.0440595903
 30
0.0
 10
11.3756725108
 20
49.3266946432
 30
0.0
 10
12.2208935164
 20
47.8667448544
 30
0.0
 10
13.3476507886
 20
45.6133734688
 30
0.0
 10
14.3214086338
 20
43.3197859025
 30
0.0
 10
14.8680009394
 20
41.7627991111
 30
0.0
 10
15.1122296574
 20
40.9835375232
 30
0.0
  0
SPLINE
  5
2A6
100
AcDbEntity
  8
0
100
AcDbSpline
 62
7
  6
CONTINUOUS
 70
0
 71
3
 72
11
 73
7
 74
0
 42
0.0000001
 43
0.0000001
 44
0.0000000001
 40
0.0
 40
0.0
 40
0.0
 40
0.0
 40
0.2486104494
 40
0.3748451083
 40
0.5015360069
 40
1.0
 40
1.0
 40
1.0
 40
1.0
 10
53.3018899972
 20
72.6367638287
 30
0.0
 10
54.1731786363
 20
71.653700657
 30
0.0
 10
55.4084641888
 20
70.0997957517
 30
0.0
 10
56.8994098197
 20
67.9078354185
 30
0.0
 10
58.9689828809
 20
64.5198405642
 30
0.0
 10
60.3569729027
 20
61.4879931949
 30
0.0
 10
61.1905160064
 20
58.9895957661
 30
0.0
  0
SPLINE
  5
2A7
100
AcDbEntity
  8
0
100
AcDbSpline
 62
7
  6
CONTINUOUS
 70
0
 71
3
 72
11
 73
7
 74
0
 42
0.0000001
 43
0.0000001
 44
0.0000000001
 40
0.0
 40
0.0
 40
0.0
 40
0.0
 40
0.2422038478
 40
0.488478368
 40
0.7406156614
 40
1.0
 40
1.0
 40
1.0
 40
1.0
 10
49.30634525
 20
28.1818053582
 30
0.0
 10
49.5957895607
 20
28.4014339925
 30
0.0
 10
50.1553320449
 20
28.8772692642
 30
0.0
 10
50.9206292597
 20
29.6854237138
 30
0.0
 10
51.6139378623
 20
30.5886976934
 30
0.0
 10
52.0200687604
 20
31.2413536208
 30
0.0
 10
52.2104389045
 20
31.5807160751
 30
0.0
  0
SPLINE
  5
2A8
100
AcDbEntity
  8
0
100
AcDbSpline
 62
7
  6
CONTINUOUS
 70
0
 71
3
 72
9
 73
5
 74
0
 42
0.0000001
 43
0.0000001
 44
0.0000000001
 40
0.0
 40
0.0
 40
0.0
 40
0.0
 40
0.4898299825
 40
1.0
 40
1.0
 40
1.0
 40
1.0
 10
9.370230876
 20
56.4894350934
 30
0.0
 10
9.5283060793
 20
55.4172219123
 30
0.0
 10
9.9578375504
 20
53.2431259731
 30
0.0
 10
10.5737443213
 20
51.1150353475
 30
0.0
 10
10.9304198032
 20
50.0440595903
 30
0.0
  0
SPLINE
  5
2A9
100
AcDbEntity
  8
0
100
AcDbSpline
 62
7
  6
CONTINUOUS
 70
0
 71
3
 72
14
 73
10
 74
0
 42
0.0000001
 43
0.0000001
 44
0.0000000001
 40
0.0
 40
0.0
 40
0.0
 40
0.0
 40
0.2467080401
 40
0.3724001366
 40
0.4988427093
 40
0.6254275549
 40
0.7515417881
 40
0.876592115
 40
1.0
 40
1.0
 40
1.0
 40
1.0
 10
61.2991671406
 20
58.6672625967
 30
0.0
 10
60.8686518199
 20
59.9570017765
 30
0.0
 10
60.1122415214
 20
61.8701015654
 30
0.0
 10
58.9155224739
 20
64.3459983818
 30
0.0
 10
57.9158590104
 20
66.1793482415
 30
0.0
 10
56.8265557556
 20
67.9635051134
 30
0.0
 10
55.6540630281
 20
69.6849243465
 30
0.0
 10
54.4080677802
 20
71.3319176561
 30
0.0
 10
53.5273645192
 20
72.3814041242
 30
0.0
 10
53.076543223
 20
72.8906747262
 30
0.0
  0
SPLINE
  5
2AA
100
AcDbEntity
  8
0
100
AcDbSpline
 62
7
  6
CONTINUOUS
 70
0
 71
3
 72
9
 73
5
 74
0
 42
0.0000001
 43
0.0000001
 44
0.0000000001
 40
0.0
 40
0.0
 40
0.0
 40
0.0
 40
0.4971354584
 40
1.0
 40
1.0
 40
1.0
 40
1.0
 10
51.0951323265
 20
30.9856072998
 30
0.0
 10
50.8638741678
 20
30.8358069992
 30
0.0
 10
50.4150804679
 20
30.5084289287
 30
0.0
 10
50.0045756805
 20
30.1342722664
 30
0.0
 10
49.8086731211
 20
29.936023484
 30
0.0
  0
SPLINE
  5
2AB
100
AcDbEntity
  8
0
100
AcDbSpline
 62
7
  6
CONTINUOUS
 70
0
 71
3
 72
9
 73
5
 74
0
 42
0.0000001
 43
0.0000001
 44
0.0000000001
 40
0.0
 40
0.0
 40
0.0
 40
0.0
 40
0.4888099159
 40
1.0
 40
1.0
 40
1.0
 40
1.0
 10
49.7622792933
 20
29.8886843993
 30
0.0
 10
49.4447378204
 20
29.5619880154
 30
0.0
 10
48.8513068371
 20
28.837229869
 30
0.0
 10
48.377715609
 20
28.0301797398
 30
0.0
 10
48.1650438169
 20
27.6038283699
 30
0.0
  0
SPLINE
  5
2AC
100
AcDbEntity
  8
0
100
AcDbSpline
 62
7
  6
CONTINUOUS
 70
0
 71
3
 72
12
 73
8
 74
0
 42
0.0000001
 43
0.0000001
 44
0.0000000001
 40
0.0
 40
0.0
 40
0.0
 40
0.0
 40
0.2467585341
 40
0.4988609284
 40
0.625471688
 40
0.7516061128
 40
1.0
 40
1.0
 40
1.0
 40
1.0
 10
65.5402869194
 20
61.1209492533
 30
0.0
 10
65.1096476804
 20
62.4114709072
 30
0.0
 10
64.0975306821
 20
64.9750060616
 30
0.0
 10
62.5150584421
 20
68.0452933075
 30
0.0
 10
61.0628403001
 20
70.4210648457
 30
0.0
 10
59.5078453629
 20
72.7057975775
 30
0.0
 10
58.2197763712
 20
74.3258077783
 30
0.0
 10
57.3113809676
 20
75.3506630968
 30
0.0
  0
SPLINE
  5
2AD
100
AcDbEntity
  8
0
100
AcDbSpline
 62
7
  6
CONTINUOUS
 70
0
 71
3
 72
12
 73
8
 74
0
 42
0.0000001
 43
0.0000001
 44
0.0000000001
 40
0.0
 40
0.0
 40
0.0
 40
0.0
 40
0.498464843
 40
0.6251503582
 40
0.7513753161
 40
0.8765209252
 40
1.0
 40
1.0
 40
1.0
 40
1.0
 10
62.3644915419
 20
59.2622041657
 30
0.0
 10
61.4949218485
 20
61.8729836725
 30
0.0
 10
60.0453746983
 20
65.0412383191
 30
0.0
 10
57.8827254873
 20
68.5805160395
 30
0.0
 10
56.708179154
 20
70.3070593983
 30
0.0
 10
55.4594129029
 20
71.9581469142
 30
0.0
 10
54.5755569767
 20
73.0092079252
 30
0.0
 10
54.1231601247
 20
73.5191189827
 30
0.0
  0
SPLINE
  5
2AE
100
AcDbEntity
  8
0
100
AcDbSpline
 62
7
  6
CONTINUOUS
 70
0
 71
3
 72
11
 73
7
 74
0
 42
0.0000001
 43
0.0000001
 44
0.0000000001
 40
0.0
 40
0.0
 40
0.0
 40
0.0
 40
0.269292653
 40
0.5262946744
 40
0.7700188808
 40
1.0
 40
1.0
 40
1.0
 40
1.0
 10
9.370230876
 20
64.7045995304
 30
0.0
 10
9.4934041056
 20
63.9735340497
 30
0.0
 10
9.6810275401
 20
62.5350608938
 30
0.0
 10
9.7807820527
 20
60.4148942707
 30
0.0
 10
9.6910254775
 20
58.4023196499
 30
0.0
 10
9.4998656218
 20
57.1091654463
 30
0.0
 10
9.370230876
 20
56.4894350934
 30
0.0
  0
SPLINE
  5
2AF
100
AcDbEntity
  8
0
100
AcDbSpline
 62
7
  6
CONTINUOUS
 70
0
 71
3
 72
14
 73
10
 74
0
 42
0.0000001
 43
0.0000001
 44
0.0000000001
 40
0.0
 40
0.0
 40
0.0
 40
0.0
 40
0.1080449989
 40
0.2181276476
 40
0.332108638
 40
0.4514982794
 40
0.5774433207
 40
0.710728085
 40
1.0
 40
1.0
 40
1.0
 40
1.0
 10
22.5451616124
 20
49.2378080874
 30
0.0
 10
22.4385962624
 20
49.1762820745
 30
0.0
 10
22.2123229987
 20
49.0703655995
 30
0.0
 10
21.8462324769
 20
48.9690623038
 30
0.0
 10
21.4559454238
 20
48.9256167798
 30
0.0
 10
21.0456796697
 20
48.939800835
 30
0.0
 10
20.6192830843
 20
49.0113503216
 30
0.0
 10
20.0185472154
 20
49.1864952855
 30
0.0
 10
19.5804926413
 20
49.3949875792
 30
0.0
 10
19.2951800624
 20
49.559709147
 30
0.0
  0
SPLINE
  5
2B0
100
AcDbEntity
  8
0
100
AcDbSpline
 62
7
  6
CONTINUOUS
 70
0
 71
3
 72
14
 73
10
 74
0
 42
0.0000001
 43
0.0000001
 44
0.0000000001
 40
0.0
 40
0.0
 40
0.0
 40
0.0
 40
0.1224405537
 40
0.2467954144
 40
0.3724856635
 40
0.4989267543
 40
0.7515438808
 40
0.876593681
 40
1.0
 40
1.0
 40
1.0
 40
1.0
 10
54.9316616444
 20
55.0021973767
 30
0.0
 10
54.7175960219
 20
55.6423604808
 30
0.0
 10
54.2513085453
 20
56.9213111601
 30
0.0
 10
53.4503979872
 20
58.8130295758
 30
0.0
 10
52.5470486539
 20
60.6827005301
 30
0.0
 10
51.2131276843
 20
63.1257301783
 30
0.0
 10
49.702562169
 20
65.4649302709
 30
0.0
 10
48.0356705122
 20
67.6687060927
 30
0.0
 10
47.1546755019
 20
68.7185172731
 30
0.0
 10
46.7035632231
 20
69.2277781819
 30
0.0
  0
SPLINE
  5
2B1
100
AcDbEntity
  8
0
100
AcDbSpline
 62
7
  6
CONTINUOUS
 70
0
 71
3
 72
9
 73
5
 74
0
 42
0.0000001
 43
0.0000001
 44
0.0000000001
 40
0.0
 40
0.0
 40
0.0
 40
0.0
 40
0.4814472314
 40
1.0
 40
1.0
 40
1.0
 40
1.0
 10
10.9304198032
 20
69.3484647949
 30
0.0
 10
10.5550602505
 20
68.6548051689
 30
0.0
 10
9.9120668252
 20
67.1378331131
 30
0.0
 10
9.5188370927
 20
65.5409934327
 30
0.0
 10
9.370230876
 20
64.7045995304
 30
0.0
  0
SPLINE
  5
2B2
100
AcDbEntity
  8
0
100
AcDbSpline
 62
7
  6
CONTINUOUS
 70
0
 71
3
 72
13
 73
9
 74
0
 42
0.0000001
 43
0.0000001
 44
0.0000000001
 40
0.0
 40
0.0
 40
0.0
 40
0.0
 40
0.2633560629
 40
0.5147396062
 40
0.6373478199
 40
0.7586777471
 40
0.8793594296
 40
1.0
 40
1.0
 40
1.0
 40
1.0
 10
15.1122296574
 20
73.5803580101
 30
0.0
 10
14.8774595286
 20
73.1023590435
 30
0.0
 10
14.3512769172
 20
72.1989030926
 30
0.0
 10
13.5267523689
 20
71.1997776161
 30
0.0
 10
12.7914781134
 20
70.5179024179
 30
0.0
 10
12.207061325
 20
70.0666308658
 30
0.0
 10
11.5872525985
 20
69.6728768552
 30
0.0
 10
11.1523440172
 20
69.4497658099
 30
0.0
 10
10.9304198032
 20
69.3484647949
 30
0.0
  0
SPLINE
  5
2B3
100
AcDbEntity
  8
0
100
AcDbSpline
 62
7
  6
CONTINUOUS
 70
0
 71
3
 72
13
 73
9
 74
0
 42
0.0000001
 43
0.0000001
 44
0.0000000001
 40
0.0
 40
0.0
 40
0.0
 40
0.0
 40
0.1234223685
 40
0.2484881196
 40
0.5011421577
 40
0.6275947421
 40
0.7532999254
 40
1.0
 40
1.0
 40
1.0
 40
1.0
 10
46.9287219569
 20
68.9722854701
 30
0.0
 10
47.3617004754
 20
68.4837645708
 30
0.0
 10
48.2076624497
 20
67.4770255608
 30
0.0
 10
49.8083233482
 20
65.3633561213
 30
0.0
 10
51.255734144
 20
63.1175993449
 30
0.0
 10
52.535574792
 20
60.7734059639
 30
0.0
 10
53.685390415
 20
58.3978790445
 30
0.0
 10
54.4113030882
 20
56.5619254946
 30
0.0
 10
54.8243519426
 20
55.324231804
 30
0.0
  0
SPLINE
  5
2B4
100
AcDbEntity
  8
0
100
AcDbSpline
 62
7
  6
CONTINUOUS
 70
0
 71
3
 72
11
 73
7
 74
0
 42
0.0000001
 43
0.0000001
 44
0.0000000001
 40
0.0
 40
0.0
 40
0.0
 40
0.0
 40
0.2579508643
 40
0.5094372983
 40
0.7561581605
 40
1.0
 40
1.0
 40
1.0
 40
1.0
 10
19.1968572976
 20
74.6489143442
 30
0.0
 10
18.8316774487
 20
74.6304072004
 30
0.0
 10
18.1116444839
 20
74.5592311326
 30
0.0
 10
17.0595621828
 20
74.3443610807
 30
0.0
 10
16.0556673098
 20
74.0236180204
 30
0.0
 10
15.4192867388
 20
73.7390685679
 30
0.0
 10
15.1122296574
 20
73.5803580101
 30
0.0
  0
SPLINE
  5
2B5
100
AcDbEntity
  8
0
100
AcDbSpline
 62
7
  6
CONTINUOUS
 70
0
 71
3
 72
15
 73
11
 74
0
 42
0.0000001
 43
0.0000001
 44
0.0000000001
 40
0.0
 40
0.0
 40
0.0
 40
0.0
 40
0.1080110466
 40
0.2180581192
 40
0.331999161
 40
0.4513560694
 40
0.577261558
 40
0.710492939
 40
0.8514586487
 40
1.0
 40
1.0
 40
1.0
 40
1.0
 10
40.3086689333
 20
37.2502070539
 30
0.0
 10
40.1529264453
 20
37.1602700551
 30
0.0
 10
39.8222293094
 20
37.0054362285
 30
0.0
 10
39.2871638603
 20
36.8574347377
 30
0.0
 10
38.7167523777
 20
36.7938717372
 30
0.0
 10
38.1171127103
 20
36.8146725517
 30
0.0
 10
37.4939829137
 20
36.9192081202
 30
0.0
 10
36.8530777995
 20
37.106005449
 30
0.0
 10
36.200657683
 20
37.3731491384
 30
0.0
 10
35.772899931
 20
37.5970011111
 30
0.0
 10
35.5587037408
 20
37.7206645416
 30
0.0
  0
SPLINE
  5
2B6
100
AcDbEntity
  8
0
100
AcDbSpline
 62
7
  6
CONTINUOUS
 70
0
 71
3
 72
11
 73
7
 74
0
 42
0.0000001
 43
0.0000001
 44
0.0000000001
 40
0.0
 40
0.0
 40
0.0
 40
0.0
 40
0.2285077549
 40
0.4702531928
 40
0.7271150132
 40
1.0
 40
1.0
 40
1.0
 40
1.0
 10
25.9631677762
 20
73.2810969661
 30
0.0
 10
25.4340534265
 20
73.231523547
 30
0.0
 10
24.3352422326
 20
73.2205065123
 30
0.0
 10
22.6549475485
 20
73.451249468
 30
0.0
 10
20.9197806036
 20
73.9248028393
 30
0.0
 10
19.7735790101
 20
74.3840418787
 30
0.0
 10
19.1968572976
 20
74.6489143442
 30
0.0
  0
SPLINE
  5
2B7
100
AcDbEntity
  8
0
100
AcDbSpline
 62
7
  6
CONTINUOUS
 70
0
 71
3
 72
9
 73
5
 74
0
 42
0.0000001
 43
0.0000001
 44
0.0000000001
 40
0.0
 40
0.0
 40
0.0
 40
0.0
 40
0.5162448264
 40
1.0
 40
1.0
 40
1.0
 40
1.0
 10
31.0120452024
 20
70.366192169
 30
0.0
 10
30.1998944265
 20
70.9578615291
 30
0.0
 10
28.5701442683
 20
72.0290278974
 30
0.0
 10
26.8293742447
 20
72.9119606162
 30
0.0
 10
25.9631677762
 20
73.2810969661
 30
0.0
  0
SPLINE
  5
2B8
100
AcDbEntity
  8
0
100
AcDbSpline
 62
7
  6
CONTINUOUS
 70
0
 71
3
 72
11
 73
7
 74
0
 42
0.0000001
 43
0.0000001
 44
0.0000000001
 40
0.0
 40
0.0
 40
0.0
 40
0.0
 40
0.2456423476
 40
0.4964775536
 40
0.7490757869
 40
1.0
 40
1.0
 40
1.0
 40
1.0
 10
53.8792454951
 20
54.3632743198
 30
0.0
 10
53.5172376063
 20
55.4501599193
 30
0.0
 10
52.6861689275
 20
57.6150108448
 30
0.0
 10
51.1577456967
 20
60.7607101191
 30
0.0
 10
49.3636529816
 20
63.7912619289
 30
0.0
 10
48.0038431607
 20
65.7097519419
 30
0.0
 10
47.2861856468
 20
66.6340799802
 30
0.0
  0
SPLINE
  5
2B9
100
AcDbEntity
  8
0
100
AcDbSpline
 62
7
  6
CONTINUOUS
 70
0
 71
3
 72
13
 73
9
 74
0
 42
0.0000001
 43
0.0000001
 44
0.0000000001
 40
0.0
 40
0.0
 40
0.0
 40
0.0
 40
0.1234355914
 40
0.2485172514
 40
0.5011791146
 40
0.7532450256
 40
0.8775862185
 40
1.0
 40
1.0
 40
1.0
 40
1.0
 10
54.349165146
 20
73.2648528074
 30
0.0
 10
54.7831009053
 20
72.7752114709
 30
0.0
 10
55.6304665519
 20
71.7657531187
 30
0.0
 10
57.2335390261
 20
69.6464530023
 30
0.0
 10
59.047321508
 20
66.8370825924
 30
0.0
 10
60.5748094105
 20
63.8666621297
 30
0.0
 10
61.6044984638
 20
61.4305160585
 30
0.0
 10
62.0519874908
 20
60.2007801263
 30
0.0
 10
62.2573270378
 20
59.5852908594
 30
0.0
  0
SPLINE
  5
2BA
100
AcDbEntity
  8
0
100
AcDbSpline
 62
7
  6
CONTINUOUS
 70
0
 71
3
 72
11
 73
7
 74
0
 42
0.0000001
 43
0.0000001
 44
0.0000000001
 40
0.0
 40
0.0
 40
0.0
 40
0.0
 40
0.2368407434
 40
0.4834735351
 40
0.7384300479
 40
1.0
 40
1.0
 40
1.0
 40
1.0
 10
37.7783556809
 20
63.9211239457
 30
0.0
 10
37.1707489324
 20
64.3436547978
 30
0.0
 10
35.9667251932
 20
65.2593389908
 30
0.0
 10
34.2400647099
 20
66.7929454754
 30
0.0
 10
32.5723876096
 20
68.5001281834
 30
0.0
 10
31.5230493085
 20
69.7282721544
 30
0.0
 10
31.0120452024
 20
70.366192169
 30
0.0
  0
SPLINE
  5
2BB
100
AcDbEntity
  8
0
100
AcDbSpline
 62
7
  6
CONTINUOUS
 70
0
 71
3
 72
13
 73
9
 74
0
 42
0.0000001
 43
0.0000001
 44
0.0000000001
 40
0.0
 40
0.0
 40
0.0
 40
0.0
 40
0.3829372234
 40
0.5411427484
 40
0.6761422055
 40
0.7879029135
 40
0.8773379303
 40
1.0
 40
1.0
 40
1.0
 40
1.0
 10
15.1122296574
 20
40.9835375232
 30
0.0
 10
15.0716229123
 20
40.9739179336
 30
0.0
 10
15.0138414119
 20
40.9617764674
 30
0.0
 10
14.9407384764
 20
40.9520614376
 30
0.0
 10
14.8967398396
 20
40.9490222815
 30
0.0
 10
14.8598386195
 20
40.9499424089
 30
0.0
 10
14.8254771465
 20
40.9550556898
 30
0.0
 10
14.8019827469
 20
40.9662232512
 30
0.0
 10
14.7951697783
 20
40.9777238193
 30
0.0
  0
SPLINE
  5
2BC
100
AcDbEntity
  8
0
100
AcDbSpline
 62
7
  6
CONTINUOUS
 70
0
 71
3
 72
11
 73
7
 74
0
 42
0.0000001
 43
0.0000001
 44
0.0000000001
 40
0.0
 40
0.0
 40
0.0
 40
0.0
 40
0.3124570797
 40
0.57949213
 40
0.8044984307
 40
1.0
 40
1.0
 40
1.0
 40
1.0
 10
19.1968572976
 20
35.1985661534
 30
0.0
 10
19.1811242373
 20
35.1489227183
 30
0.0
 10
19.157186141
 20
35.0549763469
 30
0.0
 10
19.145662971
 20
34.9205784161
 30
0.0
 10
19.1623610027
 20
34.8058197346
 30
0.0
 10
19.1956936433
 20
34.7419250402
 30
0.0
 10
19.2165995714
 20
34.7169318262
 30
0.0
  0
SPLINE
  5
2BD
100
AcDbEntity
  8
0
100
AcDbSpline
 62
7
  6
CONTINUOUS
 70
0
 71
3
 72
9
 73
5
 74
0
 42
0.0000001
 43
0.0000001
 44
0.0000000001
 40
0.0
 40
0.0
 40
0.0
 40
0.0
 40
0.5034081642
 40
1.0
 40
1.0
 40
1.0
 40
1.0
 10
41.8629833212
 20
58.1361525759
 30
0.0
 10
41.2524644475
 20
59.1566658955
 30
0.0
 10
39.9634501833
 20
61.1392493617
 30
0.0
 10
38.5273763325
 20
63.0182889461
 30
0.0
 10
37.7783556809
 20
63.9211239457
 30
0.0
  0
SPLINE
  5
2BE
100
AcDbEntity
  8
0
100
AcDbSpline
 62
7
  6
CONTINUOUS
 70
0
 71
3
 72
11
 73
7
 74
0
 42
0.0000001
 43
0.0000001
 44
0.0000000001
 40
0.0
 40
0.0
 40
0.0
 40
0.0
 40
0.2532067105
 40
0.5055449055
 40
0.7550928328
 40
1.0
 40
1.0
 40
1.0
 40
1.0
 10
46.0447931754
 20
49.0756305088
 30
0.0
 10
45.5995404677
 20
49.7929954559
 30
0.0
 10
44.7543194622
 20
51.2529452447
 30
0.0
 10
43.6275621899
 20
53.5063166303
 30
0.0
 10
42.6538043448
 20
55.7999041967
 30
0.0
 10
42.1072120391
 20
57.356890988
 30
0.0
 10
41.8629833212
 20
58.1361525759
 30
0.0
  0
SPLINE
  5
2BF
100
AcDbEntity
  8
0
100
AcDbSpline
 62
7
  6
CONTINUOUS
 70
0
 71
3
 72
9
 73
5
 74
0
 42
0.0000001
 43
0.0000001
 44
0.0000000001
 40
0.0
 40
0.0
 40
0.0
 40
0.0
 40
0.4898299825
 40
1.0
 40
1.0
 40
1.0
 40
1.0
 10
47.6049821026
 20
42.6302550057
 30
0.0
 10
47.4469068992
 20
43.7024681868
 30
0.0
 10
47.0173754281
 20
45.876564126
 30
0.0
 10
46.4014686573
 20
48.0046547516
 30
0.0
 10
46.0447931754
 20
49.0756305088
 30
0.0
  0
SPLINE
  5
2C0
100
AcDbEntity
  8
0
100
AcDbSpline
 62
7
  6
CONTINUOUS
 70
0
 71
3
 72
12
 73
8
 74
0
 42
0.0000001
 43
0.0000001
 44
0.0000000001
 40
0.0
 40
0.0
 40
0.0
 40
0.0
 40
0.248427872
 40
0.3745770824
 40
0.5011926287
 40
0.7532799561
 40
1.0
 40
1.0
 40
1.0
 40
1.0
 10
58.5992975724
 20
75.7064367043
 30
0.0
 10
59.4713352305
 20
74.7222949888
 30
0.0
 10
60.7077875587
 20
73.1666575944
 30
0.0
 10
62.2006636713
 20
70.9729955036
 30
0.0
 10
63.594943646
 20
68.6922793178
 30
0.0
 10
65.1133480824
 20
65.7446083195
 30
0.0
 10
66.0838785303
 20
63.2834518068
 30
0.0
 10
66.4967930146
 20
62.0445829782
 30
0.0
  0
SPLINE
  5
2C1
100
AcDbEntity
  8
0
100
AcDbSpline
 62
7
  6
CONTINUOUS
 70
0
 71
3
 72
11
 73
7
 74
0
 42
0.0000001
 43
0.0000001
 44
0.0000000001
 40
0.0
 40
0.0
 40
0.0
 40
0.0
 40
0.269292653
 40
0.5262946744
 40
0.7700188808
 40
1.0
 40
1.0
 40
1.0
 40
1.0
 10
47.6049821026
 20
34.4150905687
 30
0.0
 10
47.481808873
 20
35.1461560494
 30
0.0
 10
47.2941854384
 20
36.5846292053
 30
0.0
 10
47.1944309259
 20
38.7047958284
 30
0.0
 10
47.284187501
 20
40.7173704492
 30
0.0
 10
47.4753473568
 20
42.0105246528
 30
0.0
 10
47.6049821026
 20
42.6302550057
 30
0.0
  0
SPLINE
  5
2C2
100
AcDbEntity
  8
0
100
AcDbSpline
 62
7
  6
CONTINUOUS
 70
0
 71
3
 72
13
 73
9
 74
0
 42
0.0000001
 43
0.0000001
 44
0.0000000001
 40
0.0
 40
0.0
 40
0.0
 40
0.0
 40
0.1234223685
 40
0.2484881196
 40
0.5011421577
 40
0.6275947421
 40
0.7532999254
 40
1.0
 40
1.0
 40
1.0
 40
1.0
 10
55.4139680035
 20
73.8712153165
 30
0.0
 10
55.846946522
 20
73.3826944172
 30
0.0
 10
56.6929084963
 20
72.3759554072
 30
0.0
 10
58.2935693948
 20
70.2622859677
 30
0.0
 10
59.7409801907
 20
68.0165291912
 30
0.0
 10
61.0208208387
 20
65.6723358102
 30
0.0
 10
62.1706364617
 20
63.2968088908
 30
0.0
 10
62.8965491348
 20
61.4608553409
 30
0.0
 10
63.3095979892
 20
60.2231616502
 30
0.0
  0
SPLINE
  5
2C3
100
AcDbEntity
  8
0
100
AcDbSpline
 62
7
  6
CONTINUOUS
 70
0
 71
3
 72
10
 73
6
 74
0
 42
0.0000001
 43
0.0000001
 44
0.0000000001
 40
0.0
 40
0.0
 40
0.0
 40
0.0
 40
0.3083562444
 40
0.5770688055
 40
1.0
 40
1.0
 40
1.0
 40
1.0
 10
25.9631677762
 20
28.7534979301
 30
0.0
 10
25.9487816417
 20
28.7130365861
 30
0.0
 10
25.9252870011
 20
28.6357798831
 30
0.0
 10
25.901451993
 20
28.4991059647
 30
0.0
 10
25.9072511955
 20
28.3980103058
 30
0.0
 10
25.9304271161
 20
28.343862784
 30
0.0
  0
SPLINE
  5
2C4
100
AcDbEntity
  8
0
100
AcDbSpline
 62
7
  6
CONTINUOUS
 70
0
 71
3
 72
9
 73
5
 74
0
 42
0.0000001
 43
0.0000001
 44
0.0000000001
 40
0.0
 40
0.0
 40
0.0
 40
0.0
 40
0.256750026
 40
1.0
 40
1.0
 40
1.0
 40
1.0
 10
25.9304271161
 20
28.343862784
 30
0.0
 10
25.9323483345
 20
28.3393741074
 30
0.0
 10
25.940360675
 20
28.3221256846
 30
0.0
 10
25.9506026569
 20
28.3058908152
 30
0.0
 10
25.9593902103
 20
28.2948203848
 30
0.0
  0
SPLINE
  5
2C5
100
AcDbEntity
  8
0
100
AcDbSpline
 62
7
  6
CONTINUOUS
 70
0
 71
3
 72
9
 73
5
 74
0
 42
0.0000001
 43
0.0000001
 44
0.0000000001
 40
0.0
 40
0.0
 40
0.0
 40
0.0
 40
0.4814472314
 40
1.0
 40
1.0
 40
1.0
 40
1.0
 10
46.0447931754
 20
29.7712253042
 30
0.0
 10
46.4201527281
 20
30.4648849302
 30
0.0
 10
47.0631461534
 20
31.981856986
 30
0.0
 10
47.4563758859
 20
33.5786966664
 30
0.0
 10
47.6049821026
 20
34.4150905687
 30
0.0
  0
SPLINE
  5
2C6
100
AcDbEntity
  8
0
100
AcDbSpline
 62
7
  6
CONTINUOUS
 70
0
 71
3
 72
14
 73
10
 74
0
 42
0.0000001
 43
0.0000001
 44
0.0000000001
 40
0.0
 40
0.0
 40
0.0
 40
0.0
 40
0.1224405537
 40
0.2467954144
 40
0.3724856635
 40
0.4989267543
 40
0.7515438808
 40
0.876593681
 40
1.0
 40
1.0
 40
1.0
 40
1.0
 10
63.416907691
 20
59.9011272229
 30
0.0
 10
63.2028420685
 20
60.541290327
 30
0.0
 10
62.736554592
 20
61.8202410064
 30
0.0
 10
61.9356440339
 20
63.7119594221
 30
0.0
 10
61.0322947006
 20
65.5816303764
 30
0.0
 10
59.698373731
 20
68.0246600246
 30
0.0
 10
58.1878082156
 20
70.3638601172
 30
0.0
 10
56.5209165588
 20
72.5676359391
 30
0.0
 10
55.6399215485
 20
73.6174471195
 30
0.0
 10
55.1888092697
 20
74.1267080283
 30
0.0
  0
SPLINE
  5
2C7
100
AcDbEntity
  8
0
100
AcDbSpline
 62
7
  6
CONTINUOUS
 70
0
 71
3
 72
13
 73
9
 74
0
 42
0.0000001
 43
0.0000001
 44
0.0000000001
 40
0.0
 40
0.0
 40
0.0
 40
0.0
 40
0.2633560629
 40
0.5147396062
 40
0.6373478199
 40
0.7586777471
 40
0.8793594296
 40
1.0
 40
1.0
 40
1.0
 40
1.0
 10
41.8629833212
 20
25.539332089
 30
0.0
 10
42.0977534499
 20
26.0173310556
 30
0.0
 10
42.6239360614
 20
26.9207870065
 30
0.0
 10
43.4484606097
 20
27.9199124831
 30
0.0
 10
44.1837348652
 20
28.6017876812
 30
0.0
 10
44.7681516536
 20
29.0530592333
 30
0.0
 10
45.38796038
 20
29.4468132439
 30
0.0
 10
45.8228689614
 20
29.6699242892
 30
0.0
 10
46.0447931754
 20
29.7712253042
 30
0.0
  0
SPLINE
  5
2C8
100
AcDbEntity
  8
0
100
AcDbSpline
 62
7
  6
CONTINUOUS
 70
0
 71
3
 72
11
 73
7
 74
0
 42
0.0000001
 43
0.0000001
 44
0.0000000001
 40
0.0
 40
0.0
 40
0.0
 40
0.0
 40
0.2579508643
 40
0.5094372983
 40
0.7561581605
 40
1.0
 40
1.0
 40
1.0
 40
1.0
 10
37.7783556809
 20
24.4707757549
 30
0.0
 10
38.1435355299
 20
24.4892828987
 30
0.0
 10
38.8635684947
 20
24.5604589665
 30
0.0
 10
39.9156507958
 20
24.7753290184
 30
0.0
 10
40.9195456688
 20
25.0960720787
 30
0.0
 10
41.5559262398
 20
25.3806215312
 30
0.0
 10
41.8629833212
 20
25.539332089
 30
0.0
  0
SPLINE
  5
2C9
100
AcDbEntity
  8
0
100
AcDbSpline
 62
7
  6
CONTINUOUS
 70
0
 71
3
 72
11
 73
7
 74
0
 42
0.0000001
 43
0.0000001
 44
0.0000000001
 40
0.0
 40
0.0
 40
0.0
 40
0.0
 40
0.2750272213
 40
0.5327823914
 40
0.7731756084
 40
1.0
 40
1.0
 40
1.0
 40
1.0
 10
37.7783556809
 20
24.4707757549
 30
0.0
 10
37.7998763708
 20
24.3780208877
 30
0.0
 10
37.8565604118
 20
24.2012830584
 30
0.0
 10
37.9862051913
 20
23.9649532592
 30
0.0
 10
38.1540189023
 20
23.7752439457
 30
0.0
 10
38.2907091523
 20
23.6842808365
 30
0.0
 10
38.3617751767
 20
23.6508651994
 30
0.0
  0
SPLINE
  5
2CA
100
AcDbEntity
  8
0
100
AcDbSpline
 62
7
  6
CONTINUOUS
 70
0
 71
3
 72
11
 73
7
 74
0
 42
0.0000001
 43
0.0000001
 44
0.0000000001
 40
0.0
 40
0.0
 40
0.0
 40
0.0
 40
0.2637850315
 40
0.516102179
 40
0.7601762404
 40
1.0
 40
1.0
 40
1.0
 40
1.0
 10
43.8115291993
 20
24.9251867867
 30
0.0
 10
44.0042947242
 20
25.3360043552
 30
0.0
 10
44.4328802975
 20
26.1172154855
 30
0.0
 10
45.221832048
 20
27.1661311163
 30
0.0
 10
46.1340467775
 20
28.0521933627
 30
0.0
 10
46.8215088357
 20
28.5295607187
 30
0.0
 10
47.1788118081
 20
28.7358410847
 30
0.0
  0
SPLINE
  5
2CB
100
AcDbEntity
  8
0
100
AcDbSpline
 62
7
  6
CONTINUOUS
 70
0
 71
3
 72
15
 73
11
 74
0
 42
0.0000001
 43
0.0000001
 44
0.0000000001
 40
0.0
 40
0.0
 40
0.0
 40
0.0
 40
0.1145161476
 40
0.2384360046
 40
0.3687226935
 40
0.5020927766
 40
0.6350095073
 40
0.764120302
 40
0.8866082577
 40
1.0
 40
1.0
 40
1.0
 40
1.0
 10
49.7473562182
 20
34.4280106746
 30
0.0
 10
49.6738661735
 20
34.3855814308
 30
0.0
 10
49.5128897316
 20
34.3107231298
 30
0.0
 10
49.250871601
 20
34.2308337501
 30
0.0
 10
48.9673015934
 20
34.1812056386
 30
0.0
 10
48.6733603556
 20
34.1635224909
 30
0.0
 10
48.3801362978
 20
34.1783797986
 30
0.0
 10
48.0983571333
 20
34.2249752078
 30
0.0
 10
47.8382567493
 20
34.3016017434
 30
0.0
 10
47.6782637537
 20
34.3739796083
 30
0.0
 10
47.6049821026
 20
34.4150905687
 30
0.0
  0
SPLINE
  5
2CC
100
AcDbEntity
  8
0
100
AcDbSpline
 62
7
  6
CONTINUOUS
 70
0
 71
3
 72
10
 73
6
 74
0
 42
0.0000001
 43
0.0000001
 44
0.0000000001
 40
0.0
 40
0.0
 40
0.0
 40
0.0
 40
0.4797426099
 40
0.73460319
 40
1.0
 40
1.0
 40
1.0
 40
1.0
 10
47.9678158813
 20
29.1312511518
 30
0.0
 10
48.4067983114
 20
29.9138011444
 30
0.0
 10
48.9547526895
 20
31.1851909496
 30
0.0
 10
49.4718439631
 20
32.9835358298
 30
0.0
 10
49.6660119533
 20
33.9383465502
 30
0.0
 10
49.7473562182
 20
34.4280106746
 30
0.0
  0
SPLINE
  5
2CD
100
AcDbEntity
  8
0
100
AcDbSpline
 62
7
  6
CONTINUOUS
 70
0
 71
3
 72
13
 73
9
 74
0
 42
0.0000001
 43
0.0000001
 44
0.0000000001
 40
0.0
 40
0.0
 40
0.0
 40
0.0
 40
0.2659019422
 40
0.5262763215
 40
0.6515510343
 40
0.7721862681
 40
0.8881110062
 40
1.0
 40
1.0
 40
1.0
 40
1.0
 10
46.0447931754
 20
29.7712253042
 30
0.0
 10
46.1504141954
 20
29.6189726017
 30
0.0
 10
46.4042804923
 20
29.3464927743
 30
0.0
 10
46.8017488765
 20
29.1119507924
 30
0.0
 10
47.1413566205
 20
29.0108402072
 30
0.0
 10
47.3933530605
 20
28.9821152793
 30
0.0
 10
47.6369797031
 20
29.0014904225
 30
0.0
 10
47.7904815467
 20
29.047584053
 30
0.0
 10
47.862128739
 20
29.0783491455
 30
0.0
  0
SPLINE
  5
2CE
100
AcDbEntity
  8
0
100
AcDbSpline
 62
7
  6
CONTINUOUS
 70
0
 71
3
 72
12
 73
8
 74
0
 42
0.0000001
 43
0.0000001
 44
0.0000000001
 40
0.0
 40
0.0
 40
0.0
 40
0.0
 40
0.2491266955
 40
0.3750608668
 40
0.5012921775
 40
0.7527708185
 40
1.0
 40
1.0
 40
1.0
 40
1.0
 10
66.9164520716
 20
64.3809374253
 30
0.0
 10
66.4758128351
 20
65.4896717482
 30
0.0
 10
65.7392550521
 20
67.1311574549
 30
0.0
 10
64.6157751976
 20
69.2533690082
 30
0.0
 10
63.3973054712
 20
71.335734476
 30
0.0
 10
61.7238490042
 20
73.8214716208
 30
0.0
 10
60.2218988954
 20
75.6831597181
 30
0.0
 10
59.4366069824
 20
76.5692578942
 30
0.0
  0
SPLINE
  5
2CF
100
AcDbEntity
  8
0
100
AcDbSpline
 62
7
  6
CONTINUOUS
 70
0
 71
3
 72
11
 73
7
 74
0
 42
0.0000001
 43
0.0000001
 44
0.0000000001
 40
0.0
 40
0.0
 40
0.0
 40
0.0
 40
0.2467139112
 40
0.4988512922
 40
0.7515438828
 40
1.0
 40
1.0
 40
1.0
 40
1.0
 10
66.6045408535
 20
61.7220611575
 30
0.0
 10
66.1735993347
 20
63.0129759018
 30
0.0
 10
65.1609434608
 20
65.5777958551
 30
0.0
 10
63.262125812
 20
69.2702506744
 30
0.0
 10
61.0063433391
 20
72.7676560073
 30
0.0
 10
59.2814798865
 20
74.9352612438
 30
0.0
 10
58.3725023353
 20
75.9610206689
 30
0.0
  0
SPLINE
  5
2D0
100
AcDbEntity
  8
0
100
AcDbSpline
 62
7
  6
CONTINUOUS
 70
0
 71
3
 72
11
 73
7
 74
0
 42
0.0000001
 43
0.0000001
 44
0.0000000001
 40
0.0
 40
0.0
 40
0.0
 40
0.0
 40
0.2704517208
 40
0.5278790852
 40
0.7712208762
 40
1.0
 40
1.0
 40
1.0
 40
1.0
 10
49.7473562182
 20
34.4280106746
 30
0.0
 10
49.6175136203
 20
35.1570609807
 30
0.0
 10
49.4195156304
 20
36.5907798712
 30
0.0
 10
49.314071862
 20
38.7027572194
 30
0.0
 10
49.408317375
 20
40.7013854236
 30
0.0
 10
49.6103121774
 20
41.9817905661
 30
0.0
 10
49.7473562182
 20
42.5930348459
 30
0.0
  0
SPLINE
  5
2D1
100
AcDbEntity
  8
0
100
AcDbSpline
 62
7
  6
CONTINUOUS
 70
0
 71
3
 72
12
 73
8
 74
0
 42
0.0000001
 43
0.0000001
 44
0.0000000001
 40
0.0
 40
0.0
 40
0.0
 40
0.0
 40
0.2558624831
 40
0.5354360364
 40
0.7959104244
 40
0.9070279886
 40
1.0
 40
1.0
 40
1.0
 40
1.0
 10
47.9678158813
 20
49.9445840683
 30
0.0
 10
47.811689507
 20
49.8544450021
 30
0.0
 10
47.478731107
 20
49.6766031381
 30
0.0
 10
46.9732579472
 20
49.4334976348
 30
0.0
 10
46.5513365148
 20
49.2525852275
 30
0.0
 10
46.2445708804
 20
49.1382595996
 30
0.0
 10
46.1077616273
 20
49.0936914731
 30
0.0
 10
46.0447931754
 20
49.0756305088
 30
0.0
  0
SPLINE
  5
2D2
100
AcDbEntity
  8
0
100
AcDbSpline
 62
7
  6
CONTINUOUS
 70
0
 71
3
 72
9
 73
5
 74
0
 42
0.0000001
 43
0.0000001
 44
0.0000000001
 40
0.0
 40
0.0
 40
0.0
 40
0.0
 40
0.4889956591
 40
1.0
 40
1.0
 40
1.0
 40
1.0
 10
49.7473562182
 20
42.5930348459
 30
0.0
 10
49.5769631242
 20
43.8154904323
 30
0.0
 10
49.0951645701
 20
46.2980002897
 30
0.0
 10
48.3835028842
 20
48.7235784135
 30
0.0
 10
47.9678158813
 20
49.9445840683
 30
0.0
  0
SPLINE
  5
2D3
100
AcDbEntity
  8
0
100
AcDbSpline
 62
7
  6
CONTINUOUS
 70
0
 71
3
 72
15
 73
11
 74
0
 42
0.0000001
 43
0.0000001
 44
0.0000000001
 40
0.0
 40
0.0
 40
0.0
 40
0.0
 40
0.1145722627
 40
0.2378968856
 40
0.3674143246
 40
0.5002860624
 40
0.6332127923
 40
0.7627957714
 40
0.8859719327
 40
1.0
 40
1.0
 40
1.0
 40
1.0
 10
47.6049821026
 20
42.6302550057
 30
0.0
 10
47.6781430218
 20
42.5868211939
 30
0.0
 10
47.8378152014
 20
42.5094032974
 30
0.0
 10
48.0978554768
 20
42.4245761812
 30
0.0
 10
48.3796286696
 20
42.3694570742
 30
0.0
 10
48.6729136327
 20
42.346353146
 30
0.0
 10
48.9669918983
 20
42.3567137925
 30
0.0
 10
49.250781801
 20
42.4005679647
 30
0.0
 10
49.513093283
 20
42.4767812312
 30
0.0
 10
49.6740225643
 20
42.5506958938
 30
0.0
 10
49.7473562182
 20
42.5930348459
 30
0.0
  0
SPLINE
  5
2D4
100
AcDbEntity
  8
0
100
AcDbSpline
 62
7
  6
CONTINUOUS
 70
0
 71
3
 72
11
 73
7
 74
0
 42
0.0000001
 43
0.0000001
 44
0.0000000001
 40
0.0
 40
0.0
 40
0.0
 40
0.0
 40
0.2533639579
 40
0.5058842664
 40
0.755443249
 40
1.0
 40
1.0
 40
1.0
 40
1.0
 10
47.9678158813
 20
49.9445840683
 30
0.0
 10
47.5194847837
 20
50.6548679343
 30
0.0
 10
46.6702961995
 20
52.1026833305
 30
0.0
 10
45.5452685984
 20
54.3421119947
 30
0.0
 10
44.5814421589
 20
56.623880397
 30
0.0
 10
44.0475781118
 20
58.1741845364
 30
0.0
 10
43.8115291993
 20
58.9498063312
 30
0.0
  0
SPLINE
  5
2D5
100
AcDbEntity
  8
0
100
AcDbSpline
 62
7
  6
CONTINUOUS
 70
0
 71
3
 72
15
 73
11
 74
0
 42
0.0000001
 43
0.0000001
 44
0.0000000001
 40
0.0
 40
0.0
 40
0.0
 40
0.0
 40
0.1184822326
 40
0.2475458179
 40
0.3828010511
 40
0.5198045269
 40
0.653992886
 40
0.7811063408
 40
0.8975003589
 40
1.0
 40
1.0
 40
1.0
 40
1.0
 10
39.1526321129
 20
65.5481033202
 30
0.0
 10
39.0785009285
 20
65.5053039163
 30
0.0
 10
38.9290577222
 20
65.4063406204
 30
0.0
 10
38.7134304684
 20
65.2326739559
 30
0.0
 10
38.5029738802
 20
65.03279814
 30
0.0
 10
38.3057248801
 20
64.8149012338
 30
0.0
 10
38.1289485203
 20
64.5874928842
 30
0.0
 10
37.9787514852
 20
64.3592805608
 30
0.0
 10
37.8603200307
 20
64.1387611926
 30
0.0
 10
37.8007278017
 20
63.9917159919
 30
0.0
 10
37.7783556809
 20
63.9211239457
 30
0.0
  0
SPLINE
  5
2D6
100
AcDbEntity
  8
0
100
AcDbSpline
 62
7
  6
CONTINUOUS
 70
0
 71
3
 72
9
 73
5
 74
0
 42
0.0000001
 43
0.0000001
 44
0.0000000001
 40
0.0
 40
0.0
 40
0.0
 40
0.0
 40
0.5036880399
 40
1.0
 40
1.0
 40
1.0
 40
1.0
 10
43.8115291993
 20
58.9498063312
 30
0.0
 10
43.1219064248
 20
60.1188700473
 30
0.0
 10
41.6583263124
 20
62.3854786876
 30
0.0
 10
40.0132937222
 20
64.5243901208
 30
0.0
 10
39.1526321129
 20
65.5481033202
 30
0.0
  0
SPLINE
  5
2D7
100
AcDbEntity
  8
0
100
AcDbSpline
 62
7
  6
CONTINUOUS
 70
0
 71
3
 72
13
 73
9
 74
0
 42
0.0000001
 43
0.0000001
 44
0.0000000001
 40
0.0
 40
0.0
 40
0.0
 40
0.0
 40
0.0934535999
 40
0.2048781734
 40
0.4654610933
 40
0.7446203926
 40
0.8779917328
 40
1.0
 40
1.0
 40
1.0
 40
1.0
 10
41.8629833212
 20
58.1361525759
 30
0.0
 10
41.9271476301
 20
58.1513528663
 30
0.0
 10
42.0665549313
 20
58.1899698082
 30
0.0
 10
42.3788911724
 20
58.2916963834
 30
0.0
 10
42.8078667477
 20
58.4571427509
 30
0.0
 10
43.2417062851
 20
58.651023355
 30
0.0
 10
43.578805635
 20
58.8203145556
 30
0.0
 10
43.7369745669
 20
58.9067624511
 30
0.0
 10
43.8115291993
 20
58.9498063312
 30
0.0
  0
SPLINE
  5
2D8
100
AcDbEntity
  8
0
100
AcDbSpline
 62
7
  6
CONTINUOUS
 70
0
 71
3
 72
11
 73
7
 74
0
 42
0.0000001
 43
0.0000001
 44
0.0000000001
 40
0.0
 40
0.0
 40
0.0
 40
0.0
 40
0.2360106354
 40
0.482466089
 40
0.7377545505
 40
1.0
 40
1.0
 40
1.0
 40
1.0
 10
39.1526321129
 20
65.5481033202
 30
0.0
 10
38.5463115264
 20
65.960512003
 30
0.0
 10
37.3449346641
 20
66.860658503
 30
0.0
 10
35.6264140414
 20
68.3808192055
 30
0.0
 10
33.9699869151
 20
70.0838928907
 30
0.0
 10
32.9320046305
 20
71.3139231777
 30
0.0
 10
32.4276189946
 20
71.9538348466
 30
0.0
  0
SPLINE
  5
2D9
100
AcDbEntity
  8
0
100
AcDbSpline
 62
7
  6
CONTINUOUS
 70
0
 71
3
 72
14
 73
10
 74
0
 42
0.0000001
 43
0.0000001
 44
0.0000000001
 40
0.0
 40
0.0
 40
0.0
 40
0.0
 40
0.1224405537
 40
0.2467954144
 40
0.3724856635
 40
0.4989267543
 40
0.7515438808
 40
0.876593681
 40
1.0
 40
1.0
 40
1.0
 40
1.0
 10
59.1742846676
 20
57.4516622999
 30
0.0
 10
58.9602190452
 20
58.091825404
 30
0.0
 10
58.4939315686
 20
59.3707760833
 30
0.0
 10
57.6930210106
 20
61.262494499
 30
0.0
 10
56.7896716773
 20
63.1321654532
 30
0.0
 10
55.4557507077
 20
65.5751951013
 30
0.0
 10
53.9451851924
 20
67.9143951938
 30
0.0
 10
52.2782935357
 20
70.1181710156
 30
0.0
 10
51.3972985255
 20
71.167982196
 30
0.0
 10
50.9461862467
 20
71.6772431048
 30
0.0
  0
SPLINE
  5
2DA
100
AcDbEntity
  8
0
100
AcDbSpline
 62
7
  6
CONTINUOUS
 70
0
 71
3
 72
15
 73
11
 74
0
 42
0.0000001
 43
0.0000001
 44
0.0000000001
 40
0.0
 40
0.0
 40
0.0
 40
0.0
 40
0.101413098
 40
0.2170723542
 40
0.3438376537
 40
0.4780607401
 40
0.6154316156
 40
0.7512817203
 40
0.8810072837
 40
1.0
 40
1.0
 40
1.0
 40
1.0
 10
31.0120452023
 20
70.366192169
 30
0.0
 10
31.0365168404
 20
70.4350192305
 30
0.0
 10
31.1006138172
 20
70.5782077177
 30
0.0
 10
31.2257424862
 20
70.7923138566
 30
0.0
 10
31.3828777124
 20
71.0138624917
 30
0.0
 10
31.5663444496
 20
71.2348080337
 30
0.0
 10
31.7695097957
 20
71.4469304166
 30
0.0
 10
31.9846055313
 20
71.6421836012
 30
0.0
 10
32.2031603386
 20
71.8127859787
 30
0.0
 10
32.3533912003
 20
71.9109796654
 30
0.0
 10
32.4276189946
 20
71.9538348466
 30
0.0
  0
SPLINE
  5
2DB
100
AcDbEntity
  8
0
100
AcDbSpline
 62
7
  6
CONTINUOUS
 70
0
 71
3
 72
9
 73
5
 74
0
 42
0.0000001
 43
0.0000001
 44
0.0000000001
 40
0.0
 40
0.0
 40
0.0
 40
0.0
 40
0.2570692023
 40
1.0
 40
1.0
 40
1.0
 40
1.0
 10
29.5482622451
 20
73.8507813771
 30
0.0
 10
29.3096635734
 20
73.9885332681
 30
0.0
 10
28.3735114376
 20
74.510303808
 30
0.0
 10
27.4046823266
 20
74.974253219
 30
0.0
 10
26.6689054956
 20
75.2785544202
 30
0.0
  0
SPLINE
  5
2DC
100
AcDbEntity
  8
0
100
AcDbSpline
 62
7
  6
CONTINUOUS
 70
0
 71
3
 72
13
 73
9
 74
0
 42
0.0000001
 43
0.0000001
 44
0.0000000001
 40
0.0
 40
0.0
 40
0.0
 40
0.0
 40
0.1234223685
 40
0.2484881196
 40
0.5011421577
 40
0.6275947421
 40
0.7532999254
 40
1.0
 40
1.0
 40
1.0
 40
1.0
 10
51.1713449805
 20
71.421750393
 30
0.0
 10
51.604323499
 20
70.9332294937
 30
0.0
 10
52.4502854732
 20
69.9264904838
 30
0.0
 10
54.0509463717
 20
67.8128210443
 30
0.0
 10
55.4983571674
 20
65.5670642679
 30
0.0
 10
56.7781978154
 20
63.222870887
 30
0.0
 10
57.9280134383
 20
60.8473439677
 30
0.0
 10
58.6539261114
 20
59.0113904178
 30
0.0
 10
59.0669749659
 20
57.7736967273
 30
0.0
  0
SPLINE
  5
2DD
100
AcDbEntity
  8
0
100
AcDbSpline
 62
7
  6
CONTINUOUS
 70
0
 71
3
 72
9
 73
5
 74
0
 42
0.0000001
 43
0.0000001
 44
0.0000000001
 40
0.0
 40
0.0
 40
0.0
 40
0.0
 40
0.2561000593
 40
1.0
 40
1.0
 40
1.0
 40
1.0
 10
32.4276189946
 20
71.9538348466
 30
0.0
 10
32.1910618156
 20
72.1291464949
 30
0.0
 10
31.2583423384
 20
72.8013614493
 30
0.0
 10
30.2889431244
 20
73.4231587462
 30
0.0
 10
29.5482622451
 20
73.8507813771
 30
0.0
  0
SPLINE
  5
2DE
100
AcDbEntity
  8
0
100
AcDbSpline
 62
7
  6
CONTINUOUS
 70
0
 71
3
 72
11
 73
7
 74
0
 42
0.0000001
 43
0.0000001
 44
0.0000000001
 40
0.0
 40
0.0
 40
0.0
 40
0.0
 40
0.2273322847
 40
0.4685114018
 40
0.7257135924
 40
1.0
 40
1.0
 40
1.0
 40
1.0
 10
26.6689054956
 20
75.2785544202
 30
0.0
 10
26.1461085338
 20
75.218944666
 30
0.0
 10
25.0560519383
 20
75.1927929602
 30
0.0
 10
23.3854898718
 20
75.4160641322
 30
0.0
 10
21.6574077394
 20
75.895344314
 30
0.0
 10
20.5174641906
 20
76.3658683299
 30
0.0
 10
19.9438923773
 20
76.6380234898
 30
0.0
  0
SPLINE
  5
2DF
100
AcDbEntity
  8
0
100
AcDbSpline
 62
7
  6
CONTINUOUS
 70
0
 71
3
 72
13
 73
9
 74
0
 42
0.0000001
 43
0.0000001
 44
0.0000000001
 40
0.0
 40
0.0
 40
0.0
 40
0.0
 40
0.1234355914
 40
0.2485172514
 40
0.5011791146
 40
0.7532450256
 40
0.8775862185
 40
1.0
 40
1.0
 40
1.0
 40
1.0
 10
50.1065421227
 20
70.8153878841
 30
0.0
 10
50.5404778821
 20
70.3257465476
 30
0.0
 10
51.3878435287
 20
69.3162881955
 30
0.0
 10
52.9909160027
 20
67.1969880792
 30
0.0
 10
54.8046984845
 20
64.3876176695
 30
0.0
 10
56.332186387
 20
61.4171972069
 30
0.0
 10
57.3618754403
 20
58.9810511358
 30
0.0
 10
57.8093644673
 20
57.7513152037
 30
0.0
 10
58.0147040143
 20
57.1358259368
 30
0.0
  0
SPLINE
  5
2E0
100
AcDbEntity
  8
0
100
AcDbSpline
 62
7
  6
CONTINUOUS
 70
0
 71
3
 72
13
 73
9
 74
0
 42
0.0000001
 43
0.0000001
 44
0.0000000001
 40
0.0
 40
0.0
 40
0.0
 40
0.0
 40
0.2550061896
 40
0.3868315375
 40
0.5184056842
 40
0.6474096195
 40
0.7717439085
 40
1.0
 40
1.0
 40
1.0
 40
1.0
 10
25.9631677762
 20
73.2810969661
 30
0.0
 10
25.9164259005
 20
73.4665312465
 30
0.0
 10
25.8910599736
 20
73.7610961783
 30
0.0
 10
25.9380788629
 20
74.1477286431
 30
0.0
 10
26.0142388466
 20
74.4330649296
 30
0.0
 10
26.12909346
 20
74.6992823351
 30
0.0
 10
26.3218846021
 20
75.0053275401
 30
0.0
 10
26.5206641242
 20
75.1929677354
 30
0.0
 10
26.6689054956
 20
75.2785544202
 30
0.0
  0
SPLINE
  5
2E1
100
AcDbEntity
  8
0
100
AcDbSpline
 62
7
  6
CONTINUOUS
 70
0
 71
3
 72
11
 73
7
 74
0
 42
0.0000001
 43
0.0000001
 44
0.0000000001
 40
0.0
 40
0.0
 40
0.0
 40
0.0
 40
0.2586567035
 40
0.5101850203
 40
0.7565615289
 40
1.0
 40
1.0
 40
1.0
 40
1.0
 10
19.9438923773
 20
76.6380234898
 30
0.0
 10
19.525436605
 20
76.6234718116
 30
0.0
 10
18.7007576901
 20
76.5523865686
 30
0.0
 10
17.4971836499
 20
76.3122669465
 30
0.0
 10
16.3530621027
 20
75.9412076446
 30
0.0
 10
15.6316634812
 20
75.6066264352
 30
0.0
 10
15.2849952909
 20
75.419235774
 30
0.0
  0
SPLINE
  5
2E2
100
AcDbEntity
  8
0
100
AcDbSpline
 62
7
  6
CONTINUOUS
 70
0
 71
3
 72
12
 73
8
 74
0
 42
0.0000001
 43
0.0000001
 44
0.0000000001
 40
0.0
 40
0.0
 40
0.0
 40
0.0
 40
0.498464843
 40
0.6251503582
 40
0.7513753161
 40
0.8765209252
 40
1.0
 40
1.0
 40
1.0
 40
1.0
 10
58.1218685184
 20
56.8127392432
 30
0.0
 10
57.252298825
 20
59.4235187498
 30
0.0
 10
55.8027516748
 20
62.5917733962
 30
0.0
 10
53.6401024639
 20
66.1310511165
 30
0.0
 10
52.4655561307
 20
67.8575944752
 30
0.0
 10
51.2167898796
 20
69.508681991
 30
0.0
 10
50.3329339534
 20
70.559743002
 30
0.0
 10
49.8805371015
 20
71.0696540594
 30
0.0
  0
SPLINE
  5
2E3
100
AcDbEntity
  8
0
100
AcDbSpline
 62
7
  6
CONTINUOUS
 70
0
 71
3
 72
13
 73
9
 74
0
 42
0.0000001
 43
0.0000001
 44
0.0000000001
 40
0.0
 40
0.0
 40
0.0
 40
0.0
 40
0.2531642119
 40
0.3846621355
 40
0.5163470864
 40
0.6458297133
 40
0.7708398359
 40
1.0
 40
1.0
 40
1.0
 40
1.0
 10
19.1968572976
 20
74.6489143442
 30
0.0
 10
19.1539100797
 20
74.8340182382
 30
0.0
 10
19.1354383927
 20
75.1278694345
 30
0.0
 10
19.1916667041
 20
75.5120268979
 30
0.0
 10
19.274648687
 20
75.7959144371
 30
0.0
 10
19.3955014642
 20
76.060727376
 30
0.0
 10
19.5943128585
 20
76.3650563498
 30
0.0
 10
19.7949325026
 20
76.5520219794
 30
0.0
 10
19.9438923773
 20
76.6380234898
 30
0.0
  0
SPLINE
  5
2E4
100
AcDbEntity
  8
0
100
AcDbSpline
 62
7
  6
CONTINUOUS
 70
0
 71
3
 72
11
 73
7
 74
0
 42
0.0000001
 43
0.0000001
 44
0.0000000001
 40
0.0
 40
0.0
 40
0.0
 40
0.0
 40
0.2693117759
 40
0.5270445352
 40
0.7702596108
 40
1.0
 40
1.0
 40
1.0
 40
1.0
 10
15.1122296574
 20
73.5803580101
 30
0.0
 10
15.0339717561
 20
73.6892594176
 30
0.0
 10
14.9027649825
 20
73.9194158211
 30
0.0
 10
14.7925474798
 20
74.2906241274
 30
0.0
 10
14.7810902173
 20
74.6587359591
 30
0.0
 10
14.8450042992
 20
74.890356745
 30
0.0
 10
14.8938216915
 20
74.9938170549
 30
0.0
  0
SPLINE
  5
2E5
100
AcDbEntity
  8
0
100
AcDbSpline
 62
7
  6
CONTINUOUS
 70
0
 71
3
 72
14
 73
10
 74
0
 42
0.0000001
 43
0.0000001
 44
0.0000000001
 40
0.0
 40
0.0
 40
0.0
 40
0.0
 40
0.2467080401
 40
0.3724001366
 40
0.4988427093
 40
0.6254275549
 40
0.7515417881
 40
0.876592115
 40
1.0
 40
1.0
 40
1.0
 40
1.0
 10
57.0565441172
 20
56.217797674
 30
0.0
 10
56.6260287964
 20
57.5075368537
 30
0.0
 10
55.869618498
 20
59.4206366425
 30
0.0
 10
54.6728994505
 20
61.8965334587
 30
0.0
 10
53.6732359871
 20
63.7298833183
 30
0.0
 10
52.5839327323
 20
65.5140401901
 30
0.0
 10
51.4114400049
 20
67.2354594231
 30
0.0
 10
50.1654447571
 20
68.8824527326
 30
0.0
 10
49.2847414962
 20
69.9319392007
 30
0.0
 10
48.8339202
 20
70.4412098026
 30
0.0
  0
SPLINE
  5
2E6
100
AcDbEntity
  8
0
100
AcDbSpline
 62
7
  6
CONTINUOUS
 70
0
 71
3
 72
11
 73
7
 74
0
 42
0.0000001
 43
0.0000001
 44
0.0000000001
 40
0.0
 40
0.0
 40
0.0
 40
0.0
 40
0.2486104494
 40
0.3748451083
 40
0.5015360069
 40
1.0
 40
1.0
 40
1.0
 40
1.0
 10
49.0592669742
 20
70.1872989051
 30
0.0
 10
49.9305556133
 20
69.2042357335
 30
0.0
 10
51.1658411657
 20
67.6503308283
 30
0.0
 10
52.6567867965
 20
65.4583704952
 30
0.0
 10
54.7263598576
 20
62.0703756411
 30
0.0
 10
56.1143498793
 20
59.038528272
 30
0.0
 10
56.9478929829
 20
56.5401308433
 30
0.0
  0
SPLINE
  5
2E7
100
AcDbEntity
  8
0
100
AcDbSpline
 62
7
  6
CONTINUOUS
 70
0
 71
3
 72
12
 73
8
 74
0
 42
0.0000001
 43
0.0000001
 44
0.0000000001
 40
0.0
 40
0.0
 40
0.0
 40
0.0
 40
0.246746581
 40
0.3724739438
 40
0.4989463316
 40
0.7516164109
 40
1.0
 40
1.0
 40
1.0
 40
1.0
 10
55.9954518574
 20
55.6055288626
 30
0.0
 10
55.5646221377
 20
56.8971188519
 30
0.0
 10
54.8078842711
 20
58.8132397028
 30
0.0
 10
53.6080414716
 20
61.2920185548
 30
0.0
 10
52.2729566788
 20
63.7383330128
 30
0.0
 10
50.3933456086
 20
66.6533073171
 30
0.0
 10
48.6672945933
 20
68.8203304741
 30
0.0
 10
47.7579386477
 20
69.8457914187
 30
0.0
  0
SPLINE
  5
2E8
100
AcDbEntity
  8
0
100
AcDbSpline
 62
7
  6
CONTINUOUS
 70
0
 71
3
 72
14
 73
10
 74
0
 42
0.0000001
 43
0.0000001
 44
0.0000000001
 40
0.0
 40
0.0
 40
0.0
 40
0.0
 40
0.1234116438
 40
0.2484687503
 40
0.3745942651
 40
0.5011826696
 40
0.6276286823
 40
0.7533218685
 40
1.0
 40
1.0
 40
1.0
 40
1.0
 10
47.9838957185
 20
69.5910952815
 30
0.0
 10
48.4173618377
 20
69.1020544255
 30
0.0
 10
49.2641780363
 20
68.0941879183
 30
0.0
 10
50.4620318322
 20
66.512171985
 30
0.0
 10
51.5892855101
 20
64.858623991
 30
0.0
 10
52.6366775382
 20
63.1447996452
 30
0.0
 10
53.5974399327
 20
61.3834542708
 30
0.0
 10
54.7478405073
 20
59.005084413
 30
0.0
 10
55.474354953
 20
57.1670595657
 30
0.0
 10
55.8879977787
 20
55.9280654763
 30
0.0
  0
ENDSEC
  0
SECTION
  2
OBJECTS
  0
DICTIONARY
  5
C
100
AcDbDictionary
280
0
281
1
  3
ACAD_GROUP
350
D
  3
ACAD_MLINESTYLE
350
17
  3
ACAD_LAYOUT
350
1A
  3
ACAD_PLOTSETTINGS
350
19
  3
ACAD_PLOTSTYLENAME
350
E
  0
DICTIONARY
  5
D
102
{ACAD_REACTORS
330
C
102
}
100
AcDbDictionary
280
0
281
1
  0
ACDBDICTIONARYWDFLT
  5
E
102
{ACAD_REACTORS
330
C
102
}
100
AcDbDictionary
281
1
  3
Normal
350
F
100
AcDbDictionaryWithDefault
340
F
  0
DICTIONARY
  5
17
102
{ACAD_REACTORS
330
C
102
}
100
AcDbDictionary
280
0
281
1
  3
Standard
350
18
  0
DICTIONARY
  5
19
102
{ACAD_REACTORS
330
C
102
}
100
AcDbDictionary
281
1
  0
DICTIONARY
  5
1A
102
{ACAD_REACTORS
330
C
102
}
100
AcDbDictionary
281
1
  3
Model
350
2E9
  3
Layout1
350
2EA
  0
ACDBPLACEHOLDER
  5
F
102
{ACAD_REACTORS
330
E
102
}
  0
MLINESTYLE
  5
18
102
{ACAD_REACTORS
330
17
102
}
100
AcDbMlineStyle
  2
STANDARD
 70
0
  3

 62
256
 51
90.0
 52
90.0
 71
2
 49
0.5
 62
256
  6
BYLAYER
 49
-0.5
 62
256
  6
BYLAYER
  0
LAYOUT
  5
2E9
102
{ACAD_REACTORS
330
1A
102
}
100
AcDbPlotSettings
  1

  2
none_device
  4

  6

 40
0.0
 41
0.0
 42
0.0
 43
0.0
 44
210.0
 45
297.0
 46
0.0
 47
0.0
 48
0.0
 49
0.0
140
0.0
141
0.0
142
1.0
143
1.0
 70
1024
 72
1
 73
0
 74
0
  7

 75
0
147
1.0
148
0.0
149
0.0
100
AcDbLayout
  1
Model
 70
0
 71
0
 10
0.0
 20
0.0
 11
210.0
 21
297.0
 12
0.0
 22
0.0
 32
0.0
 14
0.0
 24
0.0
 34
0.0
 15
0.0
 25
0.0
 35
0.0
146
0.0
 13
0.0
 23
0.0
 33
0.0
 16
1.0
 26
0.0
 36
0.0
 17
0.0
 27
1.0
 37
0.0
 76
0
330
210
345
0
346
0
  0
LAYOUT
  5
2EA
102
{ACAD_REACTORS
330
1A
102
}
100
AcDbPlotSettings
  1

  2
none_device
  4

  6

 40
0.0
 41
0.0
 42
0.0
 43
0.0
 44
210.0
 45
297.0
 46
0.0
 47
0.0
 48
0.0
 49
0.0
140
0.0
141
0.0
142
1.0
143
1.0
 70
0
 72
1
 73
0
 74
0
  7

 75
0
147
1.0
148
0.0
149
0.0
100
AcDbLayout
  1
Layout1
 70
0
 71
1
 10
0.0
 20
0.0
 11
210.0
 21
297.0
 12
0.0
 22
0.0
 32
0.0
 14
0.0
 24
0.0
 34
0.0
 15
0.0
 25
0.0
 35
0.0
146
0.0
 13
0.0
 23
0.0
 33
0.0
 16
1.0
 26
0.0
 36
0.0
 17
0.0
 27
1.0
 37
0.0
 76
0
330
211
345
0
346
0
  0
ENDSEC
  0
EOF
