999
DXF file: C:\Users\sesa63760\Dev\_Creo\CAD\MCADPD0004368_3D-CAD\drw0001_6.dxf
999
Pro/ENGINEER 2019471 by Parametric Technology Corporation
  0
SECTION
  2
HEADER
  9
$ACADVER
  1
AC1024
  9
$DWGCODEPAGE
  3
ANSI_1252
  9
$EXTMAX
 10
51.1945494331
 20
72.4037199125
 30
0.0
  9
$EXTMIN
 10
0.0
 20
0.0
 30
0.0
  9
$LIMMIN
 10
0.0
 20
0.0
  9
$LIMMAX
 10
51.1945494331
 20
72.4037199125
  9
$VIEWCTR
 10
25.5972747165
 20
36.2018599562
  9
$VIEWSIZE
 40
72.4037199125
  9
$CLAYER
  8
0
  9
$LTSCALE
 40
4.7196498906
  9
$CELTYPE
  6
BYLAYER
  9
$DIMSCALE
 40
1.0
  9
$DIMASZ
 40
0.6094589218
  9
$DIMEXO
 40
1.0
  9
$DIMDLI
 40
3.2608490153
  9
$DIMEXE
 40
1.0
  9
$DIMCEN
 40
0.7723063457
  9
$DIMLFAC
 40
1.0
  9
$DIMBLK
  1
_FILLED
  9
$DIMALT
 70
0
  9
$DIMALTF
 40
0.0393700787
  9
$DIMTXT
 40
0.8532424906
  9
$DIMTOL
 70
1
  9
$DIMLIM
 70
0
  9
$DIMTFAC
 40
1.0
  9
$DIMTP
 40
0.01
  9
$DIMTM
 40
0.01
  9
$DIMGAP
 40
0.625
  9
$DIMDSEP
 70
46
  9
$AUNITS
 70
0
  9
$PDMODE
 70
3
  9
$PDSIZE
 40
0.3125
  9
$HANDSEED
  5
255
  9
$TILEMODE
 70
1
  9
$MEASUREMENT
 70
1
  9
$INSUNITS
 70
4
  0
ENDSEC
  0
SECTION
  2
CLASSES
  0
CLASS
  1
ACDBDICTIONARYWDFLT
  2
AcDbDictionaryWithDefault
  3
AutoCAD 2000
 90
0
 91
1
280
0
281
0
  0
CLASS
  1
ACDBPLACEHOLDER
  2
AcDbPlaceHolder
  3
AutoCAD 2000
 90
0
 91
1
280
0
281
0
  0
CLASS
  1
LAYOUT
  2
AcDbLayout
  3
AutoCAD 2000
 90
0
 91
0
280
0
281
0
  0
ENDSEC
  0
SECTION
  2
TABLES
  0
TABLE
  2
VPORT
  5
8
100
AcDbSymbolTable
 70
2
  0
VPORT
  5
1F4
100
AcDbSymbolTableRecord
100
AcDbViewportTableRecord
  2
*ACTIVE
 70
0
 10
0.0
 20
0.0
 11
1.0
 21
1.0
 12
25.5972747165
 22
36.2018599562
 13
0.0
 23
0.0
 14
1.0
 24
1.0
 15
0.0
 25
0.0
 16
0.0
 26
0.0
 36
1.0
 17
0.0
 27
0.0
 37
0.0
 40
72.4037199125
 41
0.7070707071
 42
50.0
 43
0.0
 44
0.0
 50
0.0
 51
0.0
 71
0
 72
100
 73
1
 74
1
 75
0
 76
0
 77
0
 78
0
  0
ENDTAB
  0
TABLE
  2
LTYPE
  5
5
100
AcDbSymbolTable
 70
6
  0
LTYPE
  5
14
100
AcDbSymbolTableRecord
100
AcDbLinetypeTableRecord
  2
BYBLOCK
 70
0
  3

 72
65
 73
0
 40
0.0
  0
LTYPE
  5
15
100
AcDbSymbolTableRecord
100
AcDbLinetypeTableRecord
  2
BYLAYER
 70
0
  3

 72
65
 73
0
 40
0.0
  0
LTYPE
  5
16
100
AcDbSymbolTableRecord
100
AcDbLinetypeTableRecord
  2
CONTINUOUS
 70
64
  3
Solid line
 72
65
 73
0
 40
0.0
  0
LTYPE
  5
1F5
100
AcDbSymbolTableRecord
100
AcDbLinetypeTableRecord
  2
CENTER
 70
64
  3
____ _ ____ _ ____ _ ____ _ ____ _ ____ _ ____
 72
65
 73
4
 40
0.6
 49
0.375
 74
0
 49
-0.075
 74
0
 49
0.075
 74
0
 49
-0.075
 74
0
  0
LTYPE
  5
1F6
100
AcDbSymbolTableRecord
100
AcDbLinetypeTableRecord
  2
HIDDEN
 70
64
  3
- - - - - - - - - - - - - - - - - - - -
 72
65
 73
2
 40
0.2
 49
0.1
 74
0
 49
-0.1
 74
0
  0
LTYPE
  5
1F7
100
AcDbSymbolTableRecord
100
AcDbLinetypeTableRecord
  2
PHANTOM
 70
64
  3
_____ _ _ _____ _ _ _____ _ _ _____
 72
65
 73
6
 40
0.8
 49
0.45
 74
0
 49
-0.05
 74
0
 49
0.1
 74
0
 49
-0.05
 74
0
 49
0.1
 74
0
 49
-0.05
 74
0
  0
LTYPE
  5
1F8
100
AcDbSymbolTableRecord
100
AcDbLinetypeTableRecord
  2
DOT
 70
64
  3
. . . . . . . . . . . . . . . . . . . .
 72
65
 73
2
 40
0.2
 49
0.1
 74
0
 49
-0.1
 74
0
  0
LTYPE
  5
1F9
100
AcDbSymbolTableRecord
100
AcDbLinetypeTableRecord
  2
DASHED
 70
64
  3
- - - - - - - - - - - - - - - - - - - -
 72
65
 73
2
 40
0.2
 49
0.1
 74
0
 49
-0.1
 74
0
  0
ENDTAB
  0
TABLE
  2
LAYER
  5
2
100
AcDbSymbolTable
 70
36
  0
LAYER
  5
10
100
AcDbSymbolTableRecord
100
AcDbLayerTableRecord
  2
0
 70
0
 62
7
  6
CONTINUOUS
370
-3
390
F
  0
LAYER
  5
1FA
100
AcDbSymbolTableRecord
100
AcDbLayerTableRecord
  2
DEFAULT_1
 70
0
 62
7
  6
CENTER
370
-3
390
F
  0
LAYER
  5
1FB
100
AcDbSymbolTableRecord
100
AcDbLayerTableRecord
  2
DEFAULT_2
 70
0
 62
7
  6
HIDDEN
370
-3
390
F
  0
LAYER
  5
1FC
100
AcDbSymbolTableRecord
100
AcDbLayerTableRecord
  2
DEFAULT_3
 70
0
 62
7
  6
PHANTOM
370
-3
390
F
  0
LAYER
  5
1FD
100
AcDbSymbolTableRecord
100
AcDbLayerTableRecord
  2
00_COMPONENTS
 70
0
 62
7
  6
CONTINUOUS
370
-3
390
F
  0
LAYER
  5
1FE
100
AcDbSymbolTableRecord
100
AcDbLayerTableRecord
  2
00_COMPONENTS_1
 70
0
 62
7
  6
CONTINUOUS
370
-3
390
F
  0
LAYER
  5
1FF
100
AcDbSymbolTableRecord
100
AcDbLayerTableRecord
  2
01_1_DEFAULT_DATUMS
 70
0
 62
7
  6
CONTINUOUS
370
-3
390
F
  0
LAYER
  5
200
100
AcDbSymbolTableRecord
100
AcDbLayerTableRecord
  2
01_PLANES
 70
0
 62
7
  6
CONTINUOUS
370
-3
390
F
  0
LAYER
  5
201
100
AcDbSymbolTableRecord
100
AcDbLayerTableRecord
  2
02_COORD_SYS
 70
0
 62
7
  6
CONTINUOUS
370
-3
390
F
  0
LAYER
  5
202
100
AcDbSymbolTableRecord
100
AcDbLayerTableRecord
  2
03_AXES
 70
0
 62
7
  6
CONTINUOUS
370
-3
390
F
  0
LAYER
  5
203
100
AcDbSymbolTableRecord
100
AcDbLayerTableRecord
  2
03_AXES_1
 70
0
 62
7
  6
CONTINUOUS
370
-3
390
F
  0
LAYER
  5
204
100
AcDbSymbolTableRecord
100
AcDbLayerTableRecord
  2
04_POINTS
 70
0
 62
7
  6
CONTINUOUS
370
-3
390
F
  0
LAYER
  5
205
100
AcDbSymbolTableRecord
100
AcDbLayerTableRecord
  2
05_CURVES
 70
0
 62
7
  6
CONTINUOUS
370
-3
390
F
  0
LAYER
  5
206
100
AcDbSymbolTableRecord
100
AcDbLayerTableRecord
  2
06_SURFS
 70
0
 62
7
  6
CONTINUOUS
370
-3
390
F
  0
LAYER
  5
207
100
AcDbSymbolTableRecord
100
AcDbLayerTableRecord
  2
07_COSMETICS
 70
0
 62
7
  6
CONTINUOUS
370
-3
390
F
  0
LAYER
  5
208
100
AcDbSymbolTableRecord
100
AcDbLayerTableRecord
  2
10_NOTES
 70
0
 62
7
  6
CONTINUOUS
370
-3
390
F
  0
LAYER
  5
209
100
AcDbSymbolTableRecord
100
AcDbLayerTableRecord
  2
11_NOTES_PUB
 70
0
 62
7
  6
CONTINUOUS
370
-3
390
F
  0
LAYER
  5
20A
100
AcDbSymbolTableRecord
100
AcDbLayerTableRecord
  2
13_REF_GTOL
 70
0
 62
7
  6
CONTINUOUS
370
-3
390
F
  0
LAYER
  5
20B
100
AcDbSymbolTableRecord
100
AcDbLayerTableRecord
  2
16_MISC
 70
0
 62
7
  6
CONTINUOUS
370
-3
390
F
  0
LAYER
  5
20C
100
AcDbSymbolTableRecord
100
AcDbLayerTableRecord
  2
17_NO_PRINT
 70
0
 62
7
  6
CONTINUOUS
370
-3
390
F
  0
LAYER
  5
20D
100
AcDbSymbolTableRecord
100
AcDbLayerTableRecord
  2
18_DATUM_CAMS_JOINTS
 70
0
 62
7
  6
CONTINUOUS
370
-3
390
F
  0
LAYER
  5
20E
100
AcDbSymbolTableRecord
100
AcDbLayerTableRecord
  2
19_DATUM_FUNCTIONAL
 70
0
 62
7
  6
CONTINUOUS
370
-3
390
F
  0
LAYER
  5
20F
100
AcDbSymbolTableRecord
100
AcDbLayerTableRecord
  2
20_DATUM_KINEMATIC_SCHEME
 70
0
 62
7
  6
CONTINUOUS
370
-3
390
F
  0
LAYER
  5
210
100
AcDbSymbolTableRecord
100
AcDbLayerTableRecord
  2
INTFCLR_31
 70
0
 62
7
  6
CONTINUOUS
370
-3
390
F
  0
LAYER
  5
211
100
AcDbSymbolTableRecord
100
AcDbLayerTableRecord
  2
INTFCLR_71
 70
0
 62
7
  6
CONTINUOUS
370
-3
390
F
  0
LAYER
  5
212
100
AcDbSymbolTableRecord
100
AcDbLayerTableRecord
  2
INTF_BLANK
 70
0
 62
7
  6
CONTINUOUS
370
-3
390
F
  0
LAYER
  5
213
100
AcDbSymbolTableRecord
100
AcDbLayerTableRecord
  2
_BLACK_HOLE
 70
0
 62
7
  6
CONTINUOUS
370
-3
390
F
  0
ENDTAB
  0
TABLE
  2
STYLE
  5
3
100
AcDbSymbolTable
 70
1
  0
STYLE
  5
11
100
AcDbSymbolTableRecord
100
AcDbTextStyleTableRecord
  2
STANDARD
 70
0
 40
0.0
 41
1.0
 50
0.0
 71
0
 42
0.2
  3
ARIAL.TTF
  4

  0
STYLE
  5
214
100
AcDbSymbolTableRecord
100
AcDbTextStyleTableRecord
  2
TEXTSTYLE_1
 70
0
 40
0.0
 41
0.8
 50
0.0
 71
0
 42
0.2
  3
gdt
  4

  0
ENDTAB
  0
TABLE
  2
VIEW
  5
6
100
AcDbSymbolTable
 70
0
  0
ENDTAB
  0
TABLE
  2
UCS
  5
7
100
AcDbSymbolTable
 70
0
  0
ENDTAB
  0
TABLE
  2
APPID
  5
9
100
AcDbSymbolTable
 70
1
  0
APPID
  5
215
100
AcDbSymbolTableRecord
100
AcDbRegAppTableRecord
  2
ACAD
 70
0
  0
ENDTAB
  0
TABLE
  2
BLOCK_RECORD
  5
1
100
AcDbSymbolTable
 70
0
  0
BLOCK_RECORD
  5
216
100
AcDbSymbolTableRecord
100
AcDbBlockTableRecord
  2
*Model_Space
  0
BLOCK_RECORD
  5
217
100
AcDbSymbolTableRecord
100
AcDbBlockTableRecord
  2
*Paper_Space
  0
BLOCK_RECORD
  5
218
100
AcDbSymbolTableRecord
100
AcDbBlockTableRecord
  2
_FILLED
  0
ENDTAB
  0
TABLE
  2
DIMSTYLE
  5
A
100
AcDbSymbolTable
 70
1
100
AcDbDimStyleTable
 71
0
  0
DIMSTYLE
105
219
100
AcDbSymbolTableRecord
100
AcDbDimStyleTableRecord
  2
STANDARD
 70
0
  3

  4

 40
1.0
 41
0.6094589218
 42
1.0
 43
0.38
 44
1.0
 45
0.0
 46
0.0
 47
0.01
 48
0.01
140
0.8532424906
141
0.09
142
0.0
143
25.4
144
1.0
145
0.0
146
1.0
147
0.625
 71
1
 72
0
 73
0
 74
0
 75
0
 76
0
 77
1
 78
8
 79
2
170
0
171
1
172
0
173
0
174
0
175
0
176
0
177
0
178
0
270
2
179
2
271
2
272
2
273
2
274
2
275
0
280
0
281
0
282
0
283
1
284
8
285
0
286
0
287
3
288
0
340
11
278
46
341
218
342
218
343
218
344
218
  0
ENDTAB
  0
ENDSEC
  0
SECTION
  2
BLOCKS
  0
BLOCK
  5
20
100
AcDbEntity
  8
0
100
AcDbBlockBegin
  2
*Model_Space
 70
0
 10
0.0
 20
0.0
 30
0.0
  3
*Model_Space
  1

  0
ENDBLK
  5
21
100
AcDbEntity
  8
0
100
AcDbBlockEnd
  0
BLOCK
  5
1C
100
AcDbEntity
  8
0
100
AcDbBlockBegin
  2
*Paper_Space
 70
0
 10
0.0
 20
0.0
 30
0.0
  3
*Paper_Space
  1

  0
ENDBLK
  5
1D
100
AcDbEntity
  8
0
100
AcDbBlockEnd
  0
BLOCK
  5
21A
100
AcDbEntity
  8
0
100
AcDbBlockBegin
  2
_FILLED
 70
64
 10
0.0
 20
0.0
  3
_FILLED
  1

  0
SOLID
  5
21B
100
AcDbEntity
  8
0
  6
BYBLOCK
 62
0
100
AcDbTrace
 10
0.0
 20
0.0
 11
-1.0
 21
0.25
 12
-1.0
 22
-0.25
 13
-1.0
 23
-0.25
  0
ENDBLK
  5
21C
100
AcDbEntity
  8
0
  6
BYBLOCK
 62
0
100
AcDbBlockEnd
  0
ENDSEC
  0
SECTION
  2
ENTITIES
  0
LINE
  5
21D
100
AcDbEntity
  8
00_COMPONENTS_1
100
AcDbLine
 62
7
  6
BYLAYER
 10
9.4903819375
 20
12.7018599562
 11
37.7903819375
 21
12.7018599562
  0
LINE
  5
21E
100
AcDbEntity
  8
00_COMPONENTS_1
100
AcDbLine
 62
7
  6
BYLAYER
 10
5.7903819375
 20
40.2018599562
 11
5.7903819375
 21
32.2018599562
  0
LINE
  5
21F
100
AcDbEntity
  8
00_COMPONENTS_1
100
AcDbLine
 62
7
  6
BYLAYER
 10
6.2903714729
 20
16.0518599563
 11
6.2903714729
 21
32.1018599562
  0
LINE
  5
220
100
AcDbEntity
  8
00_COMPONENTS_1
100
AcDbLine
 62
7
  6
BYLAYER
 10
6.2903714729
 20
40.3018599562
 11
6.2903714729
 21
56.3518599562
  0
LINE
  5
221
100
AcDbEntity
  8
00_COMPONENTS_1
100
AcDbLine
 62
7
  6
BYLAYER
 10
6.6431378134
 20
32.1018599562
 11
6.6431378134
 21
40.3018599562
  0
LINE
  5
222
100
AcDbEntity
  8
00_COMPONENTS_1
100
AcDbLine
 62
7
  6
BYLAYER
 10
7.0884237058
 20
40.4518599562
 11
7.0884237058
 21
31.9518599562
  0
LINE
  5
223
100
AcDbEntity
  8
00_COMPONENTS_1
100
AcDbLine
 62
7
  6
BYLAYER
 10
7.6922873566
 20
31.9518599562
 11
7.6922873566
 21
40.4518599562
  0
LINE
  5
224
100
AcDbEntity
  8
00_COMPONENTS_1
100
AcDbLine
 62
7
  6
BYLAYER
 10
6.2903732121
 20
16.0518599563
 11
9.4903819375
 21
16.0518599563
  0
LINE
  5
225
100
AcDbEntity
  8
00_COMPONENTS_1
100
AcDbLine
 62
7
  6
BYLAYER
 10
8.2903819376
 20
56.3518599562
 11
8.2903819376
 21
16.0518599563
  0
LINE
  5
226
100
AcDbEntity
  8
00_COMPONENTS_1
100
AcDbLine
 62
7
  6
BYLAYER
 10
9.4903819375
 20
59.7018599562
 11
9.4903819375
 21
56.3518599562
  0
LINE
  5
227
100
AcDbEntity
  8
00_COMPONENTS_1
100
AcDbLine
 62
7
  6
BYLAYER
 10
9.4903819375
 20
16.0518599563
 11
9.4903819375
 21
12.7018599562
  0
LINE
  5
228
100
AcDbEntity
  8
00_COMPONENTS_1
100
AcDbLine
 62
7
  6
BYLAYER
 10
37.7903819375
 20
20.2018599562
 11
44.4903819375
 21
20.2018599562
  0
LINE
  5
229
100
AcDbEntity
  8
00_COMPONENTS_1
100
AcDbLine
 62
7
420
15788975
  6
BYLAYER
 10
6.307674064
 20
22.7018599562
 11
6.5917024749
 21
22.7018599562
  0
LINE
  5
22A
100
AcDbEntity
  8
00_COMPONENTS_1
100
AcDbLine
 62
7
420
15788975
  6
BYLAYER
 10
6.9509679642
 20
22.7018599562
 11
7.809641466
 21
22.7018599562
  0
LINE
  5
22B
100
AcDbEntity
  8
00_COMPONENTS_1
100
AcDbLine
 62
7
  6
BYLAYER
 10
7.6922873566
 20
31.9518599562
 11
7.0884237058
 21
31.9518599562
  0
LINE
  5
22C
100
AcDbEntity
  8
00_COMPONENTS_1
100
AcDbLine
 62
7
  6
BYLAYER
 10
6.6431378134
 20
32.1018599562
 11
6.2903914746
 21
32.1018599562
  0
LINE
  5
22D
100
AcDbEntity
  8
00_COMPONENTS_1
100
AcDbLine
 62
7
  6
BYLAYER
 10
6.6431378134
 20
32.2018599562
 11
5.7903819375
 21
32.2018599562
  0
LINE
  5
22E
100
AcDbEntity
  8
00_COMPONENTS_1
100
AcDbLine
 62
7
  6
BYLAYER
 10
44.8903819375
 20
32.7018599562
 11
44.4903819375
 21
32.7018599562
  0
LINE
  5
22F
100
AcDbEntity
  8
00_COMPONENTS_1
100
AcDbLine
 62
7
  6
BYLAYER
 10
46.2903819375
 20
47.9847813564
 11
44.4903819375
 21
46.4744020203
  0
LINE
  5
230
100
AcDbEntity
  8
00_COMPONENTS_1
100
AcDbLine
 62
7
  6
BYLAYER
 10
44.8903819375
 20
39.2018599562
 11
44.4903819375
 21
39.2018599562
  0
LINE
  5
231
100
AcDbEntity
  8
00_COMPONENTS_1
100
AcDbLine
 62
7
  6
BYLAYER
 10
6.6431378134
 20
40.2018599562
 11
5.7903819375
 21
40.2018599562
  0
LINE
  5
232
100
AcDbEntity
  8
00_COMPONENTS_1
100
AcDbLine
 62
7
  6
BYLAYER
 10
6.2903914746
 20
40.3018599562
 11
6.6431378134
 21
40.3018599562
  0
LINE
  5
233
100
AcDbEntity
  8
00_COMPONENTS_1
100
AcDbLine
 62
7
  6
BYLAYER
 10
7.0884237058
 20
40.4518599562
 11
7.6922873566
 21
40.4518599562
  0
LINE
  5
234
100
AcDbEntity
  8
00_COMPONENTS_1
100
AcDbLine
 62
7
  6
BYLAYER
 10
37.7903819375
 20
20.2018599562
 11
37.7903819375
 21
12.7018599562
  0
LINE
  5
235
100
AcDbEntity
  8
00_COMPONENTS_1
100
AcDbLine
 62
7
  6
BYLAYER
 10
37.7903819375
 20
52.2018599562
 11
37.7903819375
 21
59.7018599562
  0
LINE
  5
236
100
AcDbEntity
  8
00_COMPONENTS_1
100
AcDbLine
 62
7
  6
BYLAYER
 10
40.4903819375
 20
52.2018599562
 11
40.4903819375
 21
58.6018599562
  0
LINE
  5
237
100
AcDbEntity
  8
00_COMPONENTS_1
100
AcDbLine
 62
7
420
15788975
  6
BYLAYER
 10
7.809641466
 20
49.7018599562
 11
6.9509679642
 21
49.7018599562
  0
LINE
  5
238
100
AcDbEntity
  8
00_COMPONENTS_1
100
AcDbLine
 62
7
420
15788975
  6
BYLAYER
 10
6.5917024749
 20
49.7018599562
 11
6.307674064
 21
49.7018599562
  0
LINE
  5
239
100
AcDbEntity
  8
00_COMPONENTS_1
100
AcDbLine
 62
7
  6
BYLAYER
 10
37.7903819375
 20
52.2018599562
 11
44.4903819375
 21
52.2018599562
  0
LINE
  5
23A
100
AcDbEntity
  8
00_COMPONENTS_1
100
AcDbLine
 62
7
  6
BYLAYER
 10
44.2903819375
 20
52.2018599562
 11
44.2903819375
 21
58.6018599562
  0
LINE
  5
23B
100
AcDbEntity
  8
00_COMPONENTS_1
100
AcDbLine
 62
7
  6
BYLAYER
 10
44.4903819375
 20
52.2018599562
 11
44.4903819375
 21
20.2018599562
  0
LINE
  5
23C
100
AcDbEntity
  8
00_COMPONENTS_1
100
AcDbLine
 62
7
  6
BYLAYER
 10
44.8903819375
 20
32.7018599562
 11
44.8903819375
 21
39.2018599562
  0
LINE
  5
23D
100
AcDbEntity
  8
00_COMPONENTS_1
100
AcDbLine
 62
7
  6
BYLAYER
 10
40.4903819375
 20
53.1018599562
 11
44.2903819375
 21
53.1018599562
  0
LINE
  5
23E
100
AcDbEntity
  8
00_COMPONENTS_1
100
AcDbLine
 62
7
  6
BYLAYER
 10
40.4903819375
 20
54.1018599562
 11
44.2903819375
 21
54.1018599562
  0
LINE
  5
23F
100
AcDbEntity
  8
00_COMPONENTS_1
100
AcDbLine
 62
7
  6
BYLAYER
 10
9.4903819375
 20
56.3518599562
 11
6.2903732121
 21
56.3518599562
  0
LINE
  5
240
100
AcDbEntity
  8
00_COMPONENTS_1
100
AcDbLine
 62
7
  6
BYLAYER
 10
40.4903819375
 20
58.6018599562
 11
44.2903819375
 21
58.6018599562
  0
LINE
  5
241
100
AcDbEntity
  8
00_COMPONENTS_1
100
AcDbLine
 62
7
  6
BYLAYER
 10
9.4903819375
 20
59.7018599562
 11
37.7903819375
 21
59.7018599562
  0
ARC
  5
242
100
AcDbEntity
  8
00_COMPONENTS_1
100
AcDbCircle
 62
7
  6
BYLAYER
 10
41.4903819375
 20
43.6018599562
 40
6.5
100
AcDbArc
 50
42.3994733644
 51
62.4557862303
  0
SPLINE
  5
243
100
AcDbEntity
  8
00_COMPONENTS_1
100
AcDbSpline
 62
7
  6
BYLAYER
 70
0
 71
3
 72
23
 73
19
 74
0
 42
0.0000001
 43
0.0000001
 44
0.0000000001
 40
0.0
 40
0.0
 40
0.0
 40
0.0
 40
0.0064201935
 40
0.0136755312
 40
0.0223072365
 40
0.0326339342
 40
0.0448346452
 40
0.0590010811
 40
0.0933466565
 40
0.1357378559
 40
0.1859747021
 40
0.2436961658
 40
0.3084616857
 40
0.3797133964
 40
0.4568484044
 40
0.6258506195
 40
0.8092646972
 40
1.0
 40
1.0
 40
1.0
 40
1.0
 10
7.3356668811
 20
25.9518598706
 30
0.0
 10
7.3428162255
 20
25.9518591158
 30
0.0
 10
7.3581302314
 20
25.9488091564
 30
0.0
 10
7.3798757315
 20
25.9361962829
 30
0.0
 10
7.4012744025
 20
25.9160898253
 30
0.0
 10
7.4225470228
 20
25.8885530082
 30
0.0
 10
7.4437787282
 20
25.8535689757
 30
0.0
 10
7.4739747519
 20
25.7930165553
 30
0.0
 10
7.5102617403
 20
25.6983061787
 30
0.0
 10
7.5507981979
 20
25.5627785849
 30
0.0
 10
7.5900733563
 20
25.3999557317
 30
0.0
 10
7.6275920183
 20
25.2112716068
 30
0.0
 10
7.6627892635
 20
24.998388086
 30
0.0
 10
7.6952118449
 20
24.7632278122
 30
0.0
 10
7.7352721105
 20
24.4120441033
 30
0.0
 10
7.7744787022
 20
23.9351875474
 30
0.0
 10
7.8031660156
 20
23.330932369
 30
0.0
 10
7.809641466
 20
22.914257351
 30
0.0
 10
7.809641466
 20
22.7018599562
 30
0.0
  0
SPLINE
  5
244
100
AcDbEntity
  8
00_COMPONENTS_1
100
AcDbSpline
 62
7
  6
BYLAYER
 70
0
 71
3
 72
25
 73
21
 74
0
 42
0.0000001
 43
0.0000001
 44
0.0000000001
 40
0.0
 40
0.0
 40
0.0
 40
0.0
 40
0.0024763002
 40
0.0043386912
 40
0.0067144847
 40
0.0131084262
 40
0.0217675175
 40
0.0327202026
 40
0.0459609181
 40
0.0791921736
 40
0.1211993297
 40
0.1716051227
 40
0.2299273387
 40
0.2956327799
 40
0.3680872645
 40
0.4466221777
 40
0.5304678029
 40
0.6188195738
 40
0.8057029145
 40
1.0
 40
1.0
 40
1.0
 40
1.0
 10
6.4060709166
 20
25.9518599387
 30
0.0
 10
6.4087662674
 20
25.9518595302
 30
0.0
 10
6.413083173
 20
25.9485759241
 30
0.0
 10
6.4171392287
 20
25.9426653474
 30
0.0
 10
6.4225367155
 20
25.9323258662
 30
0.0
 10
6.4288754284
 20
25.9144283836
 30
0.0
 10
6.4362845336
 20
25.8870857462
 30
0.0
 10
6.4438342036
 20
25.8521245848
 30
0.0
 10
6.4549774557
 20
25.7906129831
 30
0.0
 10
6.4685464878
 20
25.6952403292
 30
0.0
 10
6.4841061026
 20
25.5593624436
 30
0.0
 10
6.4995621476
 20
25.396013754
 30
0.0
 10
6.5146548286
 20
25.206746013
 30
0.0
 10
6.5290811256
 20
24.9933658844
 30
0.0
 10
6.5425822762
 20
24.7578856112
 30
0.0
 10
6.554875452
 20
24.5025699201
 30
0.0
 10
6.5657437966
 20
24.2298716298
 30
0.0
 10
6.5782545234
 20
23.8392239245
 30
0.0
 10
6.5888573213
 20
23.3282488569
 30
0.0
 10
6.5917024749
 20
22.9133443365
 30
0.0
 10
6.5917024749
 20
22.7018599562
 30
0.0
  0
SPLINE
  5
245
100
AcDbEntity
  8
00_COMPONENTS_1
100
AcDbSpline
 62
7
  6
BYLAYER
 70
0
 71
3
 72
23
 73
19
 74
0
 42
0.0000001
 43
0.0000001
 44
0.0000000001
 40
0.0
 40
0.0
 40
0.0
 40
0.0
 40
0.0064201941
 40
0.0136755391
 40
0.0223072507
 40
0.032633944
 40
0.0448346337
 40
0.059001044
 40
0.093346571
 40
0.1357377337
 40
0.1859745555
 40
0.2436960352
 40
0.3084616061
 40
0.3797133518
 40
0.4568483492
 40
0.6258505392
 40
0.8092646677
 40
1.0
 40
1.0
 40
1.0
 40
1.0
 10
7.3356668481
 20
52.9518598697
 30
0.0
 10
7.3428161931
 20
52.9518591115
 30
0.0
 10
7.3581302047
 20
52.9488091277
 30
0.0
 10
7.3798757038
 20
52.9361962263
 30
0.0
 10
7.4012743834
 20
52.9160897654
 30
0.0
 10
7.4225470128
 20
52.8885529841
 30
0.0
 10
7.4437787305
 20
52.8535690257
 30
0.0
 10
7.4739747356
 20
52.7930167137
 30
0.0
 10
7.51026167
 20
52.6983064469
 30
0.0
 10
7.5507980175
 20
52.5627789479
 30
0.0
 10
7.5900730831
 20
52.3999561254
 30
0.0
 10
7.6275917303
 20
52.2112719513
 30
0.0
 10
7.662789096
 20
51.9983883372
 30
0.0
 10
7.6952118261
 20
51.7632279997
 30
0.0
 10
7.7352721727
 20
51.4120443014
 30
0.0
 10
7.7744787076
 20
50.9351877251
 30
0.0
 10
7.8031660332
 20
50.3309324891
 30
0.0
 10
7.809641466
 20
49.9142573829
 30
0.0
 10
7.809641466
 20
49.7018599562
 30
0.0
  0
SPLINE
  5
246
100
AcDbEntity
  8
00_COMPONENTS_1
100
AcDbSpline
 62
7
  6
BYLAYER
 70
0
 71
3
 72
25
 73
21
 74
0
 42
0.0000001
 43
0.0000001
 44
0.0000000001
 40
0.0
 40
0.0
 40
0.0
 40
0.0
 40
0.002476304
 40
0.0043386994
 40
0.0067144973
 40
0.0131084432
 40
0.0217675264
 40
0.0327201855
 40
0.0459608716
 40
0.079192076
 40
0.1211992005
 40
0.1716049714
 40
0.229927201
 40
0.295632683
 40
0.3680871952
 40
0.4466220997
 40
0.530467705
 40
0.6188194801
 40
0.8057028811
 40
1.0
 40
1.0
 40
1.0
 40
1.0
 10
6.4060709063
 20
52.9518599383
 30
0.0
 10
6.4087662612
 20
52.9518595264
 30
0.0
 10
6.4130831657
 20
52.9485758999
 30
0.0
 10
6.4171392235
 20
52.9426653105
 30
0.0
 10
6.4225367137
 20
52.9323258141
 30
0.0
 10
6.4288754316
 20
52.9144283336
 30
0.0
 10
6.4362845397
 20
52.8870857302
 30
0.0
 10
6.4438342083
 20
52.8521246394
 30
0.0
 10
6.4549774437
 20
52.7906131524
 30
0.0
 10
6.468546445
 20
52.6952406174
 30
0.0
 10
6.4841060194
 20
52.5593628426
 30
0.0
 10
6.4995620407
 20
52.3960141951
 30
0.0
 10
6.5146547219
 20
52.2067464196
 30
0.0
 10
6.5290810584
 20
51.9933662049
 30
0.0
 10
6.5425822562
 20
51.7578858699
 30
0.0
 10
6.5548754564
 20
51.5025701817
 30
0.0
 10
6.5657438053
 20
51.2298719189
 30
0.0
 10
6.5782545279
 20
50.8392241661
 30
0.0
 10
6.5888573249
 20
50.3282489935
 30
0.0
 10
6.5917024749
 20
49.9133443723
 30
0.0
 10
6.5917024749
 20
49.7018599562
 30
0.0
  0
SPLINE
  5
247
100
AcDbEntity
  8
00_COMPONENTS_1
100
AcDbSpline
 62
7
  6
BYLAYER
 70
0
 71
3
 72
23
 73
19
 74
0
 42
0.0000001
 43
0.0000001
 44
0.0000000001
 40
0.0
 40
0.0
 40
0.0
 40
0.0
 40
0.1907466734
 40
0.3741629224
 40
0.5431571188
 40
0.6202874884
 40
0.6915359462
 40
0.756299001
 40
0.8140196044
 40
0.8642577881
 40
0.9066488876
 40
0.9409968888
 40
0.9551638298
 40
0.967364157
 40
0.9776913604
 40
0.9863239161
 40
0.9935797668
 40
1.0
 40
1.0
 40
1.0
 40
1.0
 10
7.809641466
 20
22.7018599562
 30
0.0
 10
7.809641466
 20
22.4894498802
 30
0.0
 10
7.8031631302
 20
22.0727597928
 30
0.0
 10
7.7744772504
 20
21.4684983475
 30
0.0
 10
7.7352693122
 20
20.9916535354
 30
0.0
 10
7.6952096777
 20
20.6404875789
 30
0.0
 10
7.6627913683
 20
20.4053383724
 30
0.0
 10
7.6275984489
 20
20.1924615005
 30
0.0
 10
7.5900799405
 20
20.0037796196
 30
0.0
 10
7.5508070691
 20
19.8409557039
 30
0.0
 10
7.5102671695
 20
19.705424891
 30
0.0
 10
7.47398177
 20
19.6107106581
 30
0.0
 10
7.443785912
 20
19.5501548537
 30
0.0
 10
7.422552126
 20
19.515171257
 30
0.0
 10
7.4012792485
 20
19.4876333871
 30
0.0
 10
7.3798804695
 20
19.4675241502
 30
0.0
 10
7.358134691
 20
19.4549084081
 30
0.0
 10
7.3428193673
 20
19.4518592178
 30
0.0
 10
7.335669978
 20
19.4518600624
 30
0.0
  0
SPLINE
  5
248
100
AcDbEntity
  8
00_COMPONENTS_1
100
AcDbSpline
 62
7
  6
BYLAYER
 70
0
 71
3
 72
25
 73
21
 74
0
 42
0.0000001
 43
0.0000001
 44
0.0000000001
 40
0.0
 40
0.0
 40
0.0
 40
0.0
 40
0.1943067596
 40
0.3811935624
 40
0.4695420817
 40
0.5533839774
 40
0.6319152297
 40
0.704366924
 40
0.7700702204
 40
0.828391571
 40
0.8787980365
 40
0.920805219
 40
0.9540379345
 40
0.9672790278
 40
0.9782315302
 40
0.9868908787
 40
0.9932853039
 40
0.9956612979
 40
0.9975238003
 40
1.0
 40
1.0
 40
1.0
 40
1.0
 10
6.5917024749
 20
22.7018599562
 30
0.0
 10
6.5917024749
 20
22.4903650206
 30
0.0
 10
6.5888561153
 20
22.0754461601
 30
0.0
 10
6.5782535459
 20
21.5644602683
 30
0.0
 10
6.5657426122
 20
21.1738163535
 30
0.0
 10
6.5548745127
 20
20.9011296131
 30
0.0
 10
6.5425816054
 20
20.6458249736
 30
0.0
 10
6.5290814512
 20
20.4103539891
 30
0.0
 10
6.5146561223
 20
20.1969800947
 30
0.0
 10
6.4995635265
 20
20.0077148779
 30
0.0
 10
6.4841078681
 20
19.8443663127
 30
0.0
 10
6.4685477923
 20
19.7084860969
 30
0.0
 10
6.4549788805
 20
19.6131113752
 30
0.0
 10
6.4438356819
 20
19.5515979167
 30
0.0
 10
6.4362856954
 20
19.5166363199
 30
0.0
 10
6.4288763886
 20
19.4892930907
 30
0.0
 10
6.4225375995
 20
19.471394599
 30
0.0
 10
6.41713989
 20
19.4610541818
 30
0.0
 10
6.413084038
 20
19.4551433747
 30
0.0
 10
6.4087666132
 20
19.4518595401
 30
0.0
 10
6.4060713714
 20
19.4518599763
 30
0.0
  0
SPLINE
  5
249
100
AcDbEntity
  8
00_COMPONENTS_1
100
AcDbSpline
 62
7
  6
BYLAYER
 70
0
 71
3
 72
23
 73
19
 74
0
 42
0.0000001
 43
0.0000001
 44
0.0000000001
 40
0.0
 40
0.0
 40
0.0
 40
0.0
 40
0.1907466168
 40
0.3741629016
 40
0.5431572342
 40
0.6202876656
 40
0.6915361125
 40
0.7562991219
 40
0.8140196882
 40
0.8642578382
 40
0.9066489359
 40
0.9409969298
 40
0.9551638758
 40
0.9673642113
 40
0.977691405
 40
0.9863239421
 40
0.9935797757
 40
1.0
 40
1.0
 40
1.0
 40
1.0
 10
7.809641466
 20
49.7018599562
 30
0.0
 10
7.809641466
 20
49.4894499423
 30
0.0
 10
7.8031631344
 20
49.0727598759
 30
0.0
 10
7.7744772107
 20
48.4684983001
 30
0.0
 10
7.7352691958
 20
47.991653232
 30
0.0
 10
7.6952096131
 20
47.640487059
 30
0.0
 10
7.662791382
 20
47.4053378341
 30
0.0
 10
7.627598514
 20
47.1924610576
 30
0.0
 10
7.5900800017
 20
47.0037793071
 30
0.0
 10
7.5508070365
 20
46.8409554965
 30
0.0
 10
7.5102670937
 20
46.7054247457
 30
0.0
 10
7.4739816492
 20
46.6107105351
 30
0.0
 10
7.4437857899
 20
46.5501547254
 30
0.0
 10
7.4225520372
 20
46.5151711035
 30
0.0
 10
7.401279179
 20
46.4876332452
 30
0.0
 10
7.3798804227
 20
46.4675240549
 30
0.0
 10
7.3581346636
 20
46.4549083766
 30
0.0
 10
7.3428193668
 20
46.4518592146
 30
0.0
 10
7.3356699875
 20
46.4518600628
 30
0.0
  0
SPLINE
  5
24A
100
AcDbEntity
  8
00_COMPONENTS_1
100
AcDbSpline
 62
7
  6
BYLAYER
 70
0
 71
3
 72
25
 73
21
 74
0
 42
0.0000001
 43
0.0000001
 44
0.0000000001
 40
0.0
 40
0.0
 40
0.0
 40
0.0
 40
0.1943067043
 40
0.3811935429
 40
0.4695421261
 40
0.5533840912
 40
0.6319154053
 40
0.7043670962
 40
0.7700703522
 40
0.8283916661
 40
0.87879809
 40
0.920805264
 40
0.9540379666
 40
0.9672790645
 40
0.9782315797
 40
0.9868909226
 40
0.9932853302
 40
0.9956613143
 40
0.9975238081
 40
1.0
 40
1.0
 40
1.0
 40
1.0
 10
6.5917024749
 20
49.7018599562
 30
0.0
 10
6.5917024749
 20
49.49036508
 30
0.0
 10
6.5888561241
 20
49.0754462388
 30
0.0
 10
6.5782535225
 20
48.5644602972
 30
0.0
 10
6.5657425854
 20
48.1738161967
 30
0.0
 10
6.5548744802
 20
47.9011292428
 30
0.0
 10
6.542581593
 20
47.645824462
 30
0.0
 10
6.5290814582
 20
47.4103534558
 30
0.0
 10
6.5146561333
 20
47.196979648
 30
0.0
 10
6.4995635389
 20
47.0077145599
 30
0.0
 10
6.4841078562
 20
46.8443660911
 30
0.0
 10
6.4685477669
 20
46.7084859455
 30
0.0
 10
6.4549788394
 20
46.6131112439
 30
0.0
 10
6.4438356344
 20
46.5515977817
 30
0.0
 10
6.4362856557
 20
46.5166361696
 30
0.0
 10
6.4288763563
 20
46.4892929505
 30
0.0
 10
6.4225375755
 20
46.4713944924
 30
0.0
 10
6.4171398733
 20
46.4610541169
 30
0.0
 10
6.4130840255
 20
46.4551433377
 30
0.0
 10
6.4087666049
 20
46.4518595368
 30
0.0
 10
6.4060713717
 20
46.4518599765
 30
0.0
  0
SPLINE
  5
24B
100
AcDbEntity
  8
00_COMPONENTS_1
100
AcDbSpline
 62
7
  6
BYLAYER
 70
0
 71
3
 72
26
 73
22
 74
0
 42
0.0000001
 43
0.0000001
 44
0.0000000001
 40
0.0
 40
0.0
 40
0.0
 40
0.0
 40
0.0024225371
 40
0.0042401945
 40
0.0065677821
 40
0.0128630322
 40
0.0214260326
 40
0.0322880885
 40
0.0454454228
 40
0.0608722631
 40
0.0785375366
 40
0.1204437799
 40
0.1707907367
 40
0.2290950831
 40
0.2948204678
 40
0.3673269106
 40
0.4459390282
 40
0.5298805051
 40
0.6183403318
 40
0.8054598984
 40
1.0
 40
1.0
 40
1.0
 40
1.0
 10
6.4060713714
 20
19.4518599763
 30
0.0
 10
6.4034391184
 20
19.4518604023
 30
0.0
 10
6.3992273048
 20
19.4551312601
 30
0.0
 10
6.3955016769
 20
19.4610608046
 30
0.0
 10
6.3906447898
 20
19.4714116596
 30
0.0
 10
6.385268471
 20
19.489317624
 30
0.0
 10
6.3793042052
 20
19.516641486
 30
0.0
 10
6.3735916907
 20
19.551590183
 30
0.0
 10
6.3680828628
 20
19.5941010733
 30
0.0
 10
6.3628233378
 20
19.6440818731
 30
0.0
 10
6.3557413171
 20
19.7252676008
 30
0.0
 10
6.3479052361
 20
19.8444558637
 30
0.0
 10
6.339947595
 20
20.0078572706
 30
0.0
 10
6.3330070729
 20
20.1972060854
 30
0.0
 10
6.3270605022
 20
20.4106751881
 30
0.0
 10
6.3220458967
 20
20.6462389983
 30
0.0
 10
6.3179060424
 20
20.9016151653
 30
0.0
 10
6.3145650136
 20
21.1743386047
 30
0.0
 10
6.3110114065
 20
21.5649670814
 30
0.0
 10
6.3083431862
 20
22.0757790411
 30
0.0
 10
6.307674064
 20
22.4904787611
 30
0.0
 10
6.307674064
 20
22.7018599562
 30
0.0
  0
SPLINE
  5
24C
100
AcDbEntity
  8
00_COMPONENTS_1
100
AcDbSpline
 62
7
  6
BYLAYER
 70
0
 71
3
 72
26
 73
22
 74
0
 42
0.0000001
 43
0.0000001
 44
0.0000000001
 40
0.0
 40
0.0
 40
0.0
 40
0.0
 40
0.1945497608
 40
0.3816732287
 40
0.470130034
 40
0.5540679461
 40
0.6326765836
 40
0.7051803018
 40
0.7709035111
 40
0.8292068928
 40
0.879554301
 40
0.9214604189
 40
0.9391262811
 40
0.954553785
 40
0.9677114161
 40
0.9785732478
 40
0.9871364479
 40
0.9934321049
 40
0.9957598513
 40
0.9975775815
 40
1.0
 40
1.0
 40
1.0
 40
1.0
 10
6.307674064
 20
22.7018599562
 30
0.0
 10
6.307674064
 20
22.9132516587
 30
0.0
 10
6.308343319
 20
23.3279661367
 30
0.0
 10
6.3110118387
 20
23.8387895753
 30
0.0
 10
6.3145655412
 20
24.2294151558
 30
0.0
 10
6.317906492
 20
24.5021276729
 30
0.0
 10
6.322046164
 20
24.7574932406
 30
0.0
 10
6.327060475
 20
24.9930479624
 30
0.0
 10
6.3330068965
 20
25.2065107085
 30
0.0
 10
6.3399473358
 20
25.3958566081
 30
0.0
 10
6.3479041366
 20
25.5592573772
 30
0.0
 10
6.3557409275
 20
25.6784465937
 30
0.0
 10
6.3628227688
 20
25.7596335697
 30
0.0
 10
6.3680822285
 20
25.8096160689
 30
0.0
 10
6.373590984
 20
25.852127788
 30
0.0
 10
6.379304149
 20
25.8870766757
 30
0.0
 10
6.3852684416
 20
25.9144009584
 30
0.0
 10
6.3906444472
 20
25.9323078354
 30
0.0
 10
6.3955012424
 20
25.9426595573
 30
0.0
 10
6.3992264631
 20
25.9485893496
 30
0.0
 10
6.4034387922
 20
25.9518603377
 30
0.0
 10
6.4060709166
 20
25.9518599387
 30
0.0
  0
SPLINE
  5
24D
100
AcDbEntity
  8
00_COMPONENTS_1
100
AcDbSpline
 62
7
  6
BYLAYER
 70
0
 71
3
 72
24
 73
20
 74
0
 42
0.0000001
 43
0.0000001
 44
0.0000000001
 40
0.0
 40
0.0
 40
0.0
 40
0.0
 40
0.0063780477
 40
0.0134903839
 40
0.0219206732
 40
0.0320200159
 40
0.0439875662
 40
0.0579277615
 40
0.0918707227
 40
0.1339546183
 40
0.183995367
 40
0.241633345
 40
0.3064215573
 40
0.3777869057
 40
0.4551076215
 40
0.5376483654
 40
0.6246297544
 40
0.8086459812
 40
1.0
 40
1.0
 40
1.0
 40
1.0
 10
7.335669978
 20
19.4518600624
 30
0.0
 10
7.3286011171
 20
19.4518608976
 30
0.0
 10
7.3135465872
 20
19.4548383
 30
0.0
 10
7.2924030227
 20
19.467455689
 30
0.0
 10
7.2720689604
 20
19.487576018
 30
0.0
 10
7.2522772456
 20
19.5151068222
 30
0.0
 10
7.232920166
 20
19.5500797849
 30
0.0
 10
7.2058888756
 20
19.6107195765
 30
0.0
 10
7.1744677009
 20
19.7055632805
 30
0.0
 10
7.1406429994
 20
19.8411924254
 30
0.0
 10
7.1090226409
 20
20.0042009613
 30
0.0
 10
7.0798102151
 20
20.1931344717
 30
0.0
 10
7.053278411
 20
20.40629638
 30
0.0
 10
7.0295486442
 20
20.6417165182
 30
0.0
 10
7.008795748
 20
20.8971595891
 30
0.0
 10
6.9910862773
 20
21.1701750097
 30
0.0
 10
6.9712845407
 20
21.5615156476
 30
0.0
 10
6.9551913351
 20
22.0737418292
 30
0.0
 10
6.9509679642
 20
22.4897801742
 30
0.0
 10
6.9509679642
 20
22.7018599562
 30
0.0
  0
SPLINE
  5
24E
100
AcDbEntity
  8
00_COMPONENTS_1
100
AcDbSpline
 62
7
  6
BYLAYER
 70
0
 71
3
 72
26
 73
22
 74
0
 42
0.0000001
 43
0.0000001
 44
0.0000000001
 40
0.0
 40
0.0
 40
0.0
 40
0.0
 40
0.1945497056
 40
0.3816732089
 40
0.4701300771
 40
0.5540680575
 40
0.6326767564
 40
0.7051804723
 40
0.7709036425
 40
0.8292069882
 40
0.8795543539
 40
0.9214604632
 40
0.9391263171
 40
0.9545538155
 40
0.967711451
 40
0.9785732953
 40
0.9871364896
 40
0.9934321291
 40
0.9957598659
 40
0.997577588
 40
1.0
 40
1.0
 40
1.0
 40
1.0
 10
6.307674064
 20
49.7018599562
 30
0.0
 10
6.307674064
 20
49.9132515998
 30
0.0
 10
6.3083433193
 20
50.3279660581
 30
0.0
 10
6.3110118364
 20
50.8387895461
 30
0.0
 10
6.3145655567
 20
51.2294153095
 30
0.0
 10
6.3179065251
 20
51.5021280371
 30
0.0
 10
6.3220461926
 20
51.7574937445
 30
0.0
 10
6.3270604717
 20
51.9930484898
 30
0.0
 10
6.3330068613
 20
52.2065111536
 30
0.0
 10
6.3399473027
 20
52.3958569265
 30
0.0
 10
6.347904152
 20
52.5592575992
 30
0.0
 10
6.3557409562
 20
52.6784467508
 30
0.0
 10
6.3628228109
 20
52.7596337015
 30
0.0
 10
6.3680822741
 20
52.8096161904
 30
0.0
 10
6.3735910273
 20
52.8521279222
 30
0.0
 10
6.3793041654
 20
52.887076827
 30
0.0
 10
6.3852684456
 20
52.9144011002
 30
0.0
 10
6.3906444459
 20
52.9323079436
 30
0.0
 10
6.3955012389
 20
52.942659623
 30
0.0
 10
6.3992264609
 20
52.9485893878
 30
0.0
 10
6.403438789
 20
52.9518603406
 30
0.0
 10
6.4060709063
 20
52.9518599383
 30
0.0
  0
SPLINE
  5
24F
100
AcDbEntity
  8
00_COMPONENTS_1
100
AcDbSpline
 62
7
  6
BYLAYER
 70
0
 71
3
 72
24
 73
20
 74
0
 42
0.0000001
 43
0.0000001
 44
0.0000000001
 40
0.0
 40
0.0
 40
0.0
 40
0.0
 40
0.0063780458
 40
0.013490385
 40
0.0219206769
 40
0.0320200133
 40
0.0439875422
 40
0.0579277123
 40
0.0918706258
 40
0.1339544866
 40
0.1839952097
 40
0.2416332011
 40
0.3064214589
 40
0.3777868389
 40
0.4551075469
 40
0.5376482711
 40
0.6246296638
 40
0.8086459486
 40
1.0
 40
1.0
 40
1.0
 40
1.0
 10
7.3356699875
 20
46.4518600628
 30
0.0
 10
7.3286011286
 20
46.4518609014
 30
0.0
 10
7.3135466003
 20
46.4548383274
 30
0.0
 10
7.2924030526
 20
46.467455748
 30
0.0
 10
7.2720689992
 20
46.4875760813
 30
0.0
 10
7.2522772832
 20
46.5151068479
 30
0.0
 10
7.2329201797
 20
46.5500797298
 30
0.0
 10
7.2058888811
 20
46.6107194038
 30
0.0
 10
7.1744677236
 20
46.7055629892
 30
0.0
 10
7.140643128
 20
46.8411920367
 30
0.0
 10
7.1090228769
 20
47.004200538
 30
0.0
 10
7.0798104742
 20
47.1931340858
 30
0.0
 10
7.0532785261
 20
47.406296074
 30
0.0
 10
7.0295485997
 20
47.6417162714
 30
0.0
 10
7.0087956762
 20
47.8971593427
 30
0.0
 10
6.9910862568
 20
48.1701747373
 30
0.0
 10
6.97128456
 20
48.5615154194
 30
0.0
 10
6.9551913173
 20
49.0737416988
 30
0.0
 10
6.9509679642
 20
49.4897801403
 30
0.0
 10
6.9509679642
 20
49.7018599562
 30
0.0
  0
SPLINE
  5
250
100
AcDbEntity
  8
00_COMPONENTS_1
100
AcDbSpline
 62
7
  6
BYLAYER
 70
0
 71
3
 72
24
 73
20
 74
0
 42
0.0000001
 43
0.0000001
 44
0.0000000001
 40
0.0
 40
0.0
 40
0.0
 40
0.0
 40
0.1913653365
 40
0.3753851034
 40
0.4623633216
 40
0.5449004372
 40
0.6222171015
 40
0.6935794169
 40
0.7583650969
 40
0.8160018996
 40
0.866043332
 40
0.9081266326
 40
0.9420714491
 40
0.9560119252
 40
0.9679789599
 40
0.9780785886
 40
0.9865094218
 40
0.9936219797
 40
1.0
 40
1.0
 40
1.0
 40
1.0
 10
6.9509679642
 20
22.7018599562
 30
0.0
 10
6.9509679642
 20
22.9139522492
 30
0.0
 10
6.9551929977
 20
23.3300069808
 30
0.0
 10
6.9712861565
 20
23.8422460436
 30
0.0
 10
6.9910887978
 20
24.233582963
 30
0.0
 10
7.0087983806
 20
24.5065862845
 30
0.0
 10
7.0295511627
 20
24.762017405
 30
0.0
 10
7.0532782887
 20
24.9974270395
 30
0.0
 10
7.0798077558
 20
25.2105817113
 30
0.0
 10
7.1090199098
 20
25.3995117818
 30
0.0
 10
7.1406370354
 20
25.5625197809
 30
0.0
 10
7.1744656881
 20
25.6981501125
 30
0.0
 10
7.2058845593
 20
25.7929962089
 30
0.0
 10
7.2329155793
 20
25.8536382394
 30
0.0
 10
7.2522752115
 20
25.8886098364
 30
0.0
 10
7.2720665089
 20
25.916141189
 30
0.0
 10
7.2923995229
 20
25.9362640383
 30
0.0
 10
7.3135425496
 20
25.9488842689
 30
0.0
 10
7.3285980516
 20
25.951860617
 30
0.0
 10
7.3356668811
 20
25.9518598706
 30
0.0
  0
SPLINE
  5
251
100
AcDbEntity
  8
00_COMPONENTS_1
100
AcDbSpline
 62
7
  6
BYLAYER
 70
0
 71
3
 72
24
 73
20
 74
0
 42
0.0000001
 43
0.0000001
 44
0.0000000001
 40
0.0
 40
0.0
 40
0.0
 40
0.0
 40
0.1913652819
 40
0.3753850849
 40
0.4623633662
 40
0.5449005502
 40
0.6222172756
 40
0.693579584
 40
0.7583652235
 40
0.8160019909
 40
0.8660433874
 40
0.9081266864
 40
0.9420714956
 40
0.9560119765
 40
0.9679790184
 40
0.9780786358
 40
0.9865094487
 40
0.9936219888
 40
1.0
 40
1.0
 40
1.0
 40
1.0
 10
6.9509679642
 20
49.7018599562
 30
0.0
 10
6.9509679642
 20
49.9139521885
 30
0.0
 10
6.9551929946
 20
50.3300068991
 30
0.0
 10
6.9712861685
 20
50.8422460101
 30
0.0
 10
6.9910888511
 20
51.2335831128
 30
0.0
 10
7.008798484
 20
51.5065866444
 30
0.0
 10
7.0295512398
 20
51.7620179025
 30
0.0
 10
7.0532782826
 20
51.9974275602
 30
0.0
 10
7.0798076744
 20
52.2105821485
 30
0.0
 10
7.1090198256
 20
52.3995120957
 30
0.0
 10
7.1406370606
 20
52.5625199911
 30
0.0
 10
7.1744657629
 20
52.6981502595
 30
0.0
 10
7.2058847007
 20
52.792996328
 30
0.0
 10
7.2329157164
 20
52.8536383632
 30
0.0
 10
7.252275294
 20
52.8886099911
 30
0.0
 10
7.2720665615
 20
52.9161413339
 30
0.0
 10
7.2923995484
 20
52.936264136
 30
0.0
 10
7.313542555
 20
52.9488842997
 30
0.0
 10
7.3285980287
 20
52.9518606193
 30
0.0
 10
7.3356668481
 20
52.9518598697
 30
0.0
  0
SPLINE
  5
252
100
AcDbEntity
  8
00_COMPONENTS_1
100
AcDbSpline
 62
7
  6
BYLAYER
 70
0
 71
3
 72
26
 73
22
 74
0
 42
0.0000001
 43
0.0000001
 44
0.0000000001
 40
0.0
 40
0.0
 40
0.0
 40
0.0
 40
0.0024225389
 40
0.0042401997
 40
0.0065677909
 40
0.0128630445
 40
0.0214260362
 40
0.0322880664
 40
0.0454453715
 40
0.0608721842
 40
0.0785374342
 40
0.1204436466
 40
0.170790581
 40
0.22909494
 40
0.2948203636
 40
0.367326833
 40
0.4459389429
 40
0.5298804015
 40
0.6183402339
 40
0.8054598635
 40
1.0
 40
1.0
 40
1.0
 40
1.0
 10
6.4060713717
 20
46.4518599765
 30
0.0
 10
6.4034391167
 20
46.4518604058
 30
0.0
 10
6.3992273084
 20
46.4551312851
 30
0.0
 10
6.3955016866
 20
46.4610608419
 30
0.0
 10
6.3906448053
 20
46.4714117129
 30
0.0
 10
6.3852684904
 20
46.4893176751
 30
0.0
 10
6.3793042224
 20
46.5166415022
 30
0.0
 10
6.3735916937
 20
46.5515901264
 30
0.0
 10
6.3680828598
 20
46.5941009255
 30
0.0
 10
6.3628233316
 20
46.6440816371
 30
0.0
 10
6.3557413131
 20
46.7252672753
 30
0.0
 10
6.3479052639
 20
46.844455456
 30
0.0
 10
6.339947661
 20
47.0078568193
 30
0.0
 10
6.3330071472
 20
47.1972056647
 30
0.0
 10
6.3270605235
 20
47.4106748496
 30
0.0
 10
6.3220458645
 20
47.6462387201
 30
0.0
 10
6.317906011
 20
47.9016148863
 30
0.0
 10
6.3145650095
 20
48.1743383023
 30
0.0
 10
6.3110114187
 20
48.5649668316
 30
0.0
 10
6.3083431797
 20
49.0757789006
 30
0.0
 10
6.307674064
 20
49.4904787245
 30
0.0
 10
6.307674064
 20
49.7018599562
 30
0.0
  0
ENDSEC
  0
SECTION
  2
OBJECTS
  0
DICTIONARY
  5
C
100
AcDbDictionary
280
0
281
1
  3
ACAD_GROUP
350
D
  3
ACAD_MLINESTYLE
350
17
  3
ACAD_LAYOUT
350
1A
  3
ACAD_PLOTSETTINGS
350
19
  3
ACAD_PLOTSTYLENAME
350
E
  0
DICTIONARY
  5
D
102
{ACAD_REACTORS
330
C
102
}
100
AcDbDictionary
280
0
281
1
  0
ACDBDICTIONARYWDFLT
  5
E
102
{ACAD_REACTORS
330
C
102
}
100
AcDbDictionary
281
1
  3
Normal
350
F
100
AcDbDictionaryWithDefault
340
F
  0
DICTIONARY
  5
17
102
{ACAD_REACTORS
330
C
102
}
100
AcDbDictionary
280
0
281
1
  3
Standard
350
18
  0
DICTIONARY
  5
19
102
{ACAD_REACTORS
330
C
102
}
100
AcDbDictionary
281
1
  0
DICTIONARY
  5
1A
102
{ACAD_REACTORS
330
C
102
}
100
AcDbDictionary
281
1
  3
Model
350
253
  3
Layout1
350
254
  0
ACDBPLACEHOLDER
  5
F
102
{ACAD_REACTORS
330
E
102
}
  0
MLINESTYLE
  5
18
102
{ACAD_REACTORS
330
17
102
}
100
AcDbMlineStyle
  2
STANDARD
 70
0
  3

 62
256
 51
90.0
 52
90.0
 71
2
 49
0.5
 62
256
  6
BYLAYER
 49
-0.5
 62
256
  6
BYLAYER
  0
LAYOUT
  5
253
102
{ACAD_REACTORS
330
1A
102
}
100
AcDbPlotSettings
  1

  2
none_device
  4

  6

 40
0.0
 41
0.0
 42
0.0
 43
0.0
 44
210.0
 45
297.0
 46
0.0
 47
0.0
 48
0.0
 49
0.0
140
0.0
141
0.0
142
1.0
143
1.0
 70
1024
 72
1
 73
0
 74
0
  7

 75
0
147
1.0
148
0.0
149
0.0
100
AcDbLayout
  1
Model
 70
0
 71
0
 10
0.0
 20
0.0
 11
210.0
 21
297.0
 12
0.0
 22
0.0
 32
0.0
 14
0.0
 24
0.0
 34
0.0
 15
0.0
 25
0.0
 35
0.0
146
0.0
 13
0.0
 23
0.0
 33
0.0
 16
1.0
 26
0.0
 36
0.0
 17
0.0
 27
1.0
 37
0.0
 76
0
330
216
345
0
346
0
  0
LAYOUT
  5
254
102
{ACAD_REACTORS
330
1A
102
}
100
AcDbPlotSettings
  1

  2
none_device
  4

  6

 40
0.0
 41
0.0
 42
0.0
 43
0.0
 44
210.0
 45
297.0
 46
0.0
 47
0.0
 48
0.0
 49
0.0
140
0.0
141
0.0
142
1.0
143
1.0
 70
0
 72
1
 73
0
 74
0
  7

 75
0
147
1.0
148
0.0
149
0.0
100
AcDbLayout
  1
Layout1
 70
0
 71
1
 10
0.0
 20
0.0
 11
210.0
 21
297.0
 12
0.0
 22
0.0
 32
0.0
 14
0.0
 24
0.0
 34
0.0
 15
0.0
 25
0.0
 35
0.0
146
0.0
 13
0.0
 23
0.0
 33
0.0
 16
1.0
 26
0.0
 36
0.0
 17
0.0
 27
1.0
 37
0.0
 76
0
330
217
345
0
346
0
  0
ENDSEC
  0
EOF
