999
DXF file: C:\Users\sesa63760\Dev\_Creo\CAD\MCADID0004651_3D-CAD\drw0001_1.dxf
999
Pro/ENGINEER 2019471 by Parametric Technology Corporation
  0
SECTION
  2
HEADER
  9
$ACADVER
  1
AC1024
  9
$DWGCODEPAGE
  3
ANSI_1252
  9
$EXTMAX
 10
59.0679561275
 20
83.5389665232
 30
0.0
  9
$EXTMIN
 10
0.0
 20
0.0
 30
0.0
  9
$LIMMIN
 10
0.0
 20
0.0
  9
$LIMMAX
 10
59.0679561275
 20
83.5389665232
  9
$VIEWCTR
 10
29.5339780638
 20
41.7694832616
  9
$VIEWSIZE
 40
83.5389665232
  9
$CLAYER
  8
0
  9
$LTSCALE
 40
5.445503003
  9
$CELTYPE
  6
BYLAYER
  9
$DIMSCALE
 40
1.0
  9
$DIMASZ
 40
0.7031899539
  9
$DIMEXO
 40
1.0
  9
$DIMDLI
 40
3.7623475293
  9
$DIMEXE
 40
1.0
  9
$DIMCEN
 40
0.8910823096
  9
$DIMLFAC
 40
1.0
  9
$DIMBLK
  1
_FILLED
  9
$DIMALT
 70
0
  9
$DIMALTF
 40
0.0393700787
  9
$DIMTXT
 40
0.9844659355
  9
$DIMTOL
 70
1
  9
$DIMLIM
 70
0
  9
$DIMTFAC
 40
1.0
  9
$DIMTP
 40
0.01
  9
$DIMTM
 40
0.01
  9
$DIMGAP
 40
0.625
  9
$DIMDSEP
 70
46
  9
$AUNITS
 70
0
  9
$PDMODE
 70
3
  9
$PDSIZE
 40
0.3125
  9
$HANDSEED
  5
2C1
  9
$TILEMODE
 70
1
  9
$MEASUREMENT
 70
1
  9
$INSUNITS
 70
4
  0
ENDSEC
  0
SECTION
  2
CLASSES
  0
CLASS
  1
ACDBDICTIONARYWDFLT
  2
AcDbDictionaryWithDefault
  3
AutoCAD 2000
 90
0
 91
1
280
0
281
0
  0
CLASS
  1
ACDBPLACEHOLDER
  2
AcDbPlaceHolder
  3
AutoCAD 2000
 90
0
 91
1
280
0
281
0
  0
CLASS
  1
LAYOUT
  2
AcDbLayout
  3
AutoCAD 2000
 90
0
 91
0
280
0
281
0
  0
ENDSEC
  0
SECTION
  2
TABLES
  0
TABLE
  2
VPORT
  5
8
100
AcDbSymbolTable
 70
2
  0
VPORT
  5
1F4
100
AcDbSymbolTableRecord
100
AcDbViewportTableRecord
  2
*ACTIVE
 70
0
 10
0.0
 20
0.0
 11
1.0
 21
1.0
 12
29.5339780638
 22
41.7694832616
 13
0.0
 23
0.0
 14
1.0
 24
1.0
 15
0.0
 25
0.0
 16
0.0
 26
0.0
 36
1.0
 17
0.0
 27
0.0
 37
0.0
 40
83.5389665232
 41
0.7070707071
 42
50.0
 43
0.0
 44
0.0
 50
0.0
 51
0.0
 71
0
 72
100
 73
1
 74
1
 75
0
 76
0
 77
0
 78
0
  0
ENDTAB
  0
TABLE
  2
LTYPE
  5
5
100
AcDbSymbolTable
 70
6
  0
LTYPE
  5
14
100
AcDbSymbolTableRecord
100
AcDbLinetypeTableRecord
  2
BYBLOCK
 70
0
  3

 72
65
 73
0
 40
0.0
  0
LTYPE
  5
15
100
AcDbSymbolTableRecord
100
AcDbLinetypeTableRecord
  2
BYLAYER
 70
0
  3

 72
65
 73
0
 40
0.0
  0
LTYPE
  5
16
100
AcDbSymbolTableRecord
100
AcDbLinetypeTableRecord
  2
CONTINUOUS
 70
64
  3
Solid line
 72
65
 73
0
 40
0.0
  0
LTYPE
  5
1F5
100
AcDbSymbolTableRecord
100
AcDbLinetypeTableRecord
  2
CENTER
 70
64
  3
____ _ ____ _ ____ _ ____ _ ____ _ ____ _ ____
 72
65
 73
4
 40
0.6
 49
0.375
 74
0
 49
-0.075
 74
0
 49
0.075
 74
0
 49
-0.075
 74
0
  0
LTYPE
  5
1F6
100
AcDbSymbolTableRecord
100
AcDbLinetypeTableRecord
  2
HIDDEN
 70
64
  3
- - - - - - - - - - - - - - - - - - - -
 72
65
 73
2
 40
0.2
 49
0.1
 74
0
 49
-0.1
 74
0
  0
LTYPE
  5
1F7
100
AcDbSymbolTableRecord
100
AcDbLinetypeTableRecord
  2
PHANTOM
 70
64
  3
_____ _ _ _____ _ _ _____ _ _ _____
 72
65
 73
6
 40
0.8
 49
0.45
 74
0
 49
-0.05
 74
0
 49
0.1
 74
0
 49
-0.05
 74
0
 49
0.1
 74
0
 49
-0.05
 74
0
  0
LTYPE
  5
1F8
100
AcDbSymbolTableRecord
100
AcDbLinetypeTableRecord
  2
DOT
 70
64
  3
. . . . . . . . . . . . . . . . . . . .
 72
65
 73
2
 40
0.2
 49
0.1
 74
0
 49
-0.1
 74
0
  0
LTYPE
  5
1F9
100
AcDbSymbolTableRecord
100
AcDbLinetypeTableRecord
  2
DASHED
 70
64
  3
- - - - - - - - - - - - - - - - - - - -
 72
65
 73
2
 40
0.2
 49
0.1
 74
0
 49
-0.1
 74
0
  0
ENDTAB
  0
TABLE
  2
LAYER
  5
2
100
AcDbSymbolTable
 70
36
  0
LAYER
  5
10
100
AcDbSymbolTableRecord
100
AcDbLayerTableRecord
  2
0
 70
0
 62
7
  6
CONTINUOUS
370
-3
390
F
  0
LAYER
  5
1FA
100
AcDbSymbolTableRecord
100
AcDbLayerTableRecord
  2
DEFAULT_1
 70
0
 62
7
  6
CENTER
370
-3
390
F
  0
LAYER
  5
1FB
100
AcDbSymbolTableRecord
100
AcDbLayerTableRecord
  2
DEFAULT_2
 70
0
 62
7
  6
HIDDEN
370
-3
390
F
  0
LAYER
  5
1FC
100
AcDbSymbolTableRecord
100
AcDbLayerTableRecord
  2
DEFAULT_3
 70
0
 62
7
  6
PHANTOM
370
-3
390
F
  0
LAYER
  5
1FD
100
AcDbSymbolTableRecord
100
AcDbLayerTableRecord
  2
00_COMPONENTS
 70
0
 62
7
  6
CONTINUOUS
370
-3
390
F
  0
LAYER
  5
1FE
100
AcDbSymbolTableRecord
100
AcDbLayerTableRecord
  2
01_1_DEFAULT_DATUMS
 70
0
 62
7
  6
CONTINUOUS
370
-3
390
F
  0
LAYER
  5
1FF
100
AcDbSymbolTableRecord
100
AcDbLayerTableRecord
  2
01_PLANES
 70
0
 62
7
  6
CONTINUOUS
370
-3
390
F
  0
LAYER
  5
200
100
AcDbSymbolTableRecord
100
AcDbLayerTableRecord
  2
02_COORD_SYS
 70
0
 62
7
  6
CONTINUOUS
370
-3
390
F
  0
LAYER
  5
201
100
AcDbSymbolTableRecord
100
AcDbLayerTableRecord
  2
03_AXES
 70
0
 62
7
  6
CONTINUOUS
370
-3
390
F
  0
LAYER
  5
202
100
AcDbSymbolTableRecord
100
AcDbLayerTableRecord
  2
04_POINTS
 70
0
 62
7
  6
CONTINUOUS
370
-3
390
F
  0
LAYER
  5
203
100
AcDbSymbolTableRecord
100
AcDbLayerTableRecord
  2
05_CURVES
 70
0
 62
7
  6
CONTINUOUS
370
-3
390
F
  0
LAYER
  5
204
100
AcDbSymbolTableRecord
100
AcDbLayerTableRecord
  2
06_SURFS
 70
0
 62
7
  6
CONTINUOUS
370
-3
390
F
  0
LAYER
  5
205
100
AcDbSymbolTableRecord
100
AcDbLayerTableRecord
  2
07_COSMETICS
 70
0
 62
7
  6
CONTINUOUS
370
-3
390
F
  0
LAYER
  5
206
100
AcDbSymbolTableRecord
100
AcDbLayerTableRecord
  2
10_NOTES
 70
0
 62
7
  6
CONTINUOUS
370
-3
390
F
  0
LAYER
  5
207
100
AcDbSymbolTableRecord
100
AcDbLayerTableRecord
  2
11_NOTES_PUB
 70
0
 62
7
  6
CONTINUOUS
370
-3
390
F
  0
LAYER
  5
208
100
AcDbSymbolTableRecord
100
AcDbLayerTableRecord
  2
13_REF_GTOL
 70
0
 62
7
  6
CONTINUOUS
370
-3
390
F
  0
LAYER
  5
209
100
AcDbSymbolTableRecord
100
AcDbLayerTableRecord
  2
16_MISC
 70
0
 62
7
  6
CONTINUOUS
370
-3
390
F
  0
LAYER
  5
20A
100
AcDbSymbolTableRecord
100
AcDbLayerTableRecord
  2
17_NO_PRINT
 70
0
 62
7
  6
CONTINUOUS
370
-3
390
F
  0
LAYER
  5
20B
100
AcDbSymbolTableRecord
100
AcDbLayerTableRecord
  2
18_DATUM_CAMS_JOINTS
 70
0
 62
7
  6
CONTINUOUS
370
-3
390
F
  0
LAYER
  5
20C
100
AcDbSymbolTableRecord
100
AcDbLayerTableRecord
  2
19_DATUM_FUNCTIONAL
 70
0
 62
7
  6
CONTINUOUS
370
-3
390
F
  0
LAYER
  5
20D
100
AcDbSymbolTableRecord
100
AcDbLayerTableRecord
  2
20_DATUM_KINEMATIC_SCHEME
 70
0
 62
7
  6
CONTINUOUS
370
-3
390
F
  0
ENDTAB
  0
TABLE
  2
STYLE
  5
3
100
AcDbSymbolTable
 70
1
  0
STYLE
  5
11
100
AcDbSymbolTableRecord
100
AcDbTextStyleTableRecord
  2
STANDARD
 70
0
 40
0.0
 41
1.0
 50
0.0
 71
0
 42
0.2
  3
ARIAL.TTF
  4

  0
STYLE
  5
20E
100
AcDbSymbolTableRecord
100
AcDbTextStyleTableRecord
  2
TEXTSTYLE_1
 70
0
 40
0.0
 41
0.8
 50
0.0
 71
0
 42
0.2
  3
gdt
  4

  0
ENDTAB
  0
TABLE
  2
VIEW
  5
6
100
AcDbSymbolTable
 70
0
  0
ENDTAB
  0
TABLE
  2
UCS
  5
7
100
AcDbSymbolTable
 70
0
  0
ENDTAB
  0
TABLE
  2
APPID
  5
9
100
AcDbSymbolTable
 70
1
  0
APPID
  5
20F
100
AcDbSymbolTableRecord
100
AcDbRegAppTableRecord
  2
ACAD
 70
0
  0
ENDTAB
  0
TABLE
  2
BLOCK_RECORD
  5
1
100
AcDbSymbolTable
 70
0
  0
BLOCK_RECORD
  5
210
100
AcDbSymbolTableRecord
100
AcDbBlockTableRecord
  2
*Model_Space
  0
BLOCK_RECORD
  5
211
100
AcDbSymbolTableRecord
100
AcDbBlockTableRecord
  2
*Paper_Space
  0
BLOCK_RECORD
  5
212
100
AcDbSymbolTableRecord
100
AcDbBlockTableRecord
  2
_FILLED
  0
ENDTAB
  0
TABLE
  2
DIMSTYLE
  5
A
100
AcDbSymbolTable
 70
1
100
AcDbDimStyleTable
 71
0
  0
DIMSTYLE
105
213
100
AcDbSymbolTableRecord
100
AcDbDimStyleTableRecord
  2
STANDARD
 70
0
  3

  4

 40
1.0
 41
0.7031899539
 42
1.0
 43
0.38
 44
1.0
 45
0.0
 46
0.0
 47
0.01
 48
0.01
140
0.9844659355
141
0.09
142
0.0
143
25.4
144
1.0
145
0.0
146
1.0
147
0.625
 71
1
 72
0
 73
0
 74
0
 75
0
 76
0
 77
1
 78
8
 79
2
170
0
171
1
172
0
173
0
174
0
175
0
176
0
177
0
178
0
270
2
179
2
271
2
272
2
273
2
274
2
275
0
280
0
281
0
282
0
283
1
284
8
285
0
286
0
287
3
288
0
340
11
278
46
341
212
342
212
343
212
344
212
  0
ENDTAB
  0
ENDSEC
  0
SECTION
  2
BLOCKS
  0
BLOCK
  5
20
100
AcDbEntity
  8
0
100
AcDbBlockBegin
  2
*Model_Space
 70
0
 10
0.0
 20
0.0
 30
0.0
  3
*Model_Space
  1

  0
ENDBLK
  5
21
100
AcDbEntity
  8
0
100
AcDbBlockEnd
  0
BLOCK
  5
1C
100
AcDbEntity
  8
0
100
AcDbBlockBegin
  2
*Paper_Space
 70
0
 10
0.0
 20
0.0
 30
0.0
  3
*Paper_Space
  1

  0
ENDBLK
  5
1D
100
AcDbEntity
  8
0
100
AcDbBlockEnd
  0
BLOCK
  5
214
100
AcDbEntity
  8
0
100
AcDbBlockBegin
  2
_FILLED
 70
64
 10
0.0
 20
0.0
  3
_FILLED
  1

  0
SOLID
  5
215
100
AcDbEntity
  8
0
  6
BYBLOCK
 62
0
100
AcDbTrace
 10
0.0
 20
0.0
 11
-1.0
 21
0.25
 12
-1.0
 22
-0.25
 13
-1.0
 23
-0.25
  0
ENDBLK
  5
216
100
AcDbEntity
  8
0
  6
BYBLOCK
 62
0
100
AcDbBlockEnd
  0
ENDSEC
  0
SECTION
  2
ENTITIES
  0
LINE
  5
217
100
AcDbEntity
  8
0
100
AcDbLine
 62
7
  6
BYLAYER
 10
7.8467013355
 20
48.5396685441
 11
12.1600706589
 21
46.0493999415
  0
LINE
  5
218
100
AcDbEntity
  8
0
100
AcDbLine
 62
7
  6
BYLAYER
 10
29.6372531016
 20
37.3820033381
 11
21.1700435326
 21
41.887729004
  0
LINE
  5
219
100
AcDbEntity
  8
0
100
AcDbLine
 62
7
  6
BYLAYER
 10
20.7393175085
 20
41.5581591211
 11
20.3150516734
 21
41.8031035738
  0
LINE
  5
21A
100
AcDbEntity
  8
0
100
AcDbLine
 62
7
  6
BYLAYER
 10
19.3250980582
 20
42.3746406302
 11
18.9008322231
 21
42.6195850829
  0
LINE
  5
21B
100
AcDbEntity
  8
0
100
AcDbLine
 62
7
  6
BYLAYER
 10
17.9815895804
 20
43.1502980637
 11
17.5573237453
 21
43.3952425165
  0
LINE
  5
21C
100
AcDbEntity
  8
0
100
AcDbLine
 62
7
  6
BYLAYER
 10
16.5673701301
 20
43.9667795728
 11
14.2339080372
 21
45.3139740627
  0
LINE
  5
21D
100
AcDbEntity
  8
0
100
AcDbLine
 62
7
  6
BYLAYER
 10
19.7894841109
 20
42.395206785
 11
19.5915178824
 21
42.5095000547
  0
LINE
  5
21E
100
AcDbEntity
  8
0
100
AcDbLine
 62
7
  6
BYLAYER
 10
17.0317561828
 20
43.9873457276
 11
16.8337899543
 21
44.1016389973
  0
LINE
  5
21F
100
AcDbEntity
  8
0
100
AcDbLine
 62
7
  6
BYLAYER
 10
32.1262914378
 20
35.5613823883
 11
30.1463842074
 21
36.7044565009
  0
LINE
  5
220
100
AcDbEntity
  8
0
100
AcDbLine
 62
7
  6
BYLAYER
 10
33.2335721835
 20
35.3262509168
 11
32.5487768724
 21
35.7216087298
  0
LINE
  5
221
100
AcDbEntity
  8
0
100
AcDbLine
 62
7
  6
BYLAYER
 10
50.1151103295
 20
26.7923395237
 11
33.7860778268
 21
36.2196975595
  0
LINE
  5
222
100
AcDbEntity
  8
0
100
AcDbLine
 62
7
  6
BYLAYER
 10
52.615067912
 20
31.1224910322
 11
36.2860354092
 21
40.5498490679
  0
LINE
  5
223
100
AcDbEntity
  8
0
100
AcDbLine
 62
7
  6
BYLAYER
 10
36.7835119505
 20
41.4750660587
 11
36.0987166394
 21
41.8704238718
  0
LINE
  5
224
100
AcDbEntity
  8
0
100
AcDbLine
 62
7
  6
BYLAYER
 10
36.0262252664
 20
42.3164187414
 11
34.046318036
 21
43.4594928541
  0
LINE
  5
225
100
AcDbEntity
  8
0
100
AcDbLine
 62
7
  6
BYLAYER
 10
23.9248507667
 20
49.5916660109
 11
23.7414474692
 21
49.6975515587
  0
LINE
  5
226
100
AcDbEntity
  8
0
100
AcDbLine
 62
7
  6
BYLAYER
 10
21.1671228386
 20
51.1838049536
 11
20.9837195411
 21
51.2896905013
  0
LINE
  5
227
100
AcDbEntity
  8
0
100
AcDbLine
 62
7
  6
BYLAYER
 10
25.1392428536
 20
49.179225776
 11
24.7149770185
 21
49.4241702287
  0
LINE
  5
228
100
AcDbEntity
  8
0
100
AcDbLine
 62
7
  6
BYLAYER
 10
23.7250234033
 20
49.995707285
 11
23.3007575682
 21
50.2406517377
  0
LINE
  5
229
100
AcDbEntity
  8
0
100
AcDbLine
 62
7
  6
BYLAYER
 10
22.3815149255
 20
50.7713647186
 11
21.9572490904
 21
51.0163091713
  0
LINE
  5
22A
100
AcDbEntity
  8
0
100
AcDbLine
 62
7
  6
BYLAYER
 10
20.9672954752
 20
51.5878462276
 11
18.6338333822
 21
52.9350407176
  0
LINE
  5
22B
100
AcDbEntity
  8
0
100
AcDbLine
 62
7
  6
BYLAYER
 10
33.1813425548
 20
43.5763806824
 11
25.0692005113
 21
48.6414197833
  0
LINE
  5
22C
100
AcDbEntity
  8
0
100
AcDbLine
 62
7
  6
BYLAYER
 10
32.5913488315
 20
36.8976847245
 11
33.3338078605
 21
37.3263410861
  0
LINE
  5
22D
100
AcDbEntity
  8
0
100
AcDbLine
 62
7
  6
BYLAYER
 10
37.6015890545
 20
39.7903309993
 11
37.6117860757
 21
39.796218217
  0
LINE
  5
22E
100
AcDbEntity
  8
0
100
AcDbLine
 62
7
  6
BYLAYER
 10
12.6466198938
 20
56.8535594403
 11
16.9599892172
 21
54.3632908377
  0
ARC
  5
22F
100
AcDbEntity
  8
0
100
AcDbCircle
 62
7
  6
BYLAYER
 10
23.5879977295
 20
43.8172008173
 40
4.1842402704
100
AcDbArc
 50
179.1097698125
 51
179.9977843399
  0
ARC
  5
230
100
AcDbEntity
  8
0
100
AcDbCircle
 62
7
  6
BYLAYER
 10
23.4176986004
 20
43.8988662289
 40
4.0725203734
100
AcDbArc
 50
179.9979568329
 51
181.3832388627
  0
ARC
  5
231
100
AcDbEntity
  8
0
100
AcDbCircle
 62
7
  6
BYLAYER
 10
21.5846719353
 20
43.5372783086
 40
2.1902446751
100
AcDbArc
 50
205.1558876375
 51
206.9461218806
  0
ARC
  5
232
100
AcDbEntity
  8
0
100
AcDbCircle
 62
7
  6
BYLAYER
 10
20.1407153994
 20
44.339429962
 40
2.1572366694
100
AcDbArc
 50
205.1471223985
 51
209.1194645907
  0
ARC
  5
233
100
AcDbEntity
  8
0
100
AcDbCircle
 62
7
  6
BYLAYER
 10
19.7071879112
 20
44.0150089737
 40
1.6116504989
100
AcDbArc
 50
231.8687256688
 51
239.9782227074
  0
ARC
  5
234
100
AcDbEntity
  8
0
100
AcDbCircle
 62
7
  6
BYLAYER
 10
21.1214073614
 20
43.1985274647
 40
1.6116504989
100
AcDbArc
 50
231.8687256688
 51
239.9782227074
  0
ARC
  5
235
100
AcDbEntity
  8
0
100
AcDbCircle
 62
7
  6
BYLAYER
 10
19.6378083097
 20
43.8957277997
 40
1.4736600643
100
AcDbArc
 50
231.1706005666
 51
239.9934427264
  0
ARC
  5
236
100
AcDbEntity
  8
0
100
AcDbCircle
 62
7
  6
BYLAYER
 10
21.05202776
 20
43.0792462907
 40
1.4736600643
100
AcDbArc
 50
231.1706005666
 51
239.9934427264
  0
ARC
  5
237
100
AcDbEntity
  8
0
100
AcDbCircle
 62
7
  6
BYLAYER
 10
20.2690805473
 20
43.683744183
 40
1.4057047891
100
AcDbArc
 50
240.6348456243
 51
245.9480144268
  0
ARC
  5
238
100
AcDbEntity
  8
0
100
AcDbCircle
 62
7
  6
BYLAYER
 10
20.2645749496
 20
43.6753549523
 40
1.3961840576
100
AcDbArc
 50
239.3623309673
 51
240.6271644176
  0
ARC
  5
239
100
AcDbEntity
  8
0
100
AcDbCircle
 62
7
  6
BYLAYER
 10
22.1737782793
 20
44.6336823263
 40
4.1842402705
100
AcDbArc
 50
179.1097698126
 51
179.9977843399
  0
ARC
  5
23A
100
AcDbEntity
  8
0
100
AcDbCircle
 62
7
  6
BYLAYER
 10
20.8302698014
 20
45.4093397599
 40
4.1842402704
100
AcDbArc
 50
179.1097698125
 51
179.9977843399
  0
ARC
  5
23B
100
AcDbEntity
  8
0
100
AcDbCircle
 62
7
  6
BYLAYER
 10
20.6599706725
 20
45.4910051716
 40
4.0725203735
100
AcDbArc
 50
179.9979568329
 51
181.3832388627
  0
ARC
  5
23C
100
AcDbEntity
  8
0
100
AcDbCircle
 62
7
  6
BYLAYER
 10
22.0034791502
 20
44.715347738
 40
4.0725203734
100
AcDbArc
 50
179.9979568329
 51
181.3832388627
  0
ARC
  5
23D
100
AcDbEntity
  8
0
100
AcDbCircle
 62
7
  6
BYLAYER
 10
16.3825894599
 20
48.1632980112
 40
3.9438624049
100
AcDbArc
 50
177.46814018
 51
179.9212045053
  0
ARC
  5
23E
100
AcDbEntity
  8
0
100
AcDbCircle
 62
7
  6
BYLAYER
 10
17.0851740581
 20
47.5697264524
 40
3.9382994437
100
AcDbArc
 50
179.9497622969
 51
184.0518919085
  0
ARC
  5
23F
100
AcDbEntity
  8
0
100
AcDbCircle
 62
7
  6
BYLAYER
 10
16.1064518388
 20
48.1648633324
 40
3.6677230838
100
AcDbArc
 50
179.9397249381
 51
182.1627145117
  0
ARC
  5
240
100
AcDbEntity
  8
0
100
AcDbCircle
 62
7
  6
BYLAYER
 10
18.8269440072
 20
45.1294172513
 40
2.1902446751
100
AcDbArc
 50
205.1558876376
 51
206.9461218806
  0
ARC
  5
241
100
AcDbEntity
  8
0
100
AcDbCircle
 62
7
  6
BYLAYER
 10
21.0891123428
 20
49.0705163482
 40
2.1693879623
100
AcDbArc
 50
93.0723425072
 51
94.2051473858
  0
ARC
  5
242
100
AcDbEntity
  8
0
100
AcDbCircle
 62
7
  6
BYLAYER
 10
23.8468402709
 20
47.4783774057
 40
2.1693879621
100
AcDbArc
 50
93.0723425071
 51
94.2051473859
  0
ARC
  5
243
100
AcDbEntity
  8
0
100
AcDbCircle
 62
7
  6
BYLAYER
 10
16.5700346707
 20
51.2907851757
 40
2.1610695374
100
AcDbArc
 50
98.6554533247
 51
101.7578973759
  0
ARC
  5
244
100
AcDbEntity
  8
0
100
AcDbCircle
 62
7
  6
BYLAYER
 10
22.4298429243
 20
48.3432713831
 40
2.1209022716
100
AcDbArc
 50
90.8738745766
 51
94.2262070984
  0
ARC
  5
245
100
AcDbEntity
  8
0
100
AcDbCircle
 62
7
  6
BYLAYER
 10
16.5472014714
 20
51.4456477325
 40
2.0045345952
100
AcDbArc
 50
95.3931282537
 51
98.6763891706
  0
ARC
  5
246
100
AcDbEntity
  8
0
100
AcDbCircle
 62
7
  6
BYLAYER
 10
20.1609399023
 20
50.1924193614
 40
1.6116530176
100
AcDbArc
 50
51.8690263944
 51
59.9782791731
  0
ARC
  5
247
100
AcDbEntity
  8
0
100
AcDbCircle
 62
7
  6
BYLAYER
 10
21.5751593525
 20
49.3759378524
 40
1.6116530176
100
AcDbArc
 50
51.8690263944
 51
59.9782791731
  0
ARC
  5
248
100
AcDbEntity
  8
0
100
AcDbCircle
 62
7
  6
BYLAYER
 10
22.9186678303
 20
48.6002804188
 40
1.6116530176
100
AcDbArc
 50
51.8690263944
 51
59.9782791731
  0
ARC
  5
249
100
AcDbEntity
  8
0
100
AcDbCircle
 62
7
  6
BYLAYER
 10
18.3636794334
 20
44.7906664073
 40
1.6116504989
100
AcDbArc
 50
231.8687256688
 51
239.9782227074
  0
ARC
  5
24A
100
AcDbEntity
  8
0
100
AcDbCircle
 62
7
  6
BYLAYER
 10
18.2942998319
 20
44.6713852333
 40
1.4736600643
100
AcDbArc
 50
231.1706005666
 51
239.9934427264
  0
ARC
  5
24B
100
AcDbEntity
  8
0
100
AcDbCircle
 62
7
  6
BYLAYER
 10
23.0545385883
 20
48.5112922201
 40
1.4208566525
100
AcDbArc
 50
52.6375130544
 51
53.9501967646
  0
ARC
  5
24C
100
AcDbEntity
  8
0
100
AcDbCircle
 62
7
  6
BYLAYER
 10
20.2968106603
 20
50.1034311627
 40
1.4208566526
100
AcDbArc
 50
52.6375130544
 51
53.9501967646
  0
ARC
  5
24D
100
AcDbEntity
  8
0
100
AcDbCircle
 62
7
  6
BYLAYER
 10
23.0633661584
 20
48.5236012159
 40
1.4057098412
100
AcDbArc
 50
53.9458535279
 51
59.354285156
  0
ARC
  5
24E
100
AcDbEntity
  8
0
100
AcDbCircle
 62
7
  6
BYLAYER
 10
20.3056382303
 20
50.1157401585
 40
1.4057098412
100
AcDbArc
 50
53.9458535279
 51
59.354285156
  0
ARC
  5
24F
100
AcDbEntity
  8
0
100
AcDbCircle
 62
7
  6
BYLAYER
 10
18.9255720695
 20
44.4594016166
 40
1.4057047891
100
AcDbArc
 50
240.6348456243
 51
245.9480144268
  0
ARC
  5
250
100
AcDbEntity
  8
0
100
AcDbCircle
 62
7
  6
BYLAYER
 10
17.5113526192
 20
45.2758831256
 40
1.4057047891
100
AcDbArc
 50
240.6348456243
 51
245.9480144268
  0
ARC
  5
251
100
AcDbEntity
  8
0
100
AcDbCircle
 62
7
  6
BYLAYER
 10
21.7202933463
 20
49.2999358489
 40
1.4049051518
100
AcDbArc
 50
54.2761270183
 51
59.3554935949
  0
ARC
  5
252
100
AcDbEntity
  8
0
100
AcDbCircle
 62
7
  6
BYLAYER
 10
20.3106624738
 20
50.1238356036
 40
1.3961840577
100
AcDbArc
 50
59.3623309673
 51
60.6271644175
  0
ARC
  5
253
100
AcDbEntity
  8
0
100
AcDbCircle
 62
7
  6
BYLAYER
 10
23.0683904019
 20
48.531696661
 40
1.3961840576
100
AcDbArc
 50
59.3623309673
 51
60.6271644175
  0
ARC
  5
254
100
AcDbEntity
  8
0
100
AcDbCircle
 62
7
  6
BYLAYER
 10
18.9210664718
 20
44.4510123858
 40
1.3961840575
100
AcDbArc
 50
239.3623309673
 51
240.6271644176
  0
ARC
  5
255
100
AcDbEntity
  8
0
100
AcDbCircle
 62
7
  6
BYLAYER
 10
21.7248819242
 20
49.3073540947
 40
1.3961840575
100
AcDbArc
 50
59.3623309673
 51
60.6271644176
  0
ARC
  5
256
100
AcDbEntity
  8
0
100
AcDbCircle
 62
7
  6
BYLAYER
 10
17.5068470215
 20
45.2674938949
 40
1.3961840576
100
AcDbArc
 50
239.3623309673
 51
240.6271644176
  0
ARC
  5
257
100
AcDbEntity
  8
0
100
AcDbCircle
 62
7
  6
BYLAYER
 10
32.8258952578
 20
37.358165759
 40
1.9801289071
100
AcDbArc
 50
275.0300147059
 51
280.3502989939
  0
SPLINE
  5
258
100
AcDbEntity
  8
0
100
AcDbSpline
 62
7
  6
BYLAYER
 70
0
 71
3
 72
14
 73
10
 74
0
 42
0.0000001
 43
0.0000001
 44
0.0000000001
 40
0.0
 40
0.0
 40
0.0
 40
0.0
 40
0.1080447873
 40
0.2181353832
 40
0.3321093158
 40
0.4514858648
 40
0.57743489
 40
0.7107584819
 40
1.0
 40
1.0
 40
1.0
 40
1.0
 10
50.115119546
 20
26.7923554844
 30
0.0
 10
50.1561052496
 20
26.7686915932
 30
0.0
 10
50.2431196937
 20
26.7279142139
 30
0.0
 10
50.3839425551
 20
26.689025438
 30
0.0
 10
50.5340354255
 20
26.6722570188
 30
0.0
 10
50.6918225419
 20
26.6777366864
 30
0.0
 10
50.8558330236
 20
26.7052419561
 30
0.0
 10
51.0868774724
 20
26.7726425037
 30
0.0
 10
51.2553671866
 20
26.8528116251
 30
0.0
 10
51.3650891207
 20
26.9161592351
 30
0.0
  0
SPLINE
  5
259
100
AcDbEntity
  8
0
100
AcDbSpline
 62
7
  6
BYLAYER
 70
0
 71
3
 72
17
 73
13
 74
0
 42
0.0000001
 43
0.0000001
 44
0.0000000001
 40
0.0
 40
0.0
 40
0.0
 40
0.0
 40
0.1564746582
 40
0.3050086598
 40
0.4440383219
 40
0.5728023408
 40
0.6912155041
 40
0.8002244938
 40
0.8518993468
 40
0.9021153748
 40
0.9513179644
 40
1.0
 40
1.0
 40
1.0
 40
1.0
 10
8.9506264459
 20
55.5705845294
 30
0.0
 10
9.1011215257
 20
55.7292701764
 30
0.0
 10
9.4089305278
 20
56.0253509968
 30
0.0
 10
9.8987048344
 20
56.4084194982
 30
0.0
 10
10.3965017765
 20
56.7125751207
 30
0.0
 10
10.8920488289
 20
56.9313005199
 30
0.0
 10
11.3754529082
 20
57.059541024
 30
0.0
 10
11.7674926959
 20
57.088133068
 30
0.0
 10
12.06153648
 20
57.0604861706
 30
0.0
 10
12.2685701786
 20
57.0162699103
 30
0.0
 10
12.4646724795
 20
56.9484336851
 30
0.0
 10
12.5876896182
 20
56.8875723915
 30
0.0
 10
12.6466158105
 20
56.8535523651
 30
0.0
  0
SPLINE
  5
25A
100
AcDbEntity
  8
0
100
AcDbSpline
 62
7
  6
BYLAYER
 70
0
 71
3
 72
11
 73
7
 74
0
 42
0.0000001
 43
0.0000001
 44
0.0000000001
 40
0.0
 40
0.0
 40
0.0
 40
0.0
 40
0.2338266804
 40
0.4746765046
 40
0.7285891345
 40
1.0
 40
1.0
 40
1.0
 40
1.0
 10
12.1600706609
 20
46.049399945
 30
0.0
 10
12.2602125445
 20
45.9915848571
 30
0.0
 10
12.4770777354
 20
45.8962556665
 30
0.0
 10
12.8323846398
 20
45.8234622561
 30
0.0
 10
13.2133242374
 20
45.8201581665
 30
0.0
 10
13.4709505309
 20
45.8622874345
 30
0.0
 10
13.6015402959
 20
45.8932893729
 30
0.0
  0
SPLINE
  5
25B
100
AcDbEntity
  8
0
100
AcDbSpline
 62
7
  6
BYLAYER
 70
0
 71
3
 72
21
 73
17
 74
0
 42
0.0000001
 43
0.0000001
 44
0.0000000001
 40
0.0
 40
0.0
 40
0.0
 40
0.0
 40
0.0431753023
 40
0.0876072614
 40
0.1343823802
 40
0.1843062882
 40
0.2378705382
 40
0.2952816509
 40
0.35649421
 40
0.4212639502
 40
0.4891895598
 40
0.5597391337
 40
0.7060762244
 40
0.8547595219
 40
0.9282108519
 40
1.0
 40
1.0
 40
1.0
 40
1.0
 10
7.8467054188
 20
48.5396756192
 30
0.0
 10
7.7481762678
 20
48.5965597344
 30
0.0
 10
7.5601552905
 20
48.7340139098
 30
0.0
 10
7.3222913244
 20
48.9993820703
 30
0.0
 10
7.1301242571
 20
49.320164039
 30
0.0
 10
6.9860984206
 20
49.6907401578
 30
0.0
 10
6.8915419171
 20
50.1053917023
 30
0.0
 10
6.8474994071
 20
50.5580468945
 30
0.0
 10
6.8543032839
 20
51.0421315135
 30
0.0
 10
6.9116988817
 20
51.5506024445
 30
0.0
 10
7.0188552589
 20
52.0760138599
 30
0.0
 10
7.2283611027
 20
52.7974002838
 30
0.0
 10
7.6028935933
 20
53.6889028009
 30
0.0
 10
8.1020003294
 20
54.5257316673
 30
0.0
 10
8.5680525447
 20
55.1450201598
 30
0.0
 10
8.8204516837
 20
55.433325116
 30
0.0
 10
8.9506264459
 20
55.5705845294
 30
0.0
  0
SPLINE
  5
25C
100
AcDbEntity
  8
0
100
AcDbSpline
 62
7
  6
BYLAYER
 70
0
 71
3
 72
11
 73
7
 74
0
 42
0.0000001
 43
0.0000001
 44
0.0000000001
 40
0.0
 40
0.0
 40
0.0
 40
0.0
 40
0.2722501861
 40
0.5263554717
 40
0.7668494723
 40
1.0
 40
1.0
 40
1.0
 40
1.0
 10
17.8276233782
 20
53.1528633849
 30
0.0
 10
17.789921605
 20
53.2860450948
 30
0.0
 10
17.6983516939
 20
53.5389130572
 30
0.0
 10
17.5033048732
 20
53.8790255607
 30
0.0
 10
17.2582618481
 20
54.1596451406
 30
0.0
 10
17.0626457001
 20
54.304023987
 30
0.0
 10
16.9599892152
 20
54.3632908342
 30
0.0
  0
SPLINE
  5
25D
100
AcDbEntity
  8
0
100
AcDbSpline
 62
7
  6
BYLAYER
 70
0
 71
3
 72
14
 73
10
 74
0
 42
0.0000001
 43
0.0000001
 44
0.0000000001
 40
0.0
 40
0.0
 40
0.0
 40
0.0
 40
0.1192336533
 40
0.2386821712
 40
0.3593254883
 40
0.4816095893
 40
0.6061937944
 40
0.7337546344
 40
1.0
 40
1.0
 40
1.0
 40
1.0
 10
14.2339080372
 20
45.3139740627
 30
0.0
 10
14.1532358761
 20
45.3605491029
 30
0.0
 10
13.9984941636
 20
45.466072794
 30
0.0
 10
13.7918425855
 20
45.6574688004
 30
0.0
 10
13.6128858106
 20
45.8780226405
 30
0.0
 10
13.4629714631
 20
46.1238247497
 30
0.0
 10
13.342538556
 20
46.3911922512
 30
0.0
 10
13.2187725278
 20
46.777485215
 30
0.0
 10
13.1714794364
 20
47.0839659071
 30
0.0
 10
13.1567185365
 20
47.2914465151
 30
0.0
  0
SPLINE
  5
25E
100
AcDbEntity
  8
0
100
AcDbSpline
 62
7
  6
BYLAYER
 70
0
 71
3
 72
23
 73
19
 74
0
 42
0.0000001
 43
0.0000001
 44
0.0000000001
 40
0.0
 40
0.0
 40
0.0
 40
0.0
 40
0.0618985562
 40
0.1267786979
 40
0.1941284364
 40
0.2633742567
 40
0.3337144394
 40
0.404276944
 40
0.4741781235
 40
0.5425790179
 40
0.6087594244
 40
0.6721895947
 40
0.732592254
 40
0.7899976197
 40
0.8447678593
 40
0.8975507456
 40
0.9490332494
 40
1.0
 40
1.0
 40
1.0
 40
1.0
 10
13.1468761283
 20
47.5731796054
 30
0.0
 10
13.1468761283
 20
47.75548017
 30
0.0
 10
13.1712606001
 20
48.1291286987
 30
0.0
 10
13.2718475826
 20
48.6929451635
 30
0.0
 10
13.4345204111
 20
49.2645653881
 30
0.0
 10
13.6552292568
 20
49.8335352549
 30
0.0
 10
13.9295119369
 20
50.3892375421
 30
0.0
 10
14.2517773399
 20
50.920801764
 30
0.0
 10
14.615702239
 20
51.4177323594
 30
0.0
 10
15.014476871
 20
51.8701778831
 30
0.0
 10
15.4410618366
 20
52.2692510357
 30
0.0
 10
15.8886191932
 20
52.6071245978
 30
0.0
 10
16.3509354929
 20
52.8767662227
 30
0.0
 10
16.8224123247
 20
53.0714315743
 30
0.0
 10
17.2974511263
 20
53.184101214
 30
0.0
 10
17.7684927952
 20
53.2058004466
 30
0.0
 10
18.223003924
 20
53.1295733047
 30
0.0
 10
18.5038381188
 20
53.01009182
 30
0.0
 10
18.6338333822
 20
52.9350407176
 30
0.0
  0
SPLINE
  5
25F
100
AcDbEntity
  8
0
100
AcDbSpline
 62
7
  6
BYLAYER
 70
0
 71
3
 72
9
 73
5
 74
0
 42
0.0000001
 43
0.0000001
 44
0.0000000001
 40
0.0
 40
0.0
 40
0.0
 40
0.0
 40
0.2548564568
 40
1.0
 40
1.0
 40
1.0
 40
1.0
 10
36.6941410983
 20
41.4514206652
 30
0.0
 10
36.6876265786
 20
41.4703736044
 30
0.0
 10
36.6610337058
 20
41.5443800826
 30
0.0
 10
36.6302355924
 20
41.6168922424
 30
0.0
 10
36.6047982706
 20
41.6696791902
 30
0.0
  0
SPLINE
  5
260
100
AcDbEntity
  8
0
100
AcDbSpline
 62
7
  6
BYLAYER
 70
0
 71
3
 72
11
 73
7
 74
0
 42
0.0000001
 43
0.0000001
 44
0.0000000001
 40
0.0
 40
0.0
 40
0.0
 40
0.0
 40
0.2633076255
 40
0.5155417
 40
0.7598389994
 40
1.0
 40
1.0
 40
1.0
 40
1.0
 10
36.6047982706
 20
41.6696791902
 30
0.0
 10
36.5712597457
 20
41.7392775695
 30
0.0
 10
36.496939905
 20
41.8716342071
 30
0.0
 10
36.3611489801
 20
42.049443111
 30
0.0
 10
36.2047422802
 20
42.1998773762
 30
0.0
 10
36.0872425946
 20
42.2811712896
 30
0.0
 10
36.0262205692
 20
42.3164106061
 30
0.0
  0
SPLINE
  5
261
100
AcDbEntity
  8
0
100
AcDbSpline
 62
7
  6
BYLAYER
 70
0
 71
3
 72
22
 73
18
 74
0
 42
0.0000001
 43
0.0000001
 44
0.0000000001
 40
0.0
 40
0.0
 40
0.0
 40
0.0
 40
0.0623810355
 40
0.1287693821
 40
0.1983746125
 40
0.2703711391
 40
0.4173871966
 40
0.4904320911
 40
0.5617402697
 40
0.6303596366
 40
0.6954661755
 40
0.7564326408
 40
0.8128879376
 40
0.8648030764
 40
0.9125928473
 40
0.9571811342
 40
1.0
 40
1.0
 40
1.0
 40
1.0
 10
51.3650891207
 20
26.9161592351
 30
0.0
 10
51.4548801397
 20
26.9679997947
 30
0.0
 10
51.6333073013
 20
27.0872837264
 30
0.0
 10
51.88602564
 20
27.2998884428
 30
0.0
 10
52.1276077338
 20
27.5479428812
 30
0.0
 10
52.4298103812
 20
27.921098501
 30
0.0
 10
52.685518887
 20
28.3370442921
 30
0.0
 10
52.8851529956
 20
28.7787389133
 30
0.0
 10
53.002216566
 20
29.1133399793
 30
0.0
 10
53.0843510252
 20
29.4446236773
 30
0.0
 10
53.1297721774
 20
29.7656512909
 30
0.0
 10
53.1375191656
 20
30.0696917136
 30
0.0
 10
53.1072397845
 20
30.350483959
 30
0.0
 10
53.0391871598
 20
30.6022425814
 30
0.0
 10
52.9341363318
 20
30.8196797544
 30
0.0
 10
52.7935359209
 20
30.9974771584
 30
0.0
 10
52.6766914012
 20
31.0868902331
 30
0.0
 10
52.6150586955
 20
31.1224750716
 30
0.0
  0
SPLINE
  5
262
100
AcDbEntity
  8
0
100
AcDbSpline
 62
7
  6
BYLAYER
 70
0
 71
3
 72
9
 73
5
 74
0
 42
0.0000001
 43
0.0000001
 44
0.0000000001
 40
0.0
 40
0.0
 40
0.0
 40
0.0
 40
0.5036702008
 40
1.0
 40
1.0
 40
1.0
 40
1.0
 10
17.1363195277
 20
43.766911603
 30
0.0
 10
17.0359351103
 20
43.7830177278
 30
0.0
 10
16.8389183426
 20
43.8321653902
 30
0.0
 10
16.6541347451
 20
43.9166871322
 30
0.0
 10
16.5673701301
 20
43.9667795728
 30
0.0
  0
SPLINE
  5
263
100
AcDbEntity
  8
0
100
AcDbSpline
 62
7
  6
BYLAYER
 70
0
 71
3
 72
9
 73
5
 74
0
 42
0.0000001
 43
0.0000001
 44
0.0000000001
 40
0.0
 40
0.0
 40
0.0
 40
0.0
 40
0.2480280363
 40
1.0
 40
1.0
 40
1.0
 40
1.0
 10
21.1560731008
 20
51.460147789
 30
0.0
 10
21.1797984395
 20
51.4415304145
 30
0.0
 10
21.2733667393
 20
51.3638349073
 30
0.0
 10
21.3582832914
 20
51.2758076446
 30
0.0
 10
21.4164870745
 20
51.2052933261
 30
0.0
  0
SPLINE
  5
264
100
AcDbEntity
  8
0
100
AcDbSpline
 62
7
  6
BYLAYER
 70
0
 71
3
 72
11
 73
7
 74
0
 42
0.0000001
 43
0.0000001
 44
0.0000000001
 40
0.0
 40
0.0
 40
0.0
 40
0.0
 40
0.2436538935
 40
0.4896666659
 40
0.7409633033
 40
1.0
 40
1.0
 40
1.0
 40
1.0
 10
21.9572490904
 20
51.0163091713
 30
0.0
 10
21.8853453316
 20
51.0578218867
 30
0.0
 10
21.7340390107
 20
51.1300199495
 30
0.0
 10
21.4913412352
 20
51.2029112433
 30
0.0
 10
21.2354522729
 20
51.2401294413
 30
0.0
 10
21.0609820109
 20
51.2415143067
 30
0.0
 10
20.9728400928
 20
51.2367861593
 30
0.0
  0
SPLINE
  5
265
100
AcDbEntity
  8
0
100
AcDbSpline
 62
7
  6
BYLAYER
 70
0
 71
3
 72
21
 73
17
 74
0
 42
0.0000001
 43
0.0000001
 44
0.0000000001
 40
0.0
 40
0.0
 40
0.0
 40
0.0
 40
0.1002457219
 40
0.1551008047
 40
0.2131481402
 40
0.2742291227
 40
0.3380300917
 40
0.4041015404
 40
0.4718986274
 40
0.5408071255
 40
0.6101671771
 40
0.7474663447
 40
0.8141917347
 40
0.8788213659
 40
0.9409092862
 40
1.0
 40
1.0
 40
1.0
 40
1.0
 10
20.9300359084
 20
51.2340640872
 30
0.0
 10
20.6723943736
 20
51.2151288176
 30
0.0
 10
20.277707254
 20
51.1151134645
 30
0.0
 10
19.7786691141
 20
50.8847740983
 30
0.0
 10
19.3939582976
 20
50.652524513
 30
0.0
 10
19.0158571288
 20
50.3699239276
 30
0.0
 10
18.6489846728
 20
50.0410448443
 30
0.0
 10
18.2984111059
 20
49.6707389224
 30
0.0
 10
17.9690147418
 20
49.2644463464
 30
0.0
 10
17.665543585
 20
48.8280510994
 30
0.0
 10
17.3027596271
 20
48.2170746758
 30
0.0
 10
17.0081149487
 20
47.573789654
 30
0.0
 10
16.792752059
 20
46.9152342521
 30
0.0
 10
16.6760286218
 20
46.4299525208
 30
0.0
 10
16.6045915298
 20
45.9558748266
 30
0.0
 10
16.5874503016
 20
45.6434290491
 30
0.0
 10
16.5874503016
 20
45.4911503976
 30
0.0
  0
SPLINE
  5
266
100
AcDbEntity
  8
0
100
AcDbSpline
 62
7
  6
BYLAYER
 70
0
 71
3
 72
10
 73
6
 74
0
 42
0.0000001
 43
0.0000001
 44
0.0000000001
 40
0.0
 40
0.0
 40
0.0
 40
0.0
 40
0.2671333199
 40
0.522799414
 40
1.0
 40
1.0
 40
1.0
 40
1.0
 10
16.5886370546
 20
45.3926956399
 30
0.0
 10
16.5912898692
 20
45.2833279257
 30
0.0
 10
16.605292825
 20
45.0692912087
 30
0.0
 10
16.6694083209
 20
44.6645869607
 30
0.0
 10
16.7613533671
 20
44.3752729667
 30
0.0
 10
16.8444339769
 20
44.1983824954
 30
0.0
  0
SPLINE
  5
267
100
AcDbEntity
  8
0
100
AcDbSpline
 62
7
  6
BYLAYER
 70
0
 71
3
 72
10
 73
6
 74
0
 42
0.0000001
 43
0.0000001
 44
0.0000000001
 40
0.0
 40
0.0
 40
0.0
 40
0.0
 40
0.509454213
 40
0.7564127904
 40
1.0
 40
1.0
 40
1.0
 40
1.0
 10
16.8744875372
 20
44.1369025311
 30
0.0
 10
16.9355590504
 20
44.0167993007
 30
0.0
 10
17.0435870777
 20
43.8461555065
 30
0.0
 10
17.2204452363
 20
43.6489614
 30
0.0
 10
17.3178594068
 20
43.5627157614
 30
0.0
 10
17.3685411361
 20
43.522945184
 30
0.0
  0
SPLINE
  5
268
100
AcDbEntity
  8
0
100
AcDbSpline
 62
7
  6
BYLAYER
 70
0
 71
3
 72
9
 73
5
 74
0
 42
0.0000001
 43
0.0000001
 44
0.0000000001
 40
0.0
 40
0.0
 40
0.0
 40
0.0
 40
0.2483401518
 40
1.0
 40
1.0
 40
1.0
 40
1.0
 10
22.5702925511
 20
50.64366628
 30
0.0
 10
22.5912136152
 20
50.6272494317
 30
0.0
 10
22.673835018
 20
50.5590954234
 30
0.0
 10
22.7497816066
 20
50.4828987109
 30
0.0
 10
22.8025329094
 20
50.4221032926
 30
0.0
  0
SPLINE
  5
269
100
AcDbEntity
  8
0
100
AcDbSpline
 62
7
  6
BYLAYER
 70
0
 71
3
 72
9
 73
5
 74
0
 42
0.0000001
 43
0.0000001
 44
0.0000000001
 40
0.0
 40
0.0
 40
0.0
 40
0.0
 40
0.5031112004
 40
1.0
 40
1.0
 40
1.0
 40
1.0
 10
18.5066318317
 20
42.9580375819
 30
0.0
 10
18.4141123471
 20
42.9752658523
 30
0.0
 10
18.2326209463
 20
43.0244023358
 30
0.0
 10
18.0620835787
 20
43.1038258835
 30
0.0
 10
17.9815895804
 20
43.1502980637
 30
0.0
  0
SPLINE
  5
26A
100
AcDbEntity
  8
0
100
AcDbSpline
 62
7
  6
BYLAYER
 70
0
 71
3
 72
11
 73
7
 74
0
 42
0.0000001
 43
0.0000001
 44
0.0000000001
 40
0.0
 40
0.0
 40
0.0
 40
0.0
 40
0.2397088776
 40
0.4837546723
 40
0.7360800058
 40
1.0
 40
1.0
 40
1.0
 40
1.0
 10
32.126296135
 20
35.5613905236
 30
0.0
 10
32.1888539744
 20
35.5252642972
 30
0.0
 10
32.3214891006
 20
35.4628602473
 30
0.0
 10
32.5358558338
 20
35.4023558021
 30
0.0
 10
32.7641798896
 20
35.3749197877
 30
0.0
 10
32.9202752345
 20
35.3787242117
 30
0.0
 10
32.9995081938
 20
35.3856625176
 30
0.0
  0
SPLINE
  5
26B
100
AcDbEntity
  8
0
100
AcDbSpline
 62
7
  6
BYLAYER
 70
0
 71
3
 72
15
 73
11
 74
0
 42
0.0000001
 43
0.0000001
 44
0.0000000001
 40
0.0
 40
0.0
 40
0.0
 40
0.0
 40
0.1080127821
 40
0.2180637016
 40
0.3320068966
 40
0.451350786
 40
0.5772548969
 40
0.7105108525
 40
0.8514946071
 40
1.0
 40
1.0
 40
1.0
 40
1.0
 10
30.1463889046
 20
36.7044646362
 30
0.0
 10
30.0824501289
 20
36.7413883329
 30
0.0
 10
29.95950573
 20
36.8271645474
 30
0.0
 10
29.7970582045
 20
36.9870355035
 30
0.0
 10
29.6573822635
 20
37.1767887584
 30
0.0
 10
29.5416726623
 20
37.3942332464
 30
0.0
 10
29.4509408945
 20
37.6372487658
 30
0.0
 10
29.3857995569
 20
37.9034869369
 30
0.0
 10
29.3468778021
 20
38.1902886786
 30
0.0
 10
29.3386461566
 20
38.3883084326
 30
0.0
 10
29.3386461566
 20
38.4898224774
 30
0.0
  0
SPLINE
  5
26C
100
AcDbEntity
  8
0
100
AcDbSpline
 62
7
  6
BYLAYER
 70
0
 71
3
 72
14
 73
10
 74
0
 42
0.0000001
 43
0.0000001
 44
0.0000000001
 40
0.0
 40
0.0
 40
0.0
 40
0.0
 40
0.2892705225
 40
0.4225400284
 40
0.5484970581
 40
0.6678959967
 40
0.7818685863
 40
0.8919540286
 40
1.0
 40
1.0
 40
1.0
 40
1.0
 10
32.0963034681
 20
43.2662904976
 30
0.0
 10
32.2674909403
 20
43.3651284503
 30
0.0
 10
32.5303185011
 20
43.4902097564
 30
0.0
 10
32.890750144
 20
43.595353395
 30
0.0
 10
33.1466000794
 20
43.6382454148
 30
0.0
 10
33.3927719257
 20
43.6468414924
 30
0.0
 10
33.6269435834
 20
43.6207025851
 30
0.0
 10
33.8466095875
 20
43.5599722807
 30
0.0
 10
33.9823760672
 20
43.4964075467
 30
0.0
 10
34.0463133388
 20
43.4594847188
 30
0.0
  0
SPLINE
  5
26D
100
AcDbEntity
  8
0
100
AcDbSpline
 62
7
  6
BYLAYER
 70
0
 71
3
 72
11
 73
7
 74
0
 42
0.0000001
 43
0.0000001
 44
0.0000000001
 40
0.0
 40
0.0
 40
0.0
 40
0.0
 40
0.2445828795
 40
0.4911379538
 40
0.7422081363
 40
1.0
 40
1.0
 40
1.0
 40
1.0
 10
23.3007575682
 20
50.2406517377
 30
0.0
 10
23.2343004513
 20
50.279019904
 30
0.0
 10
23.0950630716
 20
50.3464800563
 30
0.0
 10
22.8725402114
 20
50.4175504267
 30
0.0
 10
22.6383470991
 20
50.4582149886
 30
0.0
 10
22.4783688982
 20
50.4651497313
 30
0.0
 10
22.3974962012
 20
50.4639269739
 30
0.0
  0
SPLINE
  5
26E
100
AcDbEntity
  8
0
100
AcDbSpline
 62
7
  6
BYLAYER
 70
0
 71
3
 72
21
 73
17
 74
0
 42
0.0000001
 43
0.0000001
 44
0.0000000001
 40
0.0
 40
0.0
 40
0.0
 40
0.0
 40
0.1002457219
 40
0.1551008047
 40
0.2131481402
 40
0.2742291227
 40
0.3380300917
 40
0.4041015404
 40
0.4718986274
 40
0.5408071255
 40
0.6101671771
 40
0.7474663447
 40
0.8141917347
 40
0.8788213659
 40
0.9409092862
 40
1.0
 40
1.0
 40
1.0
 40
1.0
 10
22.2735443861
 20
50.4584066536
 30
0.0
 10
22.0159028514
 20
50.439471384
 30
0.0
 10
21.6212157317
 20
50.3394560309
 30
0.0
 10
21.1221775919
 20
50.1091166647
 30
0.0
 10
20.7374667754
 20
49.8768670795
 30
0.0
 10
20.3593656066
 20
49.594266494
 30
0.0
 10
19.9924931506
 20
49.2653874107
 30
0.0
 10
19.6419195837
 20
48.8950814889
 30
0.0
 10
19.3125232196
 20
48.4887889128
 30
0.0
 10
19.0090520628
 20
48.0523936658
 30
0.0
 10
18.6462681049
 20
47.4414172423
 30
0.0
 10
18.3516234265
 20
46.7981322205
 30
0.0
 10
18.1362605368
 20
46.1395768185
 30
0.0
 10
18.0195370996
 20
45.6542950872
 30
0.0
 10
17.9481000075
 20
45.180217393
 30
0.0
 10
17.9309587794
 20
44.8677716155
 30
0.0
 10
17.9309587794
 20
44.715492964
 30
0.0
  0
SPLINE
  5
26F
100
AcDbEntity
  8
0
100
AcDbSpline
 62
7
  6
BYLAYER
 70
0
 71
3
 72
11
 73
7
 74
0
 42
0.0000001
 43
0.0000001
 44
0.0000000001
 40
0.0
 40
0.0
 40
0.0
 40
0.0
 40
0.2398602166
 40
0.4837309393
 40
0.7360188963
 40
1.0
 40
1.0
 40
1.0
 40
1.0
 10
20.7393175085
 20
41.5581591211
 30
0.0
 10
20.8311172156
 20
41.5051597345
 30
0.0
 10
21.027516457
 20
41.4166354772
 30
0.0
 10
21.3461378377
 20
41.342567141
 30
0.0
 10
21.6833134765
 20
41.3265831837
 30
0.0
 10
21.9109752122
 20
41.3529352391
 30
0.0
 10
22.0256413596
 20
41.3744127568
 30
0.0
  0
SPLINE
  5
270
100
AcDbEntity
  8
0
100
AcDbSpline
 62
7
  6
BYLAYER
 70
0
 71
3
 72
10
 73
6
 74
0
 42
0.0000001
 43
0.0000001
 44
0.0000000001
 40
0.0
 40
0.0
 40
0.0
 40
0.0
 40
0.2671333199
 40
0.522799414
 40
1.0
 40
1.0
 40
1.0
 40
1.0
 10
17.9321455323
 20
44.6170382063
 30
0.0
 10
17.934798347
 20
44.5076704921
 30
0.0
 10
17.9488013028
 20
44.2936337751
 30
0.0
 10
18.0129167987
 20
43.8889295271
 30
0.0
 10
18.1048618449
 20
43.5996155331
 30
0.0
 10
18.1879424547
 20
43.4227250618
 30
0.0
  0
SPLINE
  5
271
100
AcDbEntity
  8
0
100
AcDbSpline
 62
7
  6
BYLAYER
 70
0
 71
3
 72
9
 73
5
 74
0
 42
0.0000001
 43
0.0000001
 44
0.0000000001
 40
0.0
 40
0.0
 40
0.0
 40
0.0
 40
0.5084217059
 40
1.0
 40
1.0
 40
1.0
 40
1.0
 10
18.2561384432
 20
43.2896491545
 30
0.0
 10
18.3149245867
 20
43.1842601944
 30
0.0
 10
18.4489753264
 20
42.9864794157
 30
0.0
 10
18.6202589536
 20
42.8193170125
 30
0.0
 10
18.7120496139
 20
42.7472877504
 30
0.0
  0
SPLINE
  5
272
100
AcDbEntity
  8
0
100
AcDbSpline
 62
7
  6
BYLAYER
 70
0
 71
3
 72
11
 73
7
 74
0
 42
0.0000001
 43
0.0000001
 44
0.0000000001
 40
0.0
 40
0.0
 40
0.0
 40
0.0
 40
0.2640029914
 40
0.5163069817
 40
0.7601646652
 40
1.0
 40
1.0
 40
1.0
 40
1.0
 10
25.9425487709
 20
48.1543534766
 30
0.0
 10
25.9038488278
 20
48.2646916183
 30
0.0
 10
25.8128269658
 20
48.4755948767
 30
0.0
 10
25.6302644274
 20
48.7604250057
 30
0.0
 10
25.4064541785
 20
48.9999835677
 30
0.0
 10
25.2312362107
 20
49.126114588
 30
0.0
 10
25.1392428536
 20
49.179225776
 30
0.0
  0
SPLINE
  5
273
100
AcDbEntity
  8
0
100
AcDbSpline
 62
7
  6
BYLAYER
 70
0
 71
3
 72
10
 73
6
 74
0
 42
0.0000001
 43
0.0000001
 44
0.0000000001
 40
0.0
 40
0.0
 40
0.0
 40
0.0
 40
0.2671333199
 40
0.522799414
 40
1.0
 40
1.0
 40
1.0
 40
1.0
 10
19.3463649826
 20
43.8005566973
 30
0.0
 10
19.3490177973
 20
43.691188983
 30
0.0
 10
19.3630207531
 20
43.477152266
 30
0.0
 10
19.427136249
 20
43.0724480181
 30
0.0
 10
19.5190812952
 20
42.7831340241
 30
0.0
 10
19.602161905
 20
42.6062435527
 30
0.0
  0
SPLINE
  5
274
100
AcDbEntity
  8
0
100
AcDbSpline
 62
7
  6
BYLAYER
 70
0
 71
3
 72
10
 73
6
 74
0
 42
0.0000001
 43
0.0000001
 44
0.0000000001
 40
0.0
 40
0.0
 40
0.0
 40
0.0
 40
0.509454213
 40
0.7564127904
 40
1.0
 40
1.0
 40
1.0
 40
1.0
 10
19.6322154653
 20
42.5447635885
 30
0.0
 10
19.6932869785
 20
42.4246603581
 30
0.0
 10
19.8013150058
 20
42.2540165639
 30
0.0
 10
19.9781731643
 20
42.0568224574
 30
0.0
 10
20.0755873348
 20
41.9705768188
 30
0.0
 10
20.1262690642
 20
41.9308062413
 30
0.0
  0
SPLINE
  5
275
100
AcDbEntity
  8
0
100
AcDbSpline
 62
7
  6
BYLAYER
 70
0
 71
3
 72
11
 73
7
 74
0
 42
0.0000001
 43
0.0000001
 44
0.0000000001
 40
0.0
 40
0.0
 40
0.0
 40
0.0
 40
0.2436538935
 40
0.4896666659
 40
0.7409633033
 40
1.0
 40
1.0
 40
1.0
 40
1.0
 10
24.7149770185
 20
49.4241702287
 30
0.0
 10
24.6430732597
 20
49.4656829441
 30
0.0
 10
24.4917669388
 20
49.5378810069
 30
0.0
 10
24.2490691633
 20
49.6107723006
 30
0.0
 10
23.9931802009
 20
49.6479904987
 30
0.0
 10
23.818709939
 20
49.6493753641
 30
0.0
 10
23.7305680209
 20
49.6446472167
 30
0.0
  0
SPLINE
  5
276
100
AcDbEntity
  8
0
100
AcDbSpline
 62
7
  6
BYLAYER
 70
0
 71
3
 72
21
 73
17
 74
0
 42
0.0000001
 43
0.0000001
 44
0.0000000001
 40
0.0
 40
0.0
 40
0.0
 40
0.0
 40
0.1002457219
 40
0.1551008047
 40
0.2131481402
 40
0.2742291227
 40
0.3380300917
 40
0.4041015404
 40
0.4718986274
 40
0.5408071255
 40
0.6101671771
 40
0.7474663447
 40
0.8141917347
 40
0.8788213659
 40
0.9409092862
 40
1.0
 40
1.0
 40
1.0
 40
1.0
 10
23.6877638364
 20
49.6419251445
 30
0.0
 10
23.4301223016
 20
49.622989875
 30
0.0
 10
23.035435182
 20
49.5229745219
 30
0.0
 10
22.5363970422
 20
49.2926351557
 30
0.0
 10
22.1516862257
 20
49.0603855704
 30
0.0
 10
21.7735850569
 20
48.777784985
 30
0.0
 10
21.4067126009
 20
48.4489059016
 30
0.0
 10
21.056139034
 20
48.0785999798
 30
0.0
 10
20.7267426699
 20
47.6723074037
 30
0.0
 10
20.4232715131
 20
47.2359121568
 30
0.0
 10
20.0604875552
 20
46.6249357332
 30
0.0
 10
19.7658428768
 20
45.9816507114
 30
0.0
 10
19.5504799871
 20
45.3230953095
 30
0.0
 10
19.4337565499
 20
44.8378135782
 30
0.0
 10
19.3623194578
 20
44.3637358839
 30
0.0
 10
19.3451782297
 20
44.0512901064
 30
0.0
 10
19.3451782297
 20
43.899011455
 30
0.0
  0
SPLINE
  5
277
100
AcDbEntity
  8
0
100
AcDbSpline
 62
7
  6
BYLAYER
 70
0
 71
3
 72
9
 73
5
 74
0
 42
0.0000001
 43
0.0000001
 44
0.0000000001
 40
0.0
 40
0.0
 40
0.0
 40
0.0
 40
0.2480280363
 40
1.0
 40
1.0
 40
1.0
 40
1.0
 10
23.9138010289
 20
49.8680088464
 30
0.0
 10
23.9375263676
 20
49.8493914718
 30
0.0
 10
24.0310946674
 20
49.7716959646
 30
0.0
 10
24.1160112195
 20
49.683668702
 30
0.0
 10
24.1742150026
 20
49.6131543835
 30
0.0
  0
SPLINE
  5
278
100
AcDbEntity
  8
0
100
AcDbSpline
 62
7
  6
BYLAYER
 70
0
 71
3
 72
9
 73
5
 74
0
 42
0.0000001
 43
0.0000001
 44
0.0000000001
 40
0.0
 40
0.0
 40
0.0
 40
0.0
 40
0.5036702008
 40
1.0
 40
1.0
 40
1.0
 40
1.0
 10
19.8940474557
 20
42.1747726604
 30
0.0
 10
19.7936630384
 20
42.1908787852
 30
0.0
 10
19.5966462707
 20
42.2400264475
 30
0.0
 10
19.4118626732
 20
42.3245481896
 30
0.0
 10
19.3250980582
 20
42.3746406302
 30
0.0
  0
SPLINE
  5
279
100
AcDbEntity
  8
0
100
AcDbSpline
 62
7
  6
BYLAYER
 70
0
 71
3
 72
15
 73
11
 74
0
 42
0.0000001
 43
0.0000001
 44
0.0000000001
 40
0.0
 40
0.0
 40
0.0
 40
0.0
 40
0.1483858836
 40
0.2892938916
 40
0.4225377606
 40
0.5484983897
 40
0.6679358942
 40
0.7819629181
 40
0.8920462213
 40
1.0
 40
1.0
 40
1.0
 40
1.0
 10
18.6966465595
 20
44.3889003604
 30
0.0
 10
18.6966465595
 20
44.2804339862
 30
0.0
 10
18.705364667
 20
44.0688271873
 30
0.0
 10
18.7466137345
 20
43.7622481855
 30
0.0
 10
18.8156430862
 20
43.4774309857
 30
0.0
 10
18.911785948
 20
43.2171448346
 30
0.0
 10
19.0344184031
 20
42.9838688812
 30
0.0
 10
19.1824578065
 20
42.7798257351
 30
0.0
 10
19.3547192838
 20
42.6073830271
 30
0.0
 10
19.4851734944
 20
42.5142820957
 30
0.0
 10
19.5530695022
 20
42.4740681751
 30
0.0
  0
SPLINE
  5
27A
100
AcDbEntity
  8
0
100
AcDbSpline
 62
7
  6
BYLAYER
 70
0
 71
3
 72
14
 73
10
 74
0
 42
0.0000001
 43
0.0000001
 44
0.0000000001
 40
0.0
 40
0.0
 40
0.0
 40
0.0
 40
0.1103069636
 40
0.2223928687
 40
0.3377897814
 40
0.4577998831
 40
0.5834569446
 40
0.7154985155
 40
1.0
 40
1.0
 40
1.0
 40
1.0
 10
23.7532056259
 20
49.7483963084
 30
0.0
 10
23.6913463691
 20
49.7832135772
 30
0.0
 10
23.561043721
 20
49.8439451409
 30
0.0
 10
23.3518117317
 20
49.9055675411
 30
0.0
 10
23.1297577895
 20
49.9375473738
 30
0.0
 10
22.8967961557
 20
49.9398789026
 30
0.0
 10
22.6546957876
 20
49.9126032433
 30
0.0
 10
22.3138886779
 20
49.8353829486
 30
0.0
 10
22.0626900925
 20
49.7362482681
 30
0.0
 10
21.8980885639
 20
49.6560900068
 30
0.0
  0
SPLINE
  5
27B
100
AcDbEntity
  8
0
100
AcDbSpline
 62
7
  6
BYLAYER
 70
0
 71
3
 72
16
 73
12
 74
0
 42
0.0000001
 43
0.0000001
 44
0.0000000001
 40
0.0
 40
0.0
 40
0.0
 40
0.0
 40
0.111057189
 40
0.2323667337
 40
0.3613978626
 40
0.4948480338
 40
0.6290142937
 40
0.760141563
 40
0.8847273063
 40
0.9437072267
 40
1.0
 40
1.0
 40
1.0
 40
1.0
 10
21.8980885639
 20
49.6560900068
 30
0.0
 10
21.684024651
 20
49.5518443707
 30
0.0
 10
21.2576692376
 20
49.2883505948
 30
0.0
 10
20.6679924932
 20
48.7820653758
 30
0.0
 10
20.1194864555
 20
48.165656439
 30
0.0
 10
19.6348098635
 20
47.4644973016
 30
0.0
 10
19.2336987713
 20
46.707273952
 30
0.0
 10
18.9327864869
 20
45.9252963859
 30
0.0
 10
18.7726815686
 20
45.2674025152
 30
0.0
 10
18.7079583239
 20
44.7568259088
 30
0.0
 10
18.6966465595
 20
44.509587545
 30
0.0
 10
18.6966465595
 20
44.3889003604
 30
0.0
  0
SPLINE
  5
27C
100
AcDbEntity
  8
0
100
AcDbSpline
 62
7
  6
BYLAYER
 70
0
 71
3
 72
15
 73
11
 74
0
 42
0.0000001
 43
0.0000001
 44
0.0000000001
 40
0.0
 40
0.0
 40
0.0
 40
0.0
 40
0.1141513375
 40
0.2373294066
 40
0.3669765997
 40
0.5000021005
 40
0.6330257552
 40
0.7626751645
 40
0.8858460236
 40
1.0
 40
1.0
 40
1.0
 40
1.0
 10
29.3386461566
 20
38.4898224774
 30
0.0
 10
29.3386461566
 20
38.7078064102
 30
0.0
 10
29.3785802832
 20
39.1614338526
 30
0.0
 10
29.5377330671
 20
39.8457806315
 30
0.0
 10
29.7927342585
 20
40.5389709307
 30
0.0
 10
30.1339907237
 20
41.2149363479
 30
0.0
 10
30.5487586954
 20
41.8484665315
 30
0.0
 10
31.0215751594
 20
42.4158842263
 30
0.0
 10
31.5346407893
 20
42.8959020976
 30
0.0
 10
31.907520827
 20
43.1572936796
 30
0.0
 10
32.0963034681
 20
43.2662904976
 30
0.0
  0
SPLINE
  5
27D
100
AcDbEntity
  8
0
100
AcDbSpline
 62
7
  6
BYLAYER
 70
0
 71
3
 72
25
 73
21
 74
0
 42
0.0000001
 43
0.0000001
 44
0.0000000001
 40
0.0
 40
0.0
 40
0.0
 40
0.0
 40
0.0623737817
 40
0.1287291171
 40
0.1983155271
 40
0.2702937706
 40
0.3436701908
 40
0.4174009358
 40
0.4904259474
 40
0.5617134252
 40
0.6303107274
 40
0.6953976468
 40
0.7563450207
 40
0.8127825739
 40
0.8646826858
 40
0.9124571419
 40
0.9351023418
 40
0.957107489
 40
0.9786680546
 40
1.0
 40
1.0
 40
1.0
 40
1.0
 10
18.7320017513
 20
44.4093125681
 30
0.0
 10
18.7320017513
 20
44.5814531759
 30
0.0
 10
18.7553549996
 20
44.9369570129
 30
0.0
 10
18.8512880935
 20
45.476726391
 30
0.0
 10
19.0073685324
 20
46.0298301613
 30
0.0
 10
19.2201061714
 20
46.5843963182
 30
0.0
 10
19.4850773063
 20
47.1287025536
 30
0.0
 10
19.7965893295
 20
47.6511278956
 30
0.0
 10
20.1479909123
 20
48.1405468087
 30
0.0
 10
20.5318092377
 20
48.5865192419
 30
0.0
 10
20.9399084693
 20
48.9795460782
 30
0.0
 10
21.3636882365
 20
49.3113091586
 30
0.0
 10
21.7943335984
 20
49.5747923542
 30
0.0
 10
22.2231503632
 20
49.7643080053
 30
0.0
 10
22.6414530264
 20
49.8754881055
 30
0.0
 10
22.9807166944
 20
49.9003737719
 30
0.0
 10
23.2351733147
 20
49.8765277162
 30
0.0
 10
23.4143250998
 20
49.8383055521
 30
0.0
 10
23.5840147854
 20
49.7796365883
 30
0.0
 10
23.6904595363
 20
49.7269826618
 30
0.0
 10
23.7414449513
 20
49.6975471967
 30
0.0
  0
SPLINE
  5
27E
100
AcDbEntity
  8
0
100
AcDbSpline
 62
7
  6
BYLAYER
 70
0
 71
3
 72
11
 73
7
 74
0
 42
0.0000001
 43
0.0000001
 44
0.0000000001
 40
0.0
 40
0.0
 40
0.0
 40
0.0
 40
0.2823939104
 40
0.541859728
 40
0.7796406834
 40
1.0
 40
1.0
 40
1.0
 40
1.0
 10
18.413803847
 20
44.3888996805
 30
0.0
 10
18.413803847
 20
44.2138864295
 30
0.0
 10
18.4349477601
 20
43.8774475062
 30
0.0
 10
18.5391636264
 20
43.4033404174
 30
0.0
 10
18.7133812777
 20
42.991121649
 30
0.0
 10
18.8799008451
 20
42.7573017074
 30
0.0
 10
18.9727311317
 20
42.6571358901
 30
0.0
  0
SPLINE
  5
27F
100
AcDbEntity
  8
0
100
AcDbSpline
 62
7
  6
BYLAYER
 70
0
 71
3
 72
9
 73
5
 74
0
 42
0.0000001
 43
0.0000001
 44
0.0000000001
 40
0.0
 40
0.0
 40
0.0
 40
0.0
 40
0.5038020086
 40
1.0
 40
1.0
 40
1.0
 40
1.0
 10
18.9727311317
 20
42.6571358901
 30
0.0
 10
19.0244308546
 20
42.6013508098
 30
0.0
 10
19.1351301363
 20
42.4977973249
 30
0.0
 10
19.2602232203
 20
42.41209441
 30
0.0
 10
19.3250980584
 20
42.3746406304
 30
0.0
  0
SPLINE
  5
280
100
AcDbEntity
  8
0
100
AcDbSpline
 62
7
  6
BYLAYER
 70
0
 71
3
 72
15
 73
11
 74
0
 42
0.0000001
 43
0.0000001
 44
0.0000000001
 40
0.0
 40
0.0
 40
0.0
 40
0.0
 40
0.102052676
 40
0.2071739621
 40
0.3180022876
 40
0.4364746117
 40
0.563752594
 40
0.7002852356
 40
0.8458935941
 40
1.0
 40
1.0
 40
1.0
 40
1.0
 10
16.9599892152
 20
54.3632908342
 30
0.0
 10
16.8597896948
 20
54.4211391977
 30
0.0
 10
16.6427842482
 20
54.5165110585
 30
0.0
 10
16.2872599134
 20
54.5892896326
 30
0.0
 10
15.9059994597
 20
54.5924773619
 30
0.0
 10
15.5053908011
 20
54.526857598
 30
0.0
 10
15.0913418176
 20
54.3942762011
 30
0.0
 10
14.6699272821
 20
54.1970806251
 30
0.0
 10
14.247301297
 20
53.9385093982
 30
0.0
 10
13.9758850206
 20
53.7331087336
 30
0.0
 10
13.8412938642
 20
53.6217075732
 30
0.0
  0
SPLINE
  5
281
100
AcDbEntity
  8
0
100
AcDbSpline
 62
7
  6
BYLAYER
 70
0
 71
3
 72
9
 73
5
 74
0
 42
0.0000001
 43
0.0000001
 44
0.0000000001
 40
0.0
 40
0.0
 40
0.0
 40
0.0
 40
0.2447314044
 40
1.0
 40
1.0
 40
1.0
 40
1.0
 10
13.8412938642
 20
53.6217075732
 30
0.0
 10
13.7915402674
 20
53.5805264989
 30
0.0
 10
13.5909709844
 20
53.4089747205
 30
0.0
 10
13.4011534247
 20
53.2249382714
 30
0.0
 10
13.2639957693
 20
53.0803159268
 30
0.0
  0
SPLINE
  5
282
100
AcDbEntity
  8
0
100
AcDbSpline
 62
7
  6
BYLAYER
 70
0
 71
3
 72
21
 73
17
 74
0
 42
0.0000001
 43
0.0000001
 44
0.0000000001
 40
0.0
 40
0.0
 40
0.0
 40
0.0
 40
0.0594594651
 40
0.1221220832
 40
0.1874832002
 40
0.2550160956
 40
0.3939076468
 40
0.4639623099
 40
0.5334426587
 40
0.6016518527
 40
0.667933464
 40
0.7316983042
 40
0.7924440581
 40
0.8497936641
 40
0.903525428
 40
1.0
 40
1.0
 40
1.0
 40
1.0
 10
17.9900430621
 20
44.6986921256
 30
0.0
 10
17.9924303988
 20
44.8527113518
 30
0.0
 10
18.0144187564
 20
45.1689444589
 30
0.0
 10
18.0932719752
 20
45.6487968706
 30
0.0
 10
18.2178058707
 20
46.1404938845
 30
0.0
 10
18.4442234493
 20
46.8077635962
 30
0.0
 10
18.750237922
 20
47.4587171086
 30
0.0
 10
19.1245906461
 20
48.0757675591
 30
0.0
 10
19.4362684567
 20
48.5151439596
 30
0.0
 10
19.7731955704
 20
48.9228455693
 30
0.0
 10
20.1302895499
 20
49.2927518026
 30
0.0
 10
20.5021645228
 20
49.6192988248
 30
0.0
 10
20.8831986589
 20
49.8974757629
 30
0.0
 10
21.2680752288
 20
50.1232251274
 30
0.0
 10
21.7597979887
 20
50.3415350161
 30
0.0
 10
22.1460890703
 20
50.4322289063
 30
0.0
 10
22.3957234801
 20
50.4443875251
 30
0.0
  0
SPLINE
  5
283
100
AcDbEntity
  8
0
100
AcDbSpline
 62
7
  6
BYLAYER
 70
0
 71
3
 72
11
 73
7
 74
0
 42
0.0000001
 43
0.0000001
 44
0.0000000001
 40
0.0
 40
0.0
 40
0.0
 40
0.0
 40
0.262188222
 40
0.5141920996
 40
0.7589708145
 40
1.0
 40
1.0
 40
1.0
 40
1.0
 10
22.3957234801
 20
50.4443875251
 30
0.0
 10
22.4777670949
 20
50.4483835169
 30
0.0
 10
22.6393718205
 20
50.4464647539
 30
0.0
 10
22.8753340306
 20
50.4114258117
 30
0.0
 10
23.0973984383
 20
50.3443407584
 30
0.0
 10
23.2353615369
 20
50.2784064141
 30
0.0
 10
23.300757568
 20
50.2406517374
 30
0.0
  0
SPLINE
  5
284
100
AcDbEntity
  8
0
100
AcDbSpline
 62
7
  6
BYLAYER
 70
0
 71
3
 72
18
 73
14
 74
0
 42
0.0000001
 43
0.0000001
 44
0.0000000001
 40
0.0
 40
0.0
 40
0.0
 40
0.0
 40
0.1515226378
 40
0.2911081182
 40
0.4193120779
 40
0.5381988972
 40
0.595250616
 40
0.6513397235
 40
0.707052195
 40
0.7629962293
 40
0.819763424
 40
0.8779066077
 40
1.0
 40
1.0
 40
1.0
 40
1.0
 10
20.1108660098
 20
43.5724188514
 30
0.0
 10
20.1108660098
 20
43.4098895863
 30
0.0
 10
20.1300089228
 20
43.0970902055
 30
0.0
 10
20.224027712
 20
42.6552897477
 30
0.0
 10
20.3812308082
 20
42.2688036485
 30
0.0
 10
20.5661241266
 20
41.9962919827
 30
0.0
 10
20.7413305344
 20
41.8187357373
 30
0.0
 10
20.883970704
 20
41.7063201837
 30
0.0
 10
21.038795259
 20
41.6136724565
 30
0.0
 10
21.2048789355
 20
41.5413629459
 30
0.0
 10
21.3812253198
 20
41.4897125521
 30
0.0
 10
21.6325094228
 20
41.4481955006
 30
0.0
 10
21.8277923617
 20
41.4502518082
 30
0.0
 10
21.9580268189
 20
41.4640396129
 30
0.0
  0
SPLINE
  5
285
100
AcDbEntity
  8
0
100
AcDbSpline
 62
7
  6
BYLAYER
 70
0
 71
3
 72
11
 73
7
 74
0
 42
0.0000001
 43
0.0000001
 44
0.0000000001
 40
0.0
 40
0.0
 40
0.0
 40
0.0
 40
0.2405931754
 40
0.4836611472
 40
0.7351446943
 40
1.0
 40
1.0
 40
1.0
 40
1.0
 10
17.4009842459
 20
53.1737892996
 30
0.0
 10
17.330415769
 20
53.2267156705
 30
0.0
 10
17.1775781617
 20
53.319344998
 30
0.0
 10
16.9223454248
 20
53.4110284675
 30
0.0
 10
16.6457318199
 20
53.4540773557
 30
0.0
 10
16.4554752525
 20
53.4504181932
 30
0.0
 10
16.3587974491
 20
53.4413087428
 30
0.0
  0
SPLINE
  5
286
100
AcDbEntity
  8
0
100
AcDbSpline
 62
7
  6
BYLAYER
 70
0
 71
3
 72
9
 73
5
 74
0
 42
0.0000001
 43
0.0000001
 44
0.0000000001
 40
0.0
 40
0.0
 40
0.0
 40
0.0
 40
0.2362227022
 40
1.0
 40
1.0
 40
1.0
 40
1.0
 10
16.1296590603
 20
53.4065098428
 30
0.0
 10
16.0685628158
 20
53.3938249627
 30
0.0
 10
15.8121600259
 20
53.3294075592
 30
0.0
 10
15.5666646343
 20
53.2251901912
 30
0.0
 10
15.3882345477
 20
53.1310216097
 30
0.0
  0
SPLINE
  5
287
100
AcDbEntity
  8
0
100
AcDbSpline
 62
7
  6
BYLAYER
 70
0
 71
3
 72
9
 73
5
 74
0
 42
0.0000001
 43
0.0000001
 44
0.0000000001
 40
0.0
 40
0.0
 40
0.0
 40
0.0
 40
0.2455993243
 40
1.0
 40
1.0
 40
1.0
 40
1.0
 10
15.3882345477
 20
53.1310216097
 30
0.0
 10
15.3658088433
 20
53.1191861799
 30
0.0
 10
15.2750189841
 20
53.0700143725
 30
0.0
 10
15.1863192888
 20
53.0170027163
 30
0.0
 10
15.1206336907
 20
52.9751443888
 30
0.0
  0
SPLINE
  5
288
100
AcDbEntity
  8
0
100
AcDbSpline
 62
7
  6
BYLAYER
 70
0
 71
3
 72
9
 73
5
 74
0
 42
0.0000001
 43
0.0000001
 44
0.0000000001
 40
0.0
 40
0.0
 40
0.0
 40
0.0
 40
0.4842754325
 40
1.0
 40
1.0
 40
1.0
 40
1.0
 10
15.1206336907
 20
52.9751443888
 30
0.0
 10
14.9545418295
 20
52.869301895
 30
0.0
 10
14.6271107745
 20
52.6258625921
 30
0.0
 10
14.331439991
 20
52.3452638573
 30
0.0
 10
14.1871111893
 20
52.1930800828
 30
0.0
  0
SPLINE
  5
289
100
AcDbEntity
  8
0
100
AcDbSpline
 62
7
  6
BYLAYER
 70
0
 71
3
 72
15
 73
11
 74
0
 42
0.0000001
 43
0.0000001
 44
0.0000000001
 40
0.0
 40
0.0
 40
0.0
 40
0.0
 40
0.1245240987
 40
0.2418039283
 40
0.3554004881
 40
0.469519766
 40
0.5882651221
 40
0.7149703167
 40
0.8518558294
 40
1.0
 40
1.0
 40
1.0
 40
1.0
 10
25.8300103722
 20
48.171142743
 30
0.0
 10
25.7801986009
 20
48.2831803784
 30
0.0
 10
25.6637564295
 20
48.4929297685
 30
0.0
 10
25.4312736636
 20
48.7583090059
 30
0.0
 10
25.1512761634
 20
48.9564763853
 30
0.0
 10
24.8305391413
 20
49.0819148162
 30
0.0
 10
24.4772311478
 20
49.1323221507
 30
0.0
 10
24.0992447105
 20
49.108065695
 30
0.0
 10
23.7038539122
 20
49.0109343121
 30
0.0
 10
23.4434529627
 20
48.90347395
 30
0.0
 10
23.3123080142
 20
48.8396084978
 30
0.0
  0
SPLINE
  5
28A
100
AcDbEntity
  8
0
100
AcDbSpline
 62
7
  6
BYLAYER
 70
0
 71
3
 72
16
 73
12
 74
0
 42
0.0000001
 43
0.0000001
 44
0.0000000001
 40
0.0
 40
0.0
 40
0.0
 40
0.0
 40
0.111057189
 40
0.2323667337
 40
0.3613978626
 40
0.4948480338
 40
0.6290142937
 40
0.760141563
 40
0.8847273063
 40
0.9437072267
 40
1.0
 40
1.0
 40
1.0
 40
1.0
 10
23.3123080142
 20
48.8396084978
 30
0.0
 10
23.0982441013
 20
48.7353628616
 30
0.0
 10
22.6718886879
 20
48.4718690857
 30
0.0
 10
22.0822119435
 20
47.9655838668
 30
0.0
 10
21.5337059058
 20
47.3491749299
 30
0.0
 10
21.0490293138
 20
46.6480157926
 30
0.0
 10
20.6479182216
 20
45.8907924429
 30
0.0
 10
20.3470059372
 20
45.1088148768
 30
0.0
 10
20.1869010189
 20
44.4509210062
 30
0.0
 10
20.1221777742
 20
43.9403443998
 30
0.0
 10
20.1108660098
 20
43.6931060359
 30
0.0
 10
20.1108660098
 20
43.5724188514
 30
0.0
  0
SPLINE
  5
28B
100
AcDbEntity
  8
0
100
AcDbSpline
 62
7
  6
BYLAYER
 70
0
 71
3
 72
9
 73
5
 74
0
 42
0.0000001
 43
0.0000001
 44
0.0000000001
 40
0.0
 40
0.0
 40
0.0
 40
0.0
 40
0.4842086137
 40
1.0
 40
1.0
 40
1.0
 40
1.0
 10
13.2495786323
 20
46.9432073781
 30
0.0
 10
13.1822700359
 20
47.0114932489
 30
0.0
 10
13.0592140638
 20
47.1688398431
 30
0.0
 10
12.9703049302
 20
47.3471773158
 30
0.0
 10
12.9325097309
 20
47.4420632075
 30
0.0
  0
SPLINE
  5
28C
100
AcDbEntity
  8
0
100
AcDbSpline
 62
7
  6
BYLAYER
 70
0
 71
3
 72
9
 73
5
 74
0
 42
0.0000001
 43
0.0000001
 44
0.0000000001
 40
0.0
 40
0.0
 40
0.0
 40
0.0
 40
0.4748322353
 40
1.0
 40
1.0
 40
1.0
 40
1.0
 10
12.9325097309
 20
47.4420632075
 30
0.0
 10
12.8777699097
 20
47.5794890402
 30
0.0
 10
12.7973394819
 20
47.883202965
 30
0.0
 10
12.774598637
 20
48.1954360344
 30
0.0
 10
12.774598637
 20
48.3590439927
 30
0.0
  0
SPLINE
  5
28D
100
AcDbEntity
  8
0
100
AcDbSpline
 62
7
  6
BYLAYER
 70
0
 71
3
 72
15
 73
11
 74
0
 42
0.0000001
 43
0.0000001
 44
0.0000000001
 40
0.0
 40
0.0
 40
0.0
 40
0.0
 40
0.1483858836
 40
0.2892938916
 40
0.4225377606
 40
0.5484983897
 40
0.6679358942
 40
0.7819629181
 40
0.8920462213
 40
1.0
 40
1.0
 40
1.0
 40
1.0
 10
17.3531380817
 20
45.164557794
 30
0.0
 10
17.3531380817
 20
45.0560914198
 30
0.0
 10
17.3618561893
 20
44.8444846209
 30
0.0
 10
17.4031052567
 20
44.537905619
 30
0.0
 10
17.4721346084
 20
44.2530884193
 30
0.0
 10
17.5682774702
 20
43.9928022682
 30
0.0
 10
17.6909099253
 20
43.7595263148
 30
0.0
 10
17.8389493287
 20
43.5554831687
 30
0.0
 10
18.0112108061
 20
43.3830404607
 30
0.0
 10
18.1416650166
 20
43.2899395293
 30
0.0
 10
18.2095610244
 20
43.2497256087
 30
0.0
  0
SPLINE
  5
28E
100
AcDbEntity
  8
0
100
AcDbSpline
 62
7
  6
BYLAYER
 70
0
 71
3
 72
25
 73
21
 74
0
 42
0.0000001
 43
0.0000001
 44
0.0000000001
 40
0.0
 40
0.0
 40
0.0
 40
0.0
 40
0.0213242555
 40
0.0428947065
 40
0.0649248185
 40
0.0876065473
 40
0.1354764302
 40
0.1874798223
 40
0.2440099933
 40
0.3050275569
 40
0.3701559372
 40
0.4387642135
 40
0.5100340511
 40
0.5830170564
 40
0.6566869379
 40
0.7299904181
 40
0.8018901032
 40
0.8713989727
 40
0.9376847028
 40
1.0
 40
1.0
 40
1.0
 40
1.0
 10
22.4096971481
 20
50.524053742
 30
0.0
 10
22.35788765
 20
50.5532145388
 30
0.0
 10
22.2497885635
 20
50.6052507933
 30
0.0
 10
22.0777069216
 20
50.6628043002
 30
0.0
 10
21.896178479
 20
50.6997416789
 30
0.0
 10
21.6384973663
 20
50.7216697564
 30
0.0
 10
21.2953436285
 20
50.693993659
 30
0.0
 10
20.8726521186
 20
50.5791016401
 30
0.0
 10
20.4396380791
 20
50.3854662556
 30
0.0
 10
20.0050359498
 20
50.1175134937
 30
0.0
 10
19.5775808903
 20
49.7809938005
 30
0.0
 10
19.1661209756
 20
49.3829878358
 30
0.0
 10
18.7792830567
 20
48.9318734733
 30
0.0
 10
18.4252266029
 20
48.43720536
 30
0.0
 10
18.1114381663
 20
47.9094804263
 30
0.0
 10
17.8445829425
 20
47.3598776787
 30
0.0
 10
17.6303656023
 20
46.8000696309
 30
0.0
 10
17.4732199867
 20
46.2418257214
 30
0.0
 10
17.376643724
 20
45.6970704462
 30
0.0
 10
17.3531380817
 20
45.3382936531
 30
0.0
 10
17.3531380817
 20
45.164557794
 30
0.0
  0
SPLINE
  5
28F
100
AcDbEntity
  8
0
100
AcDbSpline
 62
7
  6
BYLAYER
 70
0
 71
3
 72
15
 73
11
 74
0
 42
0.0000001
 43
0.0000001
 44
0.0000000001
 40
0.0
 40
0.0
 40
0.0
 40
0.0
 40
0.1485053929
 40
0.2894891475
 40
0.4227451031
 40
0.548649214
 40
0.6679931034
 40
0.7819362984
 40
0.8919872179
 40
1.0
 40
1.0
 40
1.0
 40
1.0
 10
31.318553387
 20
37.3467483647
 30
0.0
 10
31.318553387
 20
37.2452343199
 30
0.0
 10
31.3267850326
 20
37.0472145659
 30
0.0
 10
31.3657067873
 20
36.7604128242
 30
0.0
 10
31.4308481249
 20
36.4941746531
 30
0.0
 10
31.5215798927
 20
36.2511591338
 30
0.0
 10
31.637289494
 20
36.0337146458
 30
0.0
 10
31.7769654349
 20
35.8439613909
 30
0.0
 10
31.9394129604
 20
35.6840904347
 30
0.0
 10
32.0623573594
 20
35.5983142202
 30
0.0
 10
32.126296135
 20
35.5613905236
 30
0.0
  0
SPLINE
  5
290
100
AcDbEntity
  8
0
100
AcDbSpline
 62
7
  6
BYLAYER
 70
0
 71
3
 72
25
 73
21
 74
0
 42
0.0000001
 43
0.0000001
 44
0.0000000001
 40
0.0
 40
0.0
 40
0.0
 40
0.0
 40
0.0623737817
 40
0.1287291171
 40
0.1983155271
 40
0.2702937706
 40
0.3436701908
 40
0.4174009358
 40
0.4904259474
 40
0.5617134252
 40
0.6303107274
 40
0.6953976468
 40
0.7563450207
 40
0.8127825739
 40
0.8646826858
 40
0.9124571419
 40
0.9351023418
 40
0.957107489
 40
0.9786680546
 40
1.0
 40
1.0
 40
1.0
 40
1.0
 10
17.3884932736
 20
45.1849700017
 30
0.0
 10
17.3884932736
 20
45.3571106095
 30
0.0
 10
17.4118465218
 20
45.7126144465
 30
0.0
 10
17.5077796157
 20
46.2523838246
 30
0.0
 10
17.6638600547
 20
46.8054875949
 30
0.0
 10
17.8765976936
 20
47.3600537518
 30
0.0
 10
18.1415688285
 20
47.9043599872
 30
0.0
 10
18.4530808517
 20
48.4267853292
 30
0.0
 10
18.8044824345
 20
48.9162042423
 30
0.0
 10
19.18830076
 20
49.3621766755
 30
0.0
 10
19.5963999915
 20
49.7552035117
 30
0.0
 10
20.0201797587
 20
50.0869665922
 30
0.0
 10
20.4508251206
 20
50.3504497878
 30
0.0
 10
20.8796418854
 20
50.5399654389
 30
0.0
 10
21.2979445486
 20
50.6511455391
 30
0.0
 10
21.6372082167
 20
50.6760312055
 30
0.0
 10
21.891664837
 20
50.6521851498
 30
0.0
 10
22.070816622
 20
50.6139629857
 30
0.0
 10
22.2405063076
 20
50.5552940219
 30
0.0
 10
22.3469510585
 20
50.5026400954
 30
0.0
 10
22.3979364735
 20
50.4732046303
 30
0.0
  0
SPLINE
  5
291
100
AcDbEntity
  8
0
100
AcDbSpline
 62
7
  6
BYLAYER
 70
0
 71
3
 72
25
 73
21
 74
0
 42
0.0000001
 43
0.0000001
 44
0.0000000001
 40
0.0
 40
0.0
 40
0.0
 40
0.0
 40
0.0623688867
 40
0.1287299007
 40
0.1983142868
 40
0.2702916206
 40
0.3436697324
 40
0.4174005384
 40
0.4904253367
 40
0.5617114425
 40
0.6303083463
 40
0.6953967807
 40
0.7563441065
 40
0.8127809615
 40
0.8646824678
 40
0.9124577635
 40
0.935102277
 40
0.9571074812
 40
0.9786682474
 40
1.0
 40
1.0
 40
1.0
 40
1.0
 10
31.8135281338
 20
37.3467495545
 30
0.0
 10
31.8135281338
 20
37.4939909121
 30
0.0
 10
31.8335165581
 20
37.7980976316
 30
0.0
 10
31.9155619996
 20
38.2598278916
 30
0.0
 10
32.0490735912
 20
38.7329737764
 30
0.0
 10
32.2310670607
 20
39.2073538832
 30
0.0
 10
32.45772731
 20
39.6729681281
 30
0.0
 10
32.7241927722
 20
40.1198718449
 30
0.0
 10
33.0247847995
 20
40.5385316038
 30
0.0
 10
33.3531244927
 20
40.9200089993
 30
0.0
 10
33.7022139249
 20
41.2562182647
 30
0.0
 10
34.0647125668
 20
41.5400363178
 30
0.0
 10
34.4331071321
 20
41.765414353
 30
0.0
 10
34.7999344419
 20
41.9275122685
 30
0.0
 10
35.157754965
 20
42.0226441165
 30
0.0
 10
35.4479741482
 20
42.0439443254
 30
0.0
 10
35.6656415216
 20
42.0235233721
 30
0.0
 10
35.8188858845
 20
41.99081434
 30
0.0
 10
35.9640570049
 20
41.9406671521
 30
0.0
 10
36.0551016077
 20
41.8956010326
 30
0.0
 10
36.0987123638
 20
41.8704164665
 30
0.0
  0
SPLINE
  5
292
100
AcDbEntity
  8
0
100
AcDbSpline
 62
7
  6
BYLAYER
 70
0
 71
3
 72
11
 73
7
 74
0
 42
0.0000001
 43
0.0000001
 44
0.0000000001
 40
0.0
 40
0.0
 40
0.0
 40
0.0
 40
0.2823939104
 40
0.541859728
 40
0.7796406834
 40
1.0
 40
1.0
 40
1.0
 40
1.0
 10
17.0702953692
 20
45.1645571141
 30
0.0
 10
17.0702953692
 20
44.9895438631
 30
0.0
 10
17.0914392823
 20
44.6531049398
 30
0.0
 10
17.1956551487
 20
44.178997851
 30
0.0
 10
17.3698727999
 20
43.7667790826
 30
0.0
 10
17.5363923673
 20
43.532959141
 30
0.0
 10
17.6292226539
 20
43.4327933237
 30
0.0
  0
SPLINE
  5
293
100
AcDbEntity
  8
0
100
AcDbSpline
 62
7
  6
BYLAYER
 70
0
 71
3
 72
9
 73
5
 74
0
 42
0.0000001
 43
0.0000001
 44
0.0000000001
 40
0.0
 40
0.0
 40
0.0
 40
0.0
 40
0.5038020086
 40
1.0
 40
1.0
 40
1.0
 40
1.0
 10
17.6292226539
 20
43.4327933237
 30
0.0
 10
17.6809223768
 20
43.3770082434
 30
0.0
 10
17.7916216585
 20
43.2734547584
 30
0.0
 10
17.9167147425
 20
43.1877518436
 30
0.0
 10
17.9815895806
 20
43.150298064
 30
0.0
  0
SPLINE
  5
294
100
AcDbEntity
  8
0
100
AcDbSpline
 62
7
  6
BYLAYER
 70
0
 71
3
 72
15
 73
11
 74
0
 42
0.0000001
 43
0.0000001
 44
0.0000000001
 40
0.0
 40
0.0
 40
0.0
 40
0.0
 40
0.1080121352
 40
0.2180609119
 40
0.3320050838
 40
0.4513560051
 40
0.5772596336
 40
0.7104999107
 40
0.8514742398
 40
1.0
 40
1.0
 40
1.0
 40
1.0
 10
14.2339080373
 20
45.313974063
 30
0.0
 10
14.1617672579
 20
45.3556226425
 30
0.0
 10
14.0230859206
 20
45.4524287105
 30
0.0
 10
13.8397827451
 20
45.6327613227
 30
0.0
 10
13.6822141073
 20
45.8468624505
 30
0.0
 10
13.5516691191
 20
46.0921892035
 30
0.0
 10
13.4493089699
 20
46.3663552259
 30
0.0
 10
13.3758107226
 20
46.6667047229
 30
0.0
 10
13.3318913548
 20
46.9902724053
 30
0.0
 10
13.322613826
 20
47.2136885634
 30
0.0
 10
13.322613826
 20
47.3282331131
 30
0.0
  0
SPLINE
  5
295
100
AcDbEntity
  8
0
100
AcDbSpline
 62
7
  6
BYLAYER
 70
0
 71
3
 72
22
 73
18
 74
0
 42
0.0000001
 43
0.0000001
 44
0.0000000001
 40
0.0
 40
0.0
 40
0.0
 40
0.0
 40
0.0623810355
 40
0.1287693821
 40
0.1983746125
 40
0.2703711391
 40
0.4173871966
 40
0.4904320911
 40
0.5617402697
 40
0.6303596366
 40
0.6954661755
 40
0.7564326408
 40
0.8128879376
 40
0.8648030764
 40
0.9125928473
 40
0.9571811342
 40
1.0
 40
1.0
 40
1.0
 40
1.0
 10
51.3650891207
 20
30.9986713208
 30
0.0
 10
51.2752981018
 20
30.9468307613
 30
0.0
 10
51.0968709401
 20
30.8275468296
 30
0.0
 10
50.8441526015
 20
30.6149421131
 30
0.0
 10
50.6025705077
 20
30.3668876748
 30
0.0
 10
50.3003678603
 20
29.993732055
 30
0.0
 10
50.0446593545
 20
29.5777862638
 30
0.0
 10
49.8450252459
 20
29.1360916426
 30
0.0
 10
49.7279616755
 20
28.8014905766
 30
0.0
 10
49.6458272163
 20
28.4702068786
 30
0.0
 10
49.6004060641
 20
28.149179265
 30
0.0
 10
49.5926590759
 20
27.8451388424
 30
0.0
 10
49.622938457
 20
27.564346597
 30
0.0
 10
49.6909910816
 20
27.3125879745
 30
0.0
 10
49.7960419097
 20
27.0951508016
 30
0.0
 10
49.9366423206
 20
26.9173533975
 30
0.0
 10
50.0534868403
 20
26.8279403228
 30
0.0
 10
50.115119546
 20
26.7923554844
 30
0.0
  0
SPLINE
  5
296
100
AcDbEntity
  8
0
100
AcDbSpline
 62
7
  6
BYLAYER
 70
0
 71
3
 72
25
 73
21
 74
0
 42
0.0000001
 43
0.0000001
 44
0.0000000001
 40
0.0
 40
0.0
 40
0.0
 40
0.0
 40
0.0213320602
 40
0.0428925918
 40
0.0648977359
 40
0.0875429619
 40
0.1353176431
 40
0.1872181486
 40
0.2436562688
 40
0.3046041711
 40
0.3696913025
 40
0.438288357
 40
0.5095751901
 40
0.5825994726
 40
0.6563305291
 40
0.7297081296
 40
0.8016860188
 40
0.8712716982
 40
0.937626502
 40
1.0
 40
1.0
 40
1.0
 40
1.0
 10
20.9672954751
 20
51.5878462273
 30
0.0
 10
20.9132381265
 20
51.6190548142
 30
0.0
 10
20.8003810994
 20
51.674881349
 30
0.0
 10
20.6204693319
 20
51.7370868988
 30
0.0
 10
20.4305245707
 20
51.7776092338
 30
0.0
 10
20.1607385117
 20
51.8028938917
 30
0.0
 10
19.801034866
 20
51.7765077104
 30
0.0
 10
19.357529341
 20
51.6586296941
 30
0.0
 10
18.902876203
 20
51.4576940752
 30
0.0
 10
18.4462856147
 20
51.1783344883
 30
0.0
 10
17.996976265
 20
50.8265831989
 30
0.0
 10
17.5642950792
 20
50.4098795474
 30
0.0
 10
17.1573590401
 20
49.9370434202
 30
0.0
 10
16.7847902529
 20
49.4181432608
 30
0.0
 10
16.4545131276
 20
48.8642427019
 30
0.0
 10
16.1735781086
 20
48.287143332
 30
0.0
 10
15.9480263667
 20
47.6991679462
 30
0.0
 10
15.7825464505
 20
47.1127481205
 30
0.0
 10
15.6808354366
 20
46.540466284
 30
0.0
 10
15.6560759189
 20
46.1635485141
 30
0.0
 10
15.6560759189
 20
45.9810386232
 30
0.0
  0
SPLINE
  5
297
100
AcDbEntity
  8
0
100
AcDbSpline
 62
7
  6
BYLAYER
 70
0
 71
3
 72
14
 73
10
 74
0
 42
0.0000001
 43
0.0000001
 44
0.0000000001
 40
0.0
 40
0.0
 40
0.0
 40
0.0
 40
0.1080447873
 40
0.2181353832
 40
0.3321093158
 40
0.4514858648
 40
0.57743489
 40
0.7107584819
 40
1.0
 40
1.0
 40
1.0
 40
1.0
 10
52.6150586955
 20
31.1224750716
 30
0.0
 10
52.5740729918
 20
31.1461389627
 30
0.0
 10
52.4870585478
 20
31.1869163421
 30
0.0
 10
52.3462356864
 20
31.225805118
 30
0.0
 10
52.196142816
 20
31.2425735371
 30
0.0
 10
52.0383556996
 20
31.2370938695
 30
0.0
 10
51.8743452179
 20
31.2095885998
 30
0.0
 10
51.6433007691
 20
31.1421880522
 30
0.0
 10
51.4748110549
 20
31.0620189309
 30
0.0
 10
51.3650891207
 20
30.9986713208
 30
0.0
  0
SPLINE
  5
298
100
AcDbEntity
  8
0
100
AcDbSpline
 62
7
  6
BYLAYER
 70
0
 71
3
 72
25
 73
21
 74
0
 42
0.0000001
 43
0.0000001
 44
0.0000000001
 40
0.0
 40
0.0
 40
0.0
 40
0.0
 40
0.0628692443
 40
0.1296015435
 40
0.1994586471
 40
0.2715961299
 40
0.3450287764
 40
0.4187238386
 40
0.4916377123
 40
0.5627599108
 40
0.6311595866
 40
0.6960379552
 40
0.7567864682
 40
0.813052843
 40
0.864822678
 40
0.9125139244
 40
0.9351338813
 40
0.9571228862
 40
0.9786739348
 40
1.0
 40
1.0
 40
1.0
 40
1.0
 10
16.6465345844
 20
45.4743495592
 30
0.0
 10
16.6493646479
 20
45.6569313423
 30
0.0
 10
16.6792432299
 20
46.0331847449
 30
0.0
 10
16.7873179344
 20
46.6032911516
 30
0.0
 10
16.9578599216
 20
47.1859955529
 30
0.0
 10
17.1871599771
 20
47.7690279009
 30
0.0
 10
17.4705180695
 20
48.3402243237
 30
0.0
 10
17.8019357072
 20
48.8875683752
 30
0.0
 10
18.1744408119
 20
49.3995755065
 30
0.0
 10
18.5802266001
 20
49.8654963661
 30
0.0
 10
19.010829695
 20
50.2755574729
 30
0.0
 10
19.4573191254
 20
50.6212055736
 30
0.0
 10
19.9105458646
 20
50.8952417839
 30
0.0
 10
20.361497833
 20
51.0918321953
 30
0.0
 10
20.8011749517
 20
51.2064938208
 30
0.0
 10
21.1576026869
 20
51.2312059238
 30
0.0
 10
21.4249530191
 20
51.2053270718
 30
0.0
 10
21.6132519905
 20
51.1646984581
 30
0.0
 10
21.79165407
 20
51.1027263469
 30
0.0
 10
21.9036055126
 20
51.0472788781
 30
0.0
 10
21.9572490903
 20
51.016309171
 30
0.0
  0
SPLINE
  5
299
100
AcDbEntity
  8
0
100
AcDbSpline
 62
7
  6
BYLAYER
 70
0
 71
3
 72
15
 73
11
 74
0
 42
0.0000001
 43
0.0000001
 44
0.0000000001
 40
0.0
 40
0.0
 40
0.0
 40
0.0
 40
0.1080092802
 40
0.2180558172
 40
0.3319998063
 40
0.4513509923
 40
0.5772558003
 40
0.7104984581
 40
0.8514747343
 40
1.0
 40
1.0
 40
1.0
 40
1.0
 10
16.8337924722
 20
44.1016433593
 30
0.0
 10
16.7657526985
 20
44.1409248359
 30
0.0
 10
16.6349521359
 20
44.2322252417
 30
0.0
 10
16.4620673883
 20
44.4023096676
 30
0.0
 10
16.3134512411
 20
44.6042430719
 30
0.0
 10
16.1903190668
 20
44.8356291845
 30
0.0
 10
16.0937731731
 20
45.0942197201
 30
0.0
 10
16.0244491933
 20
45.3775072493
 30
0.0
 10
15.9830251764
 20
45.6826928451
 30
0.0
 10
15.9742738233
 20
45.8934156621
 30
0.0
 10
15.9742738233
 20
46.0014515107
 30
0.0
  0
SPLINE
  5
29A
100
AcDbEntity
  8
0
100
AcDbSpline
 62
7
  6
BYLAYER
 70
0
 71
3
 72
25
 73
21
 74
0
 42
0.0000001
 43
0.0000001
 44
0.0000000001
 40
0.0
 40
0.0
 40
0.0
 40
0.0
 40
0.0625551402
 40
0.1291409668
 40
0.1989733527
 40
0.2712009821
 40
0.3448081741
 40
0.4187268919
 40
0.4918791471
 40
0.5632133249
 40
0.631766475
 40
0.6967154755
 40
0.7574344392
 40
0.8135736351
 40
0.8651475122
 40
0.9126271046
 40
0.9351613018
 40
0.9570954493
 40
0.9786335178
 40
1.0
 40
1.0
 40
1.0
 40
1.0
 10
20.3229971609
 20
43.6948920975
 30
0.0
 10
20.3229971609
 20
43.8580667657
 30
0.0
 10
20.3453439029
 20
44.1951536484
 30
0.0
 10
20.4370039421
 20
44.7069068375
 30
0.0
 10
20.5861086121
 20
45.2312174465
 30
0.0
 10
20.7892688934
 20
45.7566139113
 30
0.0
 10
21.042156274
 20
46.2718322169
 30
0.0
 10
21.3392619101
 20
46.765685032
 30
0.0
 10
21.6741375633
 20
47.2274730792
 30
0.0
 10
22.0395692969
 20
47.6471629005
 30
0.0
 10
22.4276387932
 20
48.0157072721
 30
0.0
 10
22.8300526986
 20
48.3251760097
 30
0.0
 10
23.2383439042
 20
48.5688689965
 30
0.0
 10
23.6441414933
 20
48.7414295767
 30
0.0
 10
24.0390954417
 20
48.8388138337
 30
0.0
 10
24.358429321
 20
48.8548185509
 30
0.0
 10
24.5970023549
 20
48.8257692548
 30
0.0
 10
24.7646606236
 20
48.7846841468
 30
0.0
 10
24.9230518573
 20
48.7241543346
 30
0.0
 10
25.0219167607
 20
48.6709242332
 30
0.0
 10
25.0691906096
 20
48.6414030811
 30
0.0
  0
SPLINE
  5
29B
100
AcDbEntity
  8
0
100
AcDbSpline
 62
7
  6
BYLAYER
 70
0
 71
3
 72
15
 73
11
 74
0
 42
0.0000001
 43
0.0000001
 44
0.0000000001
 40
0.0
 40
0.0
 40
0.0
 40
0.0
 40
0.1080127821
 40
0.2180637016
 40
0.3320068966
 40
0.451350786
 40
0.5772548969
 40
0.7105108525
 40
0.8514946071
 40
1.0
 40
1.0
 40
1.0
 40
1.0
 10
32.5487811481
 20
35.721616135
 30
0.0
 10
32.4905804676
 20
35.7552261665
 30
0.0
 10
32.3786695404
 20
35.8333045156
 30
0.0
 10
32.230800639
 20
35.9788280783
 30
0.0
 10
32.1036597184
 20
36.1515521949
 30
0.0
 10
31.9983343121
 20
36.349482434
 30
0.0
 10
31.9157451388
 20
36.5706888683
 30
0.0
 10
31.8564498187
 20
36.8130338702
 30
0.0
 10
31.821021042
 20
37.074096994
 30
0.0
 10
31.8135281338
 20
37.2543457445
 30
0.0
 10
31.8135281338
 20
37.3467495545
 30
0.0
  0
SPLINE
  5
29C
100
AcDbEntity
  8
0
100
AcDbSpline
 62
7
  6
BYLAYER
 70
0
 71
3
 72
10
 73
6
 74
0
 42
0.0000001
 43
0.0000001
 44
0.0000000001
 40
0.0
 40
0.0
 40
0.0
 40
0.0
 40
0.2399848392
 40
0.485426309
 40
1.0
 40
1.0
 40
1.0
 40
1.0
 10
17.3703096365
 20
43.5233799617
 30
0.0
 10
17.3207194087
 20
43.5632454144
 30
0.0
 10
17.2254349413
 20
43.6503758021
 30
0.0
 10
17.05274471
 20
43.8521693513
 30
0.0
 10
16.9495485832
 20
44.027697274
 30
0.0
 10
16.8920303461
 20
44.1514091455
 30
0.0
  0
SPLINE
  5
29D
100
AcDbEntity
  8
0
100
AcDbSpline
 62
7
  6
BYLAYER
 70
0
 71
3
 72
10
 73
6
 74
0
 42
0.0000001
 43
0.0000001
 44
0.0000000001
 40
0.0
 40
0.0
 40
0.0
 40
0.0
 40
0.471324123
 40
0.7286192076
 40
1.0
 40
1.0
 40
1.0
 40
1.0
 10
16.8920303461
 20
44.1514091455
 30
0.0
 10
16.8065732147
 20
44.3352127907
 30
0.0
 10
16.7146810707
 20
44.638969002
 30
0.0
 10
16.6556755879
 20
45.0651790665
 30
0.0
 10
16.6460295341
 20
45.2927910276
 30
0.0
 10
16.6460295341
 20
45.4095015668
 30
0.0
  0
SPLINE
  5
29E
100
AcDbEntity
  8
0
100
AcDbSpline
 62
7
  6
BYLAYER
 70
0
 71
3
 72
25
 73
21
 74
0
 42
0.0000001
 43
0.0000001
 44
0.0000000001
 40
0.0
 40
0.0
 40
0.0
 40
0.0
 40
0.0213242555
 40
0.0428947065
 40
0.0649248185
 40
0.0876065473
 40
0.1354764302
 40
0.1874798223
 40
0.2440099933
 40
0.3050275569
 40
0.3701559372
 40
0.4387642135
 40
0.5100340511
 40
0.5830170564
 40
0.6566869379
 40
0.7299904181
 40
0.8018901032
 40
0.8713989727
 40
0.9376847028
 40
1.0
 40
1.0
 40
1.0
 40
1.0
 10
20.9954776978
 20
51.340535251
 30
0.0
 10
20.9436681997
 20
51.3696960479
 30
0.0
 10
20.8355691132
 20
51.4217323024
 30
0.0
 10
20.6634874713
 20
51.4792858093
 30
0.0
 10
20.4819590287
 20
51.5162231879
 30
0.0
 10
20.224277916
 20
51.5381512655
 30
0.0
 10
19.8811241782
 20
51.510475168
 30
0.0
 10
19.4584326683
 20
51.3955831492
 30
0.0
 10
19.0254186288
 20
51.2019477647
 30
0.0
 10
18.5908164995
 20
50.9339950028
 30
0.0
 10
18.16336144
 20
50.5974753096
 30
0.0
 10
17.7519015253
 20
50.1994693448
 30
0.0
 10
17.3650636064
 20
49.7483549823
 30
0.0
 10
17.0110071526
 20
49.253686869
 30
0.0
 10
16.697218716
 20
48.7259619354
 30
0.0
 10
16.4303634922
 20
48.1763591877
 30
0.0
 10
16.216146152
 20
47.6165511399
 30
0.0
 10
16.0590005364
 20
47.0583072305
 30
0.0
 10
15.9624242737
 20
46.5135519553
 30
0.0
 10
15.9389186314
 20
46.1547751621
 30
0.0
 10
15.9389186314
 20
45.981039303
 30
0.0
  0
SPLINE
  5
29F
100
AcDbEntity
  8
0
100
AcDbSpline
 62
7
  6
BYLAYER
 70
0
 71
3
 72
9
 73
5
 74
0
 42
0.0000001
 43
0.0000001
 44
0.0000000001
 40
0.0
 40
0.0
 40
0.0
 40
0.0
 40
0.4962002686
 40
1.0
 40
1.0
 40
1.0
 40
1.0
 10
22.3815149253
 20
50.7713647183
 30
0.0
 10
22.3166391449
 20
50.808819042
 30
0.0
 10
22.1798678079
 20
50.8742964984
 30
0.0
 10
22.0348364112
 20
50.918386424
 30
0.0
 10
21.9606748684
 20
50.9352673239
 30
0.0
  0
SPLINE
  5
2A0
100
AcDbEntity
  8
0
100
AcDbSpline
 62
7
  6
BYLAYER
 70
0
 71
3
 72
23
 73
19
 74
0
 42
0.0000001
 43
0.0000001
 44
0.0000000001
 40
0.0
 40
0.0
 40
0.0
 40
0.0
 40
0.0439046163
 40
0.0908294948
 40
0.141508841
 40
0.1962812247
 40
0.2551420909
 40
0.3178171075
 40
0.3838218922
 40
0.4525096835
 40
0.5231205584
 40
0.5948185302
 40
0.6667238357
 40
0.7379529914
 40
0.8076433253
 40
0.8749872778
 40
0.9393151117
 40
1.0
 40
1.0
 40
1.0
 40
1.0
 10
21.9606748684
 20
50.9352673239
 30
0.0
 10
21.8418722658
 20
50.9623095721
 30
0.0
 10
21.5890689763
 20
50.9900230442
 30
0.0
 10
21.1958827727
 20
50.9545453635
 30
0.0
 10
20.7855664533
 20
50.8451395317
 30
0.0
 10
20.3654434202
 20
50.6643960121
 30
0.0
 10
19.9426420828
 20
50.4159654833
 30
0.0
 10
19.5245840933
 20
50.1044350757
 30
0.0
 10
19.1187393269
 20
49.7354468085
 30
0.0
 10
18.7324117281
 20
49.3157364099
 30
0.0
 10
18.3726092157
 20
48.8529625101
 30
0.0
 10
18.0459279491
 20
48.3555573069
 30
0.0
 10
17.7583329227
 20
47.8326241811
 30
0.0
 10
17.5150736483
 20
47.293737651
 30
0.0
 10
17.3206168063
 20
46.7487680815
 30
0.0
 10
17.1784716244
 20
46.2075555459
 30
0.0
 10
17.0913651372
 20
45.6800990361
 30
0.0
 10
17.0702953692
 20
45.3329661805
 30
0.0
 10
17.0702953692
 20
45.1645571141
 30
0.0
  0
SPLINE
  5
2A1
100
AcDbEntity
  8
0
100
AcDbSpline
 62
7
  6
BYLAYER
 70
0
 71
3
 72
15
 73
11
 74
0
 42
0.0000001
 43
0.0000001
 44
0.0000000001
 40
0.0
 40
0.0
 40
0.0
 40
0.0
 40
0.1483858836
 40
0.2892938916
 40
0.4225377606
 40
0.5484983897
 40
0.6679358942
 40
0.7819629181
 40
0.8920462213
 40
1.0
 40
1.0
 40
1.0
 40
1.0
 10
15.9389186314
 20
45.981039303
 30
0.0
 10
15.9389186314
 20
45.8725729288
 30
0.0
 10
15.947636739
 20
45.66096613
 30
0.0
 10
15.9888858064
 20
45.3543871281
 30
0.0
 10
16.0579151581
 20
45.0695699283
 30
0.0
 10
16.1540580199
 20
44.8092837772
 30
0.0
 10
16.276690475
 20
44.5760078239
 30
0.0
 10
16.4247298784
 20
44.3719646777
 30
0.0
 10
16.5969913558
 20
44.1995219698
 30
0.0
 10
16.7274455663
 20
44.1064210384
 30
0.0
 10
16.7953415741
 20
44.0662071177
 30
0.0
  0
SPLINE
  5
2A2
100
AcDbEntity
  8
0
100
AcDbSpline
 62
7
  6
BYLAYER
 70
0
 71
3
 72
25
 73
21
 74
0
 42
0.0000001
 43
0.0000001
 44
0.0000000001
 40
0.0
 40
0.0
 40
0.0
 40
0.0
 40
0.0623737817
 40
0.1287291171
 40
0.1983155271
 40
0.2702937706
 40
0.3436701908
 40
0.4174009358
 40
0.4904259474
 40
0.5617134252
 40
0.6303107274
 40
0.6953976468
 40
0.7563450207
 40
0.8127825739
 40
0.8646826858
 40
0.9124571419
 40
0.9351023418
 40
0.957107489
 40
0.9786680546
 40
1.0
 40
1.0
 40
1.0
 40
1.0
 10
15.9742738233
 20
46.0014515107
 30
0.0
 10
15.9742738233
 20
46.1735921185
 30
0.0
 10
15.9976270715
 20
46.5290959555
 30
0.0
 10
16.0935601654
 20
47.0688653336
 30
0.0
 10
16.2496406044
 20
47.621969104
 30
0.0
 10
16.4623782433
 20
48.1765352609
 30
0.0
 10
16.7273493782
 20
48.7208414962
 30
0.0
 10
17.0388614014
 20
49.2432668382
 30
0.0
 10
17.3902629842
 20
49.7326857513
 30
0.0
 10
17.7740813097
 20
50.1786581846
 30
0.0
 10
18.1821805412
 20
50.5716850208
 30
0.0
 10
18.6059603084
 20
50.9034481013
 30
0.0
 10
19.0366056703
 20
51.1669312968
 30
0.0
 10
19.4654224351
 20
51.3564469479
 30
0.0
 10
19.8837250983
 20
51.4676270482
 30
0.0
 10
20.2229887664
 20
51.4925127145
 30
0.0
 10
20.4774453867
 20
51.4686666589
 30
0.0
 10
20.6565971717
 20
51.4304444948
 30
0.0
 10
20.8262868573
 20
51.3717755309
 30
0.0
 10
20.9327316082
 20
51.3191216045
 30
0.0
 10
20.9837170232
 20
51.2896861393
 30
0.0
  0
SPLINE
  5
2A3
100
AcDbEntity
  8
0
100
AcDbSpline
 62
7
  6
BYLAYER
 70
0
 71
3
 72
11
 73
7
 74
0
 42
0.0000001
 43
0.0000001
 44
0.0000000001
 40
0.0
 40
0.0
 40
0.0
 40
0.0
 40
0.2823939104
 40
0.541859728
 40
0.7796406834
 40
1.0
 40
1.0
 40
1.0
 40
1.0
 10
19.8280232973
 20
43.5724181715
 30
0.0
 10
19.8280232973
 20
43.3974049205
 30
0.0
 10
19.8491672104
 20
43.0609659972
 30
0.0
 10
19.9533830767
 20
42.5868589084
 30
0.0
 10
20.127600728
 20
42.17464014
 30
0.0
 10
20.2941202954
 20
41.9408201984
 30
0.0
 10
20.386950582
 20
41.8406543811
 30
0.0
  0
SPLINE
  5
2A4
100
AcDbEntity
  8
0
100
AcDbSpline
 62
7
  6
BYLAYER
 70
0
 71
3
 72
9
 73
5
 74
0
 42
0.0000001
 43
0.0000001
 44
0.0000000001
 40
0.0
 40
0.0
 40
0.0
 40
0.0
 40
0.5038020086
 40
1.0
 40
1.0
 40
1.0
 40
1.0
 10
20.386950582
 20
41.8406543811
 30
0.0
 10
20.4386503049
 20
41.7848693008
 30
0.0
 10
20.5493495866
 20
41.6813158158
 30
0.0
 10
20.6744426706
 20
41.595612901
 30
0.0
 10
20.7393175087
 20
41.5581591214
 30
0.0
  0
SPLINE
  5
2A5
100
AcDbEntity
  8
0
100
AcDbSpline
 62
7
  6
BYLAYER
 70
0
 71
3
 72
25
 73
21
 74
0
 42
0.0000001
 43
0.0000001
 44
0.0000000001
 40
0.0
 40
0.0
 40
0.0
 40
0.0
 40
0.0213317526
 40
0.0428925188
 40
0.064897723
 40
0.0875422365
 40
0.1353175322
 40
0.1872190385
 40
0.2436558935
 40
0.3046032193
 40
0.3696916537
 40
0.4382885575
 40
0.5095746633
 40
0.5825994616
 40
0.6563302676
 40
0.7297083794
 40
0.8016857132
 40
0.8712700993
 40
0.9376311133
 40
1.0
 40
1.0
 40
1.0
 40
1.0
 10
36.0262205692
 20
42.3164106061
 30
0.0
 10
35.9783101612
 20
42.3440781576
 30
0.0
 10
35.8782893299
 20
42.3935874156
 30
0.0
 10
35.7188055638
 20
42.4486786924
 30
0.0
 10
35.5504526017
 20
42.4846125587
 30
0.0
 10
35.3113250647
 20
42.5070468454
 30
0.0
 10
34.9924927226
 20
42.4836466159
 30
0.0
 10
34.5993941199
 20
42.3791355717
 30
0.0
 10
34.1964007372
 20
42.2010561715
 30
0.0
 10
33.791685581
 20
41.9534577666
 30
0.0
 10
33.3934476364
 20
41.641657652
 30
0.0
 10
33.0099409362
 20
41.2723009943
 30
0.0
 10
32.6492297239
 20
40.8532131513
 30
0.0
 10
32.319001863
 20
40.3932770781
 30
0.0
 10
32.026265158
 20
39.9023124315
 30
0.0
 10
31.7772581235
 20
39.3907925568
 30
0.0
 10
31.577321636
 20
38.8696425803
 30
0.0
 10
31.4306469297
 20
38.3498485097
 30
0.0
 10
31.340512501
 20
37.8425955481
 30
0.0
 10
31.318553387
 20
37.5085064759
 30
0.0
 10
31.318553387
 20
37.3467483647
 30
0.0
  0
SPLINE
  5
2A6
100
AcDbEntity
  8
0
100
AcDbSpline
 62
7
  6
BYLAYER
 70
0
 71
3
 72
15
 73
11
 74
0
 42
0.0000001
 43
0.0000001
 44
0.0000000001
 40
0.0
 40
0.0
 40
0.0
 40
0.0
 40
0.1080092802
 40
0.2180558172
 40
0.3319998063
 40
0.4513509923
 40
0.5772558003
 40
0.7104984581
 40
0.8514747343
 40
1.0
 40
1.0
 40
1.0
 40
1.0
 10
18.2480119225
 20
43.2851618502
 30
0.0
 10
18.1799721488
 20
43.3244433268
 30
0.0
 10
18.0491715862
 20
43.4157437327
 30
0.0
 10
17.8762868386
 20
43.5858281586
 30
0.0
 10
17.7276706914
 20
43.7877615629
 30
0.0
 10
17.6045385171
 20
44.0191476755
 30
0.0
 10
17.5079926234
 20
44.2777382111
 30
0.0
 10
17.4386686436
 20
44.5610257402
 30
0.0
 10
17.3972446267
 20
44.866211336
 30
0.0
 10
17.3884932736
 20
45.076934153
 30
0.0
 10
17.3884932736
 20
45.1849700017
 30
0.0
  0
SPLINE
  5
2A7
100
AcDbEntity
  8
0
100
AcDbSpline
 62
7
  6
BYLAYER
 70
0
 71
3
 72
15
 73
11
 74
0
 42
0.0000001
 43
0.0000001
 44
0.0000000001
 40
0.0
 40
0.0
 40
0.0
 40
0.0
 40
0.1485257602
 40
0.2895000893
 40
0.4227403664
 40
0.5486439949
 40
0.6679949162
 40
0.7819390881
 40
0.8919878648
 40
1.0
 40
1.0
 40
1.0
 40
1.0
 10
15.6560759189
 20
45.9810386232
 30
0.0
 10
15.6560759189
 20
45.8664940735
 30
0.0
 10
15.6653534478
 20
45.6430779154
 30
0.0
 10
15.7092728156
 20
45.319510233
 30
0.0
 10
15.7827710629
 20
45.019160736
 30
0.0
 10
15.8851312121
 20
44.7449947136
 30
0.0
 10
16.0156762002
 20
44.4996679606
 30
0.0
 10
16.1732448381
 20
44.2855668328
 30
0.0
 10
16.3565480136
 20
44.1052342206
 30
0.0
 10
16.4952293509
 20
44.0084281526
 30
0.0
 10
16.5673701303
 20
43.9667795731
 30
0.0
  0
SPLINE
  5
2A8
100
AcDbEntity
  8
0
100
AcDbSpline
 62
7
  6
BYLAYER
 70
0
 71
3
 72
15
 73
11
 74
0
 42
0.0000001
 43
0.0000001
 44
0.0000000001
 40
0.0
 40
0.0
 40
0.0
 40
0.0
 40
0.1141539764
 40
0.2373248355
 40
0.3669742448
 40
0.4999978995
 40
0.6330234003
 40
0.7626705934
 40
0.8858486625
 40
1.0
 40
1.0
 40
1.0
 40
1.0
 10
31.8488193409
 20
43.1234028291
 30
0.0
 10
31.6769787317
 20
43.0241877768
 30
0.0
 10
31.3375622872
 20
42.7862544137
 30
0.0
 10
30.8705410086
 20
42.3493150693
 30
0.0
 10
30.4401567914
 20
41.8328194754
 30
0.0
 10
30.0626115863
 20
41.2561445647
 30
0.0
 10
29.7519807014
 20
40.6408427106
 30
0.0
 10
29.5198642323
 20
40.0098617972
 30
0.0
 10
29.3749943906
 20
39.3869307548
 30
0.0
 10
29.3386440958
 20
38.9740134675
 30
0.0
 10
29.3386440958
 20
38.7755921953
 30
0.0
  0
SPLINE
  5
2A9
100
AcDbEntity
  8
0
100
AcDbSpline
 62
7
  6
BYLAYER
 70
0
 71
3
 72
25
 73
21
 74
0
 42
0.0000001
 43
0.0000001
 44
0.0000000001
 40
0.0
 40
0.0
 40
0.0
 40
0.0
 40
0.062373498
 40
0.1287283018
 40
0.1983139812
 40
0.2702918704
 40
0.3436694709
 40
0.4174005274
 40
0.4904248099
 40
0.561711643
 40
0.6303086975
 40
0.6953958289
 40
0.7563437312
 40
0.8127818514
 40
0.8646823569
 40
0.9124570381
 40
0.9351022641
 40
0.9571074082
 40
0.9786679398
 40
1.0
 40
1.0
 40
1.0
 40
1.0
 10
13.322613826
 20
47.3282331131
 30
0.0
 10
13.322613826
 20
47.510743004
 30
0.0
 10
13.3473733436
 20
47.8876607739
 30
0.0
 10
13.4490843575
 20
48.4599426104
 30
0.0
 10
13.6145642737
 20
49.0463624361
 30
0.0
 10
13.8401160156
 20
49.6343378219
 30
0.0
 10
14.1210510346
 20
50.2114371918
 30
0.0
 10
14.4513281599
 20
50.7653377507
 30
0.0
 10
14.8238969471
 20
51.2842379101
 30
0.0
 10
15.2308329863
 20
51.7570740373
 30
0.0
 10
15.6635141721
 20
52.1737776889
 30
0.0
 10
16.1128235217
 20
52.5255289782
 30
0.0
 10
16.56941411
 20
52.8048885652
 30
0.0
 10
17.024067248
 20
53.005824184
 30
0.0
 10
17.4675727731
 20
53.1237022004
 30
0.0
 10
17.8272764187
 20
53.1500883817
 30
0.0
 10
18.0970624777
 20
53.1248037237
 30
0.0
 10
18.2870072389
 20
53.0842813887
 30
0.0
 10
18.4669190064
 20
53.0220758389
 30
0.0
 10
18.5797760335
 20
52.9662493041
 30
0.0
 10
18.6338333821
 20
52.9350407173
 30
0.0
  0
SPLINE
  5
2AA
100
AcDbEntity
  8
0
100
AcDbSpline
 62
7
  6
BYLAYER
 70
0
 71
3
 72
15
 73
11
 74
0
 42
0.0000001
 43
0.0000001
 44
0.0000000001
 40
0.0
 40
0.0
 40
0.0
 40
0.0
 40
0.1082229457
 40
0.2181790859
 40
0.3318712836
 40
0.4509431396
 40
0.5766621261
 40
0.7098966064
 40
0.851075181
 40
1.0
 40
1.0
 40
1.0
 40
1.0
 10
21.1700488984
 20
41.8877385498
 30
0.0
 10
21.1033180908
 20
41.9232570692
 30
0.0
 10
20.9747952581
 20
42.006849118
 30
0.0
 10
20.8044284766
 20
42.1656172142
 30
0.0
 10
20.6578304796
 20
42.3561535819
 30
0.0
 10
20.5363040344
 20
42.576070947
 30
0.0
 10
20.4409860512
 20
42.8231034462
 30
0.0
 10
20.3725302571
 20
43.0947207335
 30
0.0
 10
20.3316339353
 20
43.3880824636
 30
0.0
 10
20.3229971609
 20
43.5908667074
 30
0.0
 10
20.3229971609
 20
43.6948920975
 30
0.0
  0
SPLINE
  5
2AB
100
AcDbEntity
  8
0
100
AcDbSpline
 62
7
  6
BYLAYER
 70
0
 71
3
 72
9
 73
5
 74
0
 42
0.0000001
 43
0.0000001
 44
0.0000000001
 40
0.0
 40
0.0
 40
0.0
 40
0.0
 40
0.4962002686
 40
1.0
 40
1.0
 40
1.0
 40
1.0
 10
25.1392428534
 20
49.1792257757
 30
0.0
 10
25.0743670729
 20
49.2166800994
 30
0.0
 10
24.937595736
 20
49.2821575558
 30
0.0
 10
24.7925643393
 20
49.3262474814
 30
0.0
 10
24.7184027965
 20
49.3431283813
 30
0.0
  0
SPLINE
  5
2AC
100
AcDbEntity
  8
0
100
AcDbSpline
 62
7
  6
BYLAYER
 70
0
 71
3
 72
23
 73
19
 74
0
 42
0.0000001
 43
0.0000001
 44
0.0000000001
 40
0.0
 40
0.0
 40
0.0
 40
0.0
 40
0.0439046163
 40
0.0908294948
 40
0.141508841
 40
0.1962812247
 40
0.2551420909
 40
0.3178171075
 40
0.3838218922
 40
0.4525096835
 40
0.5231205584
 40
0.5948185302
 40
0.6667238357
 40
0.7379529914
 40
0.8076433253
 40
0.8749872778
 40
0.9393151117
 40
1.0
 40
1.0
 40
1.0
 40
1.0
 10
24.7184027965
 20
49.3431283813
 30
0.0
 10
24.5996001939
 20
49.3701706295
 30
0.0
 10
24.3467969044
 20
49.3978841015
 30
0.0
 10
23.9536107007
 20
49.3624064208
 30
0.0
 10
23.5432943814
 20
49.2530005891
 30
0.0
 10
23.1231713483
 20
49.0722570695
 30
0.0
 10
22.7003700109
 20
48.8238265407
 30
0.0
 10
22.2823120214
 20
48.5122961331
 30
0.0
 10
21.8764672549
 20
48.1433078659
 30
0.0
 10
21.4901396562
 20
47.7235974673
 30
0.0
 10
21.1303371438
 20
47.2608235675
 30
0.0
 10
20.8036558771
 20
46.7634183642
 30
0.0
 10
20.5160608508
 20
46.2404852384
 30
0.0
 10
20.2728015763
 20
45.7015987084
 30
0.0
 10
20.0783447344
 20
45.1566291388
 30
0.0
 10
19.9361995525
 20
44.6154166032
 30
0.0
 10
19.8490930653
 20
44.0879600935
 30
0.0
 10
19.8280232973
 20
43.7408272379
 30
0.0
 10
19.8280232973
 20
43.5724181715
 30
0.0
  0
SPLINE
  5
2AD
100
AcDbEntity
  8
0
100
AcDbSpline
 62
7
  6
BYLAYER
 70
0
 71
3
 72
9
 73
5
 74
0
 42
0.0000001
 43
0.0000001
 44
0.0000000001
 40
0.0
 40
0.0
 40
0.0
 40
0.0
 40
0.4870240312
 40
1.0
 40
1.0
 40
1.0
 40
1.0
 10
18.7138181142
 20
42.7477225281
 30
0.0
 10
18.6236756613
 20
42.8201878073
 30
0.0
 10
18.4555187156
 20
42.9910387091
 30
0.0
 10
18.3275791103
 20
43.193151858
 30
0.0
 10
18.2718668998
 20
43.3014875991
 30
0.0
  0
SPLINE
  5
2AE
100
AcDbEntity
  8
0
100
AcDbSpline
 62
7
  6
BYLAYER
 70
0
 71
3
 72
10
 73
6
 74
0
 42
0.0000001
 43
0.0000001
 44
0.0000000001
 40
0.0
 40
0.0
 40
0.0
 40
0.0
 40
0.4691407508
 40
0.7269308422
 40
1.0
 40
1.0
 40
1.0
 40
1.0
 10
18.2718668998
 20
43.3014875991
 30
0.0
 10
18.1737184326
 20
43.4923431913
 30
0.0
 10
18.0681088057
 20
43.8130707289
 30
0.0
 10
18.0005640499
 20
44.2657622218
 30
0.0
 10
17.9895380119
 20
44.5089256668
 30
0.0
 10
17.9895380119
 20
44.6338441333
 30
0.0
  0
SPLINE
  5
2AF
100
AcDbEntity
  8
0
100
AcDbSpline
 62
7
  6
BYLAYER
 70
0
 71
3
 72
15
 73
11
 74
0
 42
0.0000001
 43
0.0000001
 44
0.0000000001
 40
0.0
 40
0.0
 40
0.0
 40
0.0
 40
0.1260141084
 40
0.255118687
 40
0.3855336423
 40
0.5156104178
 40
0.6436259205
 40
0.7679624637
 40
0.8871641099
 40
1.0
 40
1.0
 40
1.0
 40
1.0
 10
14.1871111893
 20
52.1930800828
 30
0.0
 10
14.0624206196
 20
52.0616033344
 30
0.0
 10
13.8220420654
 20
51.7837557526
 30
0.0
 10
13.4955327497
 20
51.3349981123
 30
0.0
 10
13.2036593726
 20
50.8560899341
 30
0.0
 10
12.9521365263
 20
50.3565739088
 30
0.0
 10
12.745871686
 20
49.8461168411
 30
0.0
 10
12.5888875744
 20
49.3346729995
 30
0.0
 10
12.4842270218
 20
48.8322714389
 30
0.0
 10
12.4497222838
 20
48.4996120293
 30
0.0
 10
12.4425770055
 20
48.3375177784
 30
0.0
  0
SPLINE
  5
2B0
100
AcDbEntity
  8
0
100
AcDbSpline
 62
7
  6
BYLAYER
 70
0
 71
3
 72
9
 73
5
 74
0
 42
0.0000001
 43
0.0000001
 44
0.0000000001
 40
0.0
 40
0.0
 40
0.0
 40
0.0
 40
0.2644639852
 40
1.0
 40
1.0
 40
1.0
 40
1.0
 10
12.441341326
 20
48.0264525367
 30
0.0
 10
12.4439947206
 20
47.9567725736
 30
0.0
 10
12.4617920385
 20
47.6937645583
 30
0.0
 10
12.5124297772
 20
47.4321088169
 30
0.0
 10
12.5731425191
 20
47.2479203253
 30
0.0
  0
SPLINE
  5
2B1
100
AcDbEntity
  8
0
100
AcDbSpline
 62
7
  6
BYLAYER
 70
0
 71
3
 72
9
 73
5
 74
0
 42
0.0000001
 43
0.0000001
 44
0.0000000001
 40
0.0
 40
0.0
 40
0.0
 40
0.0
 40
0.2543922713
 40
1.0
 40
1.0
 40
1.0
 40
1.0
 10
12.5731425191
 20
47.2479203253
 30
0.0
 10
12.5789722035
 20
47.2302344042
 30
0.0
 10
12.6027463023
 20
47.160999343
 30
0.0
 10
12.6300119934
 20
47.0929519648
 30
0.0
 10
12.6524093995
 20
47.0431794146
 30
0.0
  0
SPLINE
  5
2B2
100
AcDbEntity
  8
0
100
AcDbSpline
 62
7
  6
BYLAYER
 70
0
 71
3
 72
11
 73
7
 74
0
 42
0.0000001
 43
0.0000001
 44
0.0000000001
 40
0.0
 40
0.0
 40
0.0
 40
0.0
 40
0.2650943452
 40
0.5169121603
 40
0.760035713
 40
1.0
 40
1.0
 40
1.0
 40
1.0
 10
12.6524093995
 20
47.0431794146
 30
0.0
 10
12.6913054638
 20
46.9567427843
 30
0.0
 10
12.7795594721
 20
46.7933344711
 30
0.0
 10
12.9476032333
 20
46.5780177208
 30
0.0
 10
13.1455622936
 20
46.4029224277
 30
0.0
 10
13.295657681
 20
46.3148856195
 30
0.0
 10
13.3735079412
 20
46.278817293
 30
0.0
  0
SPLINE
  5
2B3
100
AcDbEntity
  8
0
100
AcDbSpline
 62
7
  6
BYLAYER
 70
0
 71
3
 72
10
 73
6
 74
0
 42
0.0000001
 43
0.0000001
 44
0.0000000001
 40
0.0
 40
0.0
 40
0.0
 40
0.0
 40
0.2399848392
 40
0.485426309
 40
1.0
 40
1.0
 40
1.0
 40
1.0
 10
20.1280375645
 20
41.931241019
 30
0.0
 10
20.0784473368
 20
41.9711064718
 30
0.0
 10
19.9831628694
 20
42.0582368595
 30
0.0
 10
19.810472638
 20
42.2600304087
 30
0.0
 10
19.7072765113
 20
42.4355583314
 30
0.0
 10
19.6497582742
 20
42.5592702028
 30
0.0
  0
SPLINE
  5
2B4
100
AcDbEntity
  8
0
100
AcDbSpline
 62
7
  6
BYLAYER
 70
0
 71
3
 72
10
 73
6
 74
0
 42
0.0000001
 43
0.0000001
 44
0.0000000001
 40
0.0
 40
0.0
 40
0.0
 40
0.0
 40
0.471324123
 40
0.7286192076
 40
1.0
 40
1.0
 40
1.0
 40
1.0
 10
19.6497582742
 20
42.5592702028
 30
0.0
 10
19.5643011428
 20
42.7430738481
 30
0.0
 10
19.4724089987
 20
43.0468300593
 30
0.0
 10
19.4134035159
 20
43.4730401238
 30
0.0
 10
19.4037574622
 20
43.700652085
 30
0.0
 10
19.4037574622
 20
43.8173626242
 30
0.0
  0
SPLINE
  5
2B5
100
AcDbEntity
  8
0
100
AcDbSpline
 62
7
  6
BYLAYER
 70
0
 71
3
 72
23
 73
19
 74
0
 42
0.0000001
 43
0.0000001
 44
0.0000000001
 40
0.0
 40
0.0
 40
0.0
 40
0.0
 40
0.0607510733
 40
0.125170417
 40
0.1926096243
 40
0.2623957181
 40
0.3337171521
 40
0.4057020919
 40
0.4774610256
 40
0.5481094474
 40
0.6168046296
 40
0.6827811567
 40
0.7453958979
 40
0.8041646074
 40
0.8588187546
 40
0.9093720187
 40
0.9561792939
 40
1.0
 40
1.0
 40
1.0
 40
1.0
 10
12.774598637
 20
48.3590439927
 30
0.0
 10
12.774598637
 20
48.4944189661
 30
0.0
 10
12.7916082363
 20
48.773507768
 30
0.0
 10
12.8618433479
 20
49.1975665301
 30
0.0
 10
12.9764721151
 20
49.6326716519
 30
0.0
 10
13.1332829603
 20
50.0707010408
 30
0.0
 10
13.3293648414
 20
50.5037287946
 30
0.0
 10
13.5611562416
 20
50.9237521924
 30
0.0
 10
13.8243958238
 20
51.3230250838
 30
0.0
 10
14.1141941375
 20
51.6942317226
 30
0.0
 10
14.4252545247
 20
52.0305224172
 30
0.0
 10
14.7518984935
 20
52.3257086293
 30
0.0
 10
15.0881549722
 20
52.5744323612
 30
0.0
 10
15.4280339715
 20
52.7720987142
 30
0.0
 10
15.765532771
 20
52.9150087453
 30
0.0
 10
16.094856453
 20
53.0003449097
 30
0.0
 10
16.4101272788
 20
53.0259490264
 30
0.0
 10
16.6124394732
 20
53.0014621724
 30
0.0
 10
16.7073868826
 20
52.9786555724
 30
0.0
  0
SPLINE
  5
2B6
100
AcDbEntity
  8
0
100
AcDbSpline
 62
7
  6
BYLAYER
 70
0
 71
3
 72
9
 73
5
 74
0
 42
0.0000001
 43
0.0000001
 44
0.0000000001
 40
0.0
 40
0.0
 40
0.0
 40
0.0
 40
0.4962002686
 40
1.0
 40
1.0
 40
1.0
 40
1.0
 10
23.7250234031
 20
49.9957072847
 30
0.0
 10
23.6601476226
 20
50.0331616084
 30
0.0
 10
23.5233762857
 20
50.0986390648
 30
0.0
 10
23.378344889
 20
50.1427289904
 30
0.0
 10
23.3041833462
 20
50.1596098903
 30
0.0
  0
SPLINE
  5
2B7
100
AcDbEntity
  8
0
100
AcDbSpline
 62
7
  6
BYLAYER
 70
0
 71
3
 72
23
 73
19
 74
0
 42
0.0000001
 43
0.0000001
 44
0.0000000001
 40
0.0
 40
0.0
 40
0.0
 40
0.0
 40
0.0439046163
 40
0.0908294948
 40
0.141508841
 40
0.1962812247
 40
0.2551420909
 40
0.3178171075
 40
0.3838218922
 40
0.4525096835
 40
0.5231205584
 40
0.5948185302
 40
0.6667238357
 40
0.7379529914
 40
0.8076433253
 40
0.8749872778
 40
0.9393151117
 40
1.0
 40
1.0
 40
1.0
 40
1.0
 10
23.3041833462
 20
50.1596098903
 30
0.0
 10
23.1853807436
 20
50.1866521385
 30
0.0
 10
22.9325774541
 20
50.2143656106
 30
0.0
 10
22.5393912504
 20
50.1788879299
 30
0.0
 10
22.1290749311
 20
50.0694820982
 30
0.0
 10
21.708951898
 20
49.8887385785
 30
0.0
 10
21.2861505606
 20
49.6403080497
 30
0.0
 10
20.8680925711
 20
49.3287776422
 30
0.0
 10
20.4622478046
 20
48.9597893749
 30
0.0
 10
20.0759202059
 20
48.5400789763
 30
0.0
 10
19.7161176935
 20
48.0773050765
 30
0.0
 10
19.3894364268
 20
47.5798998733
 30
0.0
 10
19.1018414005
 20
47.0569667475
 30
0.0
 10
18.858582126
 20
46.5180802174
 30
0.0
 10
18.6641252841
 20
45.9731106479
 30
0.0
 10
18.5219801022
 20
45.4318981123
 30
0.0
 10
18.434873615
 20
44.9044416025
 30
0.0
 10
18.413803847
 20
44.5573087469
 30
0.0
 10
18.413803847
 20
44.3888996805
 30
0.0
  0
SPLINE
  5
2B8
100
AcDbEntity
  8
0
100
AcDbSpline
 62
7
  6
BYLAYER
 70
0
 71
3
 72
25
 73
21
 74
0
 42
0.0000001
 43
0.0000001
 44
0.0000000001
 40
0.0
 40
0.0
 40
0.0
 40
0.0
 40
0.0628692443
 40
0.1296015435
 40
0.1994586471
 40
0.2715961299
 40
0.3450287764
 40
0.4187238386
 40
0.4916377123
 40
0.5627599108
 40
0.6311595866
 40
0.6960379552
 40
0.7567864682
 40
0.813052843
 40
0.864822678
 40
0.9125139244
 40
0.9351338813
 40
0.9571228862
 40
0.9786739348
 40
1.0
 40
1.0
 40
1.0
 40
1.0
 10
19.4042625124
 20
43.8822106166
 30
0.0
 10
19.4070925759
 20
44.0647923996
 30
0.0
 10
19.436971158
 20
44.4410458023
 30
0.0
 10
19.5450458625
 20
45.0111522089
 30
0.0
 10
19.7155878497
 20
45.5938566103
 30
0.0
 10
19.9448879052
 20
46.1768889582
 30
0.0
 10
20.2282459976
 20
46.7480853811
 30
0.0
 10
20.5596636353
 20
47.2954294325
 30
0.0
 10
20.93216874
 20
47.8074365639
 30
0.0
 10
21.3379545281
 20
48.2733574235
 30
0.0
 10
21.7685576231
 20
48.6834185303
 30
0.0
 10
22.2150470535
 20
49.029066631
 30
0.0
 10
22.6682737927
 20
49.3031028412
 30
0.0
 10
23.119225761
 20
49.4996932527
 30
0.0
 10
23.5589028798
 20
49.6143548782
 30
0.0
 10
23.915330615
 20
49.6390669811
 30
0.0
 10
24.1826809472
 20
49.6131881292
 30
0.0
 10
24.3709799185
 20
49.5725595155
 30
0.0
 10
24.549381998
 20
49.5105874043
 30
0.0
 10
24.6613334407
 20
49.4551399355
 30
0.0
 10
24.7149770183
 20
49.4241702284
 30
0.0
  0
SPLINE
  5
2B9
100
AcDbEntity
  8
0
100
AcDbSpline
 62
7
  6
BYLAYER
 70
0
 71
3
 72
15
 73
11
 74
0
 42
0.0000001
 43
0.0000001
 44
0.0000000001
 40
0.0
 40
0.0
 40
0.0
 40
0.0
 40
0.1080092802
 40
0.2180558172
 40
0.3319998063
 40
0.4513509923
 40
0.5772558003
 40
0.7104984581
 40
0.8514747343
 40
1.0
 40
1.0
 40
1.0
 40
1.0
 10
19.5915204003
 20
42.5095044166
 30
0.0
 10
19.5234806266
 20
42.5487858933
 30
0.0
 10
19.392680064
 20
42.6400862991
 30
0.0
 10
19.2197953164
 20
42.810170725
 30
0.0
 10
19.0711791692
 20
43.0121041293
 30
0.0
 10
18.9480469948
 20
43.2434902419
 30
0.0
 10
18.8515011012
 20
43.5020807775
 30
0.0
 10
18.7821771214
 20
43.7853683067
 30
0.0
 10
18.7407531045
 20
44.0905539024
 30
0.0
 10
18.7320017513
 20
44.3012767194
 30
0.0
 10
18.7320017513
 20
44.4093125681
 30
0.0
  0
SPLINE
  5
2BA
100
AcDbEntity
  8
0
100
AcDbSpline
 62
7
  6
BYLAYER
 70
0
 71
3
 72
21
 73
17
 74
0
 42
0.0000001
 43
0.0000001
 44
0.0000000001
 40
0.0
 40
0.0
 40
0.0
 40
0.0
 40
0.0717884937
 40
0.1452379428
 40
0.2939185134
 40
0.4402567482
 40
0.5108071065
 40
0.5787327719
 40
0.6435030013
 40
0.7047162533
 40
0.7621281124
 40
0.8156929879
 40
0.8656174103
 40
0.9123928239
 40
0.9568248481
 40
1.0
 40
1.0
 40
1.0
 40
1.0
 10
13.2639957693
 20
53.0803159268
 30
0.0
 10
13.1338220224
 20
52.9430575839
 30
0.0
 10
12.8814259969
 20
52.6547581077
 30
0.0
 10
12.415381693
 20
52.035479798
 30
0.0
 10
11.9162731376
 20
51.1986613795
 30
0.0
 10
11.5417382585
 20
50.307160661
 30
0.0
 10
11.3322261288
 20
49.5857696059
 30
0.0
 10
11.2250667909
 20
49.060354491
 30
0.0
 10
11.16766805
 20
48.5518799292
 30
0.0
 10
11.160862513
 20
48.0677896402
 30
0.0
 10
11.2049027438
 20
47.6151280944
 30
0.0
 10
11.2994602393
 20
47.2004710786
 30
0.0
 10
11.4434864107
 20
46.8298904018
 30
0.0
 10
11.6356556079
 20
46.509106433
 30
0.0
 10
11.8735199478
 20
46.2437371667
 30
0.0
 10
12.0615416765
 20
46.1062838551
 30
0.0
 10
12.1600706609
 20
46.049399945
 30
0.0
  0
ELLIPSE
  5
2BB
100
AcDbEntity
  8
0
100
AcDbEllipse
 62
7
  6
BYLAYER
 10
35.1015674536
 20
38.3469514708
 30
0.0
 11
1.6269375852
 21
3.1581402134
 31
0.0
 40
0.6067293567
 41
5.4687043093
 42
8.6102969629
  0
ELLIPSE
  5
2BC
100
AcDbEntity
  8
0
100
AcDbEllipse
 62
7
  6
BYLAYER
 10
35.1015674536
 20
38.3469514708
 30
0.0
 11
1.34304847
 21
2.1105408686
 31
0.0
 40
0.5463812534
 41
-3.903426584
 42
-3.1180156183
  0
ELLIPSE
  5
2BD
100
AcDbEntity
  8
0
100
AcDbEllipse
 62
7
  6
BYLAYER
 10
35.1015674536
 20
38.3469514708
 30
0.0
 11
1.1457306938
 21
2.2240424038
 31
0.0
 40
0.6067293567
 41
6.2541152751
 42
8.6102969629
  0
ELLIPSE
  5
2BE
100
AcDbEntity
  8
0
100
AcDbEllipse
 62
7
  6
BYLAYER
 10
35.1015674536
 20
38.3469514708
 30
0.0
 11
1.9071288274
 21
2.9969680334
 31
0.0
 40
0.5463812534
 41
-3.903426584
 42
-2.3340113435
  0
ENDSEC
  0
SECTION
  2
OBJECTS
  0
DICTIONARY
  5
C
100
AcDbDictionary
280
0
281
1
  3
ACAD_GROUP
350
D
  3
ACAD_MLINESTYLE
350
17
  3
ACAD_LAYOUT
350
1A
  3
ACAD_PLOTSETTINGS
350
19
  3
ACAD_PLOTSTYLENAME
350
E
  0
DICTIONARY
  5
D
102
{ACAD_REACTORS
330
C
102
}
100
AcDbDictionary
280
0
281
1
  0
ACDBDICTIONARYWDFLT
  5
E
102
{ACAD_REACTORS
330
C
102
}
100
AcDbDictionary
281
1
  3
Normal
350
F
100
AcDbDictionaryWithDefault
340
F
  0
DICTIONARY
  5
17
102
{ACAD_REACTORS
330
C
102
}
100
AcDbDictionary
280
0
281
1
  3
Standard
350
18
  0
DICTIONARY
  5
19
102
{ACAD_REACTORS
330
C
102
}
100
AcDbDictionary
281
1
  0
DICTIONARY
  5
1A
102
{ACAD_REACTORS
330
C
102
}
100
AcDbDictionary
281
1
  3
Model
350
2BF
  3
Layout1
350
2C0
  0
ACDBPLACEHOLDER
  5
F
102
{ACAD_REACTORS
330
E
102
}
  0
MLINESTYLE
  5
18
102
{ACAD_REACTORS
330
17
102
}
100
AcDbMlineStyle
  2
STANDARD
 70
0
  3

 62
256
 51
90.0
 52
90.0
 71
2
 49
0.5
 62
256
  6
BYLAYER
 49
-0.5
 62
256
  6
BYLAYER
  0
LAYOUT
  5
2BF
102
{ACAD_REACTORS
330
1A
102
}
100
AcDbPlotSettings
  1

  2
none_device
  4

  6

 40
0.0
 41
0.0
 42
0.0
 43
0.0
 44
210.0
 45
297.0
 46
0.0
 47
0.0
 48
0.0
 49
0.0
140
0.0
141
0.0
142
1.0
143
1.0
 70
1024
 72
1
 73
0
 74
0
  7

 75
0
147
1.0
148
0.0
149
0.0
100
AcDbLayout
  1
Model
 70
0
 71
0
 10
0.0
 20
0.0
 11
210.0
 21
297.0
 12
0.0
 22
0.0
 32
0.0
 14
0.0
 24
0.0
 34
0.0
 15
0.0
 25
0.0
 35
0.0
146
0.0
 13
0.0
 23
0.0
 33
0.0
 16
1.0
 26
0.0
 36
0.0
 17
0.0
 27
1.0
 37
0.0
 76
0
330
210
345
0
346
0
  0
LAYOUT
  5
2C0
102
{ACAD_REACTORS
330
1A
102
}
100
AcDbPlotSettings
  1

  2
none_device
  4

  6

 40
0.0
 41
0.0
 42
0.0
 43
0.0
 44
210.0
 45
297.0
 46
0.0
 47
0.0
 48
0.0
 49
0.0
140
0.0
141
0.0
142
1.0
143
1.0
 70
0
 72
1
 73
0
 74
0
  7

 75
0
147
1.0
148
0.0
149
0.0
100
AcDbLayout
  1
Layout1
 70
0
 71
1
 10
0.0
 20
0.0
 11
210.0
 21
297.0
 12
0.0
 22
0.0
 32
0.0
 14
0.0
 24
0.0
 34
0.0
 15
0.0
 25
0.0
 35
0.0
146
0.0
 13
0.0
 23
0.0
 33
0.0
 16
1.0
 26
0.0
 36
0.0
 17
0.0
 27
1.0
 37
0.0
 76
0
330
211
345
0
346
0
  0
ENDSEC
  0
EOF
