999
DXF file: C:\Users\sesa63760\Dev\_Creo\CAD\MCADUE0002560_3D-CAD\drw0001_1.dxf
999
Pro/ENGINEER 2019471 by Parametric Technology Corporation
  0
SECTION
  2
HEADER
  9
$ACADVER
  1
AC1024
  9
$DWGCODEPAGE
  3
ANSI_1252
  9
$EXTMAX
 10
314.0656698401
 20
444.1785902025
 30
0.0
  9
$EXTMIN
 10
0.0
 20
0.0
 30
0.0
  9
$LIMMIN
 10
0.0
 20
0.0
  9
$LIMMAX
 10
314.0656698401
 20
444.1785902025
  9
$VIEWCTR
 10
157.0328349201
 20
222.0892951012
  9
$VIEWSIZE
 40
444.1785902025
  9
$CLAYER
  8
0
  9
$LTSCALE
 40
28.9538636576
  9
$CELTYPE
  6
BYLAYER
  9
$DIMSCALE
 40
1.0
  9
$DIMASZ
 40
3.7388770219
  9
$DIMEXO
 40
1.0
  9
$DIMDLI
 40
20.004487618
  9
$DIMEXE
 40
1.0
  9
$DIMCEN
 40
4.7379049622
  9
$DIMLFAC
 40
1.0
  9
$DIMBLK
  1
_FILLED
  9
$DIMALT
 70
0
  9
$DIMALTF
 40
0.0393700787
  9
$DIMTXT
 40
5.2344278307
  9
$DIMTOL
 70
1
  9
$DIMLIM
 70
0
  9
$DIMTFAC
 40
1.0
  9
$DIMTP
 40
0.01
  9
$DIMTM
 40
0.01
  9
$DIMGAP
 40
0.625
  9
$DIMDSEP
 70
46
  9
$AUNITS
 70
0
  9
$PDMODE
 70
3
  9
$PDSIZE
 40
0.3125
  9
$HANDSEED
  5
55E
  9
$TILEMODE
 70
1
  9
$MEASUREMENT
 70
1
  9
$INSUNITS
 70
4
  0
ENDSEC
  0
SECTION
  2
CLASSES
  0
CLASS
  1
ACDBDICTIONARYWDFLT
  2
AcDbDictionaryWithDefault
  3
AutoCAD 2000
 90
0
 91
1
280
0
281
0
  0
CLASS
  1
ACDBPLACEHOLDER
  2
AcDbPlaceHolder
  3
AutoCAD 2000
 90
0
 91
1
280
0
281
0
  0
CLASS
  1
LAYOUT
  2
AcDbLayout
  3
AutoCAD 2000
 90
0
 91
0
280
0
281
0
  0
ENDSEC
  0
SECTION
  2
TABLES
  0
TABLE
  2
VPORT
  5
8
100
AcDbSymbolTable
 70
2
  0
VPORT
  5
1F4
100
AcDbSymbolTableRecord
100
AcDbViewportTableRecord
  2
*ACTIVE
 70
0
 10
0.0
 20
0.0
 11
1.0
 21
1.0
 12
157.0328349201
 22
222.0892951012
 13
0.0
 23
0.0
 14
1.0
 24
1.0
 15
0.0
 25
0.0
 16
0.0
 26
0.0
 36
1.0
 17
0.0
 27
0.0
 37
0.0
 40
444.1785902025
 41
0.7070707071
 42
50.0
 43
0.0
 44
0.0
 50
0.0
 51
0.0
 71
0
 72
100
 73
1
 74
1
 75
0
 76
0
 77
0
 78
0
  0
ENDTAB
  0
TABLE
  2
LTYPE
  5
5
100
AcDbSymbolTable
 70
6
  0
LTYPE
  5
14
100
AcDbSymbolTableRecord
100
AcDbLinetypeTableRecord
  2
BYBLOCK
 70
0
  3

 72
65
 73
0
 40
0.0
  0
LTYPE
  5
15
100
AcDbSymbolTableRecord
100
AcDbLinetypeTableRecord
  2
BYLAYER
 70
0
  3

 72
65
 73
0
 40
0.0
  0
LTYPE
  5
16
100
AcDbSymbolTableRecord
100
AcDbLinetypeTableRecord
  2
CONTINUOUS
 70
64
  3
Solid line
 72
65
 73
0
 40
0.0
  0
LTYPE
  5
1F5
100
AcDbSymbolTableRecord
100
AcDbLinetypeTableRecord
  2
CENTER
 70
64
  3
____ _ ____ _ ____ _ ____ _ ____ _ ____ _ ____
 72
65
 73
4
 40
0.6
 49
0.375
 74
0
 49
-0.075
 74
0
 49
0.075
 74
0
 49
-0.075
 74
0
  0
LTYPE
  5
1F6
100
AcDbSymbolTableRecord
100
AcDbLinetypeTableRecord
  2
HIDDEN
 70
64
  3
- - - - - - - - - - - - - - - - - - - -
 72
65
 73
2
 40
0.2
 49
0.1
 74
0
 49
-0.1
 74
0
  0
LTYPE
  5
1F7
100
AcDbSymbolTableRecord
100
AcDbLinetypeTableRecord
  2
PHANTOM
 70
64
  3
_____ _ _ _____ _ _ _____ _ _ _____
 72
65
 73
6
 40
0.8
 49
0.45
 74
0
 49
-0.05
 74
0
 49
0.1
 74
0
 49
-0.05
 74
0
 49
0.1
 74
0
 49
-0.05
 74
0
  0
LTYPE
  5
1F8
100
AcDbSymbolTableRecord
100
AcDbLinetypeTableRecord
  2
DOT
 70
64
  3
. . . . . . . . . . . . . . . . . . . .
 72
65
 73
2
 40
0.2
 49
0.1
 74
0
 49
-0.1
 74
0
  0
LTYPE
  5
1F9
100
AcDbSymbolTableRecord
100
AcDbLinetypeTableRecord
  2
DASHED
 70
64
  3
- - - - - - - - - - - - - - - - - - - -
 72
65
 73
2
 40
0.2
 49
0.1
 74
0
 49
-0.1
 74
0
  0
ENDTAB
  0
TABLE
  2
LAYER
  5
2
100
AcDbSymbolTable
 70
36
  0
LAYER
  5
10
100
AcDbSymbolTableRecord
100
AcDbLayerTableRecord
  2
0
 70
0
 62
7
  6
CONTINUOUS
370
-3
390
F
  0
LAYER
  5
1FA
100
AcDbSymbolTableRecord
100
AcDbLayerTableRecord
  2
DEFAULT_1
 70
0
 62
7
  6
CENTER
370
-3
390
F
  0
LAYER
  5
1FB
100
AcDbSymbolTableRecord
100
AcDbLayerTableRecord
  2
DEFAULT_2
 70
0
 62
8
  6
HIDDEN
370
-3
390
F
  0
LAYER
  5
1FC
100
AcDbSymbolTableRecord
100
AcDbLayerTableRecord
  2
DEFAULT_3
 70
0
 62
7
  6
PHANTOM
370
-3
390
F
  0
LAYER
  5
1FD
100
AcDbSymbolTableRecord
100
AcDbLayerTableRecord
  2
00_COMPONENTS
 70
0
 62
7
  6
CONTINUOUS
370
-3
390
F
  0
LAYER
  5
1FE
100
AcDbSymbolTableRecord
100
AcDbLayerTableRecord
  2
01_1_DEFAULT_DATUMS
 70
0
 62
7
  6
CONTINUOUS
370
-3
390
F
  0
LAYER
  5
1FF
100
AcDbSymbolTableRecord
100
AcDbLayerTableRecord
  2
01_PLANES
 70
0
 62
7
  6
CONTINUOUS
370
-3
390
F
  0
LAYER
  5
200
100
AcDbSymbolTableRecord
100
AcDbLayerTableRecord
  2
02_COORD_SYS
 70
0
 62
7
  6
CONTINUOUS
370
-3
390
F
  0
LAYER
  5
201
100
AcDbSymbolTableRecord
100
AcDbLayerTableRecord
  2
03_AXES
 70
0
 62
7
  6
CONTINUOUS
370
-3
390
F
  0
LAYER
  5
202
100
AcDbSymbolTableRecord
100
AcDbLayerTableRecord
  2
04_POINTS
 70
0
 62
7
  6
CONTINUOUS
370
-3
390
F
  0
LAYER
  5
203
100
AcDbSymbolTableRecord
100
AcDbLayerTableRecord
  2
05_CURVES
 70
0
 62
7
  6
CONTINUOUS
370
-3
390
F
  0
LAYER
  5
204
100
AcDbSymbolTableRecord
100
AcDbLayerTableRecord
  2
06_SURFS
 70
0
 62
7
  6
CONTINUOUS
370
-3
390
F
  0
LAYER
  5
205
100
AcDbSymbolTableRecord
100
AcDbLayerTableRecord
  2
07_COSMETICS
 70
0
 62
7
  6
CONTINUOUS
370
-3
390
F
  0
LAYER
  5
206
100
AcDbSymbolTableRecord
100
AcDbLayerTableRecord
  2
10_NOTES
 70
0
 62
7
  6
CONTINUOUS
370
-3
390
F
  0
LAYER
  5
207
100
AcDbSymbolTableRecord
100
AcDbLayerTableRecord
  2
11_NOTES_PUB
 70
0
 62
7
  6
CONTINUOUS
370
-3
390
F
  0
LAYER
  5
208
100
AcDbSymbolTableRecord
100
AcDbLayerTableRecord
  2
13_REF_GTOL
 70
0
 62
7
  6
CONTINUOUS
370
-3
390
F
  0
LAYER
  5
209
100
AcDbSymbolTableRecord
100
AcDbLayerTableRecord
  2
16_MISC
 70
0
 62
7
  6
CONTINUOUS
370
-3
390
F
  0
LAYER
  5
20A
100
AcDbSymbolTableRecord
100
AcDbLayerTableRecord
  2
17_NO_PRINT
 70
0
 62
7
  6
CONTINUOUS
370
-3
390
F
  0
LAYER
  5
20B
100
AcDbSymbolTableRecord
100
AcDbLayerTableRecord
  2
18_DATUM_CAMS_JOINTS
 70
0
 62
7
  6
CONTINUOUS
370
-3
390
F
  0
LAYER
  5
20C
100
AcDbSymbolTableRecord
100
AcDbLayerTableRecord
  2
19_DATUM_FUNCTIONAL
 70
0
 62
7
  6
CONTINUOUS
370
-3
390
F
  0
LAYER
  5
20D
100
AcDbSymbolTableRecord
100
AcDbLayerTableRecord
  2
20_DATUM_KINEMATIC_SCHEME
 70
0
 62
7
  6
CONTINUOUS
370
-3
390
F
  0
ENDTAB
  0
TABLE
  2
STYLE
  5
3
100
AcDbSymbolTable
 70
1
  0
STYLE
  5
11
100
AcDbSymbolTableRecord
100
AcDbTextStyleTableRecord
  2
STANDARD
 70
0
 40
0.0
 41
0.8
 50
0.0
 71
0
 42
0.2
  3
txt
  4

  0
STYLE
  5
20E
100
AcDbSymbolTableRecord
100
AcDbTextStyleTableRecord
  2
TEXTSTYLE_1
 70
0
 40
0.0
 41
0.8
 50
0.0
 71
0
 42
0.2
  3
gdt
  4

  0
ENDTAB
  0
TABLE
  2
VIEW
  5
6
100
AcDbSymbolTable
 70
0
  0
ENDTAB
  0
TABLE
  2
UCS
  5
7
100
AcDbSymbolTable
 70
0
  0
ENDTAB
  0
TABLE
  2
APPID
  5
9
100
AcDbSymbolTable
 70
1
  0
APPID
  5
20F
100
AcDbSymbolTableRecord
100
AcDbRegAppTableRecord
  2
ACAD
 70
0
  0
ENDTAB
  0
TABLE
  2
BLOCK_RECORD
  5
1
100
AcDbSymbolTable
 70
0
  0
BLOCK_RECORD
  5
210
100
AcDbSymbolTableRecord
100
AcDbBlockTableRecord
  2
*Model_Space
  0
BLOCK_RECORD
  5
211
100
AcDbSymbolTableRecord
100
AcDbBlockTableRecord
  2
*Paper_Space
  0
BLOCK_RECORD
  5
212
100
AcDbSymbolTableRecord
100
AcDbBlockTableRecord
  2
_FILLED
  0
ENDTAB
  0
TABLE
  2
DIMSTYLE
  5
A
100
AcDbSymbolTable
 70
1
100
AcDbDimStyleTable
 71
0
  0
DIMSTYLE
105
213
100
AcDbSymbolTableRecord
100
AcDbDimStyleTableRecord
  2
STANDARD
 70
0
  3

  4

 40
1.0
 41
3.7388770219
 42
1.0
 43
0.38
 44
1.0
 45
0.0
 46
0.0
 47
0.01
 48
0.01
140
5.2344278307
141
0.09
142
0.0
143
25.4
144
1.0
145
0.0
146
1.0
147
0.625
 71
1
 72
0
 73
0
 74
0
 75
0
 76
0
 77
1
 78
8
 79
2
170
0
171
1
172
0
173
0
174
0
175
0
176
0
177
0
178
0
270
2
179
2
271
2
272
2
273
2
274
2
275
0
280
0
281
0
282
0
283
1
284
8
285
0
286
0
287
3
288
0
340
11
278
46
341
212
342
212
343
212
344
212
  0
ENDTAB
  0
ENDSEC
  0
SECTION
  2
BLOCKS
  0
BLOCK
  5
20
100
AcDbEntity
  8
0
100
AcDbBlockBegin
  2
*Model_Space
 70
0
 10
0.0
 20
0.0
 30
0.0
  3
*Model_Space
  1

  0
ENDBLK
  5
21
100
AcDbEntity
  8
0
100
AcDbBlockEnd
  0
BLOCK
  5
1C
100
AcDbEntity
  8
0
100
AcDbBlockBegin
  2
*Paper_Space
 70
0
 10
0.0
 20
0.0
 30
0.0
  3
*Paper_Space
  1

  0
ENDBLK
  5
1D
100
AcDbEntity
  8
0
100
AcDbBlockEnd
  0
BLOCK
  5
214
100
AcDbEntity
  8
0
100
AcDbBlockBegin
  2
_FILLED
 70
64
 10
0.0
 20
0.0
  3
_FILLED
  1

  0
SOLID
  5
215
100
AcDbEntity
  8
0
  6
BYBLOCK
 62
0
100
AcDbTrace
 10
0.0
 20
0.0
 11
-1.0
 21
0.25
 12
-1.0
 22
-0.25
 13
-1.0
 23
-0.25
  0
ENDBLK
  5
216
100
AcDbEntity
  8
0
  6
BYBLOCK
 62
0
100
AcDbBlockEnd
  0
ENDSEC
  0
SECTION
  2
ENTITIES
  0
LINE
  5
217
100
AcDbEntity
  8
0
100
AcDbLine
 62
7
  6
CONTINUOUS
 10
36.4352311128
 20
269.2060839176
 11
36.4352370007
 21
186.3311060877
  0
LINE
  5
218
100
AcDbEntity
  8
0
100
AcDbLine
 62
7
  6
CONTINUOUS
 10
37.8494505631
 20
272.8803657027
 11
37.8494446752
 21
279.7236164941
  0
LINE
  5
219
100
AcDbEntity
  8
0
100
AcDbLine
 62
7
  6
CONTINUOUS
 10
62.8793983943
 20
285.5076318788
 11
62.8581480413
 21
285.4766905653
  0
LINE
  5
21A
100
AcDbEntity
  8
0
100
AcDbLine
 62
7
  6
CONTINUOUS
 10
64.0387673684
 20
284.8382850322
 11
64.012403345
 21
284.8021875426
  0
LINE
  5
21B
100
AcDbEntity
  8
0
100
AcDbLine
 62
7
  6
CONTINUOUS
 10
141.5009416904
 20
340.2426387759
 11
141.7937146335
 21
340.3332458758
  0
LINE
  5
21C
100
AcDbEntity
  8
0
100
AcDbLine
 62
7
  6
CONTINUOUS
 10
58.7623985228
 20
284.3305668364
 11
58.7623985228
 21
284.4459957024
  0
LINE
  5
21D
100
AcDbEntity
  8
0
100
AcDbLine
 62
7
  6
CONTINUOUS
 10
64.6847089097
 20
284.6446599772
 11
64.8889116574
 21
285.2268962333
  0
LWPOLYLINE
  5
21E
100
AcDbEntity
  8
0
100
AcDbPolyline
 62
7
  6
CONTINUOUS
 90
4
 70
0
 10
66.0329645634
 20
284.4940035992
 10
65.8494534958
 20
284.3463331899
 10
65.5896234012
 20
284.1964624547
 10
65.3796061737
 20
284.1094320794
  0
LINE
  5
21F
100
AcDbEntity
  8
0
100
AcDbLine
 62
7
  6
CONTINUOUS
 10
38.2636686023
 20
280.6391883773
 11
141.5008288356
 21
340.2428348426
  0
LINE
  5
220
100
AcDbEntity
  8
0
100
AcDbLine
 62
7
  6
CONTINUOUS
 10
38.5565544003
 20
280.7295994105
 11
141.7937146335
 21
340.3332458758
  0
LINE
  5
221
100
AcDbEntity
  8
0
100
AcDbLine
 62
7
  6
CONTINUOUS
 10
38.7601930013
 20
279.7691681074
 11
38.053089164
 21
279.3609239535
  0
LINE
  5
222
100
AcDbEntity
  8
0
100
AcDbLine
 62
7
  6
CONTINUOUS
 10
38.2030054257
 20
279.4101230439
 11
38.9101092629
 21
279.8183671978
  0
LINE
  5
223
100
AcDbEntity
  8
0
100
AcDbLine
 62
7
  6
CONTINUOUS
 10
144.7984880005
 20
340.5027925246
 11
41.9665367538
 21
281.1330921803
  0
LINE
  5
224
100
AcDbEntity
  8
0
100
AcDbLine
 62
7
  6
CONTINUOUS
 10
43.1781458229
 20
281.2349036825
 11
145.0010983817
 21
340.0220618399
  0
LINE
  5
225
100
AcDbEntity
  8
0
100
AcDbLine
 62
7
  6
CONTINUOUS
 10
37.5565588772
 20
270.5298999547
 11
39.7385956498
 21
271.7896919528
  0
LINE
  5
226
100
AcDbEntity
  8
0
100
AcDbLine
 62
7
  6
CONTINUOUS
 10
38.5565544003
 20
270.4308513967
 11
40.3243773684
 21
271.4514983707
  0
LINE
  5
227
100
AcDbEntity
  8
0
100
AcDbLine
 62
7
  6
CONTINUOUS
 10
65.023333371
 20
285.3972551652
 11
65.0378586806
 21
285.4056413082
  0
LINE
  5
228
100
AcDbEntity
  8
0
100
AcDbLine
 62
7
  6
CONTINUOUS
 10
66.3795072943
 20
286.1802380197
 11
67.3426278776
 21
286.7362927339
  0
LINE
  5
229
100
AcDbEntity
  8
0
100
AcDbLine
 62
7
  6
CONTINUOUS
 10
137.7352682446
 20
327.3772600049
 11
140.0545486984
 21
328.716288959
  0
LINE
  5
22A
100
AcDbEntity
  8
0
100
AcDbLine
 62
7
  6
CONTINUOUS
 10
59.9538461511
 20
282.4704030791
 11
62.2731266049
 21
283.8094320331
  0
LINE
  5
22B
100
AcDbEntity
  8
0
100
AcDbLine
 62
7
  6
CONTINUOUS
 10
142.8047554645
 20
330.3041120911
 11
142.8192807742
 21
330.3124982341
  0
LINE
  5
22C
100
AcDbEntity
  8
0
100
AcDbLine
 62
7
  6
CONTINUOUS
 10
144.1609293878
 20
331.0870949455
 11
145.1240499712
 21
331.6431496598
  0
LINE
  5
22D
100
AcDbEntity
  8
0
100
AcDbLine
 62
7
  6
CONTINUOUS
 10
145.5006047015
 20
327.2072156125
 11
145.5061466734
 21
327.209588667
  0
LINE
  5
22E
100
AcDbEntity
  8
0
100
AcDbLine
 62
7
  6
CONTINUOUS
 10
63.0237868937
 20
284.3946998536
 11
62.9729292556
 21
285.3164289854
  0
LINE
  5
22F
100
AcDbEntity
  8
0
100
AcDbLine
 62
7
  6
CONTINUOUS
 10
62.9727785049
 20
285.4295925487
 11
63.0279526551
 21
284.3977820053
  0
LINE
  5
230
100
AcDbEntity
  8
0
100
AcDbLine
 62
7
  6
CONTINUOUS
 10
62.9727775057
 20
285.5681546324
 11
63.0350790598
 21
284.4030546693
  0
LINE
  5
231
100
AcDbEntity
  8
0
100
AcDbLine
 62
7
  6
CONTINUOUS
 10
63.038798999
 20
284.4058069673
 11
62.9729266648
 21
285.675709589
  0
LINE
  5
232
100
AcDbEntity
  8
0
100
AcDbLine
 62
7
  6
CONTINUOUS
 10
63.7633364056
 20
284.8991614337
 11
63.7012436171
 21
286.0962010675
  0
LINE
  5
233
100
AcDbEntity
  8
0
100
AcDbLine
 62
7
  6
CONTINUOUS
 10
59.9538461511
 20
282.4704030791
 11
59.9538461511
 21
282.5232948635
  0
LINE
  5
234
100
AcDbEntity
  8
0
100
AcDbLine
 62
7
  6
CONTINUOUS
 10
60.682169168
 20
282.1028068864
 11
60.682169168
 21
282.0499151019
  0
LINE
  5
235
100
AcDbEntity
  8
0
100
AcDbLine
 62
7
  6
CONTINUOUS
 10
63.8923941945
 20
286.0990924059
 11
63.8923944537
 21
284.8986591961
  0
LINE
  5
236
100
AcDbEntity
  8
0
100
AcDbLine
 62
7
  6
CONTINUOUS
 10
64.0123927635
 20
286.2695412446
 11
64.0124042822
 21
284.6722329725
  0
LINE
  5
237
100
AcDbEntity
  8
0
100
AcDbLine
 62
7
  6
CONTINUOUS
 10
64.1323941945
 20
286.0990929828
 11
64.1323944537
 21
284.898659773
  0
LINE
  5
238
100
AcDbEntity
  8
0
100
AcDbLine
 62
7
  6
CONTINUOUS
 10
67.3426278776
 20
286.7891845184
 11
67.3426278776
 21
286.7362927339
  0
LINE
  5
239
100
AcDbEntity
  8
0
100
AcDbLine
 62
7
  6
CONTINUOUS
 10
69.2623985228
 20
284.4459957024
 11
69.2623985228
 21
284.3300970511
  0
LINE
  5
23A
100
AcDbEntity
  8
0
100
AcDbLine
 62
7
  6
CONTINUOUS
 10
64.3235447731
 20
286.0962025634
 11
64.2614525607
 21
284.89916377
  0
LINE
  5
23B
100
AcDbEntity
  8
0
100
AcDbLine
 62
7
  6
CONTINUOUS
 10
64.9867088293
 20
284.4195537789
 11
65.05186779
 21
285.6757145862
  0
LINE
  5
23C
100
AcDbEntity
  8
0
100
AcDbLine
 62
7
  6
CONTINUOUS
 10
65.0520185407
 20
285.5681596303
 11
64.990449287
 21
284.4167541048
  0
LINE
  5
23D
100
AcDbEntity
  8
0
100
AcDbLine
 62
7
  6
CONTINUOUS
 10
65.0520195399
 20
285.4295975466
 11
64.9975744577
 21
284.4114210258
  0
LINE
  5
23E
100
AcDbEntity
  8
0
100
AcDbLine
 62
7
  6
CONTINUOUS
 10
65.0518703809
 20
285.3164339826
 11
65.0017617469
 21
284.4082869052
  0
LWPOLYLINE
  5
23F
100
AcDbEntity
  8
0
100
AcDbPolyline
 62
7
  6
CONTINUOUS
 90
4
 70
0
 10
143.814386657
 20
329.400860525
 10
143.6308755893
 20
329.2531901157
 10
143.3710454947
 20
329.1033193806
 10
143.1610282672
 20
329.0162890053
  0
LINE
  5
240
100
AcDbEntity
  8
0
100
AcDbLine
 62
7
  6
CONTINUOUS
 10
145.5013164762
 20
327.2068036047
 11
145.5061466734
 21
327.209588667
  0
LINE
  5
241
100
AcDbEntity
  8
0
100
AcDbLine
 62
7
  6
CONTINUOUS
 10
67.7198943827
 20
282.2999466788
 11
67.7247245798
 21
282.3027317411
  0
LINE
  5
242
100
AcDbEntity
  8
0
100
AcDbLine
 62
7
  6
CONTINUOUS
 10
67.7191826079
 20
282.3003586867
 11
67.7247245798
 21
282.3027317411
  0
LINE
  5
243
100
AcDbEntity
  8
0
100
AcDbLine
 62
7
  6
CONTINUOUS
 10
38.7601930013
 20
279.7691681074
 11
38.9101092629
 21
279.8183671978
  0
LINE
  5
244
100
AcDbEntity
  8
0
100
AcDbLine
 62
7
  6
CONTINUOUS
 10
38.2030054257
 20
279.4101230439
 11
38.053089164
 21
279.3609239535
  0
LINE
  5
245
100
AcDbEntity
  8
0
100
AcDbLine
 62
7
  6
CONTINUOUS
 10
38.5565544003
 20
280.7295994105
 11
38.2637814572
 21
280.6389923107
  0
LINE
  5
246
100
AcDbEntity
  8
0
100
AcDbLine
 62
7
  6
CONTINUOUS
 10
38.7637227913
 20
279.7730636479
 11
38.9101092629
 21
279.8183671978
  0
LINE
  5
247
100
AcDbEntity
  8
0
100
AcDbLine
 62
7
  6
CONTINUOUS
 10
176.5036265953
 20
104.7879881017
 11
37.2030222682
 21
185.2114100873
  0
LINE
  5
248
100
AcDbEntity
  8
0
100
AcDbLine
 62
7
  6
CONTINUOUS
 10
176.4429625798
 20
105.4994366926
 11
36.4352370007
 21
186.3311060877
  0
LINE
  5
249
100
AcDbEntity
  8
0
100
AcDbLine
 62
7
  6
CONTINUOUS
 10
177.8571761422
 20
105.499440092
 11
177.1500664171
 21
105.9076808465
  0
LINE
  5
24A
100
AcDbEntity
  8
0
100
AcDbLine
 62
7
  6
CONTINUOUS
 10
39.9961579477
 20
279.9153854997
 11
39.6426030851
 21
280.8266177124
  0
LINE
  5
24B
100
AcDbEntity
  8
0
100
AcDbLine
 62
7
  6
CONTINUOUS
 10
42.1100120695
 20
280.7633070543
 11
41.9665367538
 21
281.1330921803
  0
LINE
  5
24C
100
AcDbEntity
  8
0
100
AcDbLine
 62
7
  6
CONTINUOUS
 10
140.6608204878
 20
330.4144888047
 11
140.6395701348
 21
330.3835474912
  0
LINE
  5
24D
100
AcDbEntity
  8
0
100
AcDbLine
 62
7
  6
CONTINUOUS
 10
141.8201894619
 20
329.7451419581
 11
141.7938254385
 21
329.7090444685
  0
LINE
  5
24E
100
AcDbEntity
  8
0
100
AcDbLine
 62
7
  6
CONTINUOUS
 10
62.7333104207
 20
286.3746899488
 11
63.344515559
 21
284.6319996649
  0
LINE
  5
24F
100
AcDbEntity
  8
0
100
AcDbLine
 62
7
  6
CONTINUOUS
 10
142.4661310032
 20
329.551516903
 11
142.6703337509
 21
330.1337531592
  0
LINE
  5
250
100
AcDbEntity
  8
0
100
AcDbLine
 62
7
  6
CONTINUOUS
 10
121.6162600136
 20
310.4390364278
 11
121.6162600136
 21
303.9070170908
  0
LINE
  5
251
100
AcDbEntity
  8
0
100
AcDbLine
 62
7
  6
CONTINUOUS
 10
122.3485004206
 20
309.4184260431
 11
122.3485004206
 21
302.8864067061
  0
LINE
  5
252
100
AcDbEntity
  8
0
100
AcDbLine
 62
7
  6
CONTINUOUS
 10
125.8840196066
 20
311.4596468125
 11
125.8840196066
 21
304.9276274755
  0
LINE
  5
253
100
AcDbEntity
  8
0
100
AcDbLine
 62
7
  6
CONTINUOUS
 10
126.6162600136
 20
310.4390364278
 11
126.6162600136
 21
303.9070170908
  0
LINE
  5
254
100
AcDbEntity
  8
0
100
AcDbLine
 62
7
  6
CONTINUOUS
 10
145.4179527217
 20
340.4577795006
 11
145.4020831768
 21
340.3882587437
  0
LINE
  5
255
100
AcDbEntity
  8
0
100
AcDbLine
 62
7
  6
CONTINUOUS
 10
64.012403345
 20
284.8021875426
 11
63.9860391115
 21
284.8382849055
  0
LINE
  5
256
100
AcDbEntity
  8
0
100
AcDbLine
 62
7
  6
CONTINUOUS
 10
65.1666489658
 20
285.4766961199
 11
65.1453984318
 21
285.5076373256
  0
LINE
  5
257
100
AcDbEntity
  8
0
100
AcDbLine
 62
7
  6
CONTINUOUS
 10
137.7352682446
 20
327.3772600049
 11
137.7352682446
 21
327.4301517894
  0
LINE
  5
258
100
AcDbEntity
  8
0
100
AcDbLine
 62
7
  6
CONTINUOUS
 10
136.5438206163
 20
329.2374237623
 11
136.5438206163
 21
329.3528526282
  0
LINE
  5
259
100
AcDbEntity
  8
0
100
AcDbLine
 62
7
  6
CONTINUOUS
 10
142.1049668666
 20
331.0030594892
 11
142.0428746542
 21
329.8060206959
  0
LINE
  5
25A
100
AcDbEntity
  8
0
100
AcDbLine
 62
7
  6
CONTINUOUS
 10
142.7681309229
 20
329.3264107048
 11
142.8332898835
 21
330.5825715121
  0
LINE
  5
25B
100
AcDbEntity
  8
0
100
AcDbLine
 62
7
  6
CONTINUOUS
 10
142.8334406342
 20
330.4750165561
 11
142.7718713806
 21
329.3236110306
  0
LINE
  5
25C
100
AcDbEntity
  8
0
100
AcDbLine
 62
7
  6
CONTINUOUS
 10
142.8334416335
 20
330.3364544724
 11
142.7789965512
 21
329.3182779516
  0
LINE
  5
25D
100
AcDbEntity
  8
0
100
AcDbLine
 62
7
  6
CONTINUOUS
 10
142.8332924744
 20
330.2232909084
 11
142.7831838405
 21
329.3151438311
  0
LINE
  5
25E
100
AcDbEntity
  8
0
100
AcDbLine
 62
7
  6
CONTINUOUS
 10
36.4352370007
 20
268.3895990092
 11
176.4429625798
 21
187.5579296142
  0
LINE
  5
25F
100
AcDbEntity
  8
0
100
AcDbLine
 62
7
  6
CONTINUOUS
 10
59.9514319065
 20
282.5256207037
 11
59.9538461511
 21
282.5232948635
  0
LINE
  5
260
100
AcDbEntity
  8
0
100
AcDbLine
 62
7
  6
CONTINUOUS
 10
140.8052089872
 20
329.3015567795
 11
140.7543513492
 21
330.2232859113
  0
LINE
  5
261
100
AcDbEntity
  8
0
100
AcDbLine
 62
7
  6
CONTINUOUS
 10
140.7542005984
 20
330.3364494746
 11
140.8093747486
 21
329.3046389312
  0
LINE
  5
262
100
AcDbEntity
  8
0
100
AcDbLine
 62
7
  6
CONTINUOUS
 10
140.7541995992
 20
330.4750115583
 11
140.8165011533
 21
329.3099115952
  0
LINE
  5
263
100
AcDbEntity
  8
0
100
AcDbLine
 62
7
  6
CONTINUOUS
 10
140.8202210925
 20
329.3126638932
 11
140.7543487583
 21
330.5825665149
  0
LINE
  5
264
100
AcDbEntity
  8
0
100
AcDbLine
 62
7
  6
CONTINUOUS
 10
141.5447584991
 20
329.8060183596
 11
141.4826657106
 21
331.0030579934
  0
LINE
  5
265
100
AcDbEntity
  8
0
100
AcDbLine
 62
7
  6
CONTINUOUS
 10
138.4635912615
 20
327.0096638122
 11
138.4635912615
 21
326.9567720278
  0
LINE
  5
266
100
AcDbEntity
  8
0
100
AcDbLine
 62
7
  6
CONTINUOUS
 10
141.673816288
 20
331.0059493318
 11
141.6738165472
 21
329.805516122
  0
LINE
  5
267
100
AcDbEntity
  8
0
100
AcDbLine
 62
7
  6
CONTINUOUS
 10
141.793814857
 20
331.1763981705
 11
141.7938263757
 21
329.5790898983
  0
LINE
  5
268
100
AcDbEntity
  8
0
100
AcDbLine
 62
7
  6
CONTINUOUS
 10
141.913816288
 20
331.0059499087
 11
141.9138165472
 21
329.8055166989
  0
LINE
  5
269
100
AcDbEntity
  8
0
100
AcDbLine
 62
7
  6
CONTINUOUS
 10
145.1240499712
 20
331.6960414443
 11
145.1240499712
 21
331.6431496598
  0
LINE
  5
26A
100
AcDbEntity
  8
0
100
AcDbLine
 62
7
  6
CONTINUOUS
 10
147.0438206163
 20
329.3528526282
 11
147.0438206163
 21
329.2369539769
  0
LINE
  5
26B
100
AcDbEntity
  8
0
100
AcDbLine
 62
7
  6
CONTINUOUS
 10
36.4352311128
 20
269.2060839176
 11
36.7902352883
 21
269.0011267981
  0
LINE
  5
26C
100
AcDbEntity
  8
0
100
AcDbLine
 62
7
  6
CONTINUOUS
 10
177.1500664171
 20
187.966173768
 11
177.8571761422
 21
187.5579330135
  0
LINE
  5
26D
100
AcDbEntity
  8
0
100
AcDbLine
 62
7
  6
CONTINUOUS
 10
177.1500605291
 20
190.4156635107
 11
38.5565544003
 21
270.4308513967
  0
LINE
  5
26E
100
AcDbEntity
  8
0
100
AcDbLine
 62
7
  6
CONTINUOUS
 10
176.4429566919
 20
192.8651778168
 11
37.8494505631
 21
272.8803657027
  0
LINE
  5
26F
100
AcDbEntity
  8
0
100
AcDbLine
 62
7
  6
CONTINUOUS
 10
177.1500605291
 20
193.2734219706
 11
177.8571702543
 21
192.8651812161
  0
LINE
  5
270
100
AcDbEntity
  8
0
100
AcDbLine
 62
7
  6
CONTINUOUS
 10
40.3497186982
 20
279.6018920495
 11
173.9426885568
 21
202.4736998126
  0
LINE
  5
271
100
AcDbEntity
  8
0
100
AcDbLine
 62
7
  6
CONTINUOUS
 10
65.3591208372
 20
284.125859317
 11
65.3796061737
 21
284.1094320794
  0
LINE
  5
272
100
AcDbEntity
  8
0
100
AcDbLine
 62
7
  6
CONTINUOUS
 10
65.3594459731
 20
284.1274932828
 11
65.3798823454
 21
284.1108009343
  0
LINE
  5
273
100
AcDbEntity
  8
0
100
AcDbLine
 62
7
  6
CONTINUOUS
 10
177.1499497241
 20
220.8210659512
 11
177.1763139577
 21
220.8280213376
  0
LINE
  5
274
100
AcDbEntity
  8
0
100
AcDbLine
 62
7
  6
CONTINUOUS
 10
176.0169544178
 20
220.1891111556
 11
176.0128648432
 21
220.1885514467
  0
LINE
  5
275
100
AcDbEntity
  8
0
100
AcDbLine
 62
7
  6
CONTINUOUS
 10
176.0169544178
 20
220.1891111556
 11
176.0128622448
 21
220.1885705163
  0
LINE
  5
276
100
AcDbEntity
  8
0
100
AcDbLine
 62
7
  6
CONTINUOUS
 10
178.2870468925
 20
220.1885757535
 11
178.2829544553
 21
220.1891166024
  0
LINE
  5
277
100
AcDbEntity
  8
0
100
AcDbLine
 62
7
  6
CONTINUOUS
 10
178.2870443193
 20
220.188556874
 11
178.2829544553
 21
220.1891166024
  0
LINE
  5
278
100
AcDbEntity
  8
0
100
AcDbLine
 62
7
  6
CONTINUOUS
 10
173.942676781
 20
205.7396744636
 11
43.1781458229
 21
281.2349036825
  0
LINE
  5
279
100
AcDbEntity
  8
0
100
AcDbLine
 62
7
  6
CONTINUOUS
 10
59.9509004072
 20
282.5253693666
 11
59.9538461511
 21
282.5232948635
  0
LINE
  5
27A
100
AcDbEntity
  8
0
100
AcDbLine
 62
7
  6
CONTINUOUS
 10
176.0894018293
 20
199.8031759125
 11
173.9426885568
 21
202.4736998126
  0
LINE
  5
27B
100
AcDbEntity
  8
0
100
AcDbLine
 62
7
  6
CONTINUOUS
 10
174.6497923941
 20
202.8819439665
 11
176.7965056666
 21
200.2114200663
  0
LINE
  5
27C
100
AcDbEntity
  8
0
100
AcDbLine
 62
7
  6
CONTINUOUS
 10
177.1500605291
 20
200.7144115246
 11
176.0640118444
 21
202.0654624574
  0
LINE
  5
27D
100
AcDbEntity
  8
0
100
AcDbLine
 62
7
  6
CONTINUOUS
 10
173.8406654696
 20
204.5105728934
 11
173.5416919859
 21
204.9359152334
  0
LINE
  5
27E
100
AcDbEntity
  8
0
100
AcDbLine
 62
7
  6
CONTINUOUS
 10
175.7104569818
 20
201.5624709992
 11
174.1037445007
 21
203.8702379692
  0
LINE
  5
27F
100
AcDbEntity
  8
0
100
AcDbLine
 62
7
  6
CONTINUOUS
 10
171.8999545463
 20
219.0120461132
 11
171.8999545463
 21
219.1274749791
  0
LINE
  5
280
100
AcDbEntity
  8
0
100
AcDbLine
 62
7
  6
CONTINUOUS
 10
250.8728242681
 20
262.0587392817
 11
253.1921047219
 21
263.3977682357
  0
LINE
  5
281
100
AcDbEntity
  8
0
100
AcDbLine
 62
7
  6
CONTINUOUS
 10
173.0914021746
 20
217.1518823558
 11
175.4106826284
 21
218.4909113098
  0
LINE
  5
282
100
AcDbEntity
  8
0
100
AcDbLine
 62
7
  6
CONTINUOUS
 10
178.1608893945
 20
220.078734442
 11
178.1754147042
 21
220.087120585
  0
LINE
  5
283
100
AcDbEntity
  8
0
100
AcDbLine
 62
7
  6
CONTINUOUS
 10
179.5170633178
 20
220.8617172964
 11
180.4801839011
 21
221.4177720107
  0
LINE
  5
284
100
AcDbEntity
  8
0
100
AcDbLine
 62
7
  6
CONTINUOUS
 10
255.942311488
 20
264.9855913678
 11
255.9568367977
 21
264.9939775108
  0
LINE
  5
285
100
AcDbEntity
  8
0
100
AcDbLine
 62
7
  6
CONTINUOUS
 10
257.2984854114
 20
265.7685742223
 11
258.2616059947
 21
266.3246289366
  0
LINE
  5
286
100
AcDbEntity
  8
0
100
AcDbLine
 62
7
  6
CONTINUOUS
 10
258.638160725
 20
261.8886948893
 11
258.6437026969
 21
261.8910679438
  0
LINE
  5
287
100
AcDbEntity
  8
0
100
AcDbLine
 62
7
  6
CONTINUOUS
 10
180.398885572
 20
221.5713165886
 11
180.433930349
 21
221.5645078113
  0
LINE
  5
288
100
AcDbEntity
  8
0
100
AcDbLine
 62
7
  6
CONTINUOUS
 10
177.1235857007
 20
220.8280212109
 11
177.1499497241
 21
220.8210659512
  0
LINE
  5
289
100
AcDbEntity
  8
0
100
AcDbLine
 62
7
  6
CONTINUOUS
 10
181.1722102427
 20
221.1381740176
 11
181.1272085889
 21
221.1508286115
  0
LINE
  5
28A
100
AcDbEntity
  8
0
100
AcDbLine
 62
7
  6
CONTINUOUS
 10
173.0884564308
 20
217.2068486434
 11
173.0914021746
 21
217.2047741403
  0
LINE
  5
28B
100
AcDbEntity
  8
0
100
AcDbLine
 62
7
  6
CONTINUOUS
 10
178.4966748061
 20
218.807340264
 11
178.5171596122
 21
218.7909134555
  0
LINE
  5
28C
100
AcDbEntity
  8
0
100
AcDbLine
 62
7
  6
CONTINUOUS
 10
178.4969999594
 20
218.8089743224
 11
178.5174358048
 21
218.7922824186
  0
LINE
  5
28D
100
AcDbEntity
  8
0
100
AcDbLine
 62
7
  6
CONTINUOUS
 10
173.0889879301
 20
217.2070999804
 11
173.0914021746
 21
217.2047741403
  0
LINE
  5
28E
100
AcDbEntity
  8
0
100
AcDbLine
 62
7
  6
CONTINUOUS
 10
177.123595135
 20
219.5197641822
 11
177.1499593685
 21
219.4836668194
  0
LINE
  5
28F
100
AcDbEntity
  8
0
100
AcDbLine
 62
7
  6
CONTINUOUS
 10
174.1452871621
 20
204.8213814524
 11
176.0640118444
 21
202.0654624574
  0
LINE
  5
290
100
AcDbEntity
  8
0
100
AcDbLine
 62
7
  6
CONTINUOUS
 10
176.1613429172
 20
219.0761791303
 11
176.1104852792
 21
219.9979082622
  0
LINE
  5
291
100
AcDbEntity
  8
0
100
AcDbLine
 62
7
  6
CONTINUOUS
 10
176.1103345284
 20
220.1110718254
 11
176.1655086786
 21
219.0792612821
  0
LINE
  5
292
100
AcDbEntity
  8
0
100
AcDbLine
 62
7
  6
CONTINUOUS
 10
176.1103335292
 20
220.2496339091
 11
176.1726350833
 21
219.0845339461
  0
LINE
  5
293
100
AcDbEntity
  8
0
100
AcDbLine
 62
7
  6
CONTINUOUS
 10
176.1104826883
 20
220.3571888658
 11
176.1763550225
 21
219.0872862441
  0
LINE
  5
294
100
AcDbEntity
  8
0
100
AcDbLine
 62
7
  6
CONTINUOUS
 10
176.9008924291
 20
219.5806407105
 11
176.8387996406
 21
220.7776803443
  0
LINE
  5
295
100
AcDbEntity
  8
0
100
AcDbLine
 62
7
  6
CONTINUOUS
 10
173.0914021746
 20
217.1518823558
 11
173.0914021746
 21
217.2047741403
  0
LINE
  5
296
100
AcDbEntity
  8
0
100
AcDbLine
 62
7
  6
CONTINUOUS
 10
173.8197251915
 20
216.7842861631
 11
173.8197251915
 21
216.7313943787
  0
LINE
  5
297
100
AcDbEntity
  8
0
100
AcDbLine
 62
7
  6
CONTINUOUS
 10
173.942676781
 20
205.2192004735
 11
173.942676781
 21
205.7396744636
  0
LINE
  5
298
100
AcDbEntity
  8
0
100
AcDbLine
 62
7
  6
CONTINUOUS
 10
176.4429566919
 20
198.8919436997
 11
176.4429566919
 21
192.8651778168
  0
LINE
  5
299
100
AcDbEntity
  8
0
100
AcDbLine
 62
7
  6
CONTINUOUS
 10
176.4429625798
 20
187.5579296142
 11
176.4429625798
 21
105.4994366926
  0
LINE
  5
29A
100
AcDbEntity
  8
0
100
AcDbLine
 62
7
  6
CONTINUOUS
 10
177.029950218
 20
220.7805716827
 11
177.0299504772
 21
219.5801384729
  0
LINE
  5
29B
100
AcDbEntity
  8
0
100
AcDbLine
 62
7
  6
CONTINUOUS
 10
177.1499603057
 20
219.3537122492
 11
177.149948787
 21
220.9510205214
  0
LINE
  5
29C
100
AcDbEntity
  8
0
100
AcDbLine
 62
7
  6
CONTINUOUS
 10
177.1500605291
 20
199.3001878536
 11
177.1500605291
 21
189.5991610935
  0
LINE
  5
29D
100
AcDbEntity
  8
0
100
AcDbLine
 62
7
  6
CONTINUOUS
 10
177.1500664171
 20
187.966173768
 11
177.1500605291
 21
105.0911609206
  0
LINE
  5
29E
100
AcDbEntity
  8
0
100
AcDbLine
 62
7
  6
CONTINUOUS
 10
177.2699504772
 20
219.5801390498
 11
177.269950218
 21
220.7805722596
  0
LINE
  5
29F
100
AcDbEntity
  8
0
100
AcDbLine
 62
7
  6
CONTINUOUS
 10
177.8571702543
 20
198.8919470991
 11
177.8571702543
 21
192.8651812161
  0
LINE
  5
2A0
100
AcDbEntity
  8
0
100
AcDbLine
 62
7
  6
CONTINUOUS
 10
177.8571761422
 20
187.5579330135
 11
177.8571761422
 21
105.499440092
  0
LINE
  5
2A1
100
AcDbEntity
  8
0
100
AcDbLine
 62
7
  6
CONTINUOUS
 10
180.4801839011
 20
221.4706637951
 11
180.4801839011
 21
221.4177720107
  0
LINE
  5
2A2
100
AcDbEntity
  8
0
100
AcDbLine
 62
7
  6
CONTINUOUS
 10
182.3999545463
 20
219.1274749791
 11
182.3999545463
 21
219.0115763278
  0
LWPOLYLINE
  5
2A3
100
AcDbEntity
  8
0
100
AcDbPolyline
 62
7
  6
CONTINUOUS
 90
3
 70
0
 10
173.942676781
 20
205.2192004735
 10
173.9423460509
 20
205.1780950708
 10
173.9234157681
 20
204.90967012
  0
LINE
  5
2A4
100
AcDbEntity
  8
0
100
AcDbLine
 62
7
  6
CONTINUOUS
 10
177.3990085842
 20
219.5806430468
 11
177.4611007966
 21
220.7776818401
  0
LINE
  5
2A5
100
AcDbEntity
  8
0
100
AcDbLine
 62
7
  6
CONTINUOUS
 10
178.1242648537
 20
219.1010330715
 11
178.1894238135
 21
220.3571938629
  0
LINE
  5
2A6
100
AcDbEntity
  8
0
100
AcDbLine
 62
7
  6
CONTINUOUS
 10
178.1895745642
 20
220.249638907
 11
178.1280053114
 21
219.0982333976
  0
LINE
  5
2A7
100
AcDbEntity
  8
0
100
AcDbLine
 62
7
  6
CONTINUOUS
 10
178.1895755635
 20
220.1110768233
 11
178.1351304821
 21
219.0929003194
  0
LINE
  5
2A8
100
AcDbEntity
  8
0
100
AcDbLine
 62
7
  6
CONTINUOUS
 10
178.1393177714
 20
219.0897661992
 11
178.1894264044
 21
219.9979132593
  0
LINE
  5
2A9
100
AcDbEntity
  8
0
100
AcDbLine
 62
7
  6
CONTINUOUS
 10
173.9234157681
 20
204.90967012
 11
173.8795557348
 21
204.6693975544
  0
LINE
  5
2AA
100
AcDbEntity
  8
0
100
AcDbLine
 62
7
  6
CONTINUOUS
 10
177.8222649367
 20
219.3261392638
 11
178.0264676809
 21
219.9083755101
  0
LINE
  5
2AB
100
AcDbEntity
  8
0
100
AcDbLine
 62
7
  6
CONTINUOUS
 10
176.0169544178
 20
220.1891111556
 11
175.9957040648
 21
220.158169842
  0
LINE
  5
2AC
100
AcDbEntity
  8
0
100
AcDbLine
 62
7
  6
CONTINUOUS
 10
173.7917322996
 20
204.3183899942
 11
174.1452871621
 21
204.8213814524
  0
LINE
  5
2AD
100
AcDbEntity
  8
0
100
AcDbLine
 62
7
  6
CONTINUOUS
 10
177.1499593685
 20
219.4836668194
 11
177.1763233919
 21
219.519764309
  0
LWPOLYLINE
  5
2AE
100
AcDbEntity
  8
0
100
AcDbPolyline
 62
7
  6
CONTINUOUS
 90
4
 70
0
 10
179.1705212261
 20
219.1754806237
 10
178.9871053371
 20
219.0278773733
 10
178.7272951962
 20
218.8779985127
 10
178.5171596122
 20
218.7909134555
  0
LINE
  5
2AF
100
AcDbEntity
  8
0
100
AcDbLine
 62
7
  6
CONTINUOUS
 10
275.7656293398
 20
264.5268326211
 11
173.942676781
 21
205.7396744636
  0
LINE
  5
2B0
100
AcDbEntity
  8
0
100
AcDbLine
 62
7
  6
CONTINUOUS
 10
174.1452871621
 20
204.8213814524
 11
276.9772384089
 21
264.1910817967
  0
LINE
  5
2B1
100
AcDbEntity
  8
0
100
AcDbLine
 62
7
  6
CONTINUOUS
 10
258.6388724997
 20
261.8882828814
 11
258.6437026969
 21
261.8910679438
  0
LINE
  5
2B2
100
AcDbEntity
  8
0
100
AcDbLine
 62
7
  6
CONTINUOUS
 10
180.8528055865
 20
216.9787545738
 11
180.8622806034
 21
216.9842110179
  0
LINE
  5
2B3
100
AcDbEntity
  8
0
100
AcDbLine
 62
7
  6
CONTINUOUS
 10
254.9577360512
 20
265.7348782635
 11
254.9313718176
 21
265.7279228771
  0
LINE
  5
2B4
100
AcDbEntity
  8
0
100
AcDbLine
 62
7
  6
CONTINUOUS
 10
178.3042049893
 20
220.1581753966
 11
178.2829544553
 21
220.1891166024
  0
LINE
  5
2B5
100
AcDbEntity
  8
0
100
AcDbLine
 62
7
  6
CONTINUOUS
 10
175.8708659764
 20
221.056169209
 11
176.4820714617
 21
219.3134788523
  0
LINE
  5
2B6
100
AcDbEntity
  8
0
100
AcDbLine
 62
7
  6
CONTINUOUS
 10
140.5147325143
 20
331.2815468747
 11
141.1259376525
 21
329.5388565907
  0
LINE
  5
2B7
100
AcDbEntity
  8
0
100
AcDbLine
 62
7
  6
CONTINUOUS
 10
176.0640118444
 20
202.0654624574
 11
175.7104569818
 21
201.5624709992
  0
LWPOLYLINE
  5
2B8
100
AcDbEntity
  8
0
100
AcDbPolyline
 62
7
  6
CONTINUOUS
 90
4
 70
0
 10
256.9519426805
 20
264.0823398018
 10
256.7684316128
 20
263.9346693925
 10
256.5086015183
 20
263.7847986573
 10
256.2985842908
 20
263.697768282
  0
LINE
  5
2B9
100
AcDbEntity
  8
0
100
AcDbLine
 62
7
  6
CONTINUOUS
 10
173.9426885568
 20
202.4736998126
 11
174.6497923941
 21
202.8819439665
  0
LINE
  5
2BA
100
AcDbEntity
  8
0
100
AcDbLine
 62
7
  6
CONTINUOUS
 10
278.3189683506
 20
262.735013337
 11
278.5940564645
 21
262.8938345856
  0
LINE
  5
2BB
100
AcDbEntity
  8
0
100
AcDbLine
 62
7
  6
CONTINUOUS
 10
280.3872207623
 20
260.3180579898
 11
177.1500605291
 21
200.7144115246
  0
LINE
  5
2BC
100
AcDbEntity
  8
0
100
AcDbLine
 62
7
  6
CONTINUOUS
 10
280.740769737
 20
260.2233106855
 11
280.5166338784
 21
260.0939065596
  0
LINE
  5
2BD
100
AcDbEntity
  8
0
100
AcDbLine
 62
7
  6
CONTINUOUS
 10
176.7965056666
 20
200.2114200663
 11
176.0894018293
 21
199.8031759125
  0
LINE
  5
2BE
100
AcDbEntity
  8
0
100
AcDbLine
 62
7
  6
CONTINUOUS
 10
176.4429566919
 20
198.8919436997
 11
177.1500605291
 21
199.3001878536
  0
LINE
  5
2BF
100
AcDbEntity
  8
0
100
AcDbLine
 62
7
  6
CONTINUOUS
 10
280.9584701442
 20
259.2336433345
 11
281.0943245996
 21
259.3120784727
  0
LINE
  5
2C0
100
AcDbEntity
  8
0
100
AcDbLine
 62
7
  6
CONTINUOUS
 10
177.8571702543
 20
198.8919470991
 11
281.0943304875
 21
258.4955935643
  0
LINE
  5
2C1
100
AcDbEntity
  8
0
100
AcDbLine
 62
7
  6
CONTINUOUS
 10
177.1500605291
 20
193.2734219706
 11
176.4429566919
 21
192.8651778168
  0
LINE
  5
2C2
100
AcDbEntity
  8
0
100
AcDbLine
 62
7
  6
CONTINUOUS
 10
177.8571702543
 20
192.8651812161
 11
281.0943304875
 21
252.4688276813
  0
LINE
  5
2C3
100
AcDbEntity
  8
0
100
AcDbLine
 62
7
  6
CONTINUOUS
 10
253.7983765114
 20
265.0959680815
 11
253.7942869367
 21
265.0954083725
  0
LINE
  5
2C4
100
AcDbEntity
  8
0
100
AcDbLine
 62
7
  6
CONTINUOUS
 10
253.7983765114
 20
265.0959680815
 11
253.7942843383
 21
265.0954274421
  0
LINE
  5
2C5
100
AcDbEntity
  8
0
100
AcDbLine
 62
7
  6
CONTINUOUS
 10
280.3872207623
 20
250.0193099759
 11
276.8516013221
 21
250.0193014773
  0
LINE
  5
2C6
100
AcDbEntity
  8
0
100
AcDbLine
 62
7
  6
CONTINUOUS
 10
280.3872207623
 20
250.0193099759
 11
177.1500605291
 21
190.4156635107
  0
LINE
  5
2C7
100
AcDbEntity
  8
0
100
AcDbLine
 62
7
  6
CONTINUOUS
 10
176.4429625798
 20
187.5579296142
 11
177.1500664171
 21
187.966173768
  0
LINE
  5
2C8
100
AcDbEntity
  8
0
100
AcDbLine
 62
7
  6
CONTINUOUS
 10
282.1535433507
 20
248.5895975685
 11
282.5085381619
 21
248.7945526949
  0
LINE
  5
2C9
100
AcDbEntity
  8
0
100
AcDbLine
 62
7
  6
CONTINUOUS
 10
177.8571761422
 20
187.5579330135
 11
282.5085440499
 21
247.9780677865
  0
LINE
  5
2CA
100
AcDbEntity
  8
0
100
AcDbLine
 62
7
  6
CONTINUOUS
 10
67.2613295484
 20
286.8898373119
 11
67.2963743196
 21
286.8830285374
  0
LINE
  5
2CB
100
AcDbEntity
  8
0
100
AcDbLine
 62
7
  6
CONTINUOUS
 10
64.0123937006
 20
286.1395866745
 11
63.9860296772
 21
286.1465419341
  0
LINE
  5
2CC
100
AcDbEntity
  8
0
100
AcDbLine
 62
7
  6
CONTINUOUS
 10
68.0346542192
 20
286.4566947409
 11
67.9896525653
 21
286.4693493347
  0
LINE
  5
2CD
100
AcDbEntity
  8
0
100
AcDbLine
 62
7
  6
CONTINUOUS
 10
253.7983765114
 20
265.0959680815
 11
253.7771261583
 21
265.0650267679
  0
LINE
  5
2CE
100
AcDbEntity
  8
0
100
AcDbLine
 62
7
  6
CONTINUOUS
 10
254.9577454855
 20
264.4266212348
 11
254.9313814621
 21
264.3905237452
  0
LINE
  5
2CF
100
AcDbEntity
  8
0
100
AcDbLine
 62
7
  6
CONTINUOUS
 10
42.0922150569
 20
270.4308598953
 11
38.5565544003
 21
270.4308513967
  0
LINE
  5
2D0
100
AcDbEntity
  8
0
100
AcDbLine
 62
7
  6
CONTINUOUS
 10
65.149490869
 20
285.5070964767
 11
65.1453984318
 21
285.5076373256
  0
LINE
  5
2D1
100
AcDbEntity
  8
0
100
AcDbLine
 62
7
  6
CONTINUOUS
 10
256.0684689861
 20
265.0954326793
 11
256.0643765488
 21
265.0959735283
  0
LINE
  5
2D2
100
AcDbEntity
  8
0
100
AcDbLine
 62
7
  6
CONTINUOUS
 10
65.1494882958
 20
285.5070775972
 11
65.1453984318
 21
285.5076373256
  0
LINE
  5
2D3
100
AcDbEntity
  8
0
100
AcDbLine
 62
7
  6
CONTINUOUS
 10
256.0684664128
 20
265.0954137998
 11
256.0643765488
 21
265.0959735283
  0
LINE
  5
2D4
100
AcDbEntity
  8
0
100
AcDbLine
 62
7
  6
CONTINUOUS
 10
141.7938254385
 20
329.7090444685
 11
141.767461205
 21
329.7451418313
  0
LINE
  5
2D5
100
AcDbEntity
  8
0
100
AcDbLine
 62
7
  6
CONTINUOUS
 10
142.9480710593
 20
330.3835530458
 11
142.9268205253
 21
330.4144942515
  0
LINE
  5
2D6
100
AcDbEntity
  8
0
100
AcDbLine
 62
7
  6
CONTINUOUS
 10
40.3497186982
 20
279.6018920495
 11
38.2030054257
 21
279.4101230439
  0
LINE
  5
2D7
100
AcDbEntity
  8
0
100
AcDbLine
 62
7
  6
CONTINUOUS
 10
38.9101092629
 20
279.8183671978
 11
40.7930397044
 21
279.9865721011
  0
LINE
  5
2D8
100
AcDbEntity
  8
0
100
AcDbLine
 62
7
  6
CONTINUOUS
 10
39.6426030851
 20
280.8266177124
 11
38.5565544003
 21
280.7295994105
  0
LINE
  5
2D9
100
AcDbEntity
  8
0
100
AcDbLine
 62
7
  6
CONTINUOUS
 10
258.1803076655
 20
266.4781735145
 11
258.2153524366
 21
266.47136474
  0
LINE
  5
2DA
100
AcDbEntity
  8
0
100
AcDbLine
 62
7
  6
CONTINUOUS
 10
254.9313718176
 20
265.7279228771
 11
254.9050077942
 21
265.7348781367
  0
LINE
  5
2DB
100
AcDbEntity
  8
0
100
AcDbLine
 62
7
  6
CONTINUOUS
 10
258.9536323362
 20
266.0450309435
 11
258.9086306824
 21
266.0576855373
  0
LINE
  5
2DC
100
AcDbEntity
  8
0
100
AcDbLine
 62
7
  6
CONTINUOUS
 10
137.7328540001
 20
327.4324776295
 11
137.7352682446
 21
327.4301517894
  0
LINE
  5
2DD
100
AcDbEntity
  8
0
100
AcDbLine
 62
7
  6
CONTINUOUS
 10
255.6036870268
 20
264.2329961798
 11
255.8078897745
 21
264.8152324359
  0
LINE
  5
2DE
100
AcDbEntity
  8
0
100
AcDbLine
 62
7
  6
CONTINUOUS
 10
62.8793983943
 20
285.5076318788
 11
62.8753088197
 21
285.5070721699
  0
LINE
  5
2DF
100
AcDbEntity
  8
0
100
AcDbLine
 62
7
  6
CONTINUOUS
 10
62.8793983943
 20
285.5076318788
 11
62.8753062213
 21
285.5070912395
  0
LINE
  5
2E0
100
AcDbEntity
  8
0
100
AcDbLine
 62
7
  6
CONTINUOUS
 10
39.9961579477
 20
279.9153854997
 11
40.8508033526
 21
280.0280939643
  0
LINE
  5
2E1
100
AcDbEntity
  8
0
100
AcDbLine
 62
7
  6
CONTINUOUS
 10
39.6426030851
 20
280.8266177124
 11
41.9665367538
 21
281.1330921803
  0
LINE
  5
2E2
100
AcDbEntity
  8
0
100
AcDbLine
 62
7
  6
CONTINUOUS
 10
137.7323225008
 20
327.4322262925
 11
137.7352682446
 21
327.4301517894
  0
LINE
  5
2E3
100
AcDbEntity
  8
0
100
AcDbLine
 62
7
  6
CONTINUOUS
 10
143.1405429307
 20
329.0327162428
 11
143.1610282672
 21
329.0162890053
  0
LINE
  5
2E4
100
AcDbEntity
  8
0
100
AcDbLine
 62
7
  6
CONTINUOUS
 10
143.1408680666
 20
329.0343502087
 11
143.1613044389
 21
329.0176578602
  0
LINE
  5
2E5
100
AcDbEntity
  8
0
100
AcDbLine
 62
7
  6
CONTINUOUS
 10
250.8728242681
 20
262.0587392817
 11
250.8728242681
 21
262.1116310661
  0
LINE
  5
2E6
100
AcDbEntity
  8
0
100
AcDbLine
 62
7
  6
CONTINUOUS
 10
251.601147285
 20
261.691143089
 11
251.601147285
 21
261.6382513045
  0
LINE
  5
2E7
100
AcDbEntity
  8
0
100
AcDbLine
 62
7
  6
CONTINUOUS
 10
249.6813766399
 20
263.9189030391
 11
249.6813766399
 21
264.034331905
  0
LINE
  5
2E8
100
AcDbEntity
  8
0
100
AcDbLine
 62
7
  6
CONTINUOUS
 10
64.0387579342
 20
286.1465420609
 11
64.0123937006
 21
286.1395866745
  0
LINE
  5
2E9
100
AcDbEntity
  8
0
100
AcDbLine
 62
7
  6
CONTINUOUS
 10
278.6194036822
 20
251.0399365534
 11
280.3872207623
 21
250.0193099759
  0
LINE
  5
2EA
100
AcDbEntity
  8
0
100
AcDbLine
 62
7
  6
CONTINUOUS
 10
281.3872037953
 20
250.118365745
 11
279.2051770741
 21
251.3781309602
  0
LINE
  5
2EB
100
AcDbEntity
  8
0
100
AcDbLine
 62
7
  6
CONTINUOUS
 10
250.8698785243
 20
262.1137055692
 11
250.8728242681
 21
262.1116310661
  0
LINE
  5
2EC
100
AcDbEntity
  8
0
100
AcDbLine
 62
7
  6
CONTINUOUS
 10
250.8704100236
 20
262.1139569063
 11
250.8728242681
 21
262.1116310661
  0
LINE
  5
2ED
100
AcDbEntity
  8
0
100
AcDbLine
 62
7
  6
CONTINUOUS
 10
253.9427650107
 20
263.9830360562
 11
253.8919073727
 21
264.904765188
  0
LINE
  5
2EE
100
AcDbEntity
  8
0
100
AcDbLine
 62
7
  6
CONTINUOUS
 10
253.8917566219
 20
265.0179287513
 11
253.9469307722
 21
263.9861182079
  0
LINE
  5
2EF
100
AcDbEntity
  8
0
100
AcDbLine
 62
7
  6
CONTINUOUS
 10
253.8917556227
 20
265.156490835
 11
253.9540571768
 21
263.9913908719
  0
LINE
  5
2F0
100
AcDbEntity
  8
0
100
AcDbLine
 62
7
  6
CONTINUOUS
 10
253.9577771161
 20
263.99414317
 11
253.8919047818
 21
265.2640457916
  0
LINE
  5
2F1
100
AcDbEntity
  8
0
100
AcDbLine
 62
7
  6
CONTINUOUS
 10
254.6823145226
 20
264.4874976364
 11
254.6202217341
 21
265.6845372701
  0
LINE
  5
2F2
100
AcDbEntity
  8
0
100
AcDbLine
 62
7
  6
CONTINUOUS
 10
254.8113723115
 20
265.6874286086
 11
254.8113725708
 21
264.4869953988
  0
LINE
  5
2F3
100
AcDbEntity
  8
0
100
AcDbLine
 62
7
  6
CONTINUOUS
 10
254.9313708805
 20
265.8578774472
 11
254.9313823992
 21
264.2605691751
  0
LINE
  5
2F4
100
AcDbEntity
  8
0
100
AcDbLine
 62
7
  6
CONTINUOUS
 10
255.0513723115
 20
265.6874291854
 11
255.0513725707
 21
264.4869959756
  0
LINE
  5
2F5
100
AcDbEntity
  8
0
100
AcDbLine
 62
7
  6
CONTINUOUS
 10
258.2616059947
 20
266.377520721
 11
258.2616059947
 21
266.3246289366
  0
LINE
  5
2F6
100
AcDbEntity
  8
0
100
AcDbLine
 62
7
  6
CONTINUOUS
 10
260.1813766399
 20
264.034331905
 11
260.1813766399
 21
263.9184332537
  0
LINE
  5
2F7
100
AcDbEntity
  8
0
100
AcDbLine
 62
7
  6
CONTINUOUS
 10
255.2425228901
 20
265.684538766
 11
255.1804306778
 21
264.4874999726
  0
LINE
  5
2F8
100
AcDbEntity
  8
0
100
AcDbLine
 62
7
  6
CONTINUOUS
 10
255.9056869464
 20
264.0078899815
 11
255.970845907
 21
265.2640507888
  0
LINE
  5
2F9
100
AcDbEntity
  8
0
100
AcDbLine
 62
7
  6
CONTINUOUS
 10
255.9709966578
 20
265.1564958329
 11
255.9094274041
 21
264.0050903074
  0
LINE
  5
2FA
100
AcDbEntity
  8
0
100
AcDbLine
 62
7
  6
CONTINUOUS
 10
255.970997657
 20
265.0179337492
 11
255.9165525748
 21
263.9997572284
  0
LINE
  5
2FB
100
AcDbEntity
  8
0
100
AcDbLine
 62
7
  6
CONTINUOUS
 10
255.9708484979
 20
264.9047701852
 11
255.920739864
 21
263.9966231078
  0
LINE
  5
2FC
100
AcDbEntity
  8
0
100
AcDbLine
 62
7
  6
CONTINUOUS
 10
276.687292553
 20
264.3035786126
 11
276.7788522191
 21
264.5395616986
  0
LINE
  5
2FD
100
AcDbEntity
  8
0
100
AcDbLine
 62
7
  6
CONTINUOUS
 10
141.7938157941
 20
331.0464436003
 11
141.7674517707
 21
331.05339886
  0
LINE
  5
2FE
100
AcDbEntity
  8
0
100
AcDbLine
 62
7
  6
CONTINUOUS
 10
145.8160763127
 20
331.3635516667
 11
145.7710746589
 21
331.3762062606
  0
LINE
  5
2FF
100
AcDbEntity
  8
0
100
AcDbLine
 62
7
  6
CONTINUOUS
 10
145.0010983817
 20
340.0220618399
 11
275.7656293398
 21
264.5268326211
  0
LINE
  5
300
100
AcDbEntity
  8
0
100
AcDbLine
 62
7
  6
CONTINUOUS
 10
145.4179576661
 20
340.457776646
 11
277.0717314149
 21
264.4491544771
  0
LINE
  5
301
100
AcDbEntity
  8
0
100
AcDbLine
 62
7
  6
CONTINUOUS
 10
256.2780989542
 20
263.7141955196
 11
256.2985842908
 21
263.697768282
  0
LINE
  5
302
100
AcDbEntity
  8
0
100
AcDbLine
 62
7
  6
CONTINUOUS
 10
256.2784240901
 20
263.7158294855
 11
256.2988604625
 21
263.6991371369
  0
LINE
  5
303
100
AcDbEntity
  8
0
100
AcDbLine
 62
7
  6
CONTINUOUS
 10
254.9313814621
 20
264.3905237452
 11
254.9050172285
 21
264.4266211081
  0
LINE
  5
304
100
AcDbEntity
  8
0
100
AcDbLine
 62
7
  6
CONTINUOUS
 10
256.0856270828
 20
265.0650323225
 11
256.0643765488
 21
265.0959735283
  0
LINE
  5
305
100
AcDbEntity
  8
0
100
AcDbLine
 62
7
  6
CONTINUOUS
 10
253.6522885378
 20
265.9630261514
 11
254.2634936761
 21
264.2203358675
  0
LINE
  5
306
100
AcDbEntity
  8
0
100
AcDbLine
 62
7
  6
CONTINUOUS
 10
177.1500664171
 20
105.9076808465
 11
176.4429625798
 21
105.4994366926
  0
LINE
  5
307
100
AcDbEntity
  8
0
100
AcDbLine
 62
7
  6
CONTINUOUS
 10
282.5085440499
 20
165.919574865
 11
177.8571761422
 21
105.499440092
  0
LINE
  5
308
100
AcDbEntity
  8
0
100
AcDbLine
 62
7
  6
CONTINUOUS
 10
281.7407643148
 20
164.7998786593
 11
177.7965080229
 21
104.7879925311
  0
LINE
  5
309
100
AcDbEntity
  8
0
100
AcDbLine
 62
7
  6
CONTINUOUS
 10
141.8201800277
 20
331.0533989867
 11
141.7938157941
 21
331.0464436003
  0
LINE
  5
30A
100
AcDbEntity
  8
0
100
AcDbLine
 62
7
  6
CONTINUOUS
 10
140.6608204878
 20
330.4144888047
 11
140.6567309132
 21
330.4139290958
  0
LINE
  5
30B
100
AcDbEntity
  8
0
100
AcDbLine
 62
7
  6
CONTINUOUS
 10
140.6608204878
 20
330.4144888047
 11
140.6567283148
 21
330.4139481654
  0
LINE
  5
30C
100
AcDbEntity
  8
0
100
AcDbLine
 62
7
  6
CONTINUOUS
 10
142.9309129625
 20
330.4139534026
 11
142.9268205253
 21
330.4144942515
  0
LINE
  5
30D
100
AcDbEntity
  8
0
100
AcDbLine
 62
7
  6
CONTINUOUS
 10
142.9309103893
 20
330.4139345231
 11
142.9268205253
 21
330.4144942515
  0
LINE
  5
30E
100
AcDbEntity
  8
0
100
AcDbLine
 62
7
  6
CONTINUOUS
 10
145.042751642
 20
331.7966942377
 11
145.0777964131
 21
331.7898854632
  0
LINE
  5
30F
100
AcDbEntity
  8
0
100
AcDbLine
 62
7
  6
CONTINUOUS
 10
279.3011720776
 20
261.6691089226
 11
276.9772384089
 21
264.1910817967
  0
LINE
  5
310
100
AcDbEntity
  8
0
100
AcDbLine
 62
7
  6
CONTINUOUS
 10
281.0943245996
 20
259.3120784727
 11
281.0943304875
 21
252.4688276813
  0
LINE
  5
311
100
AcDbEntity
  8
0
100
AcDbLine
 62
7
  6
CONTINUOUS
 10
282.5085381619
 20
248.7945526949
 11
282.5085440499
 21
165.919574865
  0
LINE
  5
312
100
AcDbEntity
  8
0
100
AcDbLine
 62
7
  6
CONTINUOUS
 10
141.7937146335
 20
340.3332458758
 11
142.8797633183
 21
340.4302641776
  0
LINE
  5
313
100
AcDbEntity
  8
0
100
AcDbLine
 62
7
  6
CONTINUOUS
 10
142.8797633183
 20
340.4302641776
 11
144.7984880005
 21
340.5027925246
  0
LINE
  5
314
100
AcDbEntity
  8
0
100
AcDbLine
 62
7
  6
CONTINUOUS
 10
279.3011720776
 20
261.6691089227
 11
280.3872207624
 21
260.3180579898
  0
LINE
  5
315
100
AcDbEntity
  8
0
100
AcDbLine
 62
7
  6
CONTINUOUS
 10
278.5940564645
 20
262.8938345856
 11
280.740769737
 21
260.2233106855
  0
ARC
  5
316
100
AcDbEntity
  8
0
100
AcDbCircle
 62
7
  6
CONTINUOUS
 10
63.9867184622
 20
236.5469653722
 40
48.9427523154
100
AcDbArc
 50
91.2964160131
 51
91.5895622592
  0
ARC
  5
317
100
AcDbEntity
  8
0
100
AcDbCircle
 62
7
  6
CONTINUOUS
 10
64.0404558504
 20
236.6320612393
 40
48.8576298979
100
AcDbArc
 50
88.4104565238
 51
88.7041132135
  0
ARC
  5
318
100
AcDbEntity
  8
0
100
AcDbCircle
 62
7
  6
CONTINUOUS
 10
44.4012875381
 20
275.3880095093
 40
5.8459161986
100
AcDbArc
 50
122.7797721011
 51
125.9802108095
  0
ARC
  5
319
100
AcDbEntity
  8
0
100
AcDbCircle
 62
7
  6
CONTINUOUS
 10
44.0387683235
 20
276.0983656812
 40
5.0469994727
100
AcDbArc
 50
111.7945238239
 51
113.0716562836
  0
ARC
  5
31A
100
AcDbEntity
  8
0
100
AcDbCircle
 62
7
  6
CONTINUOUS
 10
39.9254732319
 20
266.8974340705
 40
3.8215327768
100
AcDbArc
 50
131.4398813866
 51
140.2300223773
  0
ARC
  5
31B
100
AcDbEntity
  8
0
100
AcDbCircle
 62
7
  6
CONTINUOUS
 10
39.8579402384
 20
266.9725784815
 40
3.7205052135
100
AcDbArc
 50
130.4839683079
 51
131.4261286613
  0
ARC
  5
31C
100
AcDbEntity
  8
0
100
AcDbCircle
 62
7
  6
CONTINUOUS
 10
39.8379721645
 20
266.9959027271
 40
3.6898011029
100
AcDbArc
 50
129.7462957681
 51
130.4832765596
  0
ARC
  5
31D
100
AcDbEntity
  8
0
100
AcDbCircle
 62
7
  6
CONTINUOUS
 10
38.9310035399
 20
279.4825223488
 40
0.335291595
100
AcDbArc
 50
119.931426908
 51
123.6762256461
  0
ARC
  5
31E
100
AcDbEntity
  8
0
100
AcDbCircle
 62
7
  6
CONTINUOUS
 10
55.9250466498
 20
272.5563848567
 40
14.9297839544
100
AcDbArc
 50
50.342707626
 51
50.7069619421
  0
ARC
  5
31F
100
AcDbEntity
  8
0
100
AcDbCircle
 62
7
  6
CONTINUOUS
 10
64.0126908031
 20
271.8260424232
 40
14.2735569177
100
AcDbArc
 50
90.4828908169
 51
91.2502858043
  0
ARC
  5
320
100
AcDbEntity
  8
0
100
AcDbCircle
 62
7
  6
CONTINUOUS
 10
64.0125840991
 20
271.8536803386
 40
14.2459164628
100
AcDbArc
 50
88.7492451328
 51
89.5181290198
  0
ARC
  5
321
100
AcDbEntity
  8
0
100
AcDbCircle
 62
7
  6
CONTINUOUS
 10
71.0026167646
 20
274.1408139589
 40
12.7644461602
100
AcDbArc
 50
122.563260633
 51
123.0633589482
  0
ARC
  5
322
100
AcDbEntity
  8
0
100
AcDbCircle
 62
7
  6
CONTINUOUS
 10
57.0262393049
 20
274.1469257697
 40
12.7571146235
100
AcDbArc
 50
56.9369076751
 51
57.4372952389
  0
ARC
  5
323
100
AcDbEntity
  8
0
100
AcDbCircle
 62
7
  6
CONTINUOUS
 10
69.4229895864
 20
275.5139788458
 40
11.9453625576
100
AcDbArc
 50
122.6820221069
 51
123.2157647215
  0
ARC
  5
324
100
AcDbEntity
  8
0
100
AcDbCircle
 62
7
  6
CONTINUOUS
 10
58.605615116
 20
275.519701796
 40
11.9384932869
100
AcDbArc
 50
56.7844930481
 51
57.3185447425
  0
ARC
  5
325
100
AcDbEntity
  8
0
100
AcDbCircle
 62
7
  6
CONTINUOUS
 10
69.9201572858
 20
275.9944507756
 40
10.6170033297
100
AcDbArc
 50
116.7262036073
 51
117.2918253779
  0
ARC
  5
326
100
AcDbEntity
  8
0
100
AcDbCircle
 62
7
  6
CONTINUOUS
 10
58.1077120904
 20
276.0003037164
 40
10.6103892059
100
AcDbArc
 50
62.7084092007
 51
63.2743862121
  0
ARC
  5
327
100
AcDbEntity
  8
0
100
AcDbCircle
 62
7
  6
CONTINUOUS
 10
68.4761745303
 20
277.1697105976
 40
10.0371759797
100
AcDbArc
 50
116.573879892
 51
117.1730986136
  0
ARC
  5
328
100
AcDbEntity
  8
0
100
AcDbCircle
 62
7
  6
CONTINUOUS
 10
59.5514934606
 20
277.1752350531
 40
10.0309467092
100
AcDbArc
 50
62.8271249295
 51
63.4267185719
  0
ARC
  5
329
100
AcDbEntity
  8
0
100
AcDbCircle
 62
7
  6
CONTINUOUS
 10
64.0128040547
 20
278.6867371816
 40
8.8718375816
100
AcDbArc
 50
87.3755293666
 51
95.0103223544
  0
ARC
  5
32A
100
AcDbEntity
  8
0
100
AcDbCircle
 62
7
  6
CONTINUOUS
 10
64.0125048471
 20
276.9190341071
 40
8.6629990464
100
AcDbArc
 50
80.8122446669
 51
82.4583865143
  0
ARC
  5
32B
100
AcDbEntity
  8
0
100
AcDbCircle
 62
7
  6
CONTINUOUS
 10
64.0104730523
 20
276.9317327291
 40
8.6501663173
100
AcDbArc
 50
97.5407118668
 51
99.1892976281
  0
ARC
  5
32C
100
AcDbEntity
  8
0
100
AcDbCircle
 62
7
  6
CONTINUOUS
 10
64.6379561472
 20
290.8565365845
 40
12.6322451749
100
AcDbArc
 50
286.6923914606
 51
287.2075289922
  0
ARC
  5
32D
100
AcDbEntity
  8
0
100
AcDbCircle
 62
7
  6
CONTINUOUS
 10
61.9517747501
 20
279.5167466475
 40
8.9313814667
100
AcDbArc
 50
117.8352323542
 51
119.9935379995
  0
ARC
  5
32E
100
AcDbEntity
  8
0
100
AcDbCircle
 62
7
  6
CONTINUOUS
 10
61.7976619356
 20
279.7855171347
 40
8.6215629334
100
AcDbArc
 50
119.9994173212
 51
120.4326836592
  0
ARC
  5
32F
100
AcDbEntity
  8
0
100
AcDbCircle
 62
7
  6
CONTINUOUS
 10
64.0327095893
 20
278.9779750354
 40
8.579996238
100
AcDbArc
 50
81.1938941227
 51
87.4192623641
  0
ARC
  5
330
100
AcDbEntity
  8
0
100
AcDbCircle
 62
7
  6
CONTINUOUS
 10
61.5239880307
 20
280.2394799884
 40
8.0915242505
100
AcDbArc
 50
120.390023702
 51
123.8848614563
  0
ARC
  5
331
100
AcDbEntity
  8
0
100
AcDbCircle
 62
7
  6
CONTINUOUS
 10
64.1324209768
 20
279.6017804557
 40
7.9482798401
100
AcDbArc
 50
76.7567643427
 51
81.2157859101
  0
ARC
  5
332
100
AcDbEntity
  8
0
100
AcDbCircle
 62
7
  6
CONTINUOUS
 10
63.828394828
 20
279.8970658641
 40
7.646152817
100
AcDbArc
 50
101.32394797
 51
106.1114267614
  0
ARC
  5
333
100
AcDbEntity
  8
0
100
AcDbCircle
 62
7
  6
CONTINUOUS
 10
63.6012951236
 20
280.7011777362
 40
6.8106036012
100
AcDbArc
 50
106.1532042297
 51
110.9750914288
  0
ARC
  5
334
100
AcDbEntity
  8
0
100
AcDbCircle
 62
7
  6
CONTINUOUS
 10
57.8620997361
 20
285.7344188926
 40
6.2413528132
100
AcDbArc
 50
350.2014124494
 51
351.2349257063
  0
ARC
  5
335
100
AcDbEntity
  8
0
100
AcDbCircle
 62
7
  6
CONTINUOUS
 10
70.1085388138
 20
285.7256430068
 40
6.1864795262
100
AcDbArc
 50
188.7611945817
 51
189.8038764982
  0
ARC
  5
336
100
AcDbEntity
  8
0
100
AcDbCircle
 62
7
  6
CONTINUOUS
 10
69.9118068353
 20
285.6951535607
 40
5.9873990187
100
AcDbArc
 50
188.2279646033
 51
188.7595853588
  0
ARC
  5
337
100
AcDbEntity
  8
0
100
AcDbCircle
 62
7
  6
CONTINUOUS
 10
58.1523857135
 20
285.6891966827
 40
5.9475658571
100
AcDbArc
 50
351.2393504779
 51
351.774531116
  0
ARC
  5
338
100
AcDbEntity
  8
0
100
AcDbCircle
 62
7
  6
CONTINUOUS
 10
64.7848035385
 20
281.6354225326
 40
5.808791247
100
AcDbArc
 50
64.7644245632
 51
67.9847602834
  0
ARC
  5
339
100
AcDbEntity
  8
0
100
AcDbCircle
 62
7
  6
CONTINUOUS
 10
63.1007753497
 20
287.2713843887
 40
5.7457030001
100
AcDbArc
 50
244.7226259754
 51
244.916467734
  0
ARC
  5
33A
100
AcDbEntity
  8
0
100
AcDbCircle
 62
7
  6
CONTINUOUS
 10
68.1732739688
 20
280.9675247301
 40
5.5048879008
100
AcDbArc
 50
91.9115163756
 51
93.2264847512
  0
ARC
  5
33B
100
AcDbEntity
  8
0
100
AcDbCircle
 62
7
  6
CONTINUOUS
 10
59.8236326148
 20
284.6281119141
 40
5.3814819485
100
AcDbArc
 50
220.8640835296
 51
224.6561967795
  0
ARC
  5
33C
100
AcDbEntity
  8
0
100
AcDbCircle
 62
7
  6
CONTINUOUS
 10
65.2959164891
 20
286.7637692444
 40
5.2291690918
100
AcDbArc
 50
299.5965821962
 51
299.9994424347
  0
ARC
  5
33D
100
AcDbEntity
  8
0
100
AcDbCircle
 62
7
  6
CONTINUOUS
 10
62.7288805522
 20
282.2075201735
 40
5.2291690832
100
AcDbArc
 50
119.5965821959
 51
119.999442435
  0
ARC
  5
33E
100
AcDbEntity
  8
0
100
AcDbCircle
 62
7
  6
CONTINUOUS
 10
59.5382824116
 20
284.3762759852
 40
5.000915441
100
AcDbArc
 50
219.4836055863
 51
220.8210141521
  0
ARC
  5
33F
100
AcDbEntity
  8
0
100
AcDbCircle
 62
7
  6
CONTINUOUS
 10
65.2813266544
 20
286.5827946809
 40
4.9697268742
100
AcDbArc
 50
299.5965657422
 51
299.9994259812
  0
ARC
  5
340
100
AcDbEntity
  8
0
100
AcDbCircle
 62
7
  6
CONTINUOUS
 10
65.2664101845
 20
286.5607024529
 40
4.9166680026
100
AcDbArc
 50
299.999736179
 51
300.2243264252
  0
ARC
  5
341
100
AcDbEntity
  8
0
100
AcDbCircle
 62
7
  6
CONTINUOUS
 10
62.8189906264
 20
282.4674187336
 40
4.875996926
100
AcDbArc
 50
119.4308918878
 51
119.8814260268
  0
ARC
  5
342
100
AcDbEntity
  8
0
100
AcDbCircle
 62
7
  6
CONTINUOUS
 10
59.0553251002
 20
282.9612470978
 40
4.393367638
100
AcDbArc
 50
145.3722882894
 51
145.9138517668
  0
ARC
  5
343
100
AcDbEntity
  8
0
100
AcDbCircle
 62
7
  6
CONTINUOUS
 10
65.6318572059
 20
283.1331761903
 40
4.0852478757
100
AcDbArc
 50
54.1278111371
 51
54.7497561653
  0
ARC
  5
344
100
AcDbEntity
  8
0
100
AcDbCircle
 62
7
  6
CONTINUOUS
 10
65.8069550287
 20
283.3687333679
 40
3.7917680261
100
AcDbArc
 50
50.0026688897
 51
54.1860588546
  0
ARC
  5
345
100
AcDbEntity
  8
0
100
AcDbCircle
 62
7
  6
CONTINUOUS
 10
61.4952665705
 20
285.6656638837
 40
2.5885502001
100
AcDbArc
 50
10.7061006084
 51
13.4907199982
  0
ARC
  5
346
100
AcDbEntity
  8
0
100
AcDbCircle
 62
7
  6
CONTINUOUS
 10
66.4919350624
 20
285.673763036
 40
2.5501140535
100
AcDbArc
 50
166.4892343765
 51
169.3158258714
  0
ARC
  5
347
100
AcDbEntity
  8
0
100
AcDbCircle
 62
7
  6
CONTINUOUS
 10
61.2221302942
 20
284.7639750953
 40
2.535397969
100
AcDbArc
 50
214.0633570344
 51
216.3349297598
  0
ARC
  5
348
100
AcDbEntity
  8
0
100
AcDbCircle
 62
7
  6
CONTINUOUS
 10
64.3145592017
 20
283.0755226105
 40
2.4275075155
100
AcDbArc
 50
72.6641914997
 51
73.0237695612
  0
ARC
  5
349
100
AcDbEntity
  8
0
100
AcDbCircle
 62
7
  6
CONTINUOUS
 10
64.3560675505
 20
283.2665286143
 40
2.0314877291
100
AcDbArc
 50
70.449791216
 51
74.7939074186
  0
ARC
  5
34A
100
AcDbEntity
  8
0
100
AcDbCircle
 62
7
  6
CONTINUOUS
 10
60.5562774219
 20
284.450608485
 40
1.7941484828
100
AcDbArc
 50
188.688142276
 51
189.9062810252
  0
ARC
  5
34B
100
AcDbEntity
  8
0
100
AcDbCircle
 62
7
  6
CONTINUOUS
 10
60.5351284605
 20
284.4475377004
 40
1.7727783481
100
AcDbArc
 50
183.7454701554
 51
188.6932854758
  0
ARC
  5
34C
100
AcDbEntity
  8
0
100
AcDbCircle
 62
7
  6
CONTINUOUS
 10
60.5167901585
 20
284.446116426
 40
1.7543863853
100
AcDbArc
 50
180.0039426605
 51
183.738275366
  0
ARC
  5
34D
100
AcDbEntity
  8
0
100
AcDbCircle
 62
7
  6
CONTINUOUS
 10
67.5097351212
 20
284.4459714719
 40
1.7526581472
100
AcDbArc
 50
356.3056366632
 51
0.0007921106
  0
ARC
  5
34E
100
AcDbEntity
  8
0
100
AcDbCircle
 62
7
  6
CONTINUOUS
 10
141.7681405555
 20
281.4538223074
 40
48.9427523061
100
AcDbArc
 50
91.2964160131
 51
91.5895622592
  0
ARC
  5
34F
100
AcDbEntity
  8
0
100
AcDbCircle
 62
7
  6
CONTINUOUS
 10
141.8218779437
 20
281.538918156
 40
48.8576299071
100
AcDbArc
 50
88.4104565239
 51
88.7041132134
  0
ARC
  5
350
100
AcDbEntity
  8
0
100
AcDbCircle
 62
7
  6
CONTINUOUS
 10
133.7064687445
 20
317.4632417841
 40
14.9297839525
100
AcDbArc
 50
50.342707626
 51
50.7069619421
  0
ARC
  5
351
100
AcDbEntity
  8
0
100
AcDbCircle
 62
7
  6
CONTINUOUS
 10
135.3664273178
 20
319.0937972466
 40
13.4023527747
100
AcDbArc
 50
54.1685305395
 51
54.4489071493
  0
ARC
  5
352
100
AcDbEntity
  8
0
100
AcDbCircle
 62
7
  6
CONTINUOUS
 10
135.5597622069
 20
319.3657055105
 40
13.0687184997
100
AcDbArc
 50
54.4454063106
 51
56.1817462503
  0
ARC
  5
353
100
AcDbEntity
  8
0
100
AcDbCircle
 62
7
  6
CONTINUOUS
 10
134.8076614017
 20
319.0537827006
 40
12.7571146175
100
AcDbArc
 50
56.9369076749
 51
57.437295239
  0
ARC
  5
354
100
AcDbEntity
  8
0
100
AcDbCircle
 62
7
  6
CONTINUOUS
 10
136.3870372079
 20
320.4265587193
 40
11.93849329
100
AcDbArc
 50
56.7844930482
 51
57.3185447424
  0
ARC
  5
355
100
AcDbEntity
  8
0
100
AcDbCircle
 62
7
  6
CONTINUOUS
 10
135.8891341837
 20
320.9071606417
 40
10.6103892064
100
AcDbArc
 50
62.7084092007
 51
63.2743862121
  0
ARC
  5
356
100
AcDbEntity
  8
0
100
AcDbCircle
 62
7
  6
CONTINUOUS
 10
137.3329155543
 20
322.0820919794
 40
10.0309467087
100
AcDbArc
 50
62.8271249295
 51
63.4267185719
  0
ARC
  5
357
100
AcDbEntity
  8
0
100
AcDbCircle
 62
7
  6
CONTINUOUS
 10
139.7331968438
 20
324.4236035729
 40
8.9313814671
100
AcDbArc
 50
117.8352323543
 51
119.9935379994
  0
ARC
  5
358
100
AcDbEntity
  8
0
100
AcDbCircle
 62
7
  6
CONTINUOUS
 10
139.579084031
 20
324.6923740574
 40
8.621562937
100
AcDbArc
 50
119.9994173213
 51
120.4326836591
  0
ARC
  5
359
100
AcDbEntity
  8
0
100
AcDbCircle
 62
7
  6
CONTINUOUS
 10
139.3054101243
 20
325.1463369141
 40
8.0915242506
100
AcDbArc
 50
120.3900237021
 51
123.8848614563
  0
ARC
  5
35A
100
AcDbEntity
  8
0
100
AcDbCircle
 62
7
  6
CONTINUOUS
 10
140.5103026445
 20
327.1143771015
 40
5.2291690808
100
AcDbArc
 50
119.5965821958
 51
119.9994424351
  0
ARC
  5
35B
100
AcDbEntity
  8
0
100
AcDbCircle
 62
7
  6
CONTINUOUS
 10
140.6004127235
 20
327.3742756532
 40
4.8759969332
100
AcDbArc
 50
119.4308918882
 51
119.8814260265
  0
ARC
  5
35C
100
AcDbEntity
  8
0
100
AcDbCircle
 62
7
  6
CONTINUOUS
 10
136.8367471959
 20
327.8681040222
 40
4.3933676406
100
AcDbArc
 50
145.3722882897
 51
145.9138517667
  0
ARC
  5
35D
100
AcDbEntity
  8
0
100
AcDbCircle
 62
7
  6
CONTINUOUS
 10
135.6435218287
 20
330.6412758186
 40
6.241352814
100
AcDbArc
 50
350.2014124495
 51
351.2349257062
  0
ARC
  5
35E
100
AcDbEntity
  8
0
100
AcDbCircle
 62
7
  6
CONTINUOUS
 10
135.9338078074
 20
330.5960536085
 40
5.9475658567
100
AcDbArc
 50
351.2393504779
 51
351.774531116
  0
ARC
  5
35F
100
AcDbEntity
  8
0
100
AcDbCircle
 62
7
  6
CONTINUOUS
 10
140.8821974631
 20
332.1782413569
 40
5.7457030468
100
AcDbArc
 50
244.7226259762
 51
244.9164677332
  0
ARC
  5
360
100
AcDbEntity
  8
0
100
AcDbCircle
 62
7
  6
CONTINUOUS
 10
139.2766886639
 20
330.5725208095
 40
2.5885502002
100
AcDbArc
 50
10.7061006085
 51
13.4907199981
  0
ARC
  5
361
100
AcDbEntity
  8
0
100
AcDbCircle
 62
7
  6
CONTINUOUS
 10
139.0035523877
 20
329.6708320211
 40
2.535397969
100
AcDbArc
 50
214.0633570343
 51
216.3349297598
  0
ARC
  5
362
100
AcDbEntity
  8
0
100
AcDbCircle
 62
7
  6
CONTINUOUS
 10
138.3376995151
 20
329.3574654108
 40
1.7941484825
100
AcDbArc
 50
188.688142276
 51
189.9062810254
  0
ARC
  5
363
100
AcDbEntity
  8
0
100
AcDbCircle
 62
7
  6
CONTINUOUS
 10
138.316550554
 20
329.3543946263
 40
1.7727783481
100
AcDbArc
 50
183.7454701554
 51
188.6932854758
  0
ARC
  5
364
100
AcDbEntity
  8
0
100
AcDbCircle
 62
7
  6
CONTINUOUS
 10
138.2982122521
 20
329.3529733519
 40
1.7543863853
100
AcDbArc
 50
180.0039426605
 51
183.7382753659
  0
ARC
  5
365
100
AcDbEntity
  8
0
100
AcDbCircle
 62
7
  6
CONTINUOUS
 10
141.7941128966
 20
316.7328993464
 40
14.2735569204
100
AcDbArc
 50
90.482890817
 51
91.2502858042
  0
ARC
  5
366
100
AcDbEntity
  8
0
100
AcDbCircle
 62
7
  6
CONTINUOUS
 10
141.7940061927
 20
316.7605372658
 40
14.2459164614
100
AcDbArc
 50
88.7492451328
 51
89.5181290198
  0
ARC
  5
367
100
AcDbEntity
  8
0
100
AcDbCircle
 62
7
  6
CONTINUOUS
 10
147.9552504883
 20
319.4712908653
 40
12.9405697664
100
AcDbArc
 50
123.8112799862
 51
125.5563659247
  0
ARC
  5
368
100
AcDbEntity
  8
0
100
AcDbCircle
 62
7
  6
CONTINUOUS
 10
148.7840388586
 20
319.0476708841
 40
12.764446161
100
AcDbArc
 50
122.563260633
 51
123.0633589482
  0
ARC
  5
369
100
AcDbEntity
  8
0
100
AcDbCircle
 62
7
  6
CONTINUOUS
 10
147.2044116796
 20
320.4208357723
 40
11.9453625569
100
AcDbArc
 50
122.6820221069
 51
123.2157647215
  0
ARC
  5
36A
100
AcDbEntity
  8
0
100
AcDbCircle
 62
7
  6
CONTINUOUS
 10
147.7015793793
 20
320.9013077015
 40
10.6170033297
100
AcDbArc
 50
116.7262036073
 51
117.2918253779
  0
ARC
  5
36B
100
AcDbEntity
  8
0
100
AcDbCircle
 62
7
  6
CONTINUOUS
 10
146.2575966247
 20
322.0765675217
 40
10.0371759816
100
AcDbArc
 50
116.5738798921
 51
117.1730986135
  0
ARC
  5
36C
100
AcDbEntity
  8
0
100
AcDbCircle
 62
7
  6
CONTINUOUS
 10
141.7942261482
 20
323.5935941075
 40
8.8718375816
100
AcDbArc
 50
87.3755293666
 51
95.0103223544
  0
ARC
  5
36D
100
AcDbEntity
  8
0
100
AcDbCircle
 62
7
  6
CONTINUOUS
 10
141.7939269405
 20
321.8258910324
 40
8.662999047
100
AcDbArc
 50
80.8122446669
 51
82.4583865143
  0
ARC
  5
36E
100
AcDbEntity
  8
0
100
AcDbCircle
 62
7
  6
CONTINUOUS
 10
141.7918951459
 20
321.8385896544
 40
8.6501663178
100
AcDbArc
 50
97.5407118669
 51
99.189297628
  0
ARC
  5
36F
100
AcDbEntity
  8
0
100
AcDbCircle
 62
7
  6
CONTINUOUS
 10
141.8141316828
 20
323.8848319613
 40
8.579996238
100
AcDbArc
 50
81.1938941227
 51
87.4192623641
  0
ARC
  5
370
100
AcDbEntity
  8
0
100
AcDbCircle
 62
7
  6
CONTINUOUS
 10
141.9138430704
 20
324.5086373816
 40
7.9482798401
100
AcDbArc
 50
76.7567643426
 51
81.2157859101
  0
ARC
  5
371
100
AcDbEntity
  8
0
100
AcDbCircle
 62
7
  6
CONTINUOUS
 10
141.6098169215
 20
324.80392279
 40
7.646152817
100
AcDbArc
 50
101.32394797
 51
106.1114267614
  0
ARC
  5
372
100
AcDbEntity
  8
0
100
AcDbCircle
 62
7
  6
CONTINUOUS
 10
141.3827172171
 20
325.608034662
 40
6.8106036012
100
AcDbArc
 50
106.1532042297
 51
110.9750914288
  0
ARC
  5
373
100
AcDbEntity
  8
0
100
AcDbCircle
 62
7
  6
CONTINUOUS
 10
142.5662256319
 20
326.5422794583
 40
5.8087912471
100
AcDbArc
 50
64.7644245632
 51
67.9847602834
  0
ARC
  5
374
100
AcDbEntity
  8
0
100
AcDbCircle
 62
7
  6
CONTINUOUS
 10
145.9546960623
 20
325.8743816564
 40
5.5048879003
100
AcDbArc
 50
91.9115163755
 51
93.2264847513
  0
ARC
  5
375
100
AcDbEntity
  8
0
100
AcDbCircle
 62
7
  6
CONTINUOUS
 10
142.419378241
 20
335.7633935093
 40
12.6322451737
100
AcDbArc
 50
286.6923914606
 51
287.2075289923
  0
ARC
  5
376
100
AcDbEntity
  8
0
100
AcDbCircle
 62
7
  6
CONTINUOUS
 10
147.8899609091
 20
330.632499933
 40
6.186479528
100
AcDbArc
 50
188.7611945819
 51
189.8038764981
  0
ARC
  5
377
100
AcDbEntity
  8
0
100
AcDbCircle
 62
7
  6
CONTINUOUS
 10
147.6932289298
 20
330.6020104867
 40
5.9873990197
100
AcDbArc
 50
188.2279646033
 51
188.7595853588
  0
ARC
  5
378
100
AcDbEntity
  8
0
100
AcDbCircle
 62
7
  6
CONTINUOUS
 10
143.0773385833
 20
331.6706261692
 40
5.2291690906
100
AcDbArc
 50
299.5965821962
 51
299.9994424348
  0
ARC
  5
379
100
AcDbEntity
  8
0
100
AcDbCircle
 62
7
  6
CONTINUOUS
 10
143.0627487479
 20
331.4896516067
 40
4.9697268742
100
AcDbArc
 50
299.5965657422
 51
299.9994259812
  0
ARC
  5
37A
100
AcDbEntity
  8
0
100
AcDbCircle
 62
7
  6
CONTINUOUS
 10
143.0478322848
 20
331.4675593671
 40
4.9166679892
100
AcDbArc
 50
299.9997361788
 51
300.2243264255
  0
ARC
  5
37B
100
AcDbEntity
  8
0
100
AcDbCircle
 62
7
  6
CONTINUOUS
 10
143.4132792991
 20
328.0400331157
 40
4.0852478763
100
AcDbArc
 50
54.1278111371
 51
54.7497561652
  0
ARC
  5
37C
100
AcDbEntity
  8
0
100
AcDbCircle
 62
7
  6
CONTINUOUS
 10
143.5883771222
 20
328.2755902938
 40
3.7917680261
100
AcDbArc
 50
50.0026688897
 51
54.1860588546
  0
ARC
  5
37D
100
AcDbEntity
  8
0
100
AcDbCircle
 62
7
  6
CONTINUOUS
 10
144.2733571558
 20
330.5806199619
 40
2.5501140535
100
AcDbArc
 50
166.4892343765
 51
169.3158258714
  0
ARC
  5
37E
100
AcDbEntity
  8
0
100
AcDbCircle
 62
7
  6
CONTINUOUS
 10
142.095981293
 20
327.9823795291
 40
2.4275075231
100
AcDbArc
 50
72.6641915
 51
73.0237695604
  0
ARC
  5
37F
100
AcDbEntity
  8
0
100
AcDbCircle
 62
7
  6
CONTINUOUS
 10
142.1374896439
 20
328.1733855399
 40
2.0314877295
100
AcDbArc
 50
70.4497912301
 51
74.7939074182
  0
ARC
  5
380
100
AcDbEntity
  8
0
100
AcDbCircle
 62
7
  6
CONTINUOUS
 10
145.2911572147
 20
329.3528283978
 40
1.7526581471
100
AcDbArc
 50
356.3056366632
 51
0.0007921106
  0
ARC
  5
381
100
AcDbEntity
  8
0
100
AcDbCircle
 62
7
  6
CONTINUOUS
 10
146.1925385017
 20
339.2118119661
 40
1.438945884
100
AcDbArc
 50
136.7394672027
 51
138.566783356
  0
ARC
  5
382
100
AcDbEntity
  8
0
100
AcDbCircle
 62
7
  6
CONTINUOUS
 10
177.124274486
 20
171.2284446371
 40
48.9427523273
100
AcDbArc
 50
91.2964160131
 51
91.5895622591
  0
ARC
  5
383
100
AcDbEntity
  8
0
100
AcDbCircle
 62
7
  6
CONTINUOUS
 10
177.1780118739
 20
171.3135405132
 40
48.8576299007
100
AcDbArc
 50
88.4104565238
 51
88.7041132134
  0
ARC
  5
384
100
AcDbEntity
  8
0
100
AcDbCircle
 62
7
  6
CONTINUOUS
 10
177.1497391138
 20
204.3983366665
 40
15.1822783664
100
AcDbArc
 50
88.8248498226
 51
89.5463028189
  0
ARC
  5
385
100
AcDbEntity
  8
0
100
AcDbCircle
 62
7
  6
CONTINUOUS
 10
177.1498336545
 20
204.427727585
 40
15.1528850613
100
AcDbArc
 50
90.453272797
 51
91.176125328
  0
ARC
  5
386
100
AcDbEntity
  8
0
100
AcDbCircle
 62
7
  6
CONTINUOUS
 10
169.0627076257
 20
207.237987421
 40
14.9296221597
100
AcDbArc
 50
50.3426990632
 51
50.7069870045
  0
ARC
  5
387
100
AcDbEntity
  8
0
100
AcDbCircle
 62
7
  6
CONTINUOUS
 10
184.1401727882
 20
208.8222932356
 40
12.7644461603
100
AcDbArc
 50
122.563260633
 51
123.0633589482
  0
ARC
  5
388
100
AcDbEntity
  8
0
100
AcDbCircle
 62
7
  6
CONTINUOUS
 10
170.1637953311
 20
208.8284050504
 40
12.7571146187
100
AcDbArc
 50
56.936907675
 51
57.437295239
  0
ARC
  5
389
100
AcDbEntity
  8
0
100
AcDbCircle
 62
7
  6
CONTINUOUS
 10
182.5605456075
 20
210.1954581264
 40
11.9453625531
100
AcDbArc
 50
122.6820221068
 51
123.2157647216
  0
ARC
  5
38A
100
AcDbEntity
  8
0
100
AcDbCircle
 62
7
  6
CONTINUOUS
 10
171.7431711377
 20
210.2011810699
 40
11.9384932903
100
AcDbArc
 50
56.7844930482
 51
57.3185447424
  0
ARC
  5
38B
100
AcDbEntity
  8
0
100
AcDbCircle
 62
7
  6
CONTINUOUS
 10
183.0577133078
 20
210.6759300553
 40
10.6170033264
100
AcDbArc
 50
116.7262036072
 51
117.291825378
  0
ARC
  5
38C
100
AcDbEntity
  8
0
100
AcDbCircle
 62
7
  6
CONTINUOUS
 10
171.2452681122
 20
210.6817829897
 40
10.6103892097
100
AcDbArc
 50
62.7084092008
 51
63.274386212
  0
ARC
  5
38D
100
AcDbEntity
  8
0
100
AcDbCircle
 62
7
  6
CONTINUOUS
 10
181.6137305516
 20
211.8511898787
 40
10.0371759748
100
AcDbArc
 50
116.5738798919
 51
117.1730986137
  0
ARC
  5
38E
100
AcDbEntity
  8
0
100
AcDbCircle
 62
7
  6
CONTINUOUS
 10
172.6890494834
 20
211.8567143285
 40
10.0309467107
100
AcDbArc
 50
62.8271249295
 51
63.4267185718
  0
ARC
  5
38F
100
AcDbEntity
  8
0
100
AcDbCircle
 62
7
  6
CONTINUOUS
 10
177.1500608705
 20
211.6005133837
 40
8.6629990466
100
AcDbArc
 50
80.8122446669
 51
82.4583865143
  0
ARC
  5
390
100
AcDbEntity
  8
0
100
AcDbCircle
 62
7
  6
CONTINUOUS
 10
177.1480290758
 20
211.6132120059
 40
8.6501663172
100
AcDbArc
 50
97.5407118668
 51
99.1892976281
  0
ARC
  5
391
100
AcDbEntity
  8
0
100
AcDbCircle
 62
7
  6
CONTINUOUS
 10
179.6552046709
 20
206.1753996111
 40
6.0140939834
100
AcDbArc
 50
201.9351873673
 51
202.5293040675
  0
ARC
  5
392
100
AcDbEntity
  8
0
100
AcDbCircle
 62
7
  6
CONTINUOUS
 10
168.8933624504
 20
204.1617622989
 40
5.2931852987
100
AcDbArc
 50
7.1586198085
 51
8.6310007914
  0
ARC
  5
393
100
AcDbEntity
  8
0
100
AcDbCircle
 62
7
  6
CONTINUOUS
 10
168.9591372585
 20
204.1722456571
 40
5.2265821512
100
AcDbArc
 50
8.6255876536
 51
10.9802775371
  0
ARC
  5
394
100
AcDbEntity
  8
0
100
AcDbCircle
 62
7
  6
CONTINUOUS
 10
175.7928495299
 20
199.2620471929
 40
1.3577468123
100
AcDbArc
 50
1.6097157245
 51
14.8310607223
  0
ARC
  5
395
100
AcDbEntity
  8
0
100
AcDbCircle
 62
7
  6
CONTINUOUS
 10
177.7755121712
 20
225.5380158595
 40
12.632245173
100
AcDbArc
 50
286.6923914606
 51
287.2075289923
  0
ARC
  5
396
100
AcDbEntity
  8
0
100
AcDbCircle
 62
7
  6
CONTINUOUS
 10
177.0504767346
 20
214.9324861329
 40
12.2607863121
100
AcDbArc
 50
258.7610805655
 51
259.2974829159
  0
ARC
  5
397
100
AcDbEntity
  8
0
100
AcDbCircle
 62
7
  6
CONTINUOUS
 10
175.0893307738
 20
214.1982259239
 40
8.9313814671
100
AcDbArc
 50
117.8352323543
 51
119.9935379994
  0
ARC
  5
398
100
AcDbEntity
  8
0
100
AcDbCircle
 62
7
  6
CONTINUOUS
 10
177.1509764105
 20
213.4025691263
 40
8.8375005258
100
AcDbArc
 50
85.506585498
 51
90.6357633164
  0
ARC
  5
399
100
AcDbEntity
  8
0
100
AcDbCircle
 62
7
  6
CONTINUOUS
 10
177.1482061614
 20
213.4217848314
 40
8.8182556359
100
AcDbArc
 50
90.6191503461
 51
95.836430827
  0
ARC
  5
39A
100
AcDbEntity
  8
0
100
AcDbCircle
 62
7
  6
CONTINUOUS
 10
174.9352179573
 20
214.4669964146
 40
8.6215629298
100
AcDbArc
 50
119.9994173211
 51
120.4326836593
  0
ARC
  5
39B
100
AcDbEntity
  8
0
100
AcDbCircle
 62
7
  6
CONTINUOUS
 10
177.1894921673
 20
213.8138087606
 40
8.4245096681
100
AcDbArc
 50
79.993899438
 51
85.548609418
  0
ARC
  5
39C
100
AcDbEntity
  8
0
100
AcDbCircle
 62
7
  6
CONTINUOUS
 10
174.6615440543
 20
214.920959265
 40
8.0915242506
100
AcDbArc
 50
120.3900237021
 51
123.8848614563
  0
ARC
  5
39D
100
AcDbEntity
  8
0
100
AcDbCircle
 62
7
  6
CONTINUOUS
 10
170.9996557578
 20
220.4158981696
 40
6.241352815
100
AcDbArc
 50
350.2014124496
 51
351.2349257061
  0
ARC
  5
39E
100
AcDbEntity
  8
0
100
AcDbCircle
 62
7
  6
CONTINUOUS
 10
183.246094838
 20
220.4071222837
 40
6.186479527
100
AcDbArc
 50
188.7611945819
 51
189.8038764981
  0
ARC
  5
39F
100
AcDbEntity
  8
0
100
AcDbCircle
 62
7
  6
CONTINUOUS
 10
183.0493628601
 20
220.3766328376
 40
5.98739902
100
AcDbArc
 50
188.2279646033
 51
188.7595853588
  0
ARC
  5
3A0
100
AcDbEntity
  8
0
100
AcDbCircle
 62
7
  6
CONTINUOUS
 10
171.2899417394
 20
220.3706759591
 40
5.9475658547
100
AcDbArc
 50
351.2393504778
 51
351.7745311161
  0
ARC
  5
3A1
100
AcDbEntity
  8
0
100
AcDbCircle
 62
7
  6
CONTINUOUS
 10
176.2383313711
 20
221.9528636609
 40
5.745702995
100
AcDbArc
 50
244.7226259753
 51
244.9164677341
  0
ARC
  5
3A2
100
AcDbEntity
  8
0
100
AcDbCircle
 62
7
  6
CONTINUOUS
 10
177.99692337
 20
216.4779085096
 40
5.6313611391
100
AcDbArc
 50
64.7522545813
 51
65.4999220588
  0
ARC
  5
3A3
100
AcDbEntity
  8
0
100
AcDbCircle
 62
7
  6
CONTINUOUS
 10
181.3108299924
 20
215.649004007
 40
5.5048879005
100
AcDbArc
 50
91.9115163756
 51
93.2264847512
  0
ARC
  5
3A4
100
AcDbEntity
  8
0
100
AcDbCircle
 62
7
  6
CONTINUOUS
 10
172.9611886383
 20
219.3095911908
 40
5.3814819484
100
AcDbArc
 50
220.8640835296
 51
224.6561967796
  0
ARC
  5
3A5
100
AcDbEntity
  8
0
100
AcDbCircle
 62
7
  6
CONTINUOUS
 10
181.4386099937
 20
219.2174403967
 40
5.2456367268
100
AcDbArc
 50
315.6415405683
 51
319.5745863351
  0
ARC
  5
3A6
100
AcDbEntity
  8
0
100
AcDbCircle
 62
7
  6
CONTINUOUS
 10
178.4334725143
 20
221.4452485182
 40
5.2291690885
100
AcDbArc
 50
299.5965821961
 51
299.9994424348
  0
ARC
  5
3A7
100
AcDbEntity
  8
0
100
AcDbCircle
 62
7
  6
CONTINUOUS
 10
175.8664365771
 20
216.8889994479
 40
5.2291690859
100
AcDbArc
 50
119.5965821959
 51
119.9994424349
  0
ARC
  5
3A8
100
AcDbEntity
  8
0
100
AcDbCircle
 62
7
  6
CONTINUOUS
 10
178.3613880977
 20
221.3161848323
 40
5.0020458166
100
AcDbArc
 50
299.4308640879
 51
299.8730352092
  0
ARC
  5
3A9
100
AcDbEntity
  8
0
100
AcDbCircle
 62
7
  6
CONTINUOUS
 10
172.6758384353
 20
219.0577552622
 40
5.0009154413
100
AcDbArc
 50
219.4836055863
 51
220.8210141521
  0
ARC
  5
3AA
100
AcDbEntity
  8
0
100
AcDbCircle
 62
7
  6
CONTINUOUS
 10
178.4188826745
 20
221.2642739636
 40
4.9697268811
100
AcDbArc
 50
299.5965657424
 51
299.9994259809
  0
ARC
  5
3AB
100
AcDbEntity
  8
0
100
AcDbCircle
 62
7
  6
CONTINUOUS
 10
178.4039661973
 20
221.2421817481
 40
4.916668024
100
AcDbArc
 50
299.9997361796
 51
300.2243264247
  0
ARC
  5
3AC
100
AcDbEntity
  8
0
100
AcDbCircle
 62
7
  6
CONTINUOUS
 10
172.1928811262
 20
217.6427263728
 40
4.3933676411
100
AcDbArc
 50
145.3722882897
 51
145.9138517666
  0
ARC
  5
3AD
100
AcDbEntity
  8
0
100
AcDbCircle
 62
7
  6
CONTINUOUS
 10
178.7680921497
 20
217.8127862344
 40
4.0875368236
100
AcDbArc
 50
54.1304029689
 51
54.7497558822
  0
ARC
  5
3AE
100
AcDbEntity
  8
0
100
AcDbCircle
 62
7
  6
CONTINUOUS
 10
174.6328225939
 20
220.3471431605
 40
2.5885502001
100
AcDbArc
 50
10.7061006084
 51
13.4907199981
  0
ARC
  5
3AF
100
AcDbEntity
  8
0
100
AcDbCircle
 62
7
  6
CONTINUOUS
 10
179.6294910859
 20
220.3552423127
 40
2.5501140536
100
AcDbArc
 50
166.4892343766
 51
169.3158258713
  0
ARC
  5
3B0
100
AcDbEntity
  8
0
100
AcDbCircle
 62
7
  6
CONTINUOUS
 10
174.4687398395
 20
218.9298277275
 40
2.5392706704
100
AcDbArc
 50
142.3516522195
 51
146.0330141665
  0
ARC
  5
3B1
100
AcDbEntity
  8
0
100
AcDbCircle
 62
7
  6
CONTINUOUS
 10
174.3596863179
 20
219.4454543721
 40
2.5353979692
100
AcDbArc
 50
214.0633570344
 51
216.3349297597
  0
ARC
  5
3B2
100
AcDbEntity
  8
0
100
AcDbCircle
 62
7
  6
CONTINUOUS
 10
177.4521152187
 20
217.7570018661
 40
2.4275075376
100
AcDbArc
 50
72.6641915013
 51
73.0237695595
  0
ARC
  5
3B3
100
AcDbEntity
  8
0
100
AcDbCircle
 62
7
  6
CONTINUOUS
 10
177.4936235739
 20
217.9480078908
 40
2.0314877295
100
AcDbArc
 50
70.4497912305
 51
74.7939074183
  0
ARC
  5
3B4
100
AcDbEntity
  8
0
100
AcDbCircle
 62
7
  6
CONTINUOUS
 10
173.6938334458
 20
219.1320877618
 40
1.7941484832
100
AcDbArc
 50
188.6881422762
 51
189.9062810251
  0
ARC
  5
3B5
100
AcDbEntity
  8
0
100
AcDbCircle
 62
7
  6
CONTINUOUS
 10
173.672684484
 20
219.1290169772
 40
1.7727783481
100
AcDbArc
 50
183.7454701554
 51
188.6932854758
  0
ARC
  5
3B6
100
AcDbEntity
  8
0
100
AcDbCircle
 62
7
  6
CONTINUOUS
 10
173.6543461822
 20
219.1275957027
 40
1.7543863854
100
AcDbArc
 50
180.0039426607
 51
183.7382753659
  0
ARC
  5
3B7
100
AcDbEntity
  8
0
100
AcDbCircle
 62
7
  6
CONTINUOUS
 10
180.6472911446
 20
219.1274507487
 40
1.7526581472
100
AcDbArc
 50
356.3056366632
 51
0.0007921105
  0
ARC
  5
3B8
100
AcDbEntity
  8
0
100
AcDbCircle
 62
7
  6
CONTINUOUS
 10
254.9056965797
 20
216.1353015567
 40
48.9427523336
100
AcDbArc
 50
91.2964160132
 51
91.5895622591
  0
ARC
  5
3B9
100
AcDbEntity
  8
0
100
AcDbCircle
 62
7
  6
CONTINUOUS
 10
254.9594339673
 20
216.2203974329
 40
48.857629907
100
AcDbArc
 50
88.4104565239
 51
88.7041132134
  0
ARC
  5
3BA
100
AcDbEntity
  8
0
100
AcDbCircle
 62
7
  6
CONTINUOUS
 10
246.8440247772
 20
252.1447210719
 40
14.9297839381
100
AcDbArc
 50
50.3427076257
 51
50.7069619422
  0
ARC
  5
3BB
100
AcDbEntity
  8
0
100
AcDbCircle
 62
7
  6
CONTINUOUS
 10
254.9316689201
 20
251.4143786238
 40
14.2735569198
100
AcDbArc
 50
90.482890817
 51
91.2502858042
  0
ARC
  5
3BC
100
AcDbEntity
  8
0
100
AcDbCircle
 62
7
  6
CONTINUOUS
 10
254.9315622162
 20
251.4420165425
 40
14.2459164614
100
AcDbArc
 50
88.7492451328
 51
89.5181290198
  0
ARC
  5
3BD
100
AcDbEntity
  8
0
100
AcDbCircle
 62
7
  6
CONTINUOUS
 10
261.9215948827
 20
253.7291501601
 40
12.764446162
100
AcDbArc
 50
122.563260633
 51
123.0633589481
  0
ARC
  5
3BE
100
AcDbEntity
  8
0
100
AcDbCircle
 62
7
  6
CONTINUOUS
 10
247.9452174253
 20
253.7352619774
 40
12.7571146174
100
AcDbArc
 50
56.936907675
 51
57.4372952391
  0
ARC
  5
3BF
100
AcDbEntity
  8
0
100
AcDbCircle
 62
7
  6
CONTINUOUS
 10
260.3419677004
 20
255.1023150533
 40
11.9453625519
100
AcDbArc
 50
122.6820221068
 51
123.2157647216
  0
ARC
  5
3C0
100
AcDbEntity
  8
0
100
AcDbCircle
 62
7
  6
CONTINUOUS
 10
249.5245932333
 20
255.1080379989
 40
11.9384932865
100
AcDbArc
 50
56.7844930481
 51
57.3185447425
  0
ARC
  5
3C1
100
AcDbEntity
  8
0
100
AcDbCircle
 62
7
  6
CONTINUOUS
 10
279.0200232348
 20
246.4875452273
 40
3.8191620199
100
AcDbArc
 50
39.767510802
 51
48.5632148051
  0
ARC
  5
3C2
100
AcDbEntity
  8
0
100
AcDbCircle
 62
7
  6
CONTINUOUS
 10
279.0858714044
 20
246.5610535924
 40
3.7204759936
100
AcDbArc
 50
48.574274067
 51
49.516336926
  0
ARC
  5
3C3
100
AcDbEntity
  8
0
100
AcDbCircle
 62
7
  6
CONTINUOUS
 10
279.1069730961
 20
246.5857192074
 40
3.6880156694
100
AcDbArc
 50
49.5168973319
 51
50.4066549764
  0
ARC
  5
3C4
100
AcDbEntity
  8
0
100
AcDbCircle
 62
7
  6
CONTINUOUS
 10
260.8391354008
 20
255.5827869822
 40
10.6170033252
100
AcDbArc
 50
116.7262036072
 51
117.291825378
  0
ARC
  5
3C5
100
AcDbEntity
  8
0
100
AcDbCircle
 62
7
  6
CONTINUOUS
 10
249.0266902062
 20
255.5886399165
 40
10.6103892086
100
AcDbArc
 50
62.7084092007
 51
63.274386212
  0
ARC
  5
3C6
100
AcDbEntity
  8
0
100
AcDbCircle
 62
7
  6
CONTINUOUS
 10
259.395152646
 20
256.7580468028
 40
10.0371759767
100
AcDbArc
 50
116.5738798919
 51
117.1730986136
  0
ARC
  5
3C7
100
AcDbEntity
  8
0
100
AcDbCircle
 62
7
  6
CONTINUOUS
 10
250.4704715783
 20
256.763571257
 40
10.0309467078
100
AcDbArc
 50
62.8271249294
 51
63.4267185719
  0
ARC
  5
3C8
100
AcDbEntity
  8
0
100
AcDbCircle
 62
7
  6
CONTINUOUS
 10
252.8707528673
 20
259.1050828499
 40
8.931381467
100
AcDbArc
 50
117.8352323543
 51
119.9935379994
  0
ARC
  5
3C9
100
AcDbEntity
  8
0
100
AcDbCircle
 62
7
  6
CONTINUOUS
 10
254.9317821717
 20
258.2750733842
 40
8.8718375816
100
AcDbArc
 50
87.3755293666
 51
95.0103223544
  0
ARC
  5
3CA
100
AcDbEntity
  8
0
100
AcDbCircle
 62
7
  6
CONTINUOUS
 10
254.9314829641
 20
256.5073703101
 40
8.662999046
100
AcDbArc
 50
80.8122446668
 51
82.4583865143
  0
ARC
  5
3CB
100
AcDbEntity
  8
0
100
AcDbCircle
 62
7
  6
CONTINUOUS
 10
254.9294511693
 20
256.5200689317
 40
8.6501663173
100
AcDbArc
 50
97.5407118668
 51
99.1892976281
  0
ARC
  5
3CC
100
AcDbEntity
  8
0
100
AcDbCircle
 62
7
  6
CONTINUOUS
 10
252.7166400519
 20
259.3738533386
 40
8.6215629319
100
AcDbArc
 50
119.9994173211
 51
120.4326836592
  0
ARC
  5
3CD
100
AcDbEntity
  8
0
100
AcDbCircle
 62
7
  6
CONTINUOUS
 10
254.9516877063
 20
258.5663112381
 40
8.579996238
100
AcDbArc
 50
81.1938941227
 51
87.4192623642
  0
ARC
  5
3CE
100
AcDbEntity
  8
0
100
AcDbCircle
 62
7
  6
CONTINUOUS
 10
252.4429661477
 20
259.827816191
 40
8.0915242504
100
AcDbArc
 50
120.3900237021
 51
123.8848614563
  0
ARC
  5
3CF
100
AcDbEntity
  8
0
100
AcDbCircle
 62
7
  6
CONTINUOUS
 10
255.0513990939
 20
259.1901166584
 40
7.9482798401
100
AcDbArc
 50
76.7567643426
 51
81.2157859101
  0
ARC
  5
3D0
100
AcDbEntity
  8
0
100
AcDbCircle
 62
7
  6
CONTINUOUS
 10
254.7473729451
 20
259.4854020667
 40
7.6461528171
100
AcDbArc
 50
101.32394797
 51
106.1114267614
  0
ARC
  5
3D1
100
AcDbEntity
  8
0
100
AcDbCircle
 62
7
  6
CONTINUOUS
 10
254.5202732406
 20
260.2895139388
 40
6.8106036012
100
AcDbArc
 50
106.1532042298
 51
110.9750914288
  0
ARC
  5
3D2
100
AcDbEntity
  8
0
100
AcDbCircle
 62
7
  6
CONTINUOUS
 10
255.7037816555
 20
261.2237587353
 40
5.8087912469
100
AcDbArc
 50
64.7644245631
 51
67.9847602834
  0
ARC
  5
3D3
100
AcDbEntity
  8
0
100
AcDbCircle
 62
7
  6
CONTINUOUS
 10
259.0922520859
 20
260.5558609329
 40
5.5048879005
100
AcDbArc
 50
91.9115163756
 51
93.2264847512
  0
ARC
  5
3D4
100
AcDbEntity
  8
0
100
AcDbCircle
 62
7
  6
CONTINUOUS
 10
253.6478586684
 20
261.7958563777
 40
5.2291690814
100
AcDbArc
 50
119.5965821959
 51
119.9994424351
  0
ARC
  5
3D5
100
AcDbEntity
  8
0
100
AcDbCircle
 62
7
  6
CONTINUOUS
 10
253.7379687507
 20
262.0557549235
 40
4.8759969406
100
AcDbArc
 50
119.4308918885
 51
119.8814260261
  0
ARC
  5
3D6
100
AcDbEntity
  8
0
100
AcDbCircle
 62
7
  6
CONTINUOUS
 10
249.9743032167
 20
262.5495833008
 40
4.3933676373
100
AcDbArc
 50
145.3722882893
 51
145.9138517667
  0
ARC
  5
3D7
100
AcDbEntity
  8
0
100
AcDbCircle
 62
7
  6
CONTINUOUS
 10
256.5508353193
 20
262.7215123879
 40
4.085247882
100
AcDbArc
 50
54.1278111376
 51
54.7497561648
  0
ARC
  5
3D8
100
AcDbEntity
  8
0
100
AcDbCircle
 62
7
  6
CONTINUOUS
 10
256.7259331457
 20
262.9570695705
 40
3.7917680261
100
AcDbArc
 50
50.0026688897
 51
54.1860588546
  0
ARC
  5
3D9
100
AcDbEntity
  8
0
100
AcDbCircle
 62
7
  6
CONTINUOUS
 10
255.2335373131
 20
262.6638587948
 40
2.4275075347
100
AcDbArc
 50
72.664191501
 51
73.0237695597
  0
ARC
  5
3DA
100
AcDbEntity
  8
0
100
AcDbCircle
 62
7
  6
CONTINUOUS
 10
255.2750456674
 20
262.8548648166
 40
2.0314877295
100
AcDbArc
 50
70.4497912306
 51
74.7939074181
  0
ARC
  5
3DB
100
AcDbEntity
  8
0
100
AcDbCircle
 62
7
  6
CONTINUOUS
 10
255.5569342645
 20
270.4448727862
 40
12.6322451739
100
AcDbArc
 50
286.6923914606
 51
287.2075289922
  0
ARC
  5
3DC
100
AcDbEntity
  8
0
100
AcDbCircle
 62
7
  6
CONTINUOUS
 10
248.7810778505
 20
265.3227550956
 40
6.2413528158
100
AcDbArc
 50
350.2014124497
 51
351.234925706
  0
ARC
  5
3DD
100
AcDbEntity
  8
0
100
AcDbCircle
 62
7
  6
CONTINUOUS
 10
261.027516931
 20
265.3139792095
 40
6.1864795264
100
AcDbArc
 50
188.7611945818
 51
189.8038764982
  0
ARC
  5
3DE
100
AcDbEntity
  8
0
100
AcDbCircle
 62
7
  6
CONTINUOUS
 10
260.8307849564
 20
265.2834897639
 40
5.9873990228
100
AcDbArc
 50
188.2279646035
 51
188.7595853587
  0
ARC
  5
3DF
100
AcDbEntity
  8
0
100
AcDbCircle
 62
7
  6
CONTINUOUS
 10
249.0713638307
 20
265.2775328853
 40
5.9475658569
100
AcDbArc
 50
351.2393504779
 51
351.774531116
  0
ARC
  5
3E0
100
AcDbEntity
  8
0
100
AcDbCircle
 62
7
  6
CONTINUOUS
 10
254.0197534727
 20
266.8597206039
 40
5.745703014
100
AcDbArc
 50
244.7226259756
 51
244.9164677338
  0
ARC
  5
3E1
100
AcDbEntity
  8
0
100
AcDbCircle
 62
7
  6
CONTINUOUS
 10
259.2200320873
 20
264.1242973225
 40
5.2456367267
100
AcDbArc
 50
315.6415405683
 51
319.5745863351
  0
ARC
  5
3E2
100
AcDbEntity
  8
0
100
AcDbCircle
 62
7
  6
CONTINUOUS
 10
256.2148946111
 20
266.3521054383
 40
5.2291690819
100
AcDbArc
 50
299.5965821959
 51
299.9994424351
  0
ARC
  5
3E3
100
AcDbEntity
  8
0
100
AcDbCircle
 62
7
  6
CONTINUOUS
 10
256.2003047681
 20
266.1711308892
 40
4.9697268808
100
AcDbArc
 50
299.5965657425
 51
299.999425981
  0
ARC
  5
3E4
100
AcDbEntity
  8
0
100
AcDbCircle
 62
7
  6
CONTINUOUS
 10
256.1853882953
 20
266.1490386662
 40
4.9166680151
100
AcDbArc
 50
299.9997361794
 51
300.224326425
  0
ARC
  5
3E5
100
AcDbEntity
  8
0
100
AcDbCircle
 62
7
  6
CONTINUOUS
 10
252.4142446876
 20
265.2540000863
 40
2.5885502001
100
AcDbArc
 50
10.7061006084
 51
13.4907199982
  0
ARC
  5
3E6
100
AcDbEntity
  8
0
100
AcDbCircle
 62
7
  6
CONTINUOUS
 10
257.4109131794
 20
265.2620992386
 40
2.5501140535
100
AcDbArc
 50
166.4892343765
 51
169.3158258714
  0
ARC
  5
3E7
100
AcDbEntity
  8
0
100
AcDbCircle
 62
7
  6
CONTINUOUS
 10
252.1411084112
 20
264.3523112979
 40
2.5353979689
100
AcDbArc
 50
214.0633570344
 51
216.3349297598
  0
ARC
  5
3E8
100
AcDbEntity
  8
0
100
AcDbCircle
 62
7
  6
CONTINUOUS
 10
251.4752555382
 20
264.0389446875
 40
1.7941484821
100
AcDbArc
 50
188.6881422758
 51
189.9062810254
  0
ARC
  5
3E9
100
AcDbEntity
  8
0
100
AcDbCircle
 62
7
  6
CONTINUOUS
 10
251.4541065775
 20
264.0358739031
 40
1.7727783481
100
AcDbArc
 50
183.7454701554
 51
188.6932854759
  0
ARC
  5
3EA
100
AcDbEntity
  8
0
100
AcDbCircle
 62
7
  6
CONTINUOUS
 10
251.4357682757
 20
264.0344526286
 40
1.7543863854
100
AcDbArc
 50
180.0039426607
 51
183.7382753659
  0
ARC
  5
3EB
100
AcDbEntity
  8
0
100
AcDbCircle
 62
7
  6
CONTINUOUS
 10
258.4287132382
 20
264.0343076745
 40
1.7526581472
100
AcDbArc
 50
356.3056366632
 51
0.0007921105
  0
ARC
  5
3EC
100
AcDbEntity
  8
0
100
AcDbCircle
 62
7
  6
CONTINUOUS
 10
275.9116814797
 20
261.7911903727
 40
2.8819316502
100
AcDbArc
 50
66.0663425227
 51
72.4883847747
  0
ARC
  5
3ED
100
AcDbEntity
  8
0
100
AcDbCircle
 62
7
  6
CONTINUOUS
 10
275.9215303974
 20
261.8135937626
 40
2.8574591041
100
AcDbArc
 50
60.0365324213
 51
66.0646079042
  0
SPLINE
  5
3EE
100
AcDbEntity
  8
0
100
AcDbSpline
 62
7
  6
CONTINUOUS
 70
0
 71
3
 72
9
 73
5
 74
0
 42
0.0000001
 43
0.0000001
 44
0.0000000001
 40
0.0
 40
0.0
 40
0.0
 40
0.0
 40
0.515645153
 40
1.0
 40
1.0
 40
1.0
 40
1.0
 10
138.5448895907
 20
327.2041912698
 30
0.0
 10
138.9944584284
 20
327.7083252296
 30
0.0
 10
139.9205436844
 20
328.6393330624
 30
0.0
 10
140.9554727585
 20
329.449771093
 30
0.0
 10
141.4826743661
 20
329.8027979341
 30
0.0
  0
SPLINE
  5
3EF
100
AcDbEntity
  8
0
100
AcDbSpline
 62
7
  6
CONTINUOUS
 70
0
 71
3
 72
10
 73
6
 74
0
 42
0.0000001
 43
0.0000001
 44
0.0000000001
 40
0.0
 40
0.0
 40
0.0
 40
0.0
 40
0.2500055638
 40
0.6250384874
 40
1.0
 40
1.0
 40
1.0
 40
1.0
 10
141.6738249447
 20
329.805516122
 30
0.0
 10
141.6578935273
 20
329.8053901441
 30
0.0
 10
141.6180762597
 20
329.8040449118
 30
0.0
 10
141.5543347791
 20
329.8051748464
 30
0.0
 10
141.5065642225
 20
329.8032883096
 30
0.0
 10
141.4826743661
 20
329.8027979341
 30
0.0
  0
SPLINE
  5
3F0
100
AcDbEntity
  8
0
100
AcDbSpline
 62
7
  6
CONTINUOUS
 70
0
 71
3
 72
10
 73
6
 74
0
 42
0.0000001
 43
0.0000001
 44
0.0000000001
 40
0.0
 40
0.0
 40
0.0
 40
0.0
 40
0.2499843095
 40
0.6249933471
 40
1.0
 40
1.0
 40
1.0
 40
1.0
 10
142.1049755221
 20
329.8027994299
 30
0.0
 10
142.0890483484
 20
329.8031262827
 30
0.0
 10
142.0492462504
 20
329.8048474637
 30
0.0
 10
141.9855021549
 20
329.8038181266
 30
0.0
 10
141.9377219083
 20
329.8053272644
 30
0.0
 10
141.9138249447
 20
329.8055166989
 30
0.0
  0
SPLINE
  5
3F1
100
AcDbEntity
  8
0
100
AcDbSpline
 62
7
  6
CONTINUOUS
 70
0
 71
3
 72
9
 73
5
 74
0
 42
0.0000001
 43
0.0000001
 44
0.0000000001
 40
0.0
 40
0.0
 40
0.0
 40
0.0
 40
0.2693011273
 40
1.0
 40
1.0
 40
1.0
 40
1.0
 10
142.8332898835
 20
330.5825715121
 30
0.0
 10
143.0699365232
 20
330.6973616174
 30
0.0
 10
143.9640459978
 20
331.0885734175
 30
0.0
 10
144.9323430462
 20
331.3304143648
 30
0.0
 10
145.6448643225
 20
331.370543507
 30
0.0
  0
SPLINE
  5
3F2
100
AcDbEntity
  8
0
100
AcDbSpline
 62
7
  6
CONTINUOUS
 70
0
 71
3
 72
9
 73
5
 74
0
 42
0.0000001
 43
0.0000001
 44
0.0000000001
 40
0.0
 40
0.0
 40
0.0
 40
0.0
 40
0.520613643
 40
1.0
 40
1.0
 40
1.0
 40
1.0
 10
138.5448895907
 20
327.2041912698
 30
0.0
 10
138.5201753626
 20
327.1764774235
 30
0.0
 10
138.4817756693
 20
327.1149812831
 30
0.0
 10
138.4635912615
 20
327.0438561419
 30
0.0
 10
138.4635912615
 20
327.0096638122
 30
0.0
  0
SPLINE
  5
3F3
100
AcDbEntity
  8
0
100
AcDbSpline
 62
7
  6
CONTINUOUS
 70
0
 71
3
 72
9
 73
5
 74
0
 42
0.0000001
 43
0.0000001
 44
0.0000000001
 40
0.0
 40
0.0
 40
0.0
 40
0.0
 40
0.2451043854
 40
1.0
 40
1.0
 40
1.0
 40
1.0
 10
142.1049755221
 20
329.80279943
 30
0.0
 10
142.192554917
 20
329.7441550759
 30
0.0
 10
142.5468763272
 20
329.5004402377
 30
0.0
 10
142.8892704117
 20
329.2394812786
 30
0.0
 10
143.1408680666
 20
329.0343502087
 30
0.0
  0
SPLINE
  5
3F4
100
AcDbEntity
  8
0
100
AcDbSpline
 62
7
  6
CONTINUOUS
 70
0
 71
3
 72
9
 73
5
 74
0
 42
0.0000001
 43
0.0000001
 44
0.0000000001
 40
0.0
 40
0.0
 40
0.0
 40
0.0
 40
0.2430101307
 40
1.0
 40
1.0
 40
1.0
 40
1.0
 10
139.6247515626
 20
331.0413976057
 30
0.0
 10
139.7186989823
 20
331.0107965873
 30
0.0
 10
140.1029398231
 20
330.8776836774
 30
0.0
 10
140.4774227826
 20
330.7168924543
 30
0.0
 10
140.7543487583
 20
330.5825665149
 30
0.0
  0
SPLINE
  5
3F5
100
AcDbEntity
  8
0
100
AcDbSpline
 62
7
  6
CONTINUOUS
 70
0
 71
3
 72
12
 73
8
 74
0
 42
0.0000001
 43
0.0000001
 44
0.0000000001
 40
0.0
 40
0.0
 40
0.0
 40
0.0
 40
0.2775944473
 40
0.532845474
 40
0.7708391448
 40
0.8859940091
 40
1.0
 40
1.0
 40
1.0
 40
1.0
 10
145.8160988126
 20
331.3635880186
 30
0.0
 10
146.0010355564
 20
331.2332087161
 30
0.0
 10
146.337408637
 20
330.9540631314
 30
0.0
 10
146.7348058563
 20
330.4612557534
 30
0.0
 10
146.9463046668
 20
330.0055461288
 30
0.0
 10
147.0298725885
 20
329.6328803708
 30
0.0
 10
147.0438206163
 20
329.4457820882
 30
0.0
 10
147.0438206163
 20
329.3528526282
 30
0.0
  0
SPLINE
  5
3F6
100
AcDbEntity
  8
0
100
AcDbSpline
 62
7
  6
CONTINUOUS
 70
0
 71
3
 72
9
 73
5
 74
0
 42
0.0000001
 43
0.0000001
 44
0.0000000001
 40
0.0
 40
0.0
 40
0.0
 40
0.0
 40
0.243853175
 40
1.0
 40
1.0
 40
1.0
 40
1.0
 10
145.6424453792
 20
331.3615315164
 30
0.0
 10
145.6017180944
 20
331.386874866
 30
0.0
 10
145.4331071705
 20
331.4882285478
 30
0.0
 10
145.2584718942
 20
331.5794696251
 30
0.0
 10
145.1240499712
 20
331.6431496598
 30
0.0
  0
SPLINE
  5
3F7
100
AcDbEntity
  8
0
100
AcDbSpline
 62
7
  6
CONTINUOUS
 70
0
 71
3
 72
11
 73
7
 74
0
 42
0.0000001
 43
0.0000001
 44
0.0000000001
 40
0.0
 40
0.0
 40
0.0
 40
0.0
 40
0.2182371737
 40
0.4500432948
 40
0.7088773701
 40
1.0
 40
1.0
 40
1.0
 40
1.0
 10
145.0777997059
 20
331.7898915465
 30
0.0
 10
145.0850423038
 20
331.7864697706
 30
0.0
 10
145.0987838058
 20
331.7765563891
 30
0.0
 10
145.1135756481
 20
331.754629862
 30
0.0
 10
145.1223415161
 20
331.7269923554
 30
0.0
 10
145.1240499712
 20
331.7067268788
 30
0.0
 10
145.1240499712
 20
331.6960414443
 30
0.0
  0
SPLINE
  5
3F8
100
AcDbEntity
  8
0
100
AcDbSpline
 62
7
  6
CONTINUOUS
 70
0
 71
3
 72
15
 73
11
 74
0
 42
0.0000001
 43
0.0000001
 44
0.0000000001
 40
0.0
 40
0.0
 40
0.0
 40
0.0
 40
0.1141714915
 40
0.2361194488
 40
0.3639278968
 40
0.4951383599
 40
0.6270247888
 40
0.7568077961
 40
0.8818654423
 40
1.0
 40
1.0
 40
1.0
 40
1.0
 10
138.1660237746
 20
331.6122762572
 30
0.0
 10
138.4027616762
 20
331.7458419539
 30
0.0
 10
138.9149646198
 20
331.9830197041
 30
0.0
 10
139.744003283
 20
332.2416054636
 30
0.0
 10
140.6372835725
 20
332.4095763541
 30
0.0
 10
141.566859354
 20
332.4819607813
 30
0.0
 10
142.503585473
 20
332.4567133094
 30
0.0
 10
143.4180107366
 20
332.3345062505
 30
0.0
 10
144.2813595273
 20
332.1190389624
 30
0.0
 10
144.8235079448
 20
331.9100525187
 30
0.0
 10
145.0777995228
 20
331.789891205
 30
0.0
  0
SPLINE
  5
3F9
100
AcDbEntity
  8
0
100
AcDbSpline
 62
7
  6
CONTINUOUS
 70
0
 71
3
 72
13
 73
9
 74
0
 42
0.0000001
 43
0.0000001
 44
0.0000000001
 40
0.0
 40
0.0
 40
0.0
 40
0.0
 40
0.1111196422
 40
0.2237477408
 40
0.3394845396
 40
0.4595984396
 40
0.7164948385
 40
1.0
 40
1.0
 40
1.0
 40
1.0
 10
136.5438206163
 20
329.3528526282
 30
0.0
 10
136.5438206163
 20
329.4607089454
 30
0.0
 10
136.5626632415
 20
329.6783326253
 30
0.0
 10
136.6464203437
 20
329.9984961692
 30
0.0
 10
136.7836250443
 20
330.3091622007
 30
0.0
 10
137.0397821182
 20
330.7148125749
 30
0.0
 10
137.4889219856
 20
331.1816468656
 30
0.0
 10
137.9263577529
 20
331.4770585378
 30
0.0
 10
138.1660237746
 20
331.6122762572
 30
0.0
  0
SPLINE
  5
3FA
100
AcDbEntity
  8
0
100
AcDbSpline
 62
7
  6
CONTINUOUS
 70
0
 71
3
 72
9
 73
5
 74
0
 42
0.0000001
 43
0.0000001
 44
0.0000000001
 40
0.0
 40
0.0
 40
0.0
 40
0.0
 40
0.4793813863
 40
1.0
 40
1.0
 40
1.0
 40
1.0
 10
137.7352682446
 20
327.4301517894
 30
0.0
 10
137.7352682446
 20
327.464343765
 30
0.0
 10
137.7534524815
 20
327.5354689039
 30
0.0
 10
137.7918521094
 20
327.5969651357
 30
0.0
 10
137.8165665738
 20
327.624679247
 30
0.0
  0
SPLINE
  5
3FB
100
AcDbEntity
  8
0
100
AcDbSpline
 62
7
  6
CONTINUOUS
 70
0
 71
3
 72
25
 73
21
 74
0
 42
0.0000001
 43
0.0000001
 44
0.0000000001
 40
0.0
 40
0.0
 40
0.0
 40
0.0
 40
0.0688143079
 40
0.1417701964
 40
0.2176331503
 40
0.2949701404
 40
0.3722614105
 40
0.4479860753
 40
0.5207211335
 40
0.5892394112
 40
0.6526239822
 40
0.7104073118
 40
0.7627415229
 40
0.8105786722
 40
0.8334118375
 40
0.8558736105
 40
0.8782907117
 40
0.9009927553
 40
0.9483473485
 40
1.0
 40
1.0
 40
1.0
 40
1.0
 10
138.5448895907
 20
327.2041912698
 30
0.0
 10
138.7819027846
 20
327.0924123542
 30
0.0
 10
139.2866592411
 20
326.8960895532
 30
0.0
 10
140.0904664023
 20
326.6878671415
 30
0.0
 10
140.9439517048
 20
326.5615614316
 30
0.0
 10
141.8221723815
 20
326.5209339884
 30
0.0
 10
142.6996057901
 20
326.5671263858
 30
0.0
 10
143.5506856192
 20
326.6988341028
 30
0.0
 10
144.3507019855
 20
326.9122560719
 30
0.0
 10
145.0765868762
 20
327.2013536138
 30
0.0
 10
145.7076198213
 20
327.5581586582
 30
0.0
 10
146.2258410879
 20
327.9736029173
 30
0.0
 10
146.6158811046
 20
328.437443299
 30
0.0
 10
146.8254855972
 20
328.8630567706
 30
0.0
 10
146.9109058085
 20
329.2084397215
 30
0.0
 10
146.9355098498
 20
329.4660934866
 30
0.0
 10
146.9212360518
 20
329.7240292893
 30
0.0
 10
146.8497518735
 20
330.0700351058
 30
0.0
 10
146.6574920566
 20
330.4983785989
 30
0.0
 10
146.4212009443
 20
330.7966525218
 30
0.0
 10
146.2849360079
 20
330.9385024165
 30
0.0
  0
SPLINE
  5
3FC
100
AcDbEntity
  8
0
100
AcDbSpline
 62
7
  6
CONTINUOUS
 70
0
 71
3
 72
9
 73
5
 74
0
 42
0.0000001
 43
0.0000001
 44
0.0000000001
 40
0.0
 40
0.0
 40
0.0
 40
0.0
 40
0.244853054
 40
1.0
 40
1.0
 40
1.0
 40
1.0
 10
146.2849360079
 20
330.9385024165
 30
0.0
 10
146.2648774044
 20
330.9593831424
 30
0.0
 10
146.1817443882
 20
331.0434928317
 30
0.0
 10
146.0939311465
 20
331.1229458658
 30
0.0
 10
146.0255433237
 20
331.1803666484
 30
0.0
  0
LINE
  5
3FD
100
AcDbEntity
  8
0
100
AcDbLine
 62
7
  6
CONTINUOUS
 10
140.7542005984
 20
330.3364494746
 11
140.7543513492
 21
330.2232859113
  0
LINE
  5
3FE
100
AcDbEntity
  8
0
100
AcDbLine
 62
7
  6
CONTINUOUS
 10
140.7543487583
 20
330.5825665149
 11
140.7541995992
 21
330.4750115583
  0
SPLINE
  5
3FF
100
AcDbEntity
  8
0
100
AcDbSpline
 62
7
  6
CONTINUOUS
 70
0
 71
3
 72
10
 73
6
 74
0
 42
0.0000001
 43
0.0000001
 44
0.0000000001
 40
0.0
 40
0.0
 40
0.0
 40
0.0
 40
0.2312298112
 40
0.6007570808
 40
1.0
 40
1.0
 40
1.0
 40
1.0
 10
145.042751642
 20
331.7966942377
 30
0.0
 10
144.8068298251
 20
331.7888329624
 30
0.0
 10
144.1948022932
 20
331.7284416093
 30
0.0
 10
143.1998198664
 20
331.4810088703
 30
0.0
 10
142.4716724787
 20
331.1809372562
 30
0.0
 10
142.1049668666
 20
331.0030594892
 30
0.0
  0
SPLINE
  5
400
100
AcDbEntity
  8
0
100
AcDbSpline
 62
7
  6
CONTINUOUS
 70
0
 71
3
 72
10
 73
6
 74
0
 42
0.0000001
 43
0.0000001
 44
0.0000000001
 40
0.0
 40
0.0
 40
0.0
 40
0.0
 40
0.5354597963
 40
0.7841424906
 40
1.0
 40
1.0
 40
1.0
 40
1.0
 10
140.5147325143
 20
331.2815468747
 30
0.0
 10
140.5000484072
 20
331.3234144827
 30
0.0
 10
140.4656817958
 20
331.3811973877
 30
0.0
 10
140.404457075
 20
331.4375249988
 30
0.0
 10
140.370074929
 20
331.456349761
 30
0.0
 10
140.3530684685
 20
331.4618891461
 30
0.0
  0
SPLINE
  5
401
100
AcDbEntity
  8
0
100
AcDbSpline
 62
7
  6
CONTINUOUS
 70
0
 71
3
 72
9
 73
5
 74
0
 42
0.0000001
 43
0.0000001
 44
0.0000000001
 40
0.0
 40
0.0
 40
0.0
 40
0.0
 40
0.2331128546
 40
1.0
 40
1.0
 40
1.0
 40
1.0
 10
140.1054906871
 20
328.7358185645
 30
0.0
 10
140.1013038184
 20
328.735077985
 30
0.0
 10
140.0835162616
 20
328.7309240981
 30
0.0
 10
140.0666586627
 20
328.7232891562
 30
0.0
 10
140.0545486984
 20
328.716288959
 30
0.0
  0
SPLINE
  5
402
100
AcDbEntity
  8
0
100
AcDbSpline
 62
7
  6
CONTINUOUS
 70
0
 71
3
 72
9
 73
5
 74
0
 42
0.0000001
 43
0.0000001
 44
0.0000000001
 40
0.0
 40
0.0
 40
0.0
 40
0.0
 40
0.527379179
 40
1.0
 40
1.0
 40
1.0
 40
1.0
 10
140.3530702023
 20
331.4618885282
 30
0.0
 10
140.2139631188
 20
331.409997436
 30
0.0
 10
139.9566952949
 20
331.2925770502
 30
0.0
 10
139.7238131115
 20
331.1302249656
 30
0.0
 10
139.6247513597
 20
331.0413976654
 30
0.0
  0
SPLINE
  5
403
100
AcDbEntity
  8
0
100
AcDbSpline
 62
7
  6
CONTINUOUS
 70
0
 71
3
 72
9
 73
5
 74
0
 42
0.0000001
 43
0.0000001
 44
0.0000000001
 40
0.0
 40
0.0
 40
0.0
 40
0.0
 40
0.2571392523
 40
1.0
 40
1.0
 40
1.0
 40
1.0
 10
141.4826657106
 20
331.0030579934
 30
0.0
 10
141.3885992366
 20
331.0486859539
 30
0.0
 10
141.0200347633
 20
331.2203658091
 30
0.0
 10
140.6402527822
 20
331.3683459711
 30
0.0
 10
140.3530684685
 20
331.4618891461
 30
0.0
  0
SPLINE
  5
404
100
AcDbEntity
  8
0
100
AcDbSpline
 62
7
  6
CONTINUOUS
 70
0
 71
3
 72
9
 73
5
 74
0
 42
0.0000001
 43
0.0000001
 44
0.0000000001
 40
0.0
 40
0.0
 40
0.0
 40
0.0
 40
0.47792765
 40
1.0
 40
1.0
 40
1.0
 40
1.0
 10
142.8047554645
 20
330.3041120911
 30
0.0
 10
142.7743833813
 20
330.2865958369
 30
0.0
 10
142.7196847556
 20
330.2349098318
 30
0.0
 10
142.6830097387
 20
330.1698942689
 30
0.0
 10
142.6703337509
 20
330.1337531592
 30
0.0
  0
SPLINE
  5
405
100
AcDbEntity
  8
0
100
AcDbSpline
 62
7
  6
CONTINUOUS
 70
0
 71
3
 72
9
 73
5
 74
0
 42
0.0000001
 43
0.0000001
 44
0.0000000001
 40
0.0
 40
0.0
 40
0.0
 40
0.0
 40
0.2547354588
 40
1.0
 40
1.0
 40
1.0
 40
1.0
 10
145.5228183052
 20
327.2192575517
 30
0.0
 10
145.5528923655
 20
327.2367782525
 30
0.0
 10
145.6702144854
 20
327.3068130338
 30
0.0
 10
145.7845214991
 20
327.3819296025
 30
0.0
 10
145.8675453413
 20
327.4408878574
 30
0.0
  0
SPLINE
  5
406
100
AcDbEntity
  8
0
100
AcDbSpline
 62
7
  6
CONTINUOUS
 70
0
 71
3
 72
11
 73
7
 74
0
 42
0.0000001
 43
0.0000001
 44
0.0000000001
 40
0.0
 40
0.0
 40
0.0
 40
0.0
 40
0.2824561624
 40
0.5398992102
 40
0.7765134939
 40
1.0
 40
1.0
 40
1.0
 40
1.0
 10
145.8675453413
 20
327.4408878574
 30
0.0
 10
146.0376276275
 20
327.5616694849
 30
0.0
 10
146.3465878031
 20
327.8171696932
 30
0.0
 10
146.7159840725
 20
328.2609471395
 30
0.0
 10
146.9585516621
 20
328.7377282908
 30
0.0
 10
147.0295390145
 20
329.0751864692
 30
0.0
 10
147.0401732717
 20
329.2398973867
 30
0.0
  0
SPLINE
  5
407
100
AcDbEntity
  8
0
100
AcDbSpline
 62
7
  6
CONTINUOUS
 70
0
 71
3
 72
15
 73
11
 74
0
 42
0.0000001
 43
0.0000001
 44
0.0000000001
 40
0.0
 40
0.0
 40
0.0
 40
0.0
 40
0.1178108971
 40
0.2430556907
 40
0.3733000793
 40
0.5057237687
 40
0.63736267
 40
0.765306432
 40
0.8869003494
 40
1.0
 40
1.0
 40
1.0
 40
1.0
 10
138.4635912615
 20
327.0096638122
 30
0.0
 10
138.7218170868
 20
326.8873338446
 30
0.0
 10
139.273855711
 20
326.6745553943
 30
0.0
 10
140.1543616716
 20
326.455645778
 30
0.0
 10
141.088987765
 20
326.3322122621
 30
0.0
 10
142.0468014946
 20
326.3084331027
 30
0.0
 10
142.9962726714
 20
326.3850396222
 30
0.0
 10
143.9061952315
 20
326.5595787118
 30
0.0
 10
144.7465193691
 20
326.8262005709
 30
0.0
 10
145.2636022369
 20
327.0699177497
 30
0.0
 10
145.5013164762
 20
327.2068036047
 30
0.0
  0
LINE
  5
408
100
AcDbEntity
  8
0
100
AcDbLine
 62
7
  6
CONTINUOUS
 10
142.8334406342
 20
330.4750165561
 11
142.8332898835
 21
330.5825715121
  0
SPLINE
  5
409
100
AcDbEntity
  8
0
100
AcDbSpline
 62
7
  6
CONTINUOUS
 70
0
 71
3
 72
9
 73
5
 74
0
 42
0.0000001
 43
0.0000001
 44
0.0000000001
 40
0.0
 40
0.0
 40
0.0
 40
0.0
 40
0.4861998949
 40
1.0
 40
1.0
 40
1.0
 40
1.0
 10
136.5703009386
 20
329.0488053243
 30
0.0
 10
136.5945445819
 20
328.9099766079
 30
0.0
 10
136.6784876708
 20
328.6296229519
 30
0.0
 10
136.8197736277
 20
328.374114623
 30
0.0
 10
136.9031812563
 20
328.2507320347
 30
0.0
  0
SPLINE
  5
40A
100
AcDbEntity
  8
0
100
AcDbSpline
 62
7
  6
CONTINUOUS
 70
0
 71
3
 72
9
 73
5
 74
0
 42
0.0000001
 43
0.0000001
 44
0.0000000001
 40
0.0
 40
0.0
 40
0.0
 40
0.0
 40
0.2352654981
 40
1.0
 40
1.0
 40
1.0
 40
1.0
 10
136.9611188993
 20
328.1685975832
 30
0.0
 10
137.0107746288
 20
328.101053128
 30
0.0
 10
137.2356787684
 20
327.8241403036
 30
0.0
 10
137.5095931118
 20
327.5892228107
 30
0.0
 10
137.7323225008
 20
327.4322262925
 30
0.0
  0
SPLINE
  5
40B
100
AcDbEntity
  8
0
100
AcDbSpline
 62
7
  6
CONTINUOUS
 70
0
 71
3
 72
14
 73
10
 74
0
 42
0.0000001
 43
0.0000001
 44
0.0000000001
 40
0.0
 40
0.0
 40
0.0
 40
0.0
 40
0.2900409345
 40
0.4233183224
 40
0.5491010413
 40
0.668204002
 40
0.7818795986
 40
0.8918078608
 40
1.0
 40
1.0
 40
1.0
 40
1.0
 10
138.1711584524
 20
331.6020492729
 30
0.0
 10
137.9389725755
 20
331.4686341009
 30
0.0
 10
137.6142486112
 20
331.2451543034
 30
0.0
 10
137.2491419729
 20
330.8920812266
 30
0.0
 10
137.0288716663
 20
330.6198960396
 30
0.0
 10
136.857008
 20
330.3356277205
 30
0.0
 10
136.7356201364
 20
330.0419633406
 30
0.0
 10
136.6664171245
 20
329.7420965239
 30
0.0
 10
136.6557637726
 20
329.5397702555
 30
0.0
 10
136.6592954888
 20
329.4399418053
 30
0.0
  0
SPLINE
  5
40C
100
AcDbEntity
  8
0
100
AcDbSpline
 62
7
  6
CONTINUOUS
 70
0
 71
3
 72
12
 73
8
 74
0
 42
0.0000001
 43
0.0000001
 44
0.0000000001
 40
0.0
 40
0.0
 40
0.0
 40
0.0
 40
0.1109611376
 40
0.2237829508
 40
0.4598177411
 40
0.7170426186
 40
1.0
 40
1.0
 40
1.0
 40
1.0
 10
136.6592954888
 20
329.4399418053
 30
0.0
 10
136.662208552
 20
329.3576003678
 30
0.0
 10
136.680147695
 20
329.1917144016
 30
0.0
 10
136.7645931872
 20
328.8599098139
 30
0.0
 10
136.9650136938
 20
328.4509328727
 30
0.0
 10
137.3339748789
 20
328.0029819591
 30
0.0
 10
137.6449869663
 20
327.745944743
 30
0.0
 10
137.8165665738
 20
327.624679247
 30
0.0
  0
SPLINE
  5
40D
100
AcDbEntity
  8
0
100
AcDbSpline
 62
7
  6
CONTINUOUS
 70
0
 71
3
 72
9
 73
5
 74
0
 42
0.0000001
 43
0.0000001
 44
0.0000000001
 40
0.0
 40
0.0
 40
0.0
 40
0.0
 40
0.523837941
 40
1.0
 40
1.0
 40
1.0
 40
1.0
 10
140.5147341936
 20
331.2815447868
 30
0.0
 10
140.3980214091
 20
331.2392854749
 30
0.0
 10
140.1800139717
 20
331.1444114158
 30
0.0
 10
139.9783047555
 20
331.0175209108
 30
0.0
 10
139.8892269812
 20
330.9482684394
 30
0.0
  0
SPLINE
  5
40E
100
AcDbEntity
  8
0
100
AcDbSpline
 62
7
  6
CONTINUOUS
 70
0
 71
3
 72
9
 73
5
 74
0
 42
0.0000001
 43
0.0000001
 44
0.0000000001
 40
0.0
 40
0.0
 40
0.0
 40
0.0
 40
0.2429697377
 40
1.0
 40
1.0
 40
1.0
 40
1.0
 10
144.743669593
 20
331.9275179441
 30
0.0
 10
144.6642130418
 20
331.959707134
 30
0.0
 10
144.3344329989
 20
332.0853331638
 30
0.0
 10
143.9946670576
 20
332.1842771476
 30
0.0
 10
143.7346785101
 20
332.2455431403
 30
0.0
  0
SPLINE
  5
40F
100
AcDbEntity
  8
0
100
AcDbSpline
 62
7
  6
CONTINUOUS
 70
0
 71
3
 72
9
 73
5
 74
0
 42
0.0000001
 43
0.0000001
 44
0.0000000001
 40
0.0
 40
0.0
 40
0.0
 40
0.0
 40
0.2526518673
 40
1.0
 40
1.0
 40
1.0
 40
1.0
 10
141.0194023069
 20
332.4315322205
 30
0.0
 10
140.9421803533
 20
332.4247325718
 30
0.0
 10
140.6369132838
 20
332.3937247331
 30
0.0
 10
140.3332776419
 20
332.3463255981
 30
0.0
 10
140.1084489732
 20
332.3012254506
 30
0.0
  0
SPLINE
  5
410
100
AcDbEntity
  8
0
100
AcDbSpline
 62
7
  6
CONTINUOUS
 70
0
 71
3
 72
9
 73
5
 74
0
 42
0.0000001
 43
0.0000001
 44
0.0000000001
 40
0.0
 40
0.0
 40
0.0
 40
0.0
 40
0.2577304138
 40
1.0
 40
1.0
 40
1.0
 40
1.0
 10
138.9447795621
 20
331.9673413384
 30
0.0
 10
138.8792204069
 20
331.9421041233
 30
0.0
 10
138.626525487
 20
331.839932039
 30
0.0
 10
138.3806859559
 20
331.720435798
 30
0.0
 10
138.2044774814
 20
331.6210203369
 30
0.0
  0
SPLINE
  5
411
100
AcDbEntity
  8
0
100
AcDbSpline
 62
7
  6
CONTINUOUS
 70
0
 71
3
 72
9
 73
5
 74
0
 42
0.0000001
 43
0.0000001
 44
0.0000000001
 40
0.0
 40
0.0
 40
0.0
 40
0.0
 40
0.4865275755
 40
1.0
 40
1.0
 40
1.0
 40
1.0
 10
140.4302628704
 20
329.9990117598
 30
0.0
 10
139.963595923
 20
329.6655934619
 30
0.0
 10
139.0477254518
 20
328.9184896614
 30
0.0
 10
138.2194323012
 20
328.076441641
 30
0.0
 10
137.8165665738
 20
327.624679247
 30
0.0
  0
LINE
  5
412
100
AcDbEntity
  8
0
100
AcDbLine
 62
7
  6
CONTINUOUS
 10
142.8332924744
 20
330.2232909084
 11
142.8334416335
 21
330.3364544724
  0
SPLINE
  5
413
100
AcDbEntity
  8
0
100
AcDbSpline
 62
7
  6
CONTINUOUS
 70
0
 71
3
 72
9
 73
5
 74
0
 42
0.0000001
 43
0.0000001
 44
0.0000000001
 40
0.0
 40
0.0
 40
0.0
 40
0.0
 40
0.2533877444
 40
1.0
 40
1.0
 40
1.0
 40
1.0
 10
143.9628904571
 20
329.3778044033
 30
0.0
 10
143.9011239548
 20
329.4290056956
 30
0.0
 10
143.6557456744
 20
329.6291129217
 30
0.0
 10
143.40386241
 20
329.8212667001
 30
0.0
 10
143.212205644
 20
329.9596530506
 30
0.0
  0
SPLINE
  5
414
100
AcDbEntity
  8
0
100
AcDbSpline
 62
7
  6
CONTINUOUS
 70
0
 71
3
 72
11
 73
7
 74
0
 42
0.0000001
 43
0.0000001
 44
0.0000000001
 40
0.0
 40
0.0
 40
0.0
 40
0.0
 40
0.3044631646
 40
0.567243343
 40
0.7919443247
 40
1.0
 40
1.0
 40
1.0
 40
1.0
 10
143.9628904571
 20
329.3778044033
 30
0.0
 10
143.9501266981
 20
329.3883849283
 30
0.0
 10
143.9243839662
 20
329.4059750144
 30
0.0
 10
143.8832917619
 20
329.4208835223
 30
0.0
 10
143.8442698488
 20
329.4206877211
 30
0.0
 10
143.8225995872
 20
329.40866074
 30
0.0
 10
143.8143956971
 20
329.4008474025
 30
0.0
  0
SPLINE
  5
415
100
AcDbEntity
  8
0
100
AcDbSpline
 62
7
  6
CONTINUOUS
 70
0
 71
3
 72
9
 73
5
 74
0
 42
0.0000001
 43
0.0000001
 44
0.0000000001
 40
0.0
 40
0.0
 40
0.0
 40
0.0
 40
0.5264095727
 40
1.0
 40
1.0
 40
1.0
 40
1.0
 10
143.2345692775
 20
328.9573163837
 30
0.0
 10
143.3737969124
 20
329.0082261156
 30
0.0
 10
143.6316575641
 20
329.1248352191
 30
0.0
 10
143.8641638918
 20
329.2881357037
 30
0.0
 10
143.9628879923
 20
329.3778064012
 30
0.0
  0
SPLINE
  5
416
100
AcDbEntity
  8
0
100
AcDbSpline
 62
7
  6
CONTINUOUS
 70
0
 71
3
 72
9
 73
5
 74
0
 42
0.0000001
 43
0.0000001
 44
0.0000000001
 40
0.0
 40
0.0
 40
0.0
 40
0.0
 40
0.515645153
 40
1.0
 40
1.0
 40
1.0
 40
1.0
 10
60.7634674972
 20
282.297334344
 30
0.0
 10
61.2130363349
 20
282.8014683037
 30
0.0
 10
62.1391215908
 20
283.7324761365
 30
0.0
 10
63.1740506649
 20
284.5429141671
 30
0.0
 10
63.7012522726
 20
284.8959410083
 30
0.0
  0
SPLINE
  5
417
100
AcDbEntity
  8
0
100
AcDbSpline
 62
7
  6
CONTINUOUS
 70
0
 71
3
 72
10
 73
6
 74
0
 42
0.0000001
 43
0.0000001
 44
0.0000000001
 40
0.0
 40
0.0
 40
0.0
 40
0.0
 40
0.2500055638
 40
0.6250384874
 40
1.0
 40
1.0
 40
1.0
 40
1.0
 10
63.8924028512
 20
284.8986591961
 30
0.0
 10
63.8764714338
 20
284.8985332182
 30
0.0
 10
63.8366541662
 20
284.897187986
 30
0.0
 10
63.7729126855
 20
284.8983179206
 30
0.0
 10
63.725142129
 20
284.8964313837
 30
0.0
 10
63.7012522726
 20
284.8959410083
 30
0.0
  0
SPLINE
  5
418
100
AcDbEntity
  8
0
100
AcDbSpline
 62
7
  6
CONTINUOUS
 70
0
 71
3
 72
10
 73
6
 74
0
 42
0.0000001
 43
0.0000001
 44
0.0000000001
 40
0.0
 40
0.0
 40
0.0
 40
0.0
 40
0.2499843095
 40
0.6249933471
 40
1.0
 40
1.0
 40
1.0
 40
1.0
 10
64.3235534285
 20
284.8959425041
 30
0.0
 10
64.3076262549
 20
284.8962693569
 30
0.0
 10
64.2678241568
 20
284.8979905378
 30
0.0
 10
64.2040800614
 20
284.8969612008
 30
0.0
 10
64.1562998148
 20
284.8984703385
 30
0.0
 10
64.1324028512
 20
284.898659773
 30
0.0
  0
SPLINE
  5
419
100
AcDbEntity
  8
0
100
AcDbSpline
 62
7
  6
CONTINUOUS
 70
0
 71
3
 72
9
 73
5
 74
0
 42
0.0000001
 43
0.0000001
 44
0.0000000001
 40
0.0
 40
0.0
 40
0.0
 40
0.0
 40
0.2693011273
 40
1.0
 40
1.0
 40
1.0
 40
1.0
 10
65.05186779
 20
285.6757145862
 30
0.0
 10
65.2885144297
 20
285.7905046916
 30
0.0
 10
66.1826239043
 20
286.1817164917
 30
0.0
 10
67.1509209527
 20
286.4235574389
 30
0.0
 10
67.863442229
 20
286.4636865811
 30
0.0
  0
SPLINE
  5
41A
100
AcDbEntity
  8
0
100
AcDbSpline
 62
7
  6
CONTINUOUS
 70
0
 71
3
 72
9
 73
5
 74
0
 42
0.0000001
 43
0.0000001
 44
0.0000000001
 40
0.0
 40
0.0
 40
0.0
 40
0.0
 40
0.520613643
 40
1.0
 40
1.0
 40
1.0
 40
1.0
 10
60.7634674972
 20
282.297334344
 30
0.0
 10
60.7387532691
 20
282.2696204976
 30
0.0
 10
60.7003535758
 20
282.2081243572
 30
0.0
 10
60.682169168
 20
282.136999216
 30
0.0
 10
60.682169168
 20
282.1028068864
 30
0.0
  0
SPLINE
  5
41B
100
AcDbEntity
  8
0
100
AcDbSpline
 62
7
  6
CONTINUOUS
 70
0
 71
3
 72
9
 73
5
 74
0
 42
0.0000001
 43
0.0000001
 44
0.0000000001
 40
0.0
 40
0.0
 40
0.0
 40
0.0
 40
0.2451043854
 40
1.0
 40
1.0
 40
1.0
 40
1.0
 10
64.3235534285
 20
284.8959425041
 30
0.0
 10
64.4111328235
 20
284.83729815
 30
0.0
 10
64.7654542337
 20
284.5935833118
 30
0.0
 10
65.1078483182
 20
284.3326243528
 30
0.0
 10
65.3594459731
 20
284.1274932828
 30
0.0
  0
SPLINE
  5
41C
100
AcDbEntity
  8
0
100
AcDbSpline
 62
7
  6
CONTINUOUS
 70
0
 71
3
 72
9
 73
5
 74
0
 42
0.0000001
 43
0.0000001
 44
0.0000000001
 40
0.0
 40
0.0
 40
0.0
 40
0.0
 40
0.2430101307
 40
1.0
 40
1.0
 40
1.0
 40
1.0
 10
61.843329469
 20
286.1345406799
 30
0.0
 10
61.9372768888
 20
286.1039396614
 30
0.0
 10
62.3215177296
 20
285.9708267515
 30
0.0
 10
62.696000689
 20
285.8100355285
 30
0.0
 10
62.9729266648
 20
285.675709589
 30
0.0
  0
SPLINE
  5
41D
100
AcDbEntity
  8
0
100
AcDbSpline
 62
7
  6
CONTINUOUS
 70
0
 71
3
 72
12
 73
8
 74
0
 42
0.0000001
 43
0.0000001
 44
0.0000000001
 40
0.0
 40
0.0
 40
0.0
 40
0.0
 40
0.2775944473
 40
0.532845474
 40
0.7708391448
 40
0.8859940091
 40
1.0
 40
1.0
 40
1.0
 40
1.0
 10
68.0346767191
 20
286.4567310928
 30
0.0
 10
68.2196134628
 20
286.3263517902
 30
0.0
 10
68.5559865435
 20
286.0472062056
 30
0.0
 10
68.9533837627
 20
285.5543988275
 30
0.0
 10
69.1648825733
 20
285.0986892029
 30
0.0
 10
69.248450495
 20
284.7260234449
 30
0.0
 10
69.2623985228
 20
284.5389251624
 30
0.0
 10
69.2623985228
 20
284.4459957024
 30
0.0
  0
SPLINE
  5
41E
100
AcDbEntity
  8
0
100
AcDbSpline
 62
7
  6
CONTINUOUS
 70
0
 71
3
 72
9
 73
5
 74
0
 42
0.0000001
 43
0.0000001
 44
0.0000000001
 40
0.0
 40
0.0
 40
0.0
 40
0.0
 40
0.243853175
 40
1.0
 40
1.0
 40
1.0
 40
1.0
 10
67.8610232857
 20
286.4546745906
 30
0.0
 10
67.8202960009
 20
286.4800179401
 30
0.0
 10
67.651685077
 20
286.5813716219
 30
0.0
 10
67.4770498007
 20
286.6726126993
 30
0.0
 10
67.3426278776
 20
286.7362927339
 30
0.0
  0
SPLINE
  5
41F
100
AcDbEntity
  8
0
100
AcDbSpline
 62
7
  6
CONTINUOUS
 70
0
 71
3
 72
11
 73
7
 74
0
 42
0.0000001
 43
0.0000001
 44
0.0000000001
 40
0.0
 40
0.0
 40
0.0
 40
0.0
 40
0.2182371737
 40
0.4500432948
 40
0.7088773701
 40
1.0
 40
1.0
 40
1.0
 40
1.0
 10
67.2963776124
 20
286.8830346206
 30
0.0
 10
67.3036202103
 20
286.8796128448
 30
0.0
 10
67.3173617123
 20
286.8696994633
 30
0.0
 10
67.3321535546
 20
286.8477729361
 30
0.0
 10
67.3409194225
 20
286.8201354296
 30
0.0
 10
67.3426278776
 20
286.799869953
 30
0.0
 10
67.3426278776
 20
286.7891845184
 30
0.0
  0
SPLINE
  5
420
100
AcDbEntity
  8
0
100
AcDbSpline
 62
7
  6
CONTINUOUS
 70
0
 71
3
 72
15
 73
11
 74
0
 42
0.0000001
 43
0.0000001
 44
0.0000000001
 40
0.0
 40
0.0
 40
0.0
 40
0.0
 40
0.1141714915
 40
0.2361194488
 40
0.3639278968
 40
0.4951383599
 40
0.6270247888
 40
0.7568077961
 40
0.8818654423
 40
1.0
 40
1.0
 40
1.0
 40
1.0
 10
60.3846016811
 20
286.7054193314
 30
0.0
 10
60.6213395826
 20
286.838985028
 30
0.0
 10
61.1335425263
 20
287.0761627782
 30
0.0
 10
61.9625811895
 20
287.3347485377
 30
0.0
 10
62.8558614789
 20
287.5027194282
 30
0.0
 10
63.7854372605
 20
287.5751038555
 30
0.0
 10
64.7221633795
 20
287.5498563835
 30
0.0
 10
65.636588643
 20
287.4276493246
 30
0.0
 10
66.4999374337
 20
287.2121820366
 30
0.0
 10
67.0420858513
 20
287.0031955928
 30
0.0
 10
67.2963774292
 20
286.8830342791
 30
0.0
  0
SPLINE
  5
421
100
AcDbEntity
  8
0
100
AcDbSpline
 62
7
  6
CONTINUOUS
 70
0
 71
3
 72
13
 73
9
 74
0
 42
0.0000001
 43
0.0000001
 44
0.0000000001
 40
0.0
 40
0.0
 40
0.0
 40
0.0
 40
0.1111196422
 40
0.2237477408
 40
0.3394845396
 40
0.4595984396
 40
0.7164948385
 40
1.0
 40
1.0
 40
1.0
 40
1.0
 10
58.7623985228
 20
284.4459957024
 30
0.0
 10
58.7623985228
 20
284.5538520195
 30
0.0
 10
58.781241148
 20
284.7714756994
 30
0.0
 10
58.8649982502
 20
285.0916392433
 30
0.0
 10
59.0022029508
 20
285.4023052749
 30
0.0
 10
59.2583600247
 20
285.807955649
 30
0.0
 10
59.7074998921
 20
286.2747899398
 30
0.0
 10
60.1449356594
 20
286.5702016119
 30
0.0
 10
60.3846016811
 20
286.7054193314
 30
0.0
  0
SPLINE
  5
422
100
AcDbEntity
  8
0
100
AcDbSpline
 62
7
  6
CONTINUOUS
 70
0
 71
3
 72
9
 73
5
 74
0
 42
0.0000001
 43
0.0000001
 44
0.0000000001
 40
0.0
 40
0.0
 40
0.0
 40
0.0
 40
0.4793813863
 40
1.0
 40
1.0
 40
1.0
 40
1.0
 10
59.9538461511
 20
282.5232948635
 30
0.0
 10
59.9538461511
 20
282.5574868391
 30
0.0
 10
59.972030388
 20
282.6286119781
 30
0.0
 10
60.0104300159
 20
282.6901082098
 30
0.0
 10
60.0351444803
 20
282.7178223211
 30
0.0
  0
SPLINE
  5
423
100
AcDbEntity
  8
0
100
AcDbSpline
 62
7
  6
CONTINUOUS
 70
0
 71
3
 72
25
 73
21
 74
0
 42
0.0000001
 43
0.0000001
 44
0.0000000001
 40
0.0
 40
0.0
 40
0.0
 40
0.0
 40
0.0688143079
 40
0.1417701964
 40
0.2176331503
 40
0.2949701404
 40
0.3722614105
 40
0.4479860753
 40
0.5207211335
 40
0.5892394112
 40
0.6526239822
 40
0.7104073118
 40
0.7627415229
 40
0.8105786722
 40
0.8334118375
 40
0.8558736105
 40
0.8782907117
 40
0.9009927553
 40
0.9483473485
 40
1.0
 40
1.0
 40
1.0
 40
1.0
 10
60.7634674972
 20
282.2973343439
 30
0.0
 10
61.0004806911
 20
282.1855554283
 30
0.0
 10
61.5052371476
 20
281.9892326274
 30
0.0
 10
62.3090443088
 20
281.7810102156
 30
0.0
 10
63.1625296113
 20
281.6547045058
 30
0.0
 10
64.040750288
 20
281.6140770625
 30
0.0
 10
64.9181836966
 20
281.6602694599
 30
0.0
 10
65.7692635257
 20
281.7919771769
 30
0.0
 10
66.569279892
 20
282.005399146
 30
0.0
 10
67.2951647827
 20
282.2944966879
 30
0.0
 10
67.9261977278
 20
282.6513017324
 30
0.0
 10
68.4444189944
 20
283.0667459914
 30
0.0
 10
68.8344590111
 20
283.5305863731
 30
0.0
 10
69.0440635036
 20
283.9561998448
 30
0.0
 10
69.129483715
 20
284.3015827956
 30
0.0
 10
69.1540877562
 20
284.5592365607
 30
0.0
 10
69.1398139582
 20
284.8171723635
 30
0.0
 10
69.06832978
 20
285.1631781799
 30
0.0
 10
68.8760699631
 20
285.591521673
 30
0.0
 10
68.6397788508
 20
285.8897955959
 30
0.0
 10
68.5035139143
 20
286.0316454906
 30
0.0
  0
SPLINE
  5
424
100
AcDbEntity
  8
0
100
AcDbSpline
 62
7
  6
CONTINUOUS
 70
0
 71
3
 72
9
 73
5
 74
0
 42
0.0000001
 43
0.0000001
 44
0.0000000001
 40
0.0
 40
0.0
 40
0.0
 40
0.0
 40
0.244853054
 40
1.0
 40
1.0
 40
1.0
 40
1.0
 10
68.5035139143
 20
286.0316454906
 30
0.0
 10
68.4834553109
 20
286.0525262165
 30
0.0
 10
68.4003222947
 20
286.1366359059
 30
0.0
 10
68.312509053
 20
286.2160889399
 30
0.0
 10
68.2441212302
 20
286.2735097225
 30
0.0
  0
LINE
  5
425
100
AcDbEntity
  8
0
100
AcDbLine
 62
7
  6
CONTINUOUS
 10
62.9727785049
 20
285.4295925487
 11
62.9729292556
 21
285.3164289854
  0
LINE
  5
426
100
AcDbEntity
  8
0
100
AcDbLine
 62
7
  6
CONTINUOUS
 10
62.9729266648
 20
285.675709589
 11
62.9727775057
 21
285.5681546324
  0
SPLINE
  5
427
100
AcDbEntity
  8
0
100
AcDbSpline
 62
7
  6
CONTINUOUS
 70
0
 71
3
 72
10
 73
6
 74
0
 42
0.0000001
 43
0.0000001
 44
0.0000000001
 40
0.0
 40
0.0
 40
0.0
 40
0.0
 40
0.2312298112
 40
0.6007570808
 40
1.0
 40
1.0
 40
1.0
 40
1.0
 10
67.2613295484
 20
286.8898373119
 30
0.0
 10
67.0254077315
 20
286.8819760365
 30
0.0
 10
66.4133801996
 20
286.8215846835
 30
0.0
 10
65.4183977729
 20
286.5741519445
 30
0.0
 10
64.6902503851
 20
286.2740803304
 30
0.0
 10
64.3235447731
 20
286.0962025634
 30
0.0
  0
SPLINE
  5
428
100
AcDbEntity
  8
0
100
AcDbSpline
 62
7
  6
CONTINUOUS
 70
0
 71
3
 72
10
 73
6
 74
0
 42
0.0000001
 43
0.0000001
 44
0.0000000001
 40
0.0
 40
0.0
 40
0.0
 40
0.0
 40
0.5354597963
 40
0.7841424906
 40
1.0
 40
1.0
 40
1.0
 40
1.0
 10
62.7333104207
 20
286.3746899488
 30
0.0
 10
62.7186263137
 20
286.4165575568
 30
0.0
 10
62.6842597023
 20
286.4743404618
 30
0.0
 10
62.6230349815
 20
286.530668073
 30
0.0
 10
62.5886528354
 20
286.5494928352
 30
0.0
 10
62.571646375
 20
286.5550322203
 30
0.0
  0
SPLINE
  5
429
100
AcDbEntity
  8
0
100
AcDbSpline
 62
7
  6
CONTINUOUS
 70
0
 71
3
 72
9
 73
5
 74
0
 42
0.0000001
 43
0.0000001
 44
0.0000000001
 40
0.0
 40
0.0
 40
0.0
 40
0.0
 40
0.2331128546
 40
1.0
 40
1.0
 40
1.0
 40
1.0
 10
62.3240685935
 20
283.8289616387
 30
0.0
 10
62.3198817248
 20
283.8282210591
 30
0.0
 10
62.302094168
 20
283.8240671722
 30
0.0
 10
62.2852365692
 20
283.8164322303
 30
0.0
 10
62.2731266049
 20
283.8094320331
 30
0.0
  0
SPLINE
  5
42A
100
AcDbEntity
  8
0
100
AcDbSpline
 62
7
  6
CONTINUOUS
 70
0
 71
3
 72
9
 73
5
 74
0
 42
0.0000001
 43
0.0000001
 44
0.0000000001
 40
0.0
 40
0.0
 40
0.0
 40
0.0
 40
0.527379179
 40
1.0
 40
1.0
 40
1.0
 40
1.0
 10
62.5716481087
 20
286.5550316023
 30
0.0
 10
62.4325410253
 20
286.5031405101
 30
0.0
 10
62.1752732013
 20
286.3857201243
 30
0.0
 10
61.942391018
 20
286.2233680397
 30
0.0
 10
61.8433292661
 20
286.1345407395
 30
0.0
  0
SPLINE
  5
42B
100
AcDbEntity
  8
0
100
AcDbSpline
 62
7
  6
CONTINUOUS
 70
0
 71
3
 72
9
 73
5
 74
0
 42
0.0000001
 43
0.0000001
 44
0.0000000001
 40
0.0
 40
0.0
 40
0.0
 40
0.0
 40
0.2571392523
 40
1.0
 40
1.0
 40
1.0
 40
1.0
 10
63.7012436171
 20
286.0962010675
 30
0.0
 10
63.6071771431
 20
286.141829028
 30
0.0
 10
63.2386126697
 20
286.3135088833
 30
0.0
 10
62.8588306886
 20
286.4614890453
 30
0.0
 10
62.571646375
 20
286.5550322203
 30
0.0
  0
SPLINE
  5
42C
100
AcDbEntity
  8
0
100
AcDbSpline
 62
7
  6
CONTINUOUS
 70
0
 71
3
 72
9
 73
5
 74
0
 42
0.0000001
 43
0.0000001
 44
0.0000000001
 40
0.0
 40
0.0
 40
0.0
 40
0.0
 40
0.47792765
 40
1.0
 40
1.0
 40
1.0
 40
1.0
 10
65.023333371
 20
285.3972551652
 30
0.0
 10
64.9929612877
 20
285.379738911
 30
0.0
 10
64.9382626621
 20
285.3280529059
 30
0.0
 10
64.9015876451
 20
285.263037343
 30
0.0
 10
64.8889116574
 20
285.2268962333
 30
0.0
  0
SPLINE
  5
42D
100
AcDbEntity
  8
0
100
AcDbSpline
 62
7
  6
CONTINUOUS
 70
0
 71
3
 72
9
 73
5
 74
0
 42
0.0000001
 43
0.0000001
 44
0.0000000001
 40
0.0
 40
0.0
 40
0.0
 40
0.0
 40
0.2547354588
 40
1.0
 40
1.0
 40
1.0
 40
1.0
 10
67.7413962117
 20
282.3124006259
 30
0.0
 10
67.771470272
 20
282.3299213267
 30
0.0
 10
67.8887923919
 20
282.3999561079
 30
0.0
 10
68.0030994056
 20
282.4750726766
 30
0.0
 10
68.0861232478
 20
282.5340309315
 30
0.0
  0
SPLINE
  5
42E
100
AcDbEntity
  8
0
100
AcDbSpline
 62
7
  6
CONTINUOUS
 70
0
 71
3
 72
11
 73
7
 74
0
 42
0.0000001
 43
0.0000001
 44
0.0000000001
 40
0.0
 40
0.0
 40
0.0
 40
0.0
 40
0.2824561624
 40
0.5398992102
 40
0.7765134939
 40
1.0
 40
1.0
 40
1.0
 40
1.0
 10
68.0861232478
 20
282.5340309315
 30
0.0
 10
68.256205534
 20
282.6548125591
 30
0.0
 10
68.5651657096
 20
282.9103127673
 30
0.0
 10
68.934561979
 20
283.3540902136
 30
0.0
 10
69.1771295685
 20
283.8308713649
 30
0.0
 10
69.2481169209
 20
284.1683295433
 30
0.0
 10
69.2587511782
 20
284.3330404608
 30
0.0
  0
SPLINE
  5
42F
100
AcDbEntity
  8
0
100
AcDbSpline
 62
7
  6
CONTINUOUS
 70
0
 71
3
 72
15
 73
11
 74
0
 42
0.0000001
 43
0.0000001
 44
0.0000000001
 40
0.0
 40
0.0
 40
0.0
 40
0.0
 40
0.1178108971
 40
0.2430556907
 40
0.3733000793
 40
0.5057237687
 40
0.63736267
 40
0.765306432
 40
0.8869003494
 40
1.0
 40
1.0
 40
1.0
 40
1.0
 10
60.682169168
 20
282.1028068864
 30
0.0
 10
60.9403949933
 20
281.9804769187
 30
0.0
 10
61.4924336175
 20
281.7676984684
 30
0.0
 10
62.3729395781
 20
281.5487888521
 30
0.0
 10
63.3075656715
 20
281.4253553363
 30
0.0
 10
64.2653794011
 20
281.4015761768
 30
0.0
 10
65.2148505779
 20
281.4781826964
 30
0.0
 10
66.124773138
 20
281.6527217859
 30
0.0
 10
66.9650972756
 20
281.9193436451
 30
0.0
 10
67.4821801434
 20
282.1630608238
 30
0.0
 10
67.7198943827
 20
282.2999466788
 30
0.0
  0
LINE
  5
430
100
AcDbEntity
  8
0
100
AcDbLine
 62
7
  6
CONTINUOUS
 10
65.0520185407
 20
285.5681596303
 11
65.05186779
 21
285.6757145862
  0
SPLINE
  5
431
100
AcDbEntity
  8
0
100
AcDbSpline
 62
7
  6
CONTINUOUS
 70
0
 71
3
 72
9
 73
5
 74
0
 42
0.0000001
 43
0.0000001
 44
0.0000000001
 40
0.0
 40
0.0
 40
0.0
 40
0.0
 40
0.4861998949
 40
1.0
 40
1.0
 40
1.0
 40
1.0
 10
58.7888788451
 20
284.1419483984
 30
0.0
 10
58.8131224884
 20
284.003119682
 30
0.0
 10
58.8970655772
 20
283.7227660261
 30
0.0
 10
59.0383515342
 20
283.4672576971
 30
0.0
 10
59.1217591628
 20
283.3438751088
 30
0.0
  0
SPLINE
  5
432
100
AcDbEntity
  8
0
100
AcDbSpline
 62
7
  6
CONTINUOUS
 70
0
 71
3
 72
9
 73
5
 74
0
 42
0.0000001
 43
0.0000001
 44
0.0000000001
 40
0.0
 40
0.0
 40
0.0
 40
0.0
 40
0.2352654981
 40
1.0
 40
1.0
 40
1.0
 40
1.0
 10
59.1796968058
 20
283.2617406573
 30
0.0
 10
59.2293525353
 20
283.1941962021
 30
0.0
 10
59.4542566749
 20
282.9172833777
 30
0.0
 10
59.7281710183
 20
282.6823658848
 30
0.0
 10
59.9509004072
 20
282.5253693666
 30
0.0
  0
SPLINE
  5
433
100
AcDbEntity
  8
0
100
AcDbSpline
 62
7
  6
CONTINUOUS
 70
0
 71
3
 72
14
 73
10
 74
0
 42
0.0000001
 43
0.0000001
 44
0.0000000001
 40
0.0
 40
0.0
 40
0.0
 40
0.0
 40
0.2900409345
 40
0.4233183224
 40
0.5491010413
 40
0.668204002
 40
0.7818795986
 40
0.8918078608
 40
1.0
 40
1.0
 40
1.0
 40
1.0
 10
60.3897363589
 20
286.695192347
 30
0.0
 10
60.1575504819
 20
286.561777175
 30
0.0
 10
59.8328265177
 20
286.3382973776
 30
0.0
 10
59.4677198793
 20
285.9852243007
 30
0.0
 10
59.2474495727
 20
285.7130391137
 30
0.0
 10
59.0755859065
 20
285.4287707947
 30
0.0
 10
58.9541980429
 20
285.1351064148
 30
0.0
 10
58.884995031
 20
284.8352395981
 30
0.0
 10
58.8743416791
 20
284.6329133297
 30
0.0
 10
58.8778733953
 20
284.5330848795
 30
0.0
  0
SPLINE
  5
434
100
AcDbEntity
  8
0
100
AcDbSpline
 62
7
  6
CONTINUOUS
 70
0
 71
3
 72
12
 73
8
 74
0
 42
0.0000001
 43
0.0000001
 44
0.0000000001
 40
0.0
 40
0.0
 40
0.0
 40
0.0
 40
0.1109611376
 40
0.2237829508
 40
0.4598177411
 40
0.7170426186
 40
1.0
 40
1.0
 40
1.0
 40
1.0
 10
58.8778733953
 20
284.5330848795
 30
0.0
 10
58.8807864585
 20
284.450743442
 30
0.0
 10
58.8987256015
 20
284.2848574757
 30
0.0
 10
58.9831710937
 20
283.953052888
 30
0.0
 10
59.1835916003
 20
283.5440759469
 30
0.0
 10
59.5525527854
 20
283.0961250332
 30
0.0
 10
59.8635648727
 20
282.8390878172
 30
0.0
 10
60.0351444803
 20
282.7178223211
 30
0.0
  0
SPLINE
  5
435
100
AcDbEntity
  8
0
100
AcDbSpline
 62
7
  6
CONTINUOUS
 70
0
 71
3
 72
9
 73
5
 74
0
 42
0.0000001
 43
0.0000001
 44
0.0000000001
 40
0.0
 40
0.0
 40
0.0
 40
0.0
 40
0.523837941
 40
1.0
 40
1.0
 40
1.0
 40
1.0
 10
62.7333121
 20
286.3746878609
 30
0.0
 10
62.6165993159
 20
286.3324285491
 30
0.0
 10
62.3985918788
 20
286.2375544902
 30
0.0
 10
62.196882663
 20
286.1106639856
 30
0.0
 10
62.1078048888
 20
286.0414115144
 30
0.0
  0
SPLINE
  5
436
100
AcDbEntity
  8
0
100
AcDbSpline
 62
7
  6
CONTINUOUS
 70
0
 71
3
 72
9
 73
5
 74
0
 42
0.0000001
 43
0.0000001
 44
0.0000000001
 40
0.0
 40
0.0
 40
0.0
 40
0.0
 40
0.2429697377
 40
1.0
 40
1.0
 40
1.0
 40
1.0
 10
66.9622474995
 20
287.0206610182
 30
0.0
 10
66.8827909483
 20
287.0528502082
 30
0.0
 10
66.5530109054
 20
287.178476238
 30
0.0
 10
66.2132449641
 20
287.2774202217
 30
0.0
 10
65.9532564166
 20
287.3386862144
 30
0.0
  0
SPLINE
  5
437
100
AcDbEntity
  8
0
100
AcDbSpline
 62
7
  6
CONTINUOUS
 70
0
 71
3
 72
9
 73
5
 74
0
 42
0.0000001
 43
0.0000001
 44
0.0000000001
 40
0.0
 40
0.0
 40
0.0
 40
0.0
 40
0.2526518673
 40
1.0
 40
1.0
 40
1.0
 40
1.0
 10
63.2379802134
 20
287.5246752946
 30
0.0
 10
63.1607582598
 20
287.5178756459
 30
0.0
 10
62.8554911903
 20
287.4868678073
 30
0.0
 10
62.5518555483
 20
287.4394686723
 30
0.0
 10
62.3270268796
 20
287.3943685248
 30
0.0
  0
SPLINE
  5
438
100
AcDbEntity
  8
0
100
AcDbSpline
 62
7
  6
CONTINUOUS
 70
0
 71
3
 72
9
 73
5
 74
0
 42
0.0000001
 43
0.0000001
 44
0.0000000001
 40
0.0
 40
0.0
 40
0.0
 40
0.0
 40
0.2577304138
 40
1.0
 40
1.0
 40
1.0
 40
1.0
 10
61.1633574686
 20
287.0604844125
 30
0.0
 10
61.0977983134
 20
287.0352471975
 30
0.0
 10
60.8451033935
 20
286.9330751131
 30
0.0
 10
60.5992638624
 20
286.8135788721
 30
0.0
 10
60.4230553879
 20
286.714163411
 30
0.0
  0
SPLINE
  5
439
100
AcDbEntity
  8
0
100
AcDbSpline
 62
7
  6
CONTINUOUS
 70
0
 71
3
 72
9
 73
5
 74
0
 42
0.0000001
 43
0.0000001
 44
0.0000000001
 40
0.0
 40
0.0
 40
0.0
 40
0.0
 40
0.484354847
 40
1.0
 40
1.0
 40
1.0
 40
1.0
 10
62.9729292556
 20
285.3164289854
 30
0.0
 10
62.445727648
 20
284.9634021443
 30
0.0
 10
61.4107985739
 20
284.1529641137
 30
0.0
 10
60.484713318
 20
283.2219562809
 30
0.0
 10
60.0351444803
 20
282.7178223211
 30
0.0
  0
LINE
  5
43A
100
AcDbEntity
  8
0
100
AcDbLine
 62
7
  6
CONTINUOUS
 10
65.0518703809
 20
285.3164339826
 11
65.0520195399
 21
285.4295975466
  0
SPLINE
  5
43B
100
AcDbEntity
  8
0
100
AcDbSpline
 62
7
  6
CONTINUOUS
 70
0
 71
3
 72
9
 73
5
 74
0
 42
0.0000001
 43
0.0000001
 44
0.0000000001
 40
0.0
 40
0.0
 40
0.0
 40
0.0
 40
0.2552562839
 40
1.0
 40
1.0
 40
1.0
 40
1.0
 10
66.1814683636
 20
284.4709474774
 30
0.0
 10
66.0890198454
 20
284.547582602
 30
0.0
 10
65.7232572242
 20
284.8434455446
 30
0.0
 10
65.3429866406
 20
285.1214985755
 30
0.0
 10
65.0518703809
 20
285.3164339826
 30
0.0
  0
SPLINE
  5
43C
100
AcDbEntity
  8
0
100
AcDbSpline
 62
7
  6
CONTINUOUS
 70
0
 71
3
 72
11
 73
7
 74
0
 42
0.0000001
 43
0.0000001
 44
0.0000000001
 40
0.0
 40
0.0
 40
0.0
 40
0.0
 40
0.3044631646
 40
0.567243343
 40
0.7919443247
 40
1.0
 40
1.0
 40
1.0
 40
1.0
 10
66.1814683636
 20
284.4709474774
 30
0.0
 10
66.1687046046
 20
284.4815280025
 30
0.0
 10
66.1429618726
 20
284.4991180885
 30
0.0
 10
66.1018696684
 20
284.5140265964
 30
0.0
 10
66.0628477553
 20
284.5138307952
 30
0.0
 10
66.0411774937
 20
284.5018038141
 30
0.0
 10
66.0329736036
 20
284.4939904767
 30
0.0
  0
SPLINE
  5
43D
100
AcDbEntity
  8
0
100
AcDbSpline
 62
7
  6
CONTINUOUS
 70
0
 71
3
 72
9
 73
5
 74
0
 42
0.0000001
 43
0.0000001
 44
0.0000000001
 40
0.0
 40
0.0
 40
0.0
 40
0.0
 40
0.5264095727
 40
1.0
 40
1.0
 40
1.0
 40
1.0
 10
65.4531471839
 20
284.0504594578
 30
0.0
 10
65.5923748189
 20
284.1013691897
 30
0.0
 10
65.8502354705
 20
284.2179782932
 30
0.0
 10
66.0827417983
 20
284.3812787778
 30
0.0
 10
66.1814658988
 20
284.4709494753
 30
0.0
  0
SPLINE
  5
43E
100
AcDbEntity
  8
0
100
AcDbSpline
 62
7
  6
CONTINUOUS
 70
0
 71
3
 72
12
 73
8
 74
0
 42
0.0000001
 43
0.0000001
 44
0.0000000001
 40
0.0
 40
0.0
 40
0.0
 40
0.0
 40
0.1077782897
 40
0.217632353
 40
0.4503133885
 40
0.7094547432
 40
1.0
 40
1.0
 40
1.0
 40
1.0
 10
147.0438210723
 20
329.2369884746
 30
0.0
 10
147.0438024526
 20
329.1565784621
 30
0.0
 10
147.0315541256
 20
328.99394797
 30
0.0
 10
146.9570783723
 20
328.6652862275
 30
0.0
 10
146.7636059938
 20
328.2537280534
 30
0.0
 10
146.3927563309
 20
327.7974035329
 30
0.0
 10
146.0748763661
 20
327.5342591379
 30
0.0
 10
145.8978051384
 20
327.4092247455
 30
0.0
  0
SPLINE
  5
43F
100
AcDbEntity
  8
0
100
AcDbSpline
 62
7
  6
CONTINUOUS
 70
0
 71
3
 72
9
 73
5
 74
0
 42
0.0000001
 43
0.0000001
 44
0.0000000001
 40
0.0
 40
0.0
 40
0.0
 40
0.0
 40
0.2446566755
 40
1.0
 40
1.0
 40
1.0
 40
1.0
 10
145.8978051384
 20
327.4092247455
 30
0.0
 10
145.870121473
 20
327.3896766218
 30
0.0
 10
145.7560033896
 20
327.3111482782
 30
0.0
 10
145.6381813006
 20
327.2380316751
 30
0.0
 10
145.5475690661
 20
327.1857169894
 30
0.0
  0
SPLINE
  5
440
100
AcDbEntity
  8
0
100
AcDbSpline
 62
7
  6
CONTINUOUS
 70
0
 71
3
 72
15
 73
11
 74
0
 42
0.0000001
 43
0.0000001
 44
0.0000000001
 40
0.0
 40
0.0
 40
0.0
 40
0.0
 40
0.1125734078
 40
0.2340777761
 40
0.3621645881
 40
0.494051848
 40
0.6267416449
 40
0.7571887228
 40
0.8824763884
 40
1.0
 40
1.0
 40
1.0
 40
1.0
 10
145.5172459061
 20
327.1683521605
 30
0.0
 10
145.2789067994
 20
327.0329732625
 30
0.0
 10
144.7599750458
 20
326.791609256
 30
0.0
 10
143.91659771
 20
326.5271765084
 30
0.0
 10
143.0020638988
 20
326.3537193021
 30
0.0
 10
142.0472366276
 20
326.2775689415
 30
0.0
 10
141.0839505591
 20
326.3013452742
 30
0.0
 10
140.1443076287
 20
326.4242627782
 30
0.0
 10
139.2599635539
 20
326.6418710397
 30
0.0
 10
138.7055387803
 20
326.8530979911
 30
0.0
 10
138.4463691115
 20
326.9744116379
 30
0.0
  0
SPLINE
  5
441
100
AcDbEntity
  8
0
100
AcDbSpline
 62
7
  6
CONTINUOUS
 70
0
 71
3
 72
9
 73
5
 74
0
 42
0.0000001
 43
0.0000001
 44
0.0000000001
 40
0.0
 40
0.0
 40
0.0
 40
0.0
 40
0.2602889934
 40
1.0
 40
1.0
 40
1.0
 40
1.0
 10
138.4287776088
 20
326.9826822416
 30
0.0
 10
138.361699248
 20
327.0143577722
 30
0.0
 10
138.1064076711
 20
327.1410274271
 30
0.0
 10
137.8610359508
 20
327.2882557133
 30
0.0
 10
137.6888611803
 20
327.4099047689
 30
0.0
  0
SPLINE
  5
442
100
AcDbEntity
  8
0
100
AcDbSpline
 62
7
  6
CONTINUOUS
 70
0
 71
3
 72
12
 73
8
 74
0
 42
0.0000001
 43
0.0000001
 44
0.0000000001
 40
0.0
 40
0.0
 40
0.0
 40
0.0
 40
0.2905175126
 40
0.5496589212
 40
0.782344039
 40
0.8922024125
 40
1.0
 40
1.0
 40
1.0
 40
1.0
 10
137.6888611803
 20
327.4099047689
 30
0.0
 10
137.5118669384
 20
327.5349589932
 30
0.0
 10
137.1941345276
 20
327.7981590235
 30
0.0
 10
136.8235092586
 20
328.2545388767
 30
0.0
 10
136.6302497732
 20
328.6661383168
 30
0.0
 10
136.5559582929
 20
328.9948148713
 30
0.0
 10
136.5438015399
 20
329.1574460465
 30
0.0
 10
136.5438201603
 20
329.23785905
 30
0.0
  0
SPLINE
  5
443
100
AcDbEntity
  8
0
100
AcDbSpline
 62
7
  6
CONTINUOUS
 70
0
 71
3
 72
23
 73
19
 74
0
 42
0.0000001
 43
0.0000001
 44
0.0000000001
 40
0.0
 40
0.0
 40
0.0
 40
0.0
 40
0.0622799494
 40
0.1283008062
 40
0.1974263308
 40
0.268833566
 40
0.3415807434
 40
0.4146575645
 40
0.4870378218
 40
0.5577296719
 40
0.6258277727
 40
0.6905691926
 40
0.7513953754
 40
0.8080215932
 40
0.8605111749
 40
0.9093384951
 40
0.9554110995
 40
1.0
 40
1.0
 40
1.0
 40
1.0
 10
135.1987671909
 20
332.1495921585
 30
0.0
 10
135.536316994
 20
332.344475465
 30
0.0
 10
136.2584777164
 20
332.7006443418
 30
0.0
 10
137.4221146482
 20
333.1221555688
 30
0.0
 10
138.6770781955
 20
333.4403493092
 30
0.0
 10
139.9972273237
 20
333.6489210154
 30
0.0
 10
141.3550898653
 20
333.7437825918
 30
0.0
 10
142.7221666049
 20
333.7230048406
 30
0.0
 10
144.0697434115
 20
333.5870143163
 30
0.0
 10
145.3695959584
 20
333.3385381646
 30
0.0
 10
146.5947037207
 20
332.9824707751
 30
0.0
 10
147.7198888361
 20
332.5255847238
 30
0.0
 10
148.7223005737
 20
331.976106471
 30
0.0
 10
149.5815762536
 20
331.3431417924
 30
0.0
 10
150.2793755504
 20
330.6363449666
 30
0.0
 10
150.7982107312
 20
329.8659916918
 30
0.0
 10
151.1203226416
 20
329.0465235988
 30
0.0
 10
151.1938206163
 20
328.4767345499
 30
0.0
 10
151.1938206163
 20
328.1976825806
 30
0.0
  0
SPLINE
  5
444
100
AcDbEntity
  8
0
100
AcDbSpline
 62
7
  6
CONTINUOUS
 70
0
 71
3
 72
14
 73
10
 74
0
 42
0.0000001
 43
0.0000001
 44
0.0000000001
 40
0.0
 40
0.0
 40
0.0
 40
0.0
 40
0.1103990457
 40
0.2224579254
 40
0.3377712523
 40
0.4576873601
 40
0.5832962905
 40
0.7153534783
 40
1.0
 40
1.0
 40
1.0
 40
1.0
 10
151.1938206163
 20
328.1976825806
 30
0.0
 10
151.1938206163
 20
328.0110673275
 30
0.0
 10
151.1616236089
 20
327.6342769063
 30
0.0
 10
151.0182335386
 20
327.0791214299
 30
0.0
 10
150.7827867382
 20
326.5388429201
 30
0.0
 10
150.459423494
 20
326.0193844718
 30
0.0
 10
150.0528427725
 20
325.5251773285
 30
0.0
 10
149.3901625664
 20
324.8894943424
 30
0.0
 10
148.8055697044
 20
324.4863509196
 30
0.0
 10
148.3888740418
 20
324.2457730027
 30
0.0
  0
SPLINE
  5
445
100
AcDbEntity
  8
0
100
AcDbSpline
 62
7
  6
CONTINUOUS
 70
0
 71
3
 72
9
 73
5
 74
0
 42
0.0000001
 43
0.0000001
 44
0.0000000001
 40
0.0
 40
0.0
 40
0.0
 40
0.0
 40
0.4799403848
 40
1.0
 40
1.0
 40
1.0
 40
1.0
 10
148.3888740418
 20
324.2457730027
 30
0.0
 10
147.8534865972
 20
323.9366687626
 30
0.0
 10
146.6704701722
 20
323.4071161935
 30
0.0
 10
145.4209627604
 20
323.0741021888
 30
0.0
 10
144.7634008383
 20
322.9461828164
 30
0.0
  0
SPLINE
  5
446
100
AcDbEntity
  8
0
100
AcDbSpline
 62
7
  6
CONTINUOUS
 70
0
 71
3
 72
20
 73
16
 74
0
 42
0.0000001
 43
0.0000001
 44
0.0000000001
 40
0.0
 40
0.0
 40
0.0
 40
0.0
 40
0.1459682599
 40
0.2939025275
 40
0.4384562158
 40
0.5079491797
 40
0.5748387685
 40
0.6387057637
 40
0.6992589808
 40
0.7563666652
 40
0.8100881973
 40
0.860700282
 40
0.9087122631
 40
0.9548462606
 40
1.0
 40
1.0
 40
1.0
 40
1.0
 10
144.7634008383
 20
322.9461828164
 30
0.0
 10
144.0513746715
 20
322.8076681954
 30
0.0
 10
142.5952357728
 20
322.6351413598
 30
0.0
 10
140.4107347272
 20
322.6745984215
 30
0.0
 10
138.6266626018
 20
322.9537428322
 30
0.0
 10
137.2796883284
 20
323.3254288238
 30
0.0
 10
136.3438601015
 20
323.6673524828
 30
0.0
 10
135.4819634413
 20
324.0717501001
 30
0.0
 10
134.7053903957
 20
324.5339450887
 30
0.0
 10
134.0245229105
 20
325.0488354005
 30
0.0
 10
133.4488399966
 20
325.611086338
 30
0.0
 10
132.9872381167
 20
326.214919416
 30
0.0
 10
132.6484538824
 20
326.8537353937
 30
0.0
 10
132.4407174153
 20
327.5183610683
 30
0.0
 10
132.3938206163
 20
327.9732957694
 30
0.0
 10
132.3938206163
 20
328.1976825806
 30
0.0
  0
SPLINE
  5
447
100
AcDbEntity
  8
0
100
AcDbSpline
 62
7
  6
CONTINUOUS
 70
0
 71
3
 72
14
 73
10
 74
0
 42
0.0000001
 43
0.0000001
 44
0.0000000001
 40
0.0
 40
0.0
 40
0.0
 40
0.0
 40
0.1103990457
 40
0.2224579254
 40
0.3377712523
 40
0.4576873601
 40
0.5832962905
 40
0.7153534783
 40
1.0
 40
1.0
 40
1.0
 40
1.0
 10
132.3938206163
 20
328.1976825806
 30
0.0
 10
132.3938206163
 20
328.3842978338
 30
0.0
 10
132.4260176238
 20
328.761088255
 30
0.0
 10
132.5694076941
 20
329.3162437314
 30
0.0
 10
132.8048544944
 20
329.8565222412
 30
0.0
 10
133.1282177387
 20
330.3759806895
 30
0.0
 10
133.5347984602
 20
330.8701878328
 30
0.0
 10
134.1974786663
 20
331.5058708189
 30
0.0
 10
134.7820715283
 20
331.9090142416
 30
0.0
 10
135.1987671909
 20
332.1495921585
 30
0.0
  0
SPLINE
  5
448
100
AcDbEntity
  8
0
100
AcDbSpline
 62
7
  6
CONTINUOUS
 70
0
 71
3
 72
9
 73
5
 74
0
 42
0.0000001
 43
0.0000001
 44
0.0000000001
 40
0.0
 40
0.0
 40
0.0
 40
0.0
 40
0.4847064629
 40
1.0
 40
1.0
 40
1.0
 40
1.0
 10
148.3192627383
 20
324.6241493477
 30
0.0
 10
147.9894665311
 20
324.4337425553
 30
0.0
 10
147.2830251313
 20
324.0851074352
 30
0.0
 10
146.5431445578
 20
323.8163450407
 30
0.0
 10
146.1564205102
 20
323.6965739943
 30
0.0
  0
SPLINE
  5
449
100
AcDbEntity
  8
0
100
AcDbSpline
 62
7
  6
CONTINUOUS
 70
0
 71
3
 72
9
 73
5
 74
0
 42
0.0000001
 43
0.0000001
 44
0.0000000001
 40
0.0
 40
0.0
 40
0.0
 40
0.0
 40
0.2441512877
 40
1.0
 40
1.0
 40
1.0
 40
1.0
 10
146.047780014
 20
323.6634629846
 30
0.0
 10
145.8697725848
 20
323.6100820169
 30
0.0
 10
145.135946122
 20
323.4074324955
 30
0.0
 10
144.385301042
 20
323.2668784658
 30
0.0
 10
143.8147455805
 20
323.1929535934
 30
0.0
  0
SPLINE
  5
44A
100
AcDbEntity
  8
0
100
AcDbSpline
 62
7
  6
CONTINUOUS
 70
0
 71
3
 72
11
 73
7
 74
0
 42
0.0000001
 43
0.0000001
 44
0.0000000001
 40
0.0
 40
0.0
 40
0.0
 40
0.0
 40
0.2530662524
 40
0.5074883921
 40
0.7581070404
 40
1.0
 40
1.0
 40
1.0
 40
1.0
 10
143.8147455805
 20
323.1929535934
 30
0.0
 10
143.2848298133
 20
323.1242942639
 30
0.0
 10
142.2142232003
 20
323.0422361718
 30
0.0
 10
140.611353705
 20
323.0804577674
 30
0.0
 10
139.0438929824
 20
323.2775050671
 30
0.0
 10
138.0291995175
 20
323.5167066252
 30
0.0
 10
137.5399739421
 20
323.6634273412
 30
0.0
  0
SPLINE
  5
44B
100
AcDbEntity
  8
0
100
AcDbSpline
 62
7
  6
CONTINUOUS
 70
0
 71
3
 72
11
 73
7
 74
0
 42
0.0000001
 43
0.0000001
 44
0.0000000001
 40
0.0
 40
0.0
 40
0.0
 40
0.0
 40
0.2751064034
 40
0.5345815051
 40
0.776477445
 40
1.0
 40
1.0
 40
1.0
 40
1.0
 10
137.5399739421
 20
323.6634273412
 30
0.0
 10
137.1583382145
 20
323.7778814296
 30
0.0
 10
136.4265175295
 20
324.0351758127
 30
0.0
 10
135.4090267385
 20
324.5195949078
 30
0.0
 10
134.5200376053
 20
325.0831274106
 30
0.0
 10
134.0044741221
 20
325.5222529041
 30
0.0
 10
133.7770073831
 20
325.7525884206
 30
0.0
  0
SPLINE
  5
44C
100
AcDbEntity
  8
0
100
AcDbSpline
 62
7
  6
CONTINUOUS
 70
0
 71
3
 72
15
 73
11
 74
0
 42
0.0000001
 43
0.0000001
 44
0.0000000001
 40
0.0
 40
0.0
 40
0.0
 40
0.0
 40
0.138976291
 40
0.2696798368
 40
0.3936673892
 40
0.5131139282
 40
0.6306796678
 40
0.7492443116
 40
0.8715689783
 40
1.0
 40
1.0
 40
1.0
 40
1.0
 10
133.7770073831
 20
325.7525884206
 30
0.0
 10
133.6128149052
 20
325.9188516701
 30
0.0
 10
133.3138285485
 20
326.2619608615
 30
0.0
 10
132.9552148755
 20
326.8213800664
 30
0.0
 10
132.7062047612
 20
327.4025430049
 30
0.0
 10
132.5712624919
 20
327.9980062079
 30
0.0
 10
132.5531057147
 20
328.5993678535
 30
0.0
 10
132.6521665157
 20
329.1976247646
 30
0.0
 10
132.8662463489
 20
329.7839331596
 30
0.0
 10
133.0771579699
 20
330.1514747571
 30
0.0
 10
133.1981783488
 20
330.3303176544
 30
0.0
  0
SPLINE
  5
44D
100
AcDbEntity
  8
0
100
AcDbSpline
 62
7
  6
CONTINUOUS
 70
0
 71
3
 72
9
 73
5
 74
0
 42
0.0000001
 43
0.0000001
 44
0.0000000001
 40
0.0
 40
0.0
 40
0.0
 40
0.0
 40
0.2375677765
 40
1.0
 40
1.0
 40
1.0
 40
1.0
 10
133.2216135439
 20
330.3645991462
 30
0.0
 10
133.2913698401
 20
330.4656140052
 30
0.0
 10
133.6026853838
 20
330.8785699021
 30
0.0
 10
133.9783383885
 20
331.2409450536
 30
0.0
 10
134.2847556456
 20
331.4885846488
 30
0.0
  0
SPLINE
  5
44E
100
AcDbEntity
  8
0
100
AcDbSpline
 62
7
  6
CONTINUOUS
 70
0
 71
3
 72
9
 73
5
 74
0
 42
0.0000001
 43
0.0000001
 44
0.0000000001
 40
0.0
 40
0.0
 40
0.0
 40
0.0
 40
0.2453796241
 40
1.0
 40
1.0
 40
1.0
 40
1.0
 10
134.2847556456
 20
331.4885846488
 30
0.0
 10
134.3250039563
 20
331.5211124361
 30
0.0
 10
134.4905679592
 20
331.6517620056
 30
0.0
 10
134.6620840501
 20
331.7748311654
 30
0.0
 10
134.7941767081
 20
331.8635936282
 30
0.0
  0
SPLINE
  5
44F
100
AcDbEntity
  8
0
100
AcDbSpline
 62
7
  6
CONTINUOUS
 70
0
 71
3
 72
17
 73
13
 74
0
 42
0.0000001
 43
0.0000001
 44
0.0000000001
 40
0.0
 40
0.0
 40
0.0
 40
0.0
 40
0.1215721677
 40
0.2530774226
 40
0.3902927497
 40
0.5283133791
 40
0.6621437197
 40
0.7260920046
 40
0.7873780277
 40
0.8456196653
 40
0.9005528198
 40
1.0
 40
1.0
 40
1.0
 40
1.0
 10
135.562862437
 20
332.3215707701
 30
0.0
 10
136.1223962414
 20
332.6172476551
 30
0.0
 10
137.3505478512
 20
333.1159003409
 30
0.0
 10
139.3361040677
 20
333.5766451526
 30
0.0
 10
141.4519390229
 20
333.7637292371
 30
0.0
 10
143.5852388346
 20
333.6668862346
 30
0.0
 10
145.3109917652
 20
333.3491637012
 30
0.0
 10
146.601562882
 20
332.9535146508
 30
0.0
 10
147.4896197111
 20
332.5989847816
 30
0.0
 10
148.3007213586
 20
332.1866803945
 30
0.0
 10
149.2324712017
 20
331.5882475059
 30
0.0
 10
149.8372549709
 20
331.040928605
 30
0.0
 10
150.1619406847
 20
330.6377270788
 30
0.0
  0
SPLINE
  5
450
100
AcDbEntity
  8
0
100
AcDbSpline
 62
7
  6
CONTINUOUS
 70
0
 71
3
 72
15
 73
11
 74
0
 42
0.0000001
 43
0.0000001
 44
0.0000000001
 40
0.0
 40
0.0
 40
0.0
 40
0.0
 40
0.1318832764
 40
0.2562823294
 40
0.3755486932
 40
0.4926434055
 40
0.6108126972
 40
0.7331589318
 40
0.8622684486
 40
1.0
 40
1.0
 40
1.0
 40
1.0
 10
150.1619406847
 20
330.6377270788
 30
0.0
 10
150.310653334
 20
330.4530525932
 30
0.0
 10
150.5740177717
 20
330.072135573
 30
0.0
 10
150.8585316214
 20
329.4558296648
 30
0.0
 10
151.0141273744
 20
328.8217064209
 30
0.0
 10
151.0369446628
 20
328.1801385769
 30
0.0
 10
150.9264176162
 20
327.5422708144
 30
0.0
 10
150.6852961141
 20
326.9187514697
 30
0.0
 10
150.3188528058
 20
326.318905419
 30
0.0
 10
150.0059815211
 20
325.9525406693
 30
0.0
 10
149.8330001596
 20
325.7753565701
 30
0.0
  0
SPLINE
  5
451
100
AcDbEntity
  8
0
100
AcDbSpline
 62
7
  6
CONTINUOUS
 70
0
 71
3
 72
9
 73
5
 74
0
 42
0.0000001
 43
0.0000001
 44
0.0000000001
 40
0.0
 40
0.0
 40
0.0
 40
0.0
 40
0.4811336866
 40
1.0
 40
1.0
 40
1.0
 40
1.0
 10
149.8330001596
 20
325.7753565701
 30
0.0
 10
149.6194414156
 20
325.5566092243
 30
0.0
 10
149.1377618153
 20
325.1381452562
 30
0.0
 10
148.6047775374
 20
324.7889904099
 30
0.0
 10
148.3192627383
 20
324.6241493477
 30
0.0
  0
SPLINE
  5
452
100
AcDbEntity
  8
0
100
AcDbSpline
 62
7
  6
CONTINUOUS
 70
0
 71
3
 72
18
 73
14
 74
0
 42
0.0000001
 43
0.0000001
 44
0.0000000001
 40
0.0
 40
0.0
 40
0.0
 40
0.0
 40
0.1485679046
 40
0.2831453101
 40
0.4051755838
 40
0.4626747151
 40
0.5185965708
 40
0.5737161357
 40
0.6288654478
 40
0.6848744901
 40
0.7425119974
 40
0.8649355242
 40
1.0
 40
1.0
 40
1.0
 40
1.0
 10
137.8957621736
 20
331.6429958094
 30
0.0
 10
137.6785131451
 20
331.517567773
 30
0.0
 10
137.2805207267
 20
331.2480975336
 30
0.0
 10
136.7892546846
 20
330.7659407883
 30
0.0
 10
136.4992536245
 20
330.3146352941
 30
0.0
 10
136.3567831405
 20
329.9421975916
 30
0.0
 10
136.2940451974
 20
329.663542112
 30
0.0
 10
136.2740476989
 20
329.3825582624
 30
0.0
 10
136.2970794517
 20
329.1016597934
 30
0.0
 10
136.3628211109
 20
328.8232631634
 30
0.0
 10
136.5093461643
 20
328.4512691436
 30
0.0
 10
136.8040207515
 20
328.001209712
 30
0.0
 10
137.1187902707
 20
327.6967437172
 30
0.0
 10
137.2955738175
 20
327.5526694167
 30
0.0
  0
SPLINE
  5
453
100
AcDbEntity
  8
0
100
AcDbSpline
 62
7
  6
CONTINUOUS
 70
0
 71
3
 72
15
 73
11
 74
0
 42
0.0000001
 43
0.0000001
 44
0.0000000001
 40
0.0
 40
0.0
 40
0.0
 40
0.0
 40
0.1072595737
 40
0.2261006724
 40
0.3541463722
 40
0.4879481175
 40
0.6234713034
 40
0.7565170756
 40
0.8831202816
 40
1.0
 40
1.0
 40
1.0
 40
1.0
 10
137.2955738175
 20
327.5526694167
 30
0.0
 10
137.539094274
 20
327.3542061542
 30
0.0
 10
138.1022523875
 20
326.9958263005
 30
0.0
 10
139.0648583035
 20
326.5990976015
 30
0.0
 10
140.1503953904
 20
326.3289200228
 30
0.0
 10
141.3099114992
 20
326.1975808922
 30
0.0
 10
142.4913157489
 20
326.2107416685
 30
0.0
 10
143.6412847428
 20
326.3679681514
 30
0.0
 10
144.7076123165
 20
326.6619322993
 30
0.0
 10
145.3623136293
 20
326.9546627731
 30
0.0
 10
145.6599728984
 20
327.1237360922
 30
0.0
  0
SPLINE
  5
454
100
AcDbEntity
  8
0
100
AcDbSpline
 62
7
  6
CONTINUOUS
 70
0
 71
3
 72
9
 73
5
 74
0
 42
0.0000001
 43
0.0000001
 44
0.0000000001
 40
0.0
 40
0.0
 40
0.0
 40
0.0
 40
0.2584194246
 40
1.0
 40
1.0
 40
1.0
 40
1.0
 10
145.6918790591
 20
327.1420074528
 30
0.0
 10
145.7461189702
 20
327.1733226931
 30
0.0
 10
145.9537741839
 20
327.2982932488
 30
0.0
 10
146.1522781894
 20
327.4387838952
 30
0.0
 10
146.2916206392
 20
327.5523030562
 30
0.0
  0
SPLINE
  5
455
100
AcDbEntity
  8
0
100
AcDbSpline
 62
7
  6
CONTINUOUS
 70
0
 71
3
 72
28
 73
24
 74
0
 42
0.0000001
 43
0.0000001
 44
0.0000000001
 40
0.0
 40
0.0
 40
0.0
 40
0.0
 40
0.0549405168
 40
0.1044960474
 40
0.1278126605
 40
0.150517606
 40
0.1729727079
 40
0.1955602141
 40
0.2186513571
 40
0.2425773615
 40
0.2938547106
 40
0.3216370392
 40
0.3509274455
 40
0.3817353491
 40
0.4140213404
 40
0.4826214311
 40
0.5557313448
 40
0.6319203641
 40
0.709526185
 40
0.7867863711
 40
0.8619639892
 40
0.9334664243
 40
1.0
 40
1.0
 40
1.0
 40
1.0
 10
146.2916206392
 20
327.5523030562
 30
0.0
 10
146.478025356
 20
327.7041627881
 30
0.0
 10
146.808045202
 20
328.026115917
 30
0.0
 10
147.1088721478
 20
328.5060840368
 30
0.0
 10
147.2486466275
 20
328.9018704151
 30
0.0
 10
147.3041283539
 20
329.1976410142
 30
0.0
 10
147.3115895886
 20
329.4953151413
 30
0.0
 10
147.2709261459
 20
329.791973379
 30
0.0
 10
147.1826318187
 20
330.0847597908
 30
0.0
 10
146.9988260723
 20
330.4751098954
 30
0.0
 10
146.7235698335
 20
330.8388605978
 30
0.0
 10
146.3802105746
 20
331.1664695222
 30
0.0
 10
146.0766026828
 20
331.4036149312
 30
0.0
 10
145.7366677377
 20
331.623337763
 30
0.0
 10
145.2284474994
 20
331.8962390062
 30
0.0
 10
144.5188980454
 20
332.1798046865
 30
0.0
 10
143.5937905992
 20
332.419775352
 30
0.0
 10
142.6084657607
 20
332.55843733
 30
0.0
 10
141.595940237
 20
332.5911341545
 30
0.0
 10
140.5900377683
 20
332.5168160667
 30
0.0
 10
139.6243088749
 20
332.3378902544
 30
0.0
 10
138.7311243043
 20
332.0604489748
 30
0.0
 10
138.1808442971
 20
331.8050735445
 30
0.0
 10
137.9276683343
 20
331.66126717
 30
0.0
  0
SPLINE
  5
456
100
AcDbEntity
  8
0
100
AcDbSpline
 62
7
  6
CONTINUOUS
 70
0
 71
3
 72
9
 73
5
 74
0
 42
0.0000001
 43
0.0000001
 44
0.0000000001
 40
0.0
 40
0.0
 40
0.0
 40
0.0
 40
0.515645153
 40
1.0
 40
1.0
 40
1.0
 40
1.0
 10
251.6824456142
 20
261.8856705466
 30
0.0
 10
252.132014452
 20
262.3898045064
 30
0.0
 10
253.0580997079
 20
263.3208123391
 30
0.0
 10
254.093028782
 20
264.1312503697
 30
0.0
 10
254.6202303896
 20
264.4842772109
 30
0.0
  0
SPLINE
  5
457
100
AcDbEntity
  8
0
100
AcDbSpline
 62
7
  6
CONTINUOUS
 70
0
 71
3
 72
10
 73
6
 74
0
 42
0.0000001
 43
0.0000001
 44
0.0000000001
 40
0.0
 40
0.0
 40
0.0
 40
0.0
 40
0.2500055638
 40
0.6250384874
 40
1.0
 40
1.0
 40
1.0
 40
1.0
 10
254.8113809682
 20
264.4869953988
 30
0.0
 10
254.7954495508
 20
264.4868694208
 30
0.0
 10
254.7556322832
 20
264.4855241886
 30
0.0
 10
254.6918908026
 20
264.4866541232
 30
0.0
 10
254.644120246
 20
264.4847675864
 30
0.0
 10
254.6202303896
 20
264.4842772109
 30
0.0
  0
SPLINE
  5
458
100
AcDbEntity
  8
0
100
AcDbSpline
 62
7
  6
CONTINUOUS
 70
0
 71
3
 72
10
 73
6
 74
0
 42
0.0000001
 43
0.0000001
 44
0.0000000001
 40
0.0
 40
0.0
 40
0.0
 40
0.0
 40
0.2499843095
 40
0.6249933471
 40
1.0
 40
1.0
 40
1.0
 40
1.0
 10
255.2425315456
 20
264.4842787067
 30
0.0
 10
255.2266043719
 20
264.4846055595
 30
0.0
 10
255.1868022739
 20
264.4863267405
 30
0.0
 10
255.1230581784
 20
264.4852974034
 30
0.0
 10
255.0752779318
 20
264.4868065411
 30
0.0
 10
255.0513809682
 20
264.4869959756
 30
0.0
  0
SPLINE
  5
459
100
AcDbEntity
  8
0
100
AcDbSpline
 62
7
  6
CONTINUOUS
 70
0
 71
3
 72
9
 73
5
 74
0
 42
0.0000001
 43
0.0000001
 44
0.0000000001
 40
0.0
 40
0.0
 40
0.0
 40
0.0
 40
0.2693011273
 40
1.0
 40
1.0
 40
1.0
 40
1.0
 10
255.970845907
 20
265.2640507888
 30
0.0
 10
256.2074925467
 20
265.3788408942
 30
0.0
 10
257.1016020213
 20
265.7700526943
 30
0.0
 10
258.0698990697
 20
266.0118936415
 30
0.0
 10
258.782420346
 20
266.0520227837
 30
0.0
  0
SPLINE
  5
45A
100
AcDbEntity
  8
0
100
AcDbSpline
 62
7
  6
CONTINUOUS
 70
0
 71
3
 72
9
 73
5
 74
0
 42
0.0000001
 43
0.0000001
 44
0.0000000001
 40
0.0
 40
0.0
 40
0.0
 40
0.0
 40
0.520613643
 40
1.0
 40
1.0
 40
1.0
 40
1.0
 10
251.6824456142
 20
261.8856705466
 30
0.0
 10
251.6577313861
 20
261.8579567002
 30
0.0
 10
251.6193316929
 20
261.7964605598
 30
0.0
 10
251.601147285
 20
261.7253354186
 30
0.0
 10
251.601147285
 20
261.691143089
 30
0.0
  0
SPLINE
  5
45B
100
AcDbEntity
  8
0
100
AcDbSpline
 62
7
  6
CONTINUOUS
 70
0
 71
3
 72
9
 73
5
 74
0
 42
0.0000001
 43
0.0000001
 44
0.0000000001
 40
0.0
 40
0.0
 40
0.0
 40
0.0
 40
0.2451043854
 40
1.0
 40
1.0
 40
1.0
 40
1.0
 10
255.2425315456
 20
264.4842787067
 30
0.0
 10
255.3301109406
 20
264.4256343526
 30
0.0
 10
255.6844323507
 20
264.1819195145
 30
0.0
 10
256.0268264352
 20
263.9209605554
 30
0.0
 10
256.2784240901
 20
263.7158294855
 30
0.0
  0
SPLINE
  5
45C
100
AcDbEntity
  8
0
100
AcDbSpline
 62
7
  6
CONTINUOUS
 70
0
 71
3
 72
9
 73
5
 74
0
 42
0.0000001
 43
0.0000001
 44
0.0000000001
 40
0.0
 40
0.0
 40
0.0
 40
0.0
 40
0.2430101307
 40
1.0
 40
1.0
 40
1.0
 40
1.0
 10
252.7623075861
 20
265.7228768825
 30
0.0
 10
252.8562550058
 20
265.692275864
 30
0.0
 10
253.2404958466
 20
265.5591629541
 30
0.0
 10
253.6149788061
 20
265.3983717311
 30
0.0
 10
253.8919047818
 20
265.2640457917
 30
0.0
  0
SPLINE
  5
45D
100
AcDbEntity
  8
0
100
AcDbSpline
 62
7
  6
CONTINUOUS
 70
0
 71
3
 72
12
 73
8
 74
0
 42
0.0000001
 43
0.0000001
 44
0.0000000001
 40
0.0
 40
0.0
 40
0.0
 40
0.0
 40
0.2775944473
 40
0.532845474
 40
0.7708391448
 40
0.8859940091
 40
1.0
 40
1.0
 40
1.0
 40
1.0
 10
258.9536548361
 20
266.0450672954
 30
0.0
 10
259.1385915799
 20
265.9146879928
 30
0.0
 10
259.4749646605
 20
265.6355424082
 30
0.0
 10
259.8723618798
 20
265.1427350301
 30
0.0
 10
260.0838606903
 20
264.6870254055
 30
0.0
 10
260.1674286121
 20
264.3143596475
 30
0.0
 10
260.1813766399
 20
264.127261365
 30
0.0
 10
260.1813766399
 20
264.034331905
 30
0.0
  0
SPLINE
  5
45E
100
AcDbEntity
  8
0
100
AcDbSpline
 62
7
  6
CONTINUOUS
 70
0
 71
3
 72
9
 73
5
 74
0
 42
0.0000001
 43
0.0000001
 44
0.0000000001
 40
0.0
 40
0.0
 40
0.0
 40
0.0
 40
0.243853175
 40
1.0
 40
1.0
 40
1.0
 40
1.0
 10
258.7800014027
 20
266.0430107932
 30
0.0
 10
258.739274118
 20
266.0683541427
 30
0.0
 10
258.570663194
 20
266.1697078246
 30
0.0
 10
258.3960279178
 20
266.2609489019
 30
0.0
 10
258.2616059947
 20
266.3246289366
 30
0.0
  0
SPLINE
  5
45F
100
AcDbEntity
  8
0
100
AcDbSpline
 62
7
  6
CONTINUOUS
 70
0
 71
3
 72
11
 73
7
 74
0
 42
0.0000001
 43
0.0000001
 44
0.0000000001
 40
0.0
 40
0.0
 40
0.0
 40
0.0
 40
0.2182371737
 40
0.4500432948
 40
0.7088773701
 40
1.0
 40
1.0
 40
1.0
 40
1.0
 10
258.2153557294
 20
266.4713708233
 30
0.0
 10
258.2225983273
 20
266.4679490474
 30
0.0
 10
258.2363398294
 20
266.4580356659
 30
0.0
 10
258.2511316716
 20
266.4361091387
 30
0.0
 10
258.2598975396
 20
266.4084716322
 30
0.0
 10
258.2616059947
 20
266.3882061556
 30
0.0
 10
258.2616059947
 20
266.377520721
 30
0.0
  0
SPLINE
  5
460
100
AcDbEntity
  8
0
100
AcDbSpline
 62
7
  6
CONTINUOUS
 70
0
 71
3
 72
15
 73
11
 74
0
 42
0.0000001
 43
0.0000001
 44
0.0000000001
 40
0.0
 40
0.0
 40
0.0
 40
0.0
 40
0.1141714915
 40
0.2361194488
 40
0.3639278968
 40
0.4951383599
 40
0.6270247888
 40
0.7568077961
 40
0.8818654423
 40
1.0
 40
1.0
 40
1.0
 40
1.0
 10
251.3035797981
 20
266.293755534
 30
0.0
 10
251.5403176997
 20
266.4273212306
 30
0.0
 10
252.0525206433
 20
266.6644989808
 30
0.0
 10
252.8815593066
 20
266.9230847403
 30
0.0
 10
253.774839596
 20
267.0910556308
 30
0.0
 10
254.7044153775
 20
267.1634400581
 30
0.0
 10
255.6411414966
 20
267.1381925861
 30
0.0
 10
256.5555667601
 20
267.0159855272
 30
0.0
 10
257.4189155508
 20
266.8005182392
 30
0.0
 10
257.9610639683
 20
266.5915317954
 30
0.0
 10
258.2153555463
 20
266.4713704817
 30
0.0
  0
SPLINE
  5
461
100
AcDbEntity
  8
0
100
AcDbSpline
 62
7
  6
CONTINUOUS
 70
0
 71
3
 72
13
 73
9
 74
0
 42
0.0000001
 43
0.0000001
 44
0.0000000001
 40
0.0
 40
0.0
 40
0.0
 40
0.0
 40
0.1111196422
 40
0.2237477408
 40
0.3394845396
 40
0.4595984396
 40
0.7164948385
 40
1.0
 40
1.0
 40
1.0
 40
1.0
 10
249.6813766399
 20
264.034331905
 30
0.0
 10
249.6813766399
 20
264.1421882221
 30
0.0
 10
249.700219265
 20
264.359811902
 30
0.0
 10
249.7839763672
 20
264.6799754459
 30
0.0
 10
249.9211810678
 20
264.9906414775
 30
0.0
 10
250.1773381417
 20
265.3962918517
 30
0.0
 10
250.6264780091
 20
265.8631261424
 30
0.0
 10
251.0639137764
 20
266.1585378145
 30
0.0
 10
251.3035797981
 20
266.293755534
 30
0.0
  0
SPLINE
  5
462
100
AcDbEntity
  8
0
100
AcDbSpline
 62
7
  6
CONTINUOUS
 70
0
 71
3
 72
9
 73
5
 74
0
 42
0.0000001
 43
0.0000001
 44
0.0000000001
 40
0.0
 40
0.0
 40
0.0
 40
0.0
 40
0.4793813863
 40
1.0
 40
1.0
 40
1.0
 40
1.0
 10
250.8728242681
 20
262.1116310661
 30
0.0
 10
250.8728242681
 20
262.1458230417
 30
0.0
 10
250.891008505
 20
262.2169481807
 30
0.0
 10
250.9294081329
 20
262.2784444124
 30
0.0
 10
250.9541225973
 20
262.3061585237
 30
0.0
  0
SPLINE
  5
463
100
AcDbEntity
  8
0
100
AcDbSpline
 62
7
  6
CONTINUOUS
 70
0
 71
3
 72
25
 73
21
 74
0
 42
0.0000001
 43
0.0000001
 44
0.0000000001
 40
0.0
 40
0.0
 40
0.0
 40
0.0
 40
0.0688143079
 40
0.1417701964
 40
0.2176331503
 40
0.2949701404
 40
0.3722614105
 40
0.4479860753
 40
0.5207211335
 40
0.5892394112
 40
0.6526239822
 40
0.7104073118
 40
0.7627415229
 40
0.8105786722
 40
0.8334118375
 40
0.8558736105
 40
0.8782907117
 40
0.9009927553
 40
0.9483473485
 40
1.0
 40
1.0
 40
1.0
 40
1.0
 10
251.6824456142
 20
261.8856705466
 30
0.0
 10
251.9194588082
 20
261.7738916309
 30
0.0
 10
252.4242152646
 20
261.57756883
 30
0.0
 10
253.2280224258
 20
261.3693464182
 30
0.0
 10
254.0815077284
 20
261.2430407084
 30
0.0
 10
254.959728405
 20
261.2024132652
 30
0.0
 10
255.8371618136
 20
261.2486056626
 30
0.0
 10
256.6882416427
 20
261.3803133795
 30
0.0
 10
257.488258009
 20
261.5937353486
 30
0.0
 10
258.2141428998
 20
261.8828328905
 30
0.0
 10
258.8451758449
 20
262.239637935
 30
0.0
 10
259.3633971115
 20
262.655082194
 30
0.0
 10
259.7534371281
 20
263.1189225757
 30
0.0
 10
259.9630416207
 20
263.5445360474
 30
0.0
 10
260.048461832
 20
263.8899189982
 30
0.0
 10
260.0730658733
 20
264.1475727633
 30
0.0
 10
260.0587920753
 20
264.4055085661
 30
0.0
 10
259.9873078971
 20
264.7515143826
 30
0.0
 10
259.7950480802
 20
265.1798578756
 30
0.0
 10
259.5587569678
 20
265.4781317985
 30
0.0
 10
259.4224920314
 20
265.6199816933
 30
0.0
  0
SPLINE
  5
464
100
AcDbEntity
  8
0
100
AcDbSpline
 62
7
  6
CONTINUOUS
 70
0
 71
3
 72
9
 73
5
 74
0
 42
0.0000001
 43
0.0000001
 44
0.0000000001
 40
0.0
 40
0.0
 40
0.0
 40
0.0
 40
0.244853054
 40
1.0
 40
1.0
 40
1.0
 40
1.0
 10
259.4224920314
 20
265.6199816933
 30
0.0
 10
259.402433428
 20
265.6408624191
 30
0.0
 10
259.3193004118
 20
265.7249721085
 30
0.0
 10
259.2314871701
 20
265.8044251425
 30
0.0
 10
259.1630993472
 20
265.8618459251
 30
0.0
  0
LINE
  5
465
100
AcDbEntity
  8
0
100
AcDbLine
 62
7
  6
CONTINUOUS
 10
253.8917566219
 20
265.0179287513
 11
253.8919073727
 21
264.904765188
  0
LINE
  5
466
100
AcDbEntity
  8
0
100
AcDbLine
 62
7
  6
CONTINUOUS
 10
253.8919047818
 20
265.2640457916
 11
253.8917556227
 21
265.156490835
  0
SPLINE
  5
467
100
AcDbEntity
  8
0
100
AcDbSpline
 62
7
  6
CONTINUOUS
 70
0
 71
3
 72
10
 73
6
 74
0
 42
0.0000001
 43
0.0000001
 44
0.0000000001
 40
0.0
 40
0.0
 40
0.0
 40
0.0
 40
0.2312298112
 40
0.6007570808
 40
1.0
 40
1.0
 40
1.0
 40
1.0
 10
258.1803076655
 20
266.4781735145
 30
0.0
 10
257.9443858486
 20
266.4703122391
 30
0.0
 10
257.3323583167
 20
266.4099208861
 30
0.0
 10
256.33737589
 20
266.1624881471
 30
0.0
 10
255.6092285022
 20
265.862416533
 30
0.0
 10
255.2425228901
 20
265.684538766
 30
0.0
  0
SPLINE
  5
468
100
AcDbEntity
  8
0
100
AcDbSpline
 62
7
  6
CONTINUOUS
 70
0
 71
3
 72
10
 73
6
 74
0
 42
0.0000001
 43
0.0000001
 44
0.0000000001
 40
0.0
 40
0.0
 40
0.0
 40
0.0
 40
0.5354597963
 40
0.7841424906
 40
1.0
 40
1.0
 40
1.0
 40
1.0
 10
253.6522885378
 20
265.9630261514
 30
0.0
 10
253.6376044307
 20
266.0048937594
 30
0.0
 10
253.6032378194
 20
266.0626766644
 30
0.0
 10
253.5420130985
 20
266.1190042756
 30
0.0
 10
253.5076309525
 20
266.1378290378
 30
0.0
 10
253.490624492
 20
266.1433684229
 30
0.0
  0
SPLINE
  5
469
100
AcDbEntity
  8
0
100
AcDbSpline
 62
7
  6
CONTINUOUS
 70
0
 71
3
 72
9
 73
5
 74
0
 42
0.0000001
 43
0.0000001
 44
0.0000000001
 40
0.0
 40
0.0
 40
0.0
 40
0.0
 40
0.2331128546
 40
1.0
 40
1.0
 40
1.0
 40
1.0
 10
253.2430467106
 20
263.4172978413
 30
0.0
 10
253.2388598419
 20
263.4165572617
 30
0.0
 10
253.2210722851
 20
263.4124033748
 30
0.0
 10
253.2042146863
 20
263.4047684329
 30
0.0
 10
253.1921047219
 20
263.3977682357
 30
0.0
  0
SPLINE
  5
46A
100
AcDbEntity
  8
0
100
AcDbSpline
 62
7
  6
CONTINUOUS
 70
0
 71
3
 72
9
 73
5
 74
0
 42
0.0000001
 43
0.0000001
 44
0.0000000001
 40
0.0
 40
0.0
 40
0.0
 40
0.0
 40
0.527379179
 40
1.0
 40
1.0
 40
1.0
 40
1.0
 10
253.4906262258
 20
266.1433678049
 30
0.0
 10
253.3515191423
 20
266.0914767127
 30
0.0
 10
253.0942513184
 20
265.974056327
 30
0.0
 10
252.8613691351
 20
265.8117042424
 30
0.0
 10
252.7623073832
 20
265.7228769421
 30
0.0
  0
SPLINE
  5
46B
100
AcDbEntity
  8
0
100
AcDbSpline
 62
7
  6
CONTINUOUS
 70
0
 71
3
 72
9
 73
5
 74
0
 42
0.0000001
 43
0.0000001
 44
0.0000000001
 40
0.0
 40
0.0
 40
0.0
 40
0.0
 40
0.2571392523
 40
1.0
 40
1.0
 40
1.0
 40
1.0
 10
254.6202217341
 20
265.6845372701
 30
0.0
 10
254.5261552602
 20
265.7301652307
 30
0.0
 10
254.1575907868
 20
265.9018450859
 30
0.0
 10
253.7778088057
 20
266.0498252479
 30
0.0
 10
253.490624492
 20
266.1433684229
 30
0.0
  0
SPLINE
  5
46C
100
AcDbEntity
  8
0
100
AcDbSpline
 62
7
  6
CONTINUOUS
 70
0
 71
3
 72
9
 73
5
 74
0
 42
0.0000001
 43
0.0000001
 44
0.0000000001
 40
0.0
 40
0.0
 40
0.0
 40
0.0
 40
0.47792765
 40
1.0
 40
1.0
 40
1.0
 40
1.0
 10
255.942311488
 20
264.9855913678
 30
0.0
 10
255.9119394048
 20
264.9680751136
 30
0.0
 10
255.8572407791
 20
264.9163891085
 30
0.0
 10
255.8205657622
 20
264.8513735456
 30
0.0
 10
255.8078897745
 20
264.8152324359
 30
0.0
  0
SPLINE
  5
46D
100
AcDbEntity
  8
0
100
AcDbSpline
 62
7
  6
CONTINUOUS
 70
0
 71
3
 72
9
 73
5
 74
0
 42
0.0000001
 43
0.0000001
 44
0.0000000001
 40
0.0
 40
0.0
 40
0.0
 40
0.0
 40
0.2547354588
 40
1.0
 40
1.0
 40
1.0
 40
1.0
 10
258.6603743288
 20
261.9007368285
 30
0.0
 10
258.690448389
 20
261.9182575293
 30
0.0
 10
258.8077705089
 20
261.9882923106
 30
0.0
 10
258.9220775226
 20
262.0634088793
 30
0.0
 10
259.0051013648
 20
262.1223671341
 30
0.0
  0
SPLINE
  5
46E
100
AcDbEntity
  8
0
100
AcDbSpline
 62
7
  6
CONTINUOUS
 70
0
 71
3
 72
11
 73
7
 74
0
 42
0.0000001
 43
0.0000001
 44
0.0000000001
 40
0.0
 40
0.0
 40
0.0
 40
0.0
 40
0.2824561624
 40
0.5398992102
 40
0.7765134939
 40
1.0
 40
1.0
 40
1.0
 40
1.0
 10
259.0051013648
 20
262.1223671341
 30
0.0
 10
259.175183651
 20
262.2431487617
 30
0.0
 10
259.4841438266
 20
262.4986489699
 30
0.0
 10
259.8535400961
 20
262.9424264163
 30
0.0
 10
260.0961076856
 20
263.4192075675
 30
0.0
 10
260.167095038
 20
263.756665746
 30
0.0
 10
260.1777292952
 20
263.9213766635
 30
0.0
  0
SPLINE
  5
46F
100
AcDbEntity
  8
0
100
AcDbSpline
 62
7
  6
CONTINUOUS
 70
0
 71
3
 72
15
 73
11
 74
0
 42
0.0000001
 43
0.0000001
 44
0.0000000001
 40
0.0
 40
0.0
 40
0.0
 40
0.0
 40
0.1178108971
 40
0.2430556907
 40
0.3733000793
 40
0.5057237687
 40
0.63736267
 40
0.765306432
 40
0.8869003494
 40
1.0
 40
1.0
 40
1.0
 40
1.0
 10
251.601147285
 20
261.691143089
 30
0.0
 10
251.8593731104
 20
261.5688131213
 30
0.0
 10
252.4114117346
 20
261.356034671
 30
0.0
 10
253.2919176952
 20
261.1371250548
 30
0.0
 10
254.2265437885
 20
261.0136915389
 30
0.0
 10
255.1843575182
 20
260.9899123794
 30
0.0
 10
256.1338286949
 20
261.066518899
 30
0.0
 10
257.043751255
 20
261.2410579886
 30
0.0
 10
257.8840753927
 20
261.5076798477
 30
0.0
 10
258.4011582604
 20
261.7513970265
 30
0.0
 10
258.6388724997
 20
261.8882828814
 30
0.0
  0
LINE
  5
470
100
AcDbEntity
  8
0
100
AcDbLine
 62
7
  6
CONTINUOUS
 10
255.9709966578
 20
265.1564958329
 11
255.970845907
 21
265.2640507888
  0
SPLINE
  5
471
100
AcDbEntity
  8
0
100
AcDbSpline
 62
7
  6
CONTINUOUS
 70
0
 71
3
 72
9
 73
5
 74
0
 42
0.0000001
 43
0.0000001
 44
0.0000000001
 40
0.0
 40
0.0
 40
0.0
 40
0.0
 40
0.4861998949
 40
1.0
 40
1.0
 40
1.0
 40
1.0
 10
249.7078569621
 20
263.730284601
 30
0.0
 10
249.7321006054
 20
263.5914558846
 30
0.0
 10
249.8160436943
 20
263.3111022287
 30
0.0
 10
249.9573296512
 20
263.0555938997
 30
0.0
 10
250.0407372798
 20
262.9322113114
 30
0.0
  0
SPLINE
  5
472
100
AcDbEntity
  8
0
100
AcDbSpline
 62
7
  6
CONTINUOUS
 70
0
 71
3
 72
9
 73
5
 74
0
 42
0.0000001
 43
0.0000001
 44
0.0000000001
 40
0.0
 40
0.0
 40
0.0
 40
0.0
 40
0.2352654981
 40
1.0
 40
1.0
 40
1.0
 40
1.0
 10
250.0986749228
 20
262.8500768599
 30
0.0
 10
250.1483306523
 20
262.7825324047
 30
0.0
 10
250.373234792
 20
262.5056195803
 30
0.0
 10
250.6471491353
 20
262.2707020875
 30
0.0
 10
250.8698785243
 20
262.1137055692
 30
0.0
  0
SPLINE
  5
473
100
AcDbEntity
  8
0
100
AcDbSpline
 62
7
  6
CONTINUOUS
 70
0
 71
3
 72
14
 73
10
 74
0
 42
0.0000001
 43
0.0000001
 44
0.0000000001
 40
0.0
 40
0.0
 40
0.0
 40
0.0
 40
0.2900409345
 40
0.4233183224
 40
0.5491010413
 40
0.668204002
 40
0.7818795986
 40
0.8918078608
 40
1.0
 40
1.0
 40
1.0
 40
1.0
 10
251.308714476
 20
266.2835285496
 30
0.0
 10
251.076528599
 20
266.1501133776
 30
0.0
 10
250.7518046347
 20
265.9266335802
 30
0.0
 10
250.3866979964
 20
265.5735605033
 30
0.0
 10
250.1664276898
 20
265.3013753163
 30
0.0
 10
249.9945640236
 20
265.0171069973
 30
0.0
 10
249.8731761599
 20
264.7234426174
 30
0.0
 10
249.803973148
 20
264.4235758007
 30
0.0
 10
249.7933197962
 20
264.2212495323
 30
0.0
 10
249.7968515123
 20
264.1214210821
 30
0.0
  0
SPLINE
  5
474
100
AcDbEntity
  8
0
100
AcDbSpline
 62
7
  6
CONTINUOUS
 70
0
 71
3
 72
12
 73
8
 74
0
 42
0.0000001
 43
0.0000001
 44
0.0000000001
 40
0.0
 40
0.0
 40
0.0
 40
0.0
 40
0.1109611376
 40
0.2237829508
 40
0.4598177411
 40
0.7170426186
 40
1.0
 40
1.0
 40
1.0
 40
1.0
 10
249.7968515123
 20
264.1214210821
 30
0.0
 10
249.7997645756
 20
264.0390796446
 30
0.0
 10
249.8177037185
 20
263.8731936783
 30
0.0
 10
249.9021492107
 20
263.5413890906
 30
0.0
 10
250.1025697173
 20
263.1324121495
 30
0.0
 10
250.4715309024
 20
262.6844612358
 30
0.0
 10
250.7825429898
 20
262.4274240198
 30
0.0
 10
250.9541225973
 20
262.3061585237
 30
0.0
  0
SPLINE
  5
475
100
AcDbEntity
  8
0
100
AcDbSpline
 62
7
  6
CONTINUOUS
 70
0
 71
3
 72
9
 73
5
 74
0
 42
0.0000001
 43
0.0000001
 44
0.0000000001
 40
0.0
 40
0.0
 40
0.0
 40
0.0
 40
0.523837941
 40
1.0
 40
1.0
 40
1.0
 40
1.0
 10
253.6522902171
 20
265.9630240635
 30
0.0
 10
253.5355774327
 20
265.9207647516
 30
0.0
 10
253.3175699952
 20
265.8258906926
 30
0.0
 10
253.115860779
 20
265.6990001876
 30
0.0
 10
253.0267830047
 20
265.6297477162
 30
0.0
  0
SPLINE
  5
476
100
AcDbEntity
  8
0
100
AcDbSpline
 62
7
  6
CONTINUOUS
 70
0
 71
3
 72
9
 73
5
 74
0
 42
0.0000001
 43
0.0000001
 44
0.0000000001
 40
0.0
 40
0.0
 40
0.0
 40
0.0
 40
0.2429697377
 40
1.0
 40
1.0
 40
1.0
 40
1.0
 10
257.8812256165
 20
266.6089972208
 30
0.0
 10
257.8017690653
 20
266.6411864108
 30
0.0
 10
257.4719890224
 20
266.7668124406
 30
0.0
 10
257.1322230811
 20
266.8657564243
 30
0.0
 10
256.8722345336
 20
266.927022417
 30
0.0
  0
SPLINE
  5
477
100
AcDbEntity
  8
0
100
AcDbSpline
 62
7
  6
CONTINUOUS
 70
0
 71
3
 72
9
 73
5
 74
0
 42
0.0000001
 43
0.0000001
 44
0.0000000001
 40
0.0
 40
0.0
 40
0.0
 40
0.0
 40
0.2526518673
 40
1.0
 40
1.0
 40
1.0
 40
1.0
 10
254.1569583305
 20
267.1130114972
 30
0.0
 10
254.0797363769
 20
267.1062118485
 30
0.0
 10
253.7744693073
 20
267.0752040099
 30
0.0
 10
253.4708336654
 20
267.0278048749
 30
0.0
 10
253.2460049967
 20
266.9827047274
 30
0.0
  0
SPLINE
  5
478
100
AcDbEntity
  8
0
100
AcDbSpline
 62
7
  6
CONTINUOUS
 70
0
 71
3
 72
9
 73
5
 74
0
 42
0.0000001
 43
0.0000001
 44
0.0000000001
 40
0.0
 40
0.0
 40
0.0
 40
0.0
 40
0.2577304138
 40
1.0
 40
1.0
 40
1.0
 40
1.0
 10
252.0823355857
 20
266.6488206151
 30
0.0
 10
252.0167764305
 20
266.6235834001
 30
0.0
 10
251.7640815105
 20
266.5214113157
 30
0.0
 10
251.5182419794
 20
266.4019150748
 30
0.0
 10
251.3420335049
 20
266.3024996136
 30
0.0
  0
SPLINE
  5
479
100
AcDbEntity
  8
0
100
AcDbSpline
 62
7
  6
CONTINUOUS
 70
0
 71
3
 72
9
 73
5
 74
0
 42
0.0000001
 43
0.0000001
 44
0.0000000001
 40
0.0
 40
0.0
 40
0.0
 40
0.0
 40
0.484354847
 40
1.0
 40
1.0
 40
1.0
 40
1.0
 10
253.8919073727
 20
264.904765188
 30
0.0
 10
253.3647057651
 20
264.5517383469
 30
0.0
 10
252.329776691
 20
263.7413003163
 30
0.0
 10
251.4036914351
 20
262.8102924835
 30
0.0
 10
250.9541225973
 20
262.3061585237
 30
0.0
  0
LINE
  5
47A
100
AcDbEntity
  8
0
100
AcDbLine
 62
7
  6
CONTINUOUS
 10
255.9708484979
 20
264.9047701852
 11
255.970997657
 21
265.0179337492
  0
SPLINE
  5
47B
100
AcDbEntity
  8
0
100
AcDbSpline
 62
7
  6
CONTINUOUS
 70
0
 71
3
 72
9
 73
5
 74
0
 42
0.0000001
 43
0.0000001
 44
0.0000000001
 40
0.0
 40
0.0
 40
0.0
 40
0.0
 40
0.2552562839
 40
1.0
 40
1.0
 40
1.0
 40
1.0
 10
257.1004464806
 20
264.05928368
 30
0.0
 10
257.0079979624
 20
264.1359188046
 30
0.0
 10
256.6422353413
 20
264.4317817472
 30
0.0
 10
256.2619647576
 20
264.7098347781
 30
0.0
 10
255.9708484979
 20
264.9047701852
 30
0.0
  0
SPLINE
  5
47C
100
AcDbEntity
  8
0
100
AcDbSpline
 62
7
  6
CONTINUOUS
 70
0
 71
3
 72
11
 73
7
 74
0
 42
0.0000001
 43
0.0000001
 44
0.0000000001
 40
0.0
 40
0.0
 40
0.0
 40
0.0
 40
0.3044631646
 40
0.567243343
 40
0.7919443247
 40
1.0
 40
1.0
 40
1.0
 40
1.0
 10
257.1004464806
 20
264.05928368
 30
0.0
 10
257.0876827216
 20
264.0698642051
 30
0.0
 10
257.0619399897
 20
264.0874542911
 30
0.0
 10
257.0208477854
 20
264.1023627991
 30
0.0
 10
256.9818258724
 20
264.1021669978
 30
0.0
 10
256.9601556107
 20
264.0901400167
 30
0.0
 10
256.9519517207
 20
264.0823266793
 30
0.0
  0
SPLINE
  5
47D
100
AcDbEntity
  8
0
100
AcDbSpline
 62
7
  6
CONTINUOUS
 70
0
 71
3
 72
9
 73
5
 74
0
 42
0.0000001
 43
0.0000001
 44
0.0000000001
 40
0.0
 40
0.0
 40
0.0
 40
0.0
 40
0.5264095727
 40
1.0
 40
1.0
 40
1.0
 40
1.0
 10
256.372125301
 20
263.6387956605
 30
0.0
 10
256.5113529359
 20
263.6897053923
 30
0.0
 10
256.7692135876
 20
263.8063144958
 30
0.0
 10
257.0017199153
 20
263.9696149804
 30
0.0
 10
257.1004440158
 20
264.0592856779
 30
0.0
  0
SPLINE
  5
47E
100
AcDbEntity
  8
0
100
AcDbSpline
 62
7
  6
CONTINUOUS
 70
0
 71
3
 72
9
 73
5
 74
0
 42
0.0000001
 43
0.0000001
 44
0.0000000001
 40
0.0
 40
0.0
 40
0.0
 40
0.0
 40
0.515645153
 40
1.0
 40
1.0
 40
1.0
 40
1.0
 10
173.9010235207
 20
216.9788136207
 30
0.0
 10
174.3505923584
 20
217.4829475805
 30
0.0
 10
175.2766776143
 20
218.4139554133
 30
0.0
 10
176.3116066885
 20
219.2243934439
 30
0.0
 10
176.8388082961
 20
219.577420285
 30
0.0
  0
SPLINE
  5
47F
100
AcDbEntity
  8
0
100
AcDbSpline
 62
7
  6
CONTINUOUS
 70
0
 71
3
 72
9
 73
5
 74
0
 42
0.0000001
 43
0.0000001
 44
0.0000000001
 40
0.0
 40
0.0
 40
0.0
 40
0.0
 40
0.2693011273
 40
1.0
 40
1.0
 40
1.0
 40
1.0
 10
178.1894238135
 20
220.3571938629
 30
0.0
 10
178.4260704532
 20
220.4719839683
 30
0.0
 10
179.3201799278
 20
220.8631957684
 30
0.0
 10
180.2884769762
 20
221.1050367157
 30
0.0
 10
181.0009982525
 20
221.1451658579
 30
0.0
  0
SPLINE
  5
480
100
AcDbEntity
  8
0
100
AcDbSpline
 62
7
  6
CONTINUOUS
 70
0
 71
3
 72
9
 73
5
 74
0
 42
0.0000001
 43
0.0000001
 44
0.0000000001
 40
0.0
 40
0.0
 40
0.0
 40
0.0
 40
0.520613643
 40
1.0
 40
1.0
 40
1.0
 40
1.0
 10
173.9010235207
 20
216.9788136207
 30
0.0
 10
173.8763092926
 20
216.9510997744
 30
0.0
 10
173.8379095993
 20
216.8896036339
 30
0.0
 10
173.8197251915
 20
216.8184784928
 30
0.0
 10
173.8197251915
 20
216.7842861631
 30
0.0
  0
SPLINE
  5
481
100
AcDbEntity
  8
0
100
AcDbSpline
 62
7
  6
CONTINUOUS
 70
0
 71
3
 72
9
 73
5
 74
0
 42
0.0000001
 43
0.0000001
 44
0.0000000001
 40
0.0
 40
0.0
 40
0.0
 40
0.0
 40
0.243853175
 40
1.0
 40
1.0
 40
1.0
 40
1.0
 10
180.9985793092
 20
221.1361538673
 30
0.0
 10
180.9578520244
 20
221.1614972168
 30
0.0
 10
180.7892411005
 20
221.2628508987
 30
0.0
 10
180.6146058242
 20
221.354091976
 30
0.0
 10
180.4801839011
 20
221.4177720107
 30
0.0
  0
SPLINE
  5
482
100
AcDbEntity
  8
0
100
AcDbSpline
 62
7
  6
CONTINUOUS
 70
0
 71
3
 72
9
 73
5
 74
0
 42
0.0000001
 43
0.0000001
 44
0.0000000001
 40
0.0
 40
0.0
 40
0.0
 40
0.0
 40
0.2430101388
 40
1.0
 40
1.0
 40
1.0
 40
1.0
 10
174.9808847056
 20
220.8160202518
 30
0.0
 10
175.0748321855
 20
220.785419188
 30
0.0
 10
175.4590732979
 20
220.6523062121
 30
0.0
 10
175.8335565249
 20
220.4915148962
 30
0.0
 10
176.1104826883
 20
220.3571888658
 30
0.0
  0
SPLINE
  5
483
100
AcDbEntity
  8
0
100
AcDbSpline
 62
7
  6
CONTINUOUS
 70
0
 71
3
 72
9
 73
5
 74
0
 42
0.0000001
 43
0.0000001
 44
0.0000000001
 40
0.0
 40
0.0
 40
0.0
 40
0.0
 40
0.2451044011
 40
1.0
 40
1.0
 40
1.0
 40
1.0
 10
177.4611094521
 20
219.5774217808
 30
0.0
 10
177.5486886701
 20
219.5187775452
 30
0.0
 10
177.9030093512
 20
219.2750632282
 30
0.0
 10
178.2454027514
 20
219.0141048591
 30
0.0
 10
178.4969999594
 20
218.8089743224
 30
0.0
  0
SPLINE
  5
484
100
AcDbEntity
  8
0
100
AcDbSpline
 62
7
  6
CONTINUOUS
 70
0
 71
3
 72
11
 73
7
 74
0
 42
0.0000001
 43
0.0000001
 44
0.0000000001
 40
0.0
 40
0.0
 40
0.0
 40
0.0
 40
0.2182371728
 40
0.4500432955
 40
0.7088773716
 40
1.0
 40
1.0
 40
1.0
 40
1.0
 10
180.4339336418
 20
221.5645138946
 30
0.0
 10
180.4411762389
 20
221.5610921182
 30
0.0
 10
180.4549177393
 20
221.5511787361
 30
0.0
 10
180.4697095795
 20
221.5292522095
 30
0.0
 10
180.4784754463
 20
221.5016147044
 30
0.0
 10
180.4801839011
 20
221.481349229
 30
0.0
 10
180.4801839011
 20
221.4706637951
 30
0.0
  0
SPLINE
  5
485
100
AcDbEntity
  8
0
100
AcDbSpline
 62
7
  6
CONTINUOUS
 70
0
 71
3
 72
19
 73
15
 74
0
 42
0.0000001
 43
0.0000001
 44
0.0000000001
 40
0.0
 40
0.0
 40
0.0
 40
0.0
 40
0.0453163974
 40
0.0918832297
 40
0.1408302275
 40
0.1930097475
 40
0.2489377556
 40
0.3087719415
 40
0.3723531931
 40
0.4392607423
 40
0.5802806583
 40
0.7255184706
 40
0.8676597304
 40
1.0
 40
1.0
 40
1.0
 40
1.0
 10
171.8999545463
 20
219.1274749791
 30
0.0
 10
171.8999545463
 20
219.2792933239
 30
0.0
 10
171.9378755217
 20
219.5883216046
 30
0.0
 10
172.1043539667
 20
220.0338009703
 30
0.0
 10
172.37249383
 20
220.4534908824
 30
0.0
 10
172.7331596976
 20
220.8399540026
 30
0.0
 10
173.1773999355
 20
221.1883302886
 30
0.0
 10
173.6963113488
 20
221.4941758356
 30
0.0
 10
174.2802780849
 20
221.7533155099
 30
0.0
 10
175.1462012349
 20
222.0359517654
 30
0.0
 10
176.3176942493
 20
222.2434755843
 30
0.0
 10
177.758856832
 20
222.2613406416
 30
0.0
 10
179.1553356681
 20
222.0515779714
 30
0.0
 10
180.0330699373
 20
221.7539350234
 30
0.0
 10
180.4339334586
 20
221.564513553
 30
0.0
  0
SPLINE
  5
486
100
AcDbEntity
  8
0
100
AcDbSpline
 62
7
  6
CONTINUOUS
 70
0
 71
3
 72
12
 73
8
 74
0
 42
0.0000001
 43
0.0000001
 44
0.0000000001
 40
0.0
 40
0.0
 40
0.0
 40
0.0
 40
0.2775944473
 40
0.532845474
 40
0.7708391448
 40
0.8859940091
 40
1.0
 40
1.0
 40
1.0
 40
1.0
 10
181.1722327426
 20
221.1382103695
 30
0.0
 10
181.3571694864
 20
221.007831067
 30
0.0
 10
181.693542567
 20
220.7286854823
 30
0.0
 10
182.0909397863
 20
220.2358781042
 30
0.0
 10
182.3024385968
 20
219.7801684797
 30
0.0
 10
182.3860065185
 20
219.4075027217
 30
0.0
 10
182.3999545463
 20
219.2204044391
 30
0.0
 10
182.3999545463
 20
219.1274749791
 30
0.0
  0
LINE
  5
487
100
AcDbEntity
  8
0
100
AcDbLine
 62
7
  6
CONTINUOUS
 10
178.1895745642
 20
220.249638907
 11
178.1894238135
 21
220.3571938629
  0
SPLINE
  5
488
100
AcDbEntity
  8
0
100
AcDbSpline
 62
7
  6
CONTINUOUS
 70
0
 71
3
 72
9
 73
5
 74
0
 42
0.0000001
 43
0.0000001
 44
0.0000000001
 40
0.0
 40
0.0
 40
0.0
 40
0.0
 40
0.2547354588
 40
1.0
 40
1.0
 40
1.0
 40
1.0
 10
180.8789522352
 20
216.9938799026
 30
0.0
 10
180.9090262955
 20
217.0114006034
 30
0.0
 10
181.0263484154
 20
217.0814353847
 30
0.0
 10
181.1406554291
 20
217.1565519534
 30
0.0
 10
181.2236792713
 20
217.2155102083
 30
0.0
  0
SPLINE
  5
489
100
AcDbEntity
  8
0
100
AcDbSpline
 62
7
  6
CONTINUOUS
 70
0
 71
3
 72
11
 73
7
 74
0
 42
0.0000001
 43
0.0000001
 44
0.0000000001
 40
0.0
 40
0.0
 40
0.0
 40
0.0
 40
0.2824561624
 40
0.5398992102
 40
0.7765134939
 40
1.0
 40
1.0
 40
1.0
 40
1.0
 10
181.2236792713
 20
217.2155102083
 30
0.0
 10
181.3937615575
 20
217.3362918358
 30
0.0
 10
181.7027217331
 20
217.5917920441
 30
0.0
 10
182.0721180025
 20
218.0355694904
 30
0.0
 10
182.3146855921
 20
218.5123506417
 30
0.0
 10
182.3856729444
 20
218.8498088201
 30
0.0
 10
182.3963072017
 20
219.0145197376
 30
0.0
  0
LINE
  5
48A
100
AcDbEntity
  8
0
100
AcDbLine
 62
7
  6
CONTINUOUS
 10
178.1894264044
 20
219.9979132593
 11
178.1895755635
 21
220.1110768233
  0
SPLINE
  5
48B
100
AcDbEntity
  8
0
100
AcDbSpline
 62
7
  6
CONTINUOUS
 70
0
 71
3
 72
9
 73
5
 74
0
 42
0.0000001
 43
0.0000001
 44
0.0000000001
 40
0.0
 40
0.0
 40
0.0
 40
0.0
 40
0.2552562894
 40
1.0
 40
1.0
 40
1.0
 40
1.0
 10
179.3190236001
 20
219.1524273677
 30
0.0
 10
179.2265751577
 20
219.2290624548
 30
0.0
 10
178.8608127827
 20
219.5249251745
 30
0.0
 10
178.4805424563
 20
219.8029779914
 30
0.0
 10
178.1894264044
 20
219.9979132593
 30
0.0
  0
SPLINE
  5
48C
100
AcDbEntity
  8
0
100
AcDbSpline
 62
7
  6
CONTINUOUS
 70
0
 71
3
 72
11
 73
7
 74
0
 42
0.0000001
 43
0.0000001
 44
0.0000000001
 40
0.0
 40
0.0
 40
0.0
 40
0.0
 40
0.3044643417
 40
0.5672434925
 40
0.7919427529
 40
1.0
 40
1.0
 40
1.0
 40
1.0
 10
179.3190236001
 20
219.1524273677
 30
0.0
 10
179.3062599168
 20
219.1630078834
 30
0.0
 10
179.280517403
 20
219.1805978542
 30
0.0
 10
179.2394252213
 20
219.1955057798
 30
0.0
 10
179.200403755
 20
219.1953080254
 30
0.0
 10
179.1787338642
 20
219.18328134
 30
0.0
 10
179.1705297681
 20
219.1754682219
 30
0.0
  0
SPLINE
  5
48D
100
AcDbEntity
  8
0
100
AcDbSpline
 62
7
  6
CONTINUOUS
 70
0
 71
3
 72
9
 73
5
 74
0
 42
0.0000001
 43
0.0000001
 44
0.0000000001
 40
0.0
 40
0.0
 40
0.0
 40
0.0
 40
0.5264090342
 40
1.0
 40
1.0
 40
1.0
 40
1.0
 10
178.5907049561
 20
218.7319372851
 30
0.0
 10
178.7299333133
 20
218.7828442573
 30
0.0
 10
178.9877904422
 20
218.899461984
 30
0.0
 10
179.2202967517
 20
219.0627596772
 30
0.0
 10
179.3190238064
 20
219.1524271902
 30
0.0
  0
SPLINE
  5
48E
100
AcDbEntity
  8
0
100
AcDbSpline
 62
7
  6
CONTINUOUS
 70
0
 71
3
 72
15
 73
11
 74
0
 42
0.0000001
 43
0.0000001
 44
0.0000000001
 40
0.0
 40
0.0
 40
0.0
 40
0.0
 40
0.117674606
 40
0.2427402258
 40
0.3728031199
 40
0.5050887537
 40
0.6366776981
 40
0.7646975814
 40
0.8865187086
 40
1.0
 40
1.0
 40
1.0
 40
1.0
 10
173.8197251915
 20
216.7842861631
 30
0.0
 10
174.0760977029
 20
216.6628341705
 30
0.0
 10
174.6239606226
 20
216.4513349674
 30
0.0
 10
175.4976983317
 20
216.23293491
 30
0.0
 10
176.4252393415
 20
216.1086364116
 30
0.0
 10
177.3763013545
 20
216.0825876137
 30
0.0
 10
178.3199998207
 20
216.1555846442
 30
0.0
 10
179.225732165
 20
216.3253209358
 30
0.0
 10
180.0639816422
 20
216.5861821618
 30
0.0
 10
180.5809882945
 20
216.8252267109
 30
0.0
 10
180.8192582956
 20
216.9596568063
 30
0.0
  0
SPLINE
  5
48F
100
AcDbEntity
  8
0
100
AcDbSpline
 62
7
  6
CONTINUOUS
 70
0
 71
3
 72
9
 73
5
 74
0
 42
0.0000001
 43
0.0000001
 44
0.0000000001
 40
0.0
 40
0.0
 40
0.0
 40
0.0
 40
0.47792765
 40
1.0
 40
1.0
 40
1.0
 40
1.0
 10
178.1608893945
 20
220.078734442
 30
0.0
 10
178.1305173113
 20
220.0612181878
 30
0.0
 10
178.0758186856
 20
220.0095321827
 30
0.0
 10
178.0391436686
 20
219.9445166198
 30
0.0
 10
178.0264676809
 20
219.9083755101
 30
0.0
  0
SPLINE
  5
490
100
AcDbEntity
  8
0
100
AcDbSpline
 62
7
  6
CONTINUOUS
 70
0
 71
3
 72
10
 73
6
 74
0
 42
0.0000001
 43
0.0000001
 44
0.0000000001
 40
0.0
 40
0.0
 40
0.0
 40
0.0
 40
0.2312298112
 40
0.6007570808
 40
1.0
 40
1.0
 40
1.0
 40
1.0
 10
180.398885572
 20
221.5713165886
 30
0.0
 10
180.1629637551
 20
221.5634553132
 30
0.0
 10
179.5509362232
 20
221.5030639602
 30
0.0
 10
178.5559537964
 20
221.2556312212
 30
0.0
 10
177.8278064087
 20
220.9555596071
 30
0.0
 10
177.4611007966
 20
220.7776818401
 30
0.0
  0
SPLINE
  5
491
100
AcDbEntity
  8
0
100
AcDbSpline
 62
7
  6
CONTINUOUS
 70
0
 71
3
 72
9
 73
5
 74
0
 42
0.0000001
 43
0.0000001
 44
0.0000000001
 40
0.0
 40
0.0
 40
0.0
 40
0.0
 40
0.2423660525
 40
1.0
 40
1.0
 40
1.0
 40
1.0
 10
180.3322177521
 20
221.6022258717
 30
0.0
 10
180.2587710902
 20
221.6356998904
 30
0.0
 10
179.9528143041
 20
221.7673726437
 30
0.0
 10
179.6363005949
 20
221.8740886015
 30
0.0
 10
179.3933538813
 20
221.942202572
 30
0.0
  0
SPLINE
  5
492
100
AcDbEntity
  8
0
100
AcDbSpline
 62
7
  6
CONTINUOUS
 70
0
 71
3
 72
9
 73
5
 74
0
 42
0.0000001
 43
0.0000001
 44
0.0000000001
 40
0.0
 40
0.0
 40
0.0
 40
0.0
 40
0.2462949979
 40
1.0
 40
1.0
 40
1.0
 40
1.0
 10
179.3933538813
 20
221.942202572
 30
0.0
 10
179.3333489101
 20
221.9590259189
 30
0.0
 10
179.0888456992
 20
222.0241919829
 30
0.0
 10
178.8410711918
 20
222.0769815079
 30
0.0
 10
178.653276282
 20
222.1101753879
 30
0.0
  0
SPLINE
  5
493
100
AcDbEntity
  8
0
100
AcDbSpline
 62
7
  6
CONTINUOUS
 70
0
 71
3
 72
9
 73
5
 74
0
 42
0.0000001
 43
0.0000001
 44
0.0000000001
 40
0.0
 40
0.0
 40
0.0
 40
0.0
 40
0.2525913754
 40
1.0
 40
1.0
 40
1.0
 40
1.0
 10
176.2514878026
 20
222.1943288549
 30
0.0
 10
176.1815732241
 20
222.1871576026
 30
0.0
 10
175.9051439697
 20
222.1553870928
 30
0.0
 10
175.6302551134
 20
222.1100142174
 30
0.0
 10
175.4265577974
 20
222.0681238728
 30
0.0
  0
SPLINE
  5
494
100
AcDbEntity
  8
0
100
AcDbSpline
 62
7
  6
CONTINUOUS
 70
0
 71
3
 72
9
 73
5
 74
0
 42
0.0000001
 43
0.0000001
 44
0.0000000001
 40
0.0
 40
0.0
 40
0.0
 40
0.0
 40
0.2536871147
 40
1.0
 40
1.0
 40
1.0
 40
1.0
 10
175.4265577974
 20
222.0681238728
 30
0.0
 10
175.368325332
 20
222.0561483687
 30
0.0
 10
175.1393228825
 20
222.0063585444
 30
0.0
 10
174.9125693256
 20
221.9461166228
 30
0.0
 10
174.7453234164
 20
221.8949524685
 30
0.0
  0
SPLINE
  5
495
100
AcDbEntity
  8
0
100
AcDbSpline
 62
7
  6
CONTINUOUS
 70
0
 71
3
 72
9
 73
5
 74
0
 42
0.0000001
 43
0.0000001
 44
0.0000000001
 40
0.0
 40
0.0
 40
0.0
 40
0.0
 40
0.2565862419
 40
1.0
 40
1.0
 40
1.0
 40
1.0
 10
174.7453234164
 20
221.8949524685
 30
0.0
 10
174.6756743887
 20
221.8736453189
 30
0.0
 10
174.4055502654
 20
221.7863909561
 30
0.0
 10
174.1408710285
 20
221.6819451694
 30
0.0
 10
173.9491620158
 20
221.5937392485
 30
0.0
  0
SPLINE
  5
496
100
AcDbEntity
  8
0
100
AcDbSpline
 62
7
  6
CONTINUOUS
 70
0
 71
3
 72
9
 73
5
 74
0
 42
0.0000001
 43
0.0000001
 44
0.0000000001
 40
0.0
 40
0.0
 40
0.0
 40
0.0
 40
0.2603840906
 40
1.0
 40
1.0
 40
1.0
 40
1.0
 10
173.9491620158
 20
221.5937392485
 30
0.0
 10
173.8759896253
 20
221.560072401
 30
0.0
 10
173.5978051104
 20
221.4248159173
 30
0.0
 10
173.3311796135
 20
221.2649595127
 30
0.0
 10
173.1454301439
 20
221.1313867902
 30
0.0
  0
SPLINE
  5
497
100
AcDbEntity
  8
0
100
AcDbSpline
 62
7
  6
CONTINUOUS
 70
0
 71
3
 72
9
 73
5
 74
0
 42
0.0000001
 43
0.0000001
 44
0.0000000001
 40
0.0
 40
0.0
 40
0.0
 40
0.0
 40
0.2643193587
 40
1.0
 40
1.0
 40
1.0
 40
1.0
 10
173.1454301439
 20
221.1313867902
 30
0.0
 10
173.0776116133
 20
221.082618383
 30
0.0
 10
172.8268510455
 20
220.8903951349
 30
0.0
 10
172.600181555
 20
220.6649648662
 30
0.0
 10
172.4582100645
 20
220.4808485401
 30
0.0
  0
SPLINE
  5
498
100
AcDbEntity
  8
0
100
AcDbSpline
 62
7
  6
CONTINUOUS
 70
0
 71
3
 72
11
 73
7
 74
0
 42
0.0000001
 43
0.0000001
 44
0.0000000001
 40
0.0
 40
0.0
 40
0.0
 40
0.0
 40
0.2632961687
 40
0.5152707558
 40
0.7594491171
 40
1.0
 40
1.0
 40
1.0
 40
1.0
 10
172.3627712174
 20
220.3485566304
 30
0.0
 10
172.3039954144
 20
220.2611852044
 30
0.0
 10
172.1999223401
 20
220.082408445
 30
0.0
 10
172.0869365711
 20
219.7992135809
 30
0.0
 10
172.0223208352
 20
219.5104471476
 30
0.0
 10
172.0121551512
 20
219.315764193
 30
0.0
 10
172.0152695857
 20
219.219609961
 30
0.0
  0
SPLINE
  5
499
100
AcDbEntity
  8
0
100
AcDbSpline
 62
7
  6
CONTINUOUS
 70
0
 71
3
 72
12
 73
8
 74
0
 42
0.0000001
 43
0.0000001
 44
0.0000000001
 40
0.0
 40
0.0
 40
0.0
 40
0.0
 40
0.1109705641
 40
0.2237799303
 40
0.4597663296
 40
0.7169780302
 40
1.0
 40
1.0
 40
1.0
 40
1.0
 10
172.0152695857
 20
219.219609961
 30
0.0
 10
172.0179431234
 20
219.1370678605
 30
0.0
 10
172.0354679538
 20
218.9707581146
 30
0.0
 10
172.1193165346
 20
218.6380409387
 30
0.0
 10
172.3195242482
 20
218.2278374378
 30
0.0
 10
172.688989966
 20
217.7785723333
 30
0.0
 10
173.0006955111
 20
217.5208677388
 30
0.0
 10
173.1727005038
 20
217.3993015979
 30
0.0
  0
SPLINE
  5
49A
100
AcDbEntity
  8
0
100
AcDbSpline
 62
7
  6
CONTINUOUS
 70
0
 71
3
 72
11
 73
7
 74
0
 42
0.0000001
 43
0.0000001
 44
0.0000000001
 40
0.0
 40
0.0
 40
0.0
 40
0.0
 40
0.250005099
 40
0.4375110285
 40
0.6250336809
 40
1.0
 40
1.0
 40
1.0
 40
1.0
 10
177.269950218
 20
220.7805722596
 30
0.0
 10
177.2858819192
 20
220.7804383321
 30
0.0
 10
177.3137528718
 20
220.779537305
 30
0.0
 10
177.3535858098
 20
220.7792752632
 30
0.0
 10
177.4013850033
 20
220.7798631427
 30
0.0
 10
177.4372107256
 20
220.7782033443
 30
0.0
 10
177.4611007966
 20
220.7776818401
 30
0.0
  0
SPLINE
  5
49B
100
AcDbEntity
  8
0
100
AcDbSpline
 62
7
  6
CONTINUOUS
 70
0
 71
3
 72
11
 73
7
 74
0
 42
0.0000001
 43
0.0000001
 44
0.0000000001
 40
0.0
 40
0.0
 40
0.0
 40
0.0
 40
0.2499896384
 40
0.4374690483
 40
0.6249982325
 40
1.0
 40
1.0
 40
1.0
 40
1.0
 10
176.8387996406
 20
220.7776803443
 30
0.0
 10
176.8547271794
 20
220.7780281083
 30
0.0
 10
176.8825846757
 20
220.779209302
 30
0.0
 10
176.9224169982
 20
220.7796385194
 30
0.0
 10
176.9702147783
 20
220.7790109336
 30
0.0
 10
177.006052963
 20
220.780370058
 30
0.0
 10
177.029950218
 20
220.7805716827
 30
0.0
  0
SPLINE
  5
49C
100
AcDbEntity
  8
0
100
AcDbSpline
 62
7
  6
CONTINUOUS
 70
0
 71
3
 72
9
 73
5
 74
0
 42
0.0000001
 43
0.0000001
 44
0.0000000001
 40
0.0
 40
0.0
 40
0.0
 40
0.0
 40
0.484354847
 40
1.0
 40
1.0
 40
1.0
 40
1.0
 10
176.1104852792
 20
219.9979082622
 30
0.0
 10
175.5832836716
 20
219.644881421
 30
0.0
 10
174.5483545974
 20
218.8344433904
 30
0.0
 10
173.6222693415
 20
217.9034355576
 30
0.0
 10
173.1727005038
 20
217.3993015979
 30
0.0
  0
SPLINE
  5
49D
100
AcDbEntity
  8
0
100
AcDbSpline
 62
7
  6
CONTINUOUS
 70
0
 71
3
 72
9
 73
5
 74
0
 42
0.0000001
 43
0.0000001
 44
0.0000000001
 40
0.0
 40
0.0
 40
0.0
 40
0.0
 40
0.2331128546
 40
1.0
 40
1.0
 40
1.0
 40
1.0
 10
175.461624617
 20
218.5104409154
 30
0.0
 10
175.4574377483
 20
218.5097003359
 30
0.0
 10
175.4396501916
 20
218.505546449
 30
0.0
 10
175.4227925927
 20
218.497911507
 30
0.0
 10
175.4106826284
 20
218.4909113098
 30
0.0
  0
SPLINE
  5
49E
100
AcDbEntity
  8
0
100
AcDbSpline
 62
7
  6
CONTINUOUS
 70
0
 71
3
 72
9
 73
5
 74
0
 42
0.0000001
 43
0.0000001
 44
0.0000000001
 40
0.0
 40
0.0
 40
0.0
 40
0.0
 40
0.4793813863
 40
1.0
 40
1.0
 40
1.0
 40
1.0
 10
173.0914021746
 20
217.2047741403
 30
0.0
 10
173.0914021746
 20
217.2389661158
 30
0.0
 10
173.1095864115
 20
217.3100912548
 30
0.0
 10
173.1479860394
 20
217.3715874866
 30
0.0
 10
173.1727005038
 20
217.3993015979
 30
0.0
  0
SPLINE
  5
49F
100
AcDbEntity
  8
0
100
AcDbSpline
 62
7
  6
CONTINUOUS
 70
0
 71
3
 72
9
 73
5
 74
0
 42
0.0000001
 43
0.0000001
 44
0.0000000001
 40
0.0
 40
0.0
 40
0.0
 40
0.0
 40
0.4861998949
 40
1.0
 40
1.0
 40
1.0
 40
1.0
 10
171.9264348686
 20
218.8234276752
 30
0.0
 10
171.9506785119
 20
218.6845989587
 30
0.0
 10
172.0346216008
 20
218.4042453028
 30
0.0
 10
172.1759075577
 20
218.1487369739
 30
0.0
 10
172.2593151863
 20
218.0253543856
 30
0.0
  0
SPLINE
  5
4A0
100
AcDbEntity
  8
0
100
AcDbSpline
 62
7
  6
CONTINUOUS
 70
0
 71
3
 72
9
 73
5
 74
0
 42
0.0000001
 43
0.0000001
 44
0.0000000001
 40
0.0
 40
0.0
 40
0.0
 40
0.0
 40
0.2352654981
 40
1.0
 40
1.0
 40
1.0
 40
1.0
 10
172.3172528293
 20
217.9432199341
 30
0.0
 10
172.3669085588
 20
217.8756754789
 30
0.0
 10
172.5918126984
 20
217.5987626545
 30
0.0
 10
172.8657270418
 20
217.3638451616
 30
0.0
 10
173.0884564308
 20
217.2068486434
 30
0.0
  0
LINE
  5
4A1
100
AcDbEntity
  8
0
100
AcDbLine
 62
7
  6
CONTINUOUS
 10
176.1103345284
 20
220.1110718254
 11
176.1104852792
 21
219.9979082622
  0
SPLINE
  5
4A2
100
AcDbEntity
  8
0
100
AcDbSpline
 62
7
  6
CONTINUOUS
 70
0
 71
3
 72
9
 73
5
 74
0
 42
0.0000001
 43
0.0000001
 44
0.0000000001
 40
0.0
 40
0.0
 40
0.0
 40
0.0
 40
0.5238380512
 40
1.0
 40
1.0
 40
1.0
 40
1.0
 10
175.8708667617
 20
221.0561684761
 30
0.0
 10
175.754154114
 20
221.0139096626
 30
0.0
 10
175.5361473996
 20
220.9190350669
 30
0.0
 10
175.3344400149
 20
220.7921429106
 30
0.0
 10
175.2453628187
 20
220.7228902184
 30
0.0
  0
SPLINE
  5
4A3
100
AcDbEntity
  8
0
100
AcDbSpline
 62
7
  6
CONTINUOUS
 70
0
 71
3
 72
18
 73
14
 74
0
 42
0.0000001
 43
0.0000001
 44
0.0000000001
 40
0.0
 40
0.0
 40
0.0
 40
0.0
 40
0.1479714792
 40
0.2813769868
 40
0.4018168492
 40
0.4585166843
 40
0.5137391698
 40
0.5683494455
 40
0.6232625467
 40
0.67936904
 40
0.7374663952
 40
0.8618489467
 40
1.0
 40
1.0
 40
1.0
 40
1.0
 10
180.7392976813
 20
217.1544875215
 30
0.0
 10
180.9536664708
 20
217.2754327379
 30
0.0
 10
181.3454163169
 20
217.5364318243
 30
0.0
 10
181.8254130748
 20
218.0080273662
 30
0.0
 10
182.1024611016
 20
218.4518748432
 30
0.0
 10
182.2314442337
 20
218.8176260368
 30
0.0
 10
182.2829818947
 20
219.0909664611
 30
0.0
 10
182.2904453644
 20
219.3660716525
 30
0.0
 10
182.2538128152
 20
219.6402925223
 30
0.0
 10
182.1734853853
 20
219.9110218932
 30
0.0
 10
182.0057502444
 20
220.2720679289
 30
0.0
 10
181.683043064
 20
220.7040650827
 30
0.0
 10
181.3493691339
 20
220.9904811431
 30
0.0
 10
181.1631534508
 20
221.1251326306
 30
0.0
  0
LINE
  5
4A4
100
AcDbEntity
  8
0
100
AcDbLine
 62
7
  6
CONTINUOUS
 10
176.1104826883
 20
220.3571888658
 11
176.1103335292
 21
220.2496339091
  0
SPLINE
  5
4A5
100
AcDbEntity
  8
0
100
AcDbSpline
 62
7
  6
CONTINUOUS
 70
0
 71
3
 72
15
 73
11
 74
0
 42
0.0000001
 43
0.0000001
 44
0.0000000001
 40
0.0
 40
0.0
 40
0.0
 40
0.0
 40
0.1177453366
 40
0.242848178
 40
0.3729177581
 40
0.5051879234
 40
0.6367480201
 40
0.7647361515
 40
0.8865311882
 40
1.0
 40
1.0
 40
1.0
 40
1.0
 10
173.9010235207
 20
216.9788136207
 30
0.0
 10
174.1518234911
 20
216.8605326581
 30
0.0
 10
174.6875455129
 20
216.6546201519
 30
0.0
 10
175.5415706523
 20
216.4421580538
 30
0.0
 10
176.4478284538
 20
216.3215137535
 30
0.0
 10
177.3768221654
 20
216.2967106388
 30
0.0
 10
178.2984769029
 20
216.3685066524
 30
0.0
 10
179.1829913517
 20
216.5346461831
 30
0.0
 10
180.0016243721
 20
216.789649782
 30
0.0
 10
180.5065628836
 20
217.0231803452
 30
0.0
 10
180.7392976813
 20
217.1544875215
 30
0.0
  0
SPLINE
  5
4A6
100
AcDbEntity
  8
0
100
AcDbSpline
 62
7
  6
CONTINUOUS
 70
0
 71
3
 72
10
 73
6
 74
0
 42
0.0000001
 43
0.0000001
 44
0.0000000001
 40
0.0
 40
0.0
 40
0.0
 40
0.0
 40
0.535458367
 40
0.7841419849
 40
1.0
 40
1.0
 40
1.0
 40
1.0
 10
175.8708659764
 20
221.056169209
 30
0.0
 10
175.8561821291
 20
221.0980360358
 30
0.0
 10
175.8218158125
 20
221.1558175076
 30
0.0
 10
175.760593492
 20
221.2121458263
 30
0.0
 10
175.7262119054
 20
221.2309705229
 30
0.0
 10
175.7092058122
 20
221.2365102535
 30
0.0
  0
SPLINE
  5
4A7
100
AcDbEntity
  8
0
100
AcDbSpline
 62
7
  6
CONTINUOUS
 70
0
 71
3
 72
9
 73
5
 74
0
 42
0.0000001
 43
0.0000001
 44
0.0000000001
 40
0.0
 40
0.0
 40
0.0
 40
0.0
 40
0.5273806838
 40
1.0
 40
1.0
 40
1.0
 40
1.0
 10
175.7092058843
 20
221.2365103084
 30
0.0
 10
175.5700991747
 20
221.1846168203
 30
0.0
 10
175.3128292323
 20
221.0672021858
 30
0.0
 10
175.0799460593
 20
220.9048493465
 30
0.0
 10
174.9808871694
 20
220.816019404
 30
0.0
  0
SPLINE
  5
4A8
100
AcDbEntity
  8
0
100
AcDbSpline
 62
7
  6
CONTINUOUS
 70
0
 71
3
 72
9
 73
5
 74
0
 42
0.0000001
 43
0.0000001
 44
0.0000000001
 40
0.0
 40
0.0
 40
0.0
 40
0.0
 40
0.2571392431
 40
1.0
 40
1.0
 40
1.0
 40
1.0
 10
176.8387996406
 20
220.7776803443
 30
0.0
 10
176.7447334503
 20
220.8233081672
 30
0.0
 10
176.3761700843
 20
220.9949875314
 30
0.0
 10
175.9963892523
 20
221.1429672896
 30
0.0
 10
175.7092058122
 20
221.2365102535
 30
0.0
  0
SPLINE
  5
4A9
100
AcDbEntity
  8
0
100
AcDbSpline
 62
7
  6
CONTINUOUS
 70
0
 71
3
 72
12
 73
8
 74
0
 42
0.0000001
 43
0.0000001
 44
0.0000000001
 40
0.0
 40
0.0
 40
0.0
 40
0.0
 40
0.1077782897
 40
0.217632353
 40
0.4503133885
 40
0.7094547432
 40
1.0
 40
1.0
 40
1.0
 40
1.0
 10
69.2623989788
 20
284.3301315487
 30
0.0
 10
69.2623803591
 20
284.2497215362
 30
0.0
 10
69.2501320321
 20
284.0870910441
 30
0.0
 10
69.1756562788
 20
283.7584293017
 30
0.0
 10
68.9821839003
 20
283.3468711276
 30
0.0
 10
68.6113342373
 20
282.8905466071
 30
0.0
 10
68.2934542726
 20
282.627402212
 30
0.0
 10
68.1163830448
 20
282.5023678197
 30
0.0
  0
SPLINE
  5
4AA
100
AcDbEntity
  8
0
100
AcDbSpline
 62
7
  6
CONTINUOUS
 70
0
 71
3
 72
9
 73
5
 74
0
 42
0.0000001
 43
0.0000001
 44
0.0000000001
 40
0.0
 40
0.0
 40
0.0
 40
0.0
 40
0.2446566755
 40
1.0
 40
1.0
 40
1.0
 40
1.0
 10
68.1163830448
 20
282.5023678197
 30
0.0
 10
68.0886993795
 20
282.4828196959
 30
0.0
 10
67.974581296
 20
282.4042913524
 30
0.0
 10
67.8567592071
 20
282.3311747493
 30
0.0
 10
67.7661469725
 20
282.2788600635
 30
0.0
  0
SPLINE
  5
4AB
100
AcDbEntity
  8
0
100
AcDbSpline
 62
7
  6
CONTINUOUS
 70
0
 71
3
 72
15
 73
11
 74
0
 42
0.0000001
 43
0.0000001
 44
0.0000000001
 40
0.0
 40
0.0
 40
0.0
 40
0.0
 40
0.1125734078
 40
0.2340777761
 40
0.3621645881
 40
0.494051848
 40
0.6267416449
 40
0.7571887228
 40
0.8824763884
 40
1.0
 40
1.0
 40
1.0
 40
1.0
 10
67.7358238126
 20
282.2614952346
 30
0.0
 10
67.4974847059
 20
282.1261163366
 30
0.0
 10
66.9785529523
 20
281.8847523301
 30
0.0
 10
66.1351756165
 20
281.6203195825
 30
0.0
 10
65.2206418053
 20
281.4468623762
 30
0.0
 10
64.2658145341
 20
281.3707120157
 30
0.0
 10
63.3025284656
 20
281.3944883483
 30
0.0
 10
62.3628855352
 20
281.5174058524
 30
0.0
 10
61.4785414604
 20
281.7350141139
 30
0.0
 10
60.9241166867
 20
281.9462410652
 30
0.0
 10
60.664947018
 20
282.0675547121
 30
0.0
  0
SPLINE
  5
4AC
100
AcDbEntity
  8
0
100
AcDbSpline
 62
7
  6
CONTINUOUS
 70
0
 71
3
 72
9
 73
5
 74
0
 42
0.0000001
 43
0.0000001
 44
0.0000000001
 40
0.0
 40
0.0
 40
0.0
 40
0.0
 40
0.2602889934
 40
1.0
 40
1.0
 40
1.0
 40
1.0
 10
60.6473555153
 20
282.0758253157
 30
0.0
 10
60.5802771545
 20
282.1075008463
 30
0.0
 10
60.3249855776
 20
282.2341705012
 30
0.0
 10
60.0796138572
 20
282.3813987874
 30
0.0
 10
59.9074390868
 20
282.503047843
 30
0.0
  0
SPLINE
  5
4AD
100
AcDbEntity
  8
0
100
AcDbSpline
 62
7
  6
CONTINUOUS
 70
0
 71
3
 72
12
 73
8
 74
0
 42
0.0000001
 43
0.0000001
 44
0.0000000001
 40
0.0
 40
0.0
 40
0.0
 40
0.0
 40
0.2905175126
 40
0.5496589212
 40
0.782344039
 40
0.8922024125
 40
1.0
 40
1.0
 40
1.0
 40
1.0
 10
59.9074390868
 20
282.503047843
 30
0.0
 10
59.7304448449
 20
282.6281020673
 30
0.0
 10
59.4127124341
 20
282.8913020977
 30
0.0
 10
59.0420871651
 20
283.3476819508
 30
0.0
 10
58.8488276796
 20
283.759281391
 30
0.0
 10
58.7745361993
 20
284.0879579454
 30
0.0
 10
58.7623794464
 20
284.2505891206
 30
0.0
 10
58.7623980668
 20
284.3310021241
 30
0.0
  0
SPLINE
  5
4AE
100
AcDbEntity
  8
0
100
AcDbSpline
 62
7
  6
CONTINUOUS
 70
0
 71
3
 72
23
 73
19
 74
0
 42
0.0000001
 43
0.0000001
 44
0.0000000001
 40
0.0
 40
0.0
 40
0.0
 40
0.0
 40
0.0622799494
 40
0.1283008062
 40
0.1974263308
 40
0.268833566
 40
0.3415807434
 40
0.4146575645
 40
0.4870378218
 40
0.5577296719
 40
0.6258277727
 40
0.6905691926
 40
0.7513953754
 40
0.8080215932
 40
0.8605111749
 40
0.9093384951
 40
0.9554110995
 40
1.0
 40
1.0
 40
1.0
 40
1.0
 10
57.4173450973
 20
287.2427352327
 30
0.0
 10
57.7548949005
 20
287.4376185391
 30
0.0
 10
58.4770556229
 20
287.793787416
 30
0.0
 10
59.6406925546
 20
288.215298643
 30
0.0
 10
60.8956561019
 20
288.5334923833
 30
0.0
 10
62.2158052302
 20
288.7420640896
 30
0.0
 10
63.5736677717
 20
288.836925666
 30
0.0
 10
64.9407445114
 20
288.8161479148
 30
0.0
 10
66.288321318
 20
288.6801573905
 30
0.0
 10
67.5881738648
 20
288.4316812387
 30
0.0
 10
68.8132816271
 20
288.0756138492
 30
0.0
 10
69.9384667426
 20
287.618727798
 30
0.0
 10
70.9408784802
 20
287.0692495451
 30
0.0
 10
71.80015416
 20
286.4362848666
 30
0.0
 10
72.4979534569
 20
285.7294880407
 30
0.0
 10
73.0167886376
 20
284.959134766
 30
0.0
 10
73.3389005481
 20
284.1396666729
 30
0.0
 10
73.4123985228
 20
283.569877624
 30
0.0
 10
73.4123985228
 20
283.2908256548
 30
0.0
  0
SPLINE
  5
4AF
100
AcDbEntity
  8
0
100
AcDbSpline
 62
7
  6
CONTINUOUS
 70
0
 71
3
 72
14
 73
10
 74
0
 42
0.0000001
 43
0.0000001
 44
0.0000000001
 40
0.0
 40
0.0
 40
0.0
 40
0.0
 40
0.1103990457
 40
0.2224579254
 40
0.3377712523
 40
0.4576873601
 40
0.5832962905
 40
0.7153534783
 40
1.0
 40
1.0
 40
1.0
 40
1.0
 10
73.4123985228
 20
283.2908256548
 30
0.0
 10
73.4123985228
 20
283.1042104016
 30
0.0
 10
73.3802015153
 20
282.7274199804
 30
0.0
 10
73.2368114451
 20
282.172264504
 30
0.0
 10
73.0013646447
 20
281.6319859942
 30
0.0
 10
72.6780014005
 20
281.1125275459
 30
0.0
 10
72.271420679
 20
280.6183204026
 30
0.0
 10
71.6087404729
 20
279.9826374165
 30
0.0
 10
71.0241476109
 20
279.5794939938
 30
0.0
 10
70.6074519483
 20
279.3389160769
 30
0.0
  0
SPLINE
  5
4B0
100
AcDbEntity
  8
0
100
AcDbSpline
 62
7
  6
CONTINUOUS
 70
0
 71
3
 72
9
 73
5
 74
0
 42
0.0000001
 43
0.0000001
 44
0.0000000001
 40
0.0
 40
0.0
 40
0.0
 40
0.0
 40
0.4799403848
 40
1.0
 40
1.0
 40
1.0
 40
1.0
 10
70.6074519483
 20
279.3389160769
 30
0.0
 10
70.0720645037
 20
279.0298118367
 30
0.0
 10
68.8890480787
 20
278.5002592676
 30
0.0
 10
67.6395406669
 20
278.1672452629
 30
0.0
 10
66.9819787448
 20
278.0393258905
 30
0.0
  0
SPLINE
  5
4B1
100
AcDbEntity
  8
0
100
AcDbSpline
 62
7
  6
CONTINUOUS
 70
0
 71
3
 72
11
 73
7
 74
0
 42
0.0000001
 43
0.0000001
 44
0.0000000001
 40
0.0
 40
0.0
 40
0.0
 40
0.0
 40
0.2547895159
 40
0.5128214891
 40
0.7642108865
 40
1.0
 40
1.0
 40
1.0
 40
1.0
 10
66.9819787448
 20
278.0393258905
 30
0.0
 10
66.2481741521
 20
277.8965745848
 30
0.0
 10
64.7474185322
 20
277.7221167353
 30
0.0
 10
62.4988167145
 20
277.7765196206
 30
0.0
 10
60.3351166967
 20
278.1384159247
 30
0.0
 10
58.9708491514
 20
278.5919724745
 30
0.0
 10
58.3384037507
 20
278.8723615025
 30
0.0
  0
SPLINE
  5
4B2
100
AcDbEntity
  8
0
100
AcDbSpline
 62
7
  6
CONTINUOUS
 70
0
 71
3
 72
10
 73
6
 74
0
 42
0.0000001
 43
0.0000001
 44
0.0000000001
 40
0.0
 40
0.0
 40
0.0
 40
0.0
 40
0.2732009581
 40
0.5312003474
 40
1.0
 40
1.0
 40
1.0
 40
1.0
 10
58.3384037507
 20
278.8723615025
 30
0.0
 10
58.0403366762
 20
279.0045068818
 30
0.0
 10
57.4718175666
 20
279.2885277113
 30
0.0
 10
56.4656901381
 20
279.9313553292
 30
0.0
 10
55.8156836005
 20
280.5274369701
 30
0.0
 10
55.4716583366
 20
280.9686452291
 30
0.0
  0
SPLINE
  5
4B3
100
AcDbEntity
  8
0
100
AcDbSpline
 62
7
  6
CONTINUOUS
 70
0
 71
3
 72
11
 73
7
 74
0
 42
0.0000001
 43
0.0000001
 44
0.0000000001
 40
0.0
 40
0.0
 40
0.0
 40
0.0
 40
0.2637329194
 40
0.5160045149
 40
0.7601026927
 40
1.0
 40
1.0
 40
1.0
 40
1.0
 10
55.4716583366
 20
280.9686452291
 30
0.0
 10
55.3354430408
 20
281.1433397059
 30
0.0
 10
55.0913518274
 20
281.5036363808
 30
0.0
 10
54.8173724887
 20
282.08333089
 30
0.0
 10
54.6500389668
 20
282.6818490542
 30
0.0
 10
54.6123985228
 20
283.0893227531
 30
0.0
 10
54.6123985228
 20
283.2908256548
 30
0.0
  0
SPLINE
  5
4B4
100
AcDbEntity
  8
0
100
AcDbSpline
 62
7
  6
CONTINUOUS
 70
0
 71
3
 72
14
 73
10
 74
0
 42
0.0000001
 43
0.0000001
 44
0.0000000001
 40
0.0
 40
0.0
 40
0.0
 40
0.0
 40
0.1103990457
 40
0.2224579254
 40
0.3377712523
 40
0.4576873601
 40
0.5832962905
 40
0.7153534783
 40
1.0
 40
1.0
 40
1.0
 40
1.0
 10
54.6123985228
 20
283.2908256548
 30
0.0
 10
54.6123985228
 20
283.4774409079
 30
0.0
 10
54.6445955303
 20
283.8542313291
 30
0.0
 10
54.7879856005
 20
284.4093868055
 30
0.0
 10
55.0234324009
 20
284.9496653153
 30
0.0
 10
55.3467956451
 20
285.4691237636
 30
0.0
 10
55.7533763666
 20
285.9633309069
 30
0.0
 10
56.4160565728
 20
286.599013893
 30
0.0
 10
57.0006494348
 20
287.0021573158
 30
0.0
 10
57.4173450973
 20
287.2427352327
 30
0.0
  0
SPLINE
  5
4B5
100
AcDbEntity
  8
0
100
AcDbSpline
 62
7
  6
CONTINUOUS
 70
0
 71
3
 72
9
 73
5
 74
0
 42
0.0000001
 43
0.0000001
 44
0.0000000001
 40
0.0
 40
0.0
 40
0.0
 40
0.0
 40
0.4847064629
 40
1.0
 40
1.0
 40
1.0
 40
1.0
 10
70.5378406447
 20
279.7172924219
 30
0.0
 10
70.2080444376
 20
279.5268856295
 30
0.0
 10
69.5016030378
 20
279.1782505093
 30
0.0
 10
68.7617224643
 20
278.9094881148
 30
0.0
 10
68.3749984167
 20
278.7897170684
 30
0.0
  0
SPLINE
  5
4B6
100
AcDbEntity
  8
0
100
AcDbSpline
 62
7
  6
CONTINUOUS
 70
0
 71
3
 72
9
 73
5
 74
0
 42
0.0000001
 43
0.0000001
 44
0.0000000001
 40
0.0
 40
0.0
 40
0.0
 40
0.0
 40
0.2441512877
 40
1.0
 40
1.0
 40
1.0
 40
1.0
 10
68.2663579205
 20
278.7566060587
 30
0.0
 10
68.0883504912
 20
278.703225091
 30
0.0
 10
67.3545240284
 20
278.5005755697
 30
0.0
 10
66.6038789485
 20
278.3600215399
 30
0.0
 10
66.033323487
 20
278.2860966676
 30
0.0
  0
SPLINE
  5
4B7
100
AcDbEntity
  8
0
100
AcDbSpline
 62
7
  6
CONTINUOUS
 70
0
 71
3
 72
11
 73
7
 74
0
 42
0.0000001
 43
0.0000001
 44
0.0000000001
 40
0.0
 40
0.0
 40
0.0
 40
0.0
 40
0.2530662524
 40
0.5074883921
 40
0.7581070404
 40
1.0
 40
1.0
 40
1.0
 40
1.0
 10
66.033323487
 20
278.2860966676
 30
0.0
 10
65.5034077198
 20
278.217437338
 30
0.0
 10
64.4328011068
 20
278.135379246
 30
0.0
 10
62.8299316115
 20
278.1736008416
 30
0.0
 10
61.2624708888
 20
278.3706481412
 30
0.0
 10
60.247777424
 20
278.6098496993
 30
0.0
 10
59.7585518485
 20
278.7565704154
 30
0.0
  0
SPLINE
  5
4B8
100
AcDbEntity
  8
0
100
AcDbSpline
 62
7
  6
CONTINUOUS
 70
0
 71
3
 72
9
 73
5
 74
0
 42
0.0000001
 43
0.0000001
 44
0.0000000001
 40
0.0
 40
0.0
 40
0.0
 40
0.0
 40
0.2556525289
 40
1.0
 40
1.0
 40
1.0
 40
1.0
 10
59.7585518485
 20
278.7565704154
 30
0.0
 10
59.6471305746
 20
278.7899861032
 30
0.0
 10
59.2131270214
 20
278.9266632138
 30
0.0
 10
58.7866481578
 20
279.0875998293
 30
0.0
 10
58.4758434594
 20
279.2221648161
 30
0.0
  0
SPLINE
  5
4B9
100
AcDbEntity
  8
0
100
AcDbSpline
 62
7
  6
CONTINUOUS
 70
0
 71
3
 72
9
 73
5
 74
0
 42
0.0000001
 43
0.0000001
 44
0.0000000001
 40
0.0
 40
0.0
 40
0.0
 40
0.0
 40
0.5210099333
 40
1.0
 40
1.0
 40
1.0
 40
1.0
 10
58.4758434594
 20
279.2221648161
 30
0.0
 10
58.0850832006
 20
279.3913471011
 30
0.0
 10
57.3534784568
 20
279.7613356948
 30
0.0
 10
56.6816842055
 20
280.2338719285
 30
0.0
 10
56.38316143
 20
280.4871171895
 30
0.0
  0
SPLINE
  5
4BA
100
AcDbEntity
  8
0
100
AcDbSpline
 62
7
  6
CONTINUOUS
 70
0
 71
3
 72
9
 73
5
 74
0
 42
0.0000001
 43
0.0000001
 44
0.0000000001
 40
0.0
 40
0.0
 40
0.0
 40
0.0
 40
0.2543244441
 40
1.0
 40
1.0
 40
1.0
 40
1.0
 10
56.38316143
 20
280.4871171895
 30
0.0
 10
56.3490197234
 20
280.5160805588
 30
0.0
 10
56.2159723324
 20
280.6313646582
 30
0.0
 10
56.0878243437
 20
280.7523291351
 30
0.0
 10
55.9955852896
 20
280.8457314947
 30
0.0
  0
SPLINE
  5
4BB
100
AcDbEntity
  8
0
100
AcDbSpline
 62
7
  6
CONTINUOUS
 70
0
 71
3
 72
15
 73
11
 74
0
 42
0.0000001
 43
0.0000001
 44
0.0000000001
 40
0.0
 40
0.0
 40
0.0
 40
0.0
 40
0.1351568902
 40
0.2634115498
 40
0.38637972
 40
0.5061213573
 40
0.625001467
 40
0.7454715868
 40
0.8698248429
 40
1.0
 40
1.0
 40
1.0
 40
1.0
 10
55.6785430832
 20
281.1964068739
 30
0.0
 10
55.5475647717
 20
281.355409816
 30
0.0
 10
55.3113234673
 20
281.6818332035
 30
0.0
 10
55.0373133887
 20
282.2055872257
 30
0.0
 10
54.8572219858
 20
282.7443131036
 30
0.0
 10
54.7738413334
 20
283.29195772
 30
0.0
 10
54.7885617406
 20
283.8419760975
 30
0.0
 10
54.9011351622
 20
284.3876296658
 30
0.0
 10
55.1096371074
 20
284.9223995953
 30
0.0
 10
55.3055610576
 20
285.2591374013
 30
0.0
 10
55.4167562553
 20
285.4234607285
 30
0.0
  0
SPLINE
  5
4BC
100
AcDbEntity
  8
0
100
AcDbSpline
 62
7
  6
CONTINUOUS
 70
0
 71
3
 72
9
 73
5
 74
0
 42
0.0000001
 43
0.0000001
 44
0.0000000001
 40
0.0
 40
0.0
 40
0.0
 40
0.0
 40
0.2375677765
 40
1.0
 40
1.0
 40
1.0
 40
1.0
 10
55.4401914504
 20
285.4577422204
 30
0.0
 10
55.5099477466
 20
285.5587570793
 30
0.0
 10
55.8212632903
 20
285.9717129762
 30
0.0
 10
56.196916295
 20
286.3340881277
 30
0.0
 10
56.5033335521
 20
286.5817277229
 30
0.0
  0
SPLINE
  5
4BD
100
AcDbEntity
  8
0
100
AcDbSpline
 62
7
  6
CONTINUOUS
 70
0
 71
3
 72
9
 73
5
 74
0
 42
0.0000001
 43
0.0000001
 44
0.0000000001
 40
0.0
 40
0.0
 40
0.0
 40
0.0
 40
0.2453796241
 40
1.0
 40
1.0
 40
1.0
 40
1.0
 10
56.5033335521
 20
286.5817277229
 30
0.0
 10
56.5435818628
 20
286.6142555103
 30
0.0
 10
56.7091458657
 20
286.7449050798
 30
0.0
 10
56.8806619566
 20
286.8679742395
 30
0.0
 10
57.0127546146
 20
286.9567367023
 30
0.0
  0
SPLINE
  5
4BE
100
AcDbEntity
  8
0
100
AcDbSpline
 62
7
  6
CONTINUOUS
 70
0
 71
3
 72
17
 73
13
 74
0
 42
0.0000001
 43
0.0000001
 44
0.0000000001
 40
0.0
 40
0.0
 40
0.0
 40
0.0
 40
0.1215721677
 40
0.2530774226
 40
0.3902927497
 40
0.5283133791
 40
0.6621437197
 40
0.7260920046
 40
0.7873780277
 40
0.8456196653
 40
0.9005528198
 40
1.0
 40
1.0
 40
1.0
 40
1.0
 10
57.7814403435
 20
287.4147138442
 30
0.0
 10
58.3409741479
 20
287.7103907292
 30
0.0
 10
59.5691257576
 20
288.209043415
 30
0.0
 10
61.5546819742
 20
288.6697882267
 30
0.0
 10
63.6705169293
 20
288.8568723112
 30
0.0
 10
65.803816741
 20
288.7600293087
 30
0.0
 10
67.5295696717
 20
288.4423067754
 30
0.0
 10
68.8201407885
 20
288.0466577249
 30
0.0
 10
69.7081976176
 20
287.6921278558
 30
0.0
 10
70.5192992651
 20
287.2798234686
 30
0.0
 10
71.4510491082
 20
286.68139058
 30
0.0
 10
72.0558328774
 20
286.1340716791
 30
0.0
 10
72.3805185911
 20
285.7308701529
 30
0.0
  0
SPLINE
  5
4BF
100
AcDbEntity
  8
0
100
AcDbSpline
 62
7
  6
CONTINUOUS
 70
0
 71
3
 72
15
 73
11
 74
0
 42
0.0000001
 43
0.0000001
 44
0.0000000001
 40
0.0
 40
0.0
 40
0.0
 40
0.0
 40
0.1318832764
 40
0.2562823294
 40
0.3755486932
 40
0.4926434055
 40
0.6108126972
 40
0.7331589318
 40
0.8622684486
 40
1.0
 40
1.0
 40
1.0
 40
1.0
 10
72.3805185911
 20
285.7308701529
 30
0.0
 10
72.5292312405
 20
285.5461956673
 30
0.0
 10
72.7925956782
 20
285.1652786471
 30
0.0
 10
73.0771095278
 20
284.5489727389
 30
0.0
 10
73.2327052809
 20
283.914849495
 30
0.0
 10
73.2555225693
 20
283.2732816511
 30
0.0
 10
73.1449955227
 20
282.6354138886
 30
0.0
 10
72.9038740206
 20
282.0118945438
 30
0.0
 10
72.5374307123
 20
281.4120484931
 30
0.0
 10
72.2245594276
 20
281.0456837434
 30
0.0
 10
72.0515780661
 20
280.8684996442
 30
0.0
  0
SPLINE
  5
4C0
100
AcDbEntity
  8
0
100
AcDbSpline
 62
7
  6
CONTINUOUS
 70
0
 71
3
 72
9
 73
5
 74
0
 42
0.0000001
 43
0.0000001
 44
0.0000000001
 40
0.0
 40
0.0
 40
0.0
 40
0.0
 40
0.4811336866
 40
1.0
 40
1.0
 40
1.0
 40
1.0
 10
72.0515780661
 20
280.8684996442
 30
0.0
 10
71.838019322
 20
280.6497522984
 30
0.0
 10
71.3563397218
 20
280.2312883303
 30
0.0
 10
70.8233554439
 20
279.882133484
 30
0.0
 10
70.5378406447
 20
279.7172924219
 30
0.0
  0
SPLINE
  5
4C1
100
AcDbEntity
  8
0
100
AcDbSpline
 62
7
  6
CONTINUOUS
 70
0
 71
3
 72
18
 73
14
 74
0
 42
0.0000001
 43
0.0000001
 44
0.0000000001
 40
0.0
 40
0.0
 40
0.0
 40
0.0
 40
0.1485679046
 40
0.2831453101
 40
0.4051755838
 40
0.4626747151
 40
0.5185965708
 40
0.5737161357
 40
0.6288654478
 40
0.6848744901
 40
0.7425119974
 40
0.8649355242
 40
1.0
 40
1.0
 40
1.0
 40
1.0
 10
60.11434008
 20
286.7361388835
 30
0.0
 10
59.8970910516
 20
286.6107108472
 30
0.0
 10
59.4990986332
 20
286.3412406077
 30
0.0
 10
59.0078325911
 20
285.8590838624
 30
0.0
 10
58.717831531
 20
285.4077783682
 30
0.0
 10
58.575361047
 20
285.0353406658
 30
0.0
 10
58.5126231039
 20
284.7566851861
 30
0.0
 10
58.4926256054
 20
284.4757013365
 30
0.0
 10
58.5156573582
 20
284.1948028676
 30
0.0
 10
58.5813990174
 20
283.9164062375
 30
0.0
 10
58.7279240708
 20
283.5444122177
 30
0.0
 10
59.022598658
 20
283.0943527861
 30
0.0
 10
59.3373681772
 20
282.7898867913
 30
0.0
 10
59.514151724
 20
282.6458124908
 30
0.0
  0
SPLINE
  5
4C2
100
AcDbEntity
  8
0
100
AcDbSpline
 62
7
  6
CONTINUOUS
 70
0
 71
3
 72
15
 73
11
 74
0
 42
0.0000001
 43
0.0000001
 44
0.0000000001
 40
0.0
 40
0.0
 40
0.0
 40
0.0
 40
0.1072595737
 40
0.2261006724
 40
0.3541463722
 40
0.4879481175
 40
0.6234713034
 40
0.7565170756
 40
0.8831202816
 40
1.0
 40
1.0
 40
1.0
 40
1.0
 10
59.514151724
 20
282.6458124908
 30
0.0
 10
59.7576721805
 20
282.4473492283
 30
0.0
 10
60.320830294
 20
282.0889693747
 30
0.0
 10
61.28343621
 20
281.6922406756
 30
0.0
 10
62.3689732969
 20
281.422063097
 30
0.0
 10
63.5284894057
 20
281.2907239663
 30
0.0
 10
64.7098936553
 20
281.3038847426
 30
0.0
 10
65.8598626492
 20
281.4611112256
 30
0.0
 10
66.9261902229
 20
281.7550753735
 30
0.0
 10
67.5808915358
 20
282.0478058473
 30
0.0
 10
67.8785508049
 20
282.2168791663
 30
0.0
  0
SPLINE
  5
4C3
100
AcDbEntity
  8
0
100
AcDbSpline
 62
7
  6
CONTINUOUS
 70
0
 71
3
 72
9
 73
5
 74
0
 42
0.0000001
 43
0.0000001
 44
0.0000000001
 40
0.0
 40
0.0
 40
0.0
 40
0.0
 40
0.2584194246
 40
1.0
 40
1.0
 40
1.0
 40
1.0
 10
67.9104569656
 20
282.2351505269
 30
0.0
 10
67.9646968766
 20
282.2664657672
 30
0.0
 10
68.1723520904
 20
282.3914363229
 30
0.0
 10
68.3708560959
 20
282.5319269693
 30
0.0
 10
68.5101985457
 20
282.6454461304
 30
0.0
  0
SPLINE
  5
4C4
100
AcDbEntity
  8
0
100
AcDbSpline
 62
7
  6
CONTINUOUS
 70
0
 71
3
 72
28
 73
24
 74
0
 42
0.0000001
 43
0.0000001
 44
0.0000000001
 40
0.0
 40
0.0
 40
0.0
 40
0.0
 40
0.0549405168
 40
0.1044960474
 40
0.1278126605
 40
0.150517606
 40
0.1729727079
 40
0.1955602141
 40
0.2186513571
 40
0.2425773615
 40
0.2938547106
 40
0.3216370392
 40
0.3509274455
 40
0.3817353491
 40
0.4140213404
 40
0.4826214311
 40
0.5557313448
 40
0.6319203641
 40
0.709526185
 40
0.7867863711
 40
0.8619639892
 40
0.9334664243
 40
1.0
 40
1.0
 40
1.0
 40
1.0
 10
68.5101985457
 20
282.6454461304
 30
0.0
 10
68.6966032625
 20
282.7973058622
 30
0.0
 10
69.0266231084
 20
283.1192589912
 30
0.0
 10
69.3274500543
 20
283.5992271109
 30
0.0
 10
69.467224534
 20
283.9950134892
 30
0.0
 10
69.5227062604
 20
284.2907840884
 30
0.0
 10
69.5301674951
 20
284.5884582154
 30
0.0
 10
69.4895040524
 20
284.8851164532
 30
0.0
 10
69.4012097252
 20
285.1779028649
 30
0.0
 10
69.2174039788
 20
285.5682529695
 30
0.0
 10
68.94214774
 20
285.932003672
 30
0.0
 10
68.598788481
 20
286.2596125963
 30
0.0
 10
68.2951805893
 20
286.4967580054
 30
0.0
 10
67.9552456441
 20
286.7164808371
 30
0.0
 10
67.4470254058
 20
286.9893820804
 30
0.0
 10
66.7374759519
 20
287.2729477606
 30
0.0
 10
65.8123685057
 20
287.5129184261
 30
0.0
 10
64.8270436672
 20
287.6515804042
 30
0.0
 10
63.8145181435
 20
287.6842772286
 30
0.0
 10
62.8086156748
 20
287.6099591408
 30
0.0
 10
61.8428867813
 20
287.4310333286
 30
0.0
 10
60.9497022108
 20
287.1535920489
 30
0.0
 10
60.3994222036
 20
286.8982166187
 30
0.0
 10
60.1462462408
 20
286.7544102441
 30
0.0
  0
SPLINE
  5
4C5
100
AcDbEntity
  8
0
100
AcDbSpline
 62
7
  6
CONTINUOUS
 70
0
 71
3
 72
12
 73
8
 74
0
 42
0.0000001
 43
0.0000001
 44
0.0000000001
 40
0.0
 40
0.0
 40
0.0
 40
0.0
 40
0.1077782897
 40
0.217632353
 40
0.4503133885
 40
0.7094547432
 40
1.0
 40
1.0
 40
1.0
 40
1.0
 10
260.1813770959
 20
263.9184677514
 30
0.0
 10
260.1813584761
 20
263.8380577388
 30
0.0
 10
260.1691101491
 20
263.6754272467
 30
0.0
 10
260.0946343958
 20
263.3467655043
 30
0.0
 10
259.9011620174
 20
262.9352073302
 30
0.0
 10
259.5303123544
 20
262.4788828097
 30
0.0
 10
259.2124323896
 20
262.2157384146
 30
0.0
 10
259.0353611619
 20
262.0907040223
 30
0.0
  0
SPLINE
  5
4C6
100
AcDbEntity
  8
0
100
AcDbSpline
 62
7
  6
CONTINUOUS
 70
0
 71
3
 72
9
 73
5
 74
0
 42
0.0000001
 43
0.0000001
 44
0.0000000001
 40
0.0
 40
0.0
 40
0.0
 40
0.0
 40
0.2446566755
 40
1.0
 40
1.0
 40
1.0
 40
1.0
 10
259.0353611619
 20
262.0907040223
 30
0.0
 10
259.0076774965
 20
262.0711558985
 30
0.0
 10
258.8935594131
 20
261.992627555
 30
0.0
 10
258.7757373242
 20
261.9195109519
 30
0.0
 10
258.6851250896
 20
261.8671962661
 30
0.0
  0
SPLINE
  5
4C7
100
AcDbEntity
  8
0
100
AcDbSpline
 62
7
  6
CONTINUOUS
 70
0
 71
3
 72
15
 73
11
 74
0
 42
0.0000001
 43
0.0000001
 44
0.0000000001
 40
0.0
 40
0.0
 40
0.0
 40
0.0
 40
0.1125734078
 40
0.2340777761
 40
0.3621645881
 40
0.494051848
 40
0.6267416449
 40
0.7571887228
 40
0.8824763884
 40
1.0
 40
1.0
 40
1.0
 40
1.0
 10
258.6548019296
 20
261.8498314372
 30
0.0
 10
258.4164628229
 20
261.7144525392
 30
0.0
 10
257.8975310694
 20
261.4730885327
 30
0.0
 10
257.0541537335
 20
261.2086557851
 30
0.0
 10
256.1396199223
 20
261.0351985788
 30
0.0
 10
255.1847926511
 20
260.9590482183
 30
0.0
 10
254.2215065827
 20
260.9828245509
 30
0.0
 10
253.2818636523
 20
261.105742055
 30
0.0
 10
252.3975195774
 20
261.3233503165
 30
0.0
 10
251.8430948038
 20
261.5345772678
 30
0.0
 10
251.5839251351
 20
261.6558909147
 30
0.0
  0
SPLINE
  5
4C8
100
AcDbEntity
  8
0
100
AcDbSpline
 62
7
  6
CONTINUOUS
 70
0
 71
3
 72
9
 73
5
 74
0
 42
0.0000001
 43
0.0000001
 44
0.0000000001
 40
0.0
 40
0.0
 40
0.0
 40
0.0
 40
0.2602889934
 40
1.0
 40
1.0
 40
1.0
 40
1.0
 10
251.5663336323
 20
261.6641615183
 30
0.0
 10
251.4992552715
 20
261.695837049
 30
0.0
 10
251.2439636946
 20
261.8225067038
 30
0.0
 10
250.9985919743
 20
261.96973499
 30
0.0
 10
250.8264172038
 20
262.0913840456
 30
0.0
  0
SPLINE
  5
4C9
100
AcDbEntity
  8
0
100
AcDbSpline
 62
7
  6
CONTINUOUS
 70
0
 71
3
 72
12
 73
8
 74
0
 42
0.0000001
 43
0.0000001
 44
0.0000000001
 40
0.0
 40
0.0
 40
0.0
 40
0.0
 40
0.2905175126
 40
0.5496589212
 40
0.782344039
 40
0.8922024125
 40
1.0
 40
1.0
 40
1.0
 40
1.0
 10
250.8264172038
 20
262.0913840456
 30
0.0
 10
250.6494229619
 20
262.2164382699
 30
0.0
 10
250.3316905511
 20
262.4796383003
 30
0.0
 10
249.9610652821
 20
262.9360181534
 30
0.0
 10
249.7678057967
 20
263.3476175936
 30
0.0
 10
249.6935143164
 20
263.676294148
 30
0.0
 10
249.6813575634
 20
263.8389253233
 30
0.0
 10
249.6813761838
 20
263.9193383267
 30
0.0
  0
SPLINE
  5
4CA
100
AcDbEntity
  8
0
100
AcDbSpline
 62
7
  6
CONTINUOUS
 70
0
 71
3
 72
23
 73
19
 74
0
 42
0.0000001
 43
0.0000001
 44
0.0000000001
 40
0.0
 40
0.0
 40
0.0
 40
0.0
 40
0.0622799494
 40
0.1283008062
 40
0.1974263308
 40
0.268833566
 40
0.3415807434
 40
0.4146575645
 40
0.4870378218
 40
0.5577296719
 40
0.6258277727
 40
0.6905691926
 40
0.7513953754
 40
0.8080215932
 40
0.8605111749
 40
0.9093384951
 40
0.9554110995
 40
1.0
 40
1.0
 40
1.0
 40
1.0
 10
248.3363232144
 20
266.8310714353
 30
0.0
 10
248.6738730176
 20
267.0259547417
 30
0.0
 10
249.3960337399
 20
267.3821236186
 30
0.0
 10
250.5596706717
 20
267.8036348456
 30
0.0
 10
251.814634219
 20
268.121828586
 30
0.0
 10
253.1347833472
 20
268.3304002922
 30
0.0
 10
254.4926458888
 20
268.4252618686
 30
0.0
 10
255.8597226284
 20
268.4044841174
 30
0.0
 10
257.207299435
 20
268.2684935931
 30
0.0
 10
258.5071519819
 20
268.0200174413
 30
0.0
 10
259.7322597442
 20
267.6639500518
 30
0.0
 10
260.8574448596
 20
267.2070640006
 30
0.0
 10
261.8598565972
 20
266.6575857477
 30
0.0
 10
262.7191322771
 20
266.0246210692
 30
0.0
 10
263.4169315739
 20
265.3178242433
 30
0.0
 10
263.9357667547
 20
264.5474709686
 30
0.0
 10
264.2578786651
 20
263.7280028755
 30
0.0
 10
264.3313766399
 20
263.1582138267
 30
0.0
 10
264.3313766399
 20
262.8791618574
 30
0.0
  0
SPLINE
  5
4CB
100
AcDbEntity
  8
0
100
AcDbSpline
 62
7
  6
CONTINUOUS
 70
0
 71
3
 72
11
 73
7
 74
0
 42
0.0000001
 43
0.0000001
 44
0.0000000001
 40
0.0
 40
0.0
 40
0.0
 40
0.0
 40
0.2399388001
 40
0.484066425
 40
0.736322727
 40
1.0
 40
1.0
 40
1.0
 40
1.0
 10
264.3313766399
 20
262.8791618574
 30
0.0
 10
264.3313766399
 20
262.678164015
 30
0.0
 10
264.2939299894
 20
262.2717268241
 30
0.0
 10
264.1274373867
 20
261.6746674531
 30
0.0
 10
263.8547986147
 20
261.0962898322
 30
0.0
 10
263.6118589493
 20
260.7366999567
 30
0.0
 10
263.4762735001
 20
260.5623262716
 30
0.0
  0
SPLINE
  5
4CC
100
AcDbEntity
  8
0
100
AcDbSpline
 62
7
  6
CONTINUOUS
 70
0
 71
3
 72
10
 73
6
 74
0
 42
0.0000001
 43
0.0000001
 44
0.0000000001
 40
0.0
 40
0.0
 40
0.0
 40
0.0
 40
0.2329039556
 40
0.6031474522
 40
1.0
 40
1.0
 40
1.0
 40
1.0
 10
263.4762735001
 20
260.5623262716
 30
0.0
 10
263.354347358
 20
260.405519543
 30
0.0
 10
263.0140114675
 20
260.0181841201
 30
0.0
 10
262.3682726866
 20
259.4562899472
 30
0.0
 10
261.8195402762
 20
259.0964785285
 30
0.0
 10
261.5264300653
 20
258.9272522795
 30
0.0
  0
SPLINE
  5
4CD
100
AcDbEntity
  8
0
100
AcDbSpline
 62
7
  6
CONTINUOUS
 70
0
 71
3
 72
9
 73
5
 74
0
 42
0.0000001
 43
0.0000001
 44
0.0000000001
 40
0.0
 40
0.0
 40
0.0
 40
0.0
 40
0.4799403848
 40
1.0
 40
1.0
 40
1.0
 40
1.0
 10
261.5264300653
 20
258.9272522795
 30
0.0
 10
260.9910426207
 20
258.6181480393
 30
0.0
 10
259.8080261957
 20
258.0885954702
 30
0.0
 10
258.5585187839
 20
257.7555814655
 30
0.0
 10
257.9009568618
 20
257.6276620931
 30
0.0
  0
SPLINE
  5
4CE
100
AcDbEntity
  8
0
100
AcDbSpline
 62
7
  6
CONTINUOUS
 70
0
 71
3
 72
20
 73
16
 74
0
 42
0.0000001
 43
0.0000001
 44
0.0000000001
 40
0.0
 40
0.0
 40
0.0
 40
0.0
 40
0.1459682599
 40
0.2939025275
 40
0.4384562158
 40
0.5079491797
 40
0.5748387685
 40
0.6387057637
 40
0.6992589808
 40
0.7563666652
 40
0.8100881973
 40
0.860700282
 40
0.9087122631
 40
0.9548462606
 40
1.0
 40
1.0
 40
1.0
 40
1.0
 10
257.9009568618
 20
257.6276620931
 30
0.0
 10
257.1889306951
 20
257.4891474722
 30
0.0
 10
255.7327917963
 20
257.3166206366
 30
0.0
 10
253.5482907507
 20
257.3560776983
 30
0.0
 10
251.7642186253
 20
257.6352221089
 30
0.0
 10
250.417244352
 20
258.0069081006
 30
0.0
 10
249.481416125
 20
258.3488317596
 30
0.0
 10
248.6195194648
 20
258.7532293768
 30
0.0
 10
247.8429464192
 20
259.2154243654
 30
0.0
 10
247.1620789341
 20
259.7303146773
 30
0.0
 10
246.5863960202
 20
260.2925656148
 30
0.0
 10
246.1247941402
 20
260.8963986928
 30
0.0
 10
245.786009906
 20
261.5352146704
 30
0.0
 10
245.5782734388
 20
262.1998403451
 30
0.0
 10
245.5313766399
 20
262.6547750461
 30
0.0
 10
245.5313766399
 20
262.8791618574
 30
0.0
  0
SPLINE
  5
4CF
100
AcDbEntity
  8
0
100
AcDbSpline
 62
7
  6
CONTINUOUS
 70
0
 71
3
 72
14
 73
10
 74
0
 42
0.0000001
 43
0.0000001
 44
0.0000000001
 40
0.0
 40
0.0
 40
0.0
 40
0.0
 40
0.1103990457
 40
0.2224579254
 40
0.3377712523
 40
0.4576873601
 40
0.5832962905
 40
0.7153534783
 40
1.0
 40
1.0
 40
1.0
 40
1.0
 10
245.5313766399
 20
262.8791618574
 30
0.0
 10
245.5313766399
 20
263.0657771105
 30
0.0
 10
245.5635736473
 20
263.4425675317
 30
0.0
 10
245.7069637176
 20
263.9977230081
 30
0.0
 10
245.9424105179
 20
264.5380015179
 30
0.0
 10
246.2657737622
 20
265.0574599663
 30
0.0
 10
246.6723544837
 20
265.5516671096
 30
0.0
 10
247.3350346898
 20
266.1873500957
 30
0.0
 10
247.9196275518
 20
266.5904935184
 30
0.0
 10
248.3363232144
 20
266.8310714353
 30
0.0
  0
SPLINE
  5
4D0
100
AcDbEntity
  8
0
100
AcDbSpline
 62
7
  6
CONTINUOUS
 70
0
 71
3
 72
9
 73
5
 74
0
 42
0.0000001
 43
0.0000001
 44
0.0000000001
 40
0.0
 40
0.0
 40
0.0
 40
0.0
 40
0.4847064629
 40
1.0
 40
1.0
 40
1.0
 40
1.0
 10
261.4568187618
 20
259.3056286245
 30
0.0
 10
261.1270225546
 20
259.1152218321
 30
0.0
 10
260.4205811548
 20
258.766586712
 30
0.0
 10
259.6807005813
 20
258.4978243175
 30
0.0
 10
259.2939765337
 20
258.378053271
 30
0.0
  0
SPLINE
  5
4D1
100
AcDbEntity
  8
0
100
AcDbSpline
 62
7
  6
CONTINUOUS
 70
0
 71
3
 72
9
 73
5
 74
0
 42
0.0000001
 43
0.0000001
 44
0.0000000001
 40
0.0
 40
0.0
 40
0.0
 40
0.0
 40
0.2441512877
 40
1.0
 40
1.0
 40
1.0
 40
1.0
 10
259.1853360376
 20
258.3449422613
 30
0.0
 10
259.0073286083
 20
258.2915612937
 30
0.0
 10
258.2735021455
 20
258.0889117723
 30
0.0
 10
257.5228570655
 20
257.9483577425
 30
0.0
 10
256.952301604
 20
257.8744328702
 30
0.0
  0
SPLINE
  5
4D2
100
AcDbEntity
  8
0
100
AcDbSpline
 62
7
  6
CONTINUOUS
 70
0
 71
3
 72
11
 73
7
 74
0
 42
0.0000001
 43
0.0000001
 44
0.0000000001
 40
0.0
 40
0.0
 40
0.0
 40
0.0
 40
0.2530662524
 40
0.5074883921
 40
0.7581070404
 40
1.0
 40
1.0
 40
1.0
 40
1.0
 10
256.952301604
 20
257.8744328702
 30
0.0
 10
256.4223858369
 20
257.8057735407
 30
0.0
 10
255.3517792238
 20
257.7237154486
 30
0.0
 10
253.7489097285
 20
257.7619370442
 30
0.0
 10
252.1814490059
 20
257.9589843439
 30
0.0
 10
251.166755541
 20
258.1981859019
 30
0.0
 10
250.6775299656
 20
258.344906618
 30
0.0
  0
SPLINE
  5
4D3
100
AcDbEntity
  8
0
100
AcDbSpline
 62
7
  6
CONTINUOUS
 70
0
 71
3
 72
11
 73
7
 74
0
 42
0.0000001
 43
0.0000001
 44
0.0000000001
 40
0.0
 40
0.0
 40
0.0
 40
0.0
 40
0.2751064034
 40
0.5345815051
 40
0.776477445
 40
1.0
 40
1.0
 40
1.0
 40
1.0
 10
250.6775299656
 20
258.344906618
 30
0.0
 10
250.295894238
 20
258.4593607063
 30
0.0
 10
249.564073553
 20
258.7166550895
 30
0.0
 10
248.546582762
 20
259.2010741845
 30
0.0
 10
247.6575936288
 20
259.7646066873
 30
0.0
 10
247.1420301456
 20
260.2037321809
 30
0.0
 10
246.9145634066
 20
260.4340676973
 30
0.0
  0
SPLINE
  5
4D4
100
AcDbEntity
  8
0
100
AcDbSpline
 62
7
  6
CONTINUOUS
 70
0
 71
3
 72
15
 73
11
 74
0
 42
0.0000001
 43
0.0000001
 44
0.0000000001
 40
0.0
 40
0.0
 40
0.0
 40
0.0
 40
0.138976291
 40
0.2696798368
 40
0.3936673892
 40
0.5131139282
 40
0.6306796678
 40
0.7492443116
 40
0.8715689783
 40
1.0
 40
1.0
 40
1.0
 40
1.0
 10
246.9145634066
 20
260.4340676973
 30
0.0
 10
246.7503709288
 20
260.6003309468
 30
0.0
 10
246.451384572
 20
260.9434401382
 30
0.0
 10
246.092770899
 20
261.5028593431
 30
0.0
 10
245.8437607847
 20
262.0840222816
 30
0.0
 10
245.7088185154
 20
262.6794854847
 30
0.0
 10
245.6906617382
 20
263.2808471303
 30
0.0
 10
245.7897225393
 20
263.8791040413
 30
0.0
 10
246.0038023724
 20
264.4654124364
 30
0.0
 10
246.2147139934
 20
264.8329540339
 30
0.0
 10
246.3357343723
 20
265.0117969312
 30
0.0
  0
SPLINE
  5
4D5
100
AcDbEntity
  8
0
100
AcDbSpline
 62
7
  6
CONTINUOUS
 70
0
 71
3
 72
9
 73
5
 74
0
 42
0.0000001
 43
0.0000001
 44
0.0000000001
 40
0.0
 40
0.0
 40
0.0
 40
0.0
 40
0.2375677765
 40
1.0
 40
1.0
 40
1.0
 40
1.0
 10
246.3591695675
 20
265.046078423
 30
0.0
 10
246.4289258636
 20
265.1470932819
 30
0.0
 10
246.7402414073
 20
265.5600491788
 30
0.0
 10
247.115894412
 20
265.9224243303
 30
0.0
 10
247.4223116691
 20
266.1700639255
 30
0.0
  0
SPLINE
  5
4D6
100
AcDbEntity
  8
0
100
AcDbSpline
 62
7
  6
CONTINUOUS
 70
0
 71
3
 72
9
 73
5
 74
0
 42
0.0000001
 43
0.0000001
 44
0.0000000001
 40
0.0
 40
0.0
 40
0.0
 40
0.0
 40
0.2453796241
 40
1.0
 40
1.0
 40
1.0
 40
1.0
 10
247.4223116691
 20
266.1700639255
 30
0.0
 10
247.4625599799
 20
266.2025917129
 30
0.0
 10
247.6281239827
 20
266.3332412824
 30
0.0
 10
247.7996400736
 20
266.4563104421
 30
0.0
 10
247.9317327317
 20
266.545072905
 30
0.0
  0
SPLINE
  5
4D7
100
AcDbEntity
  8
0
100
AcDbSpline
 62
7
  6
CONTINUOUS
 70
0
 71
3
 72
17
 73
13
 74
0
 42
0.0000001
 43
0.0000001
 44
0.0000000001
 40
0.0
 40
0.0
 40
0.0
 40
0.0
 40
0.1215721677
 40
0.2530774226
 40
0.3902927497
 40
0.5283133791
 40
0.6621437197
 40
0.7260920046
 40
0.7873780277
 40
0.8456196653
 40
0.9005528198
 40
1.0
 40
1.0
 40
1.0
 40
1.0
 10
248.7004184605
 20
267.0030500468
 30
0.0
 10
249.2599522649
 20
267.2987269318
 30
0.0
 10
250.4881038747
 20
267.7973796176
 30
0.0
 10
252.4736600912
 20
268.2581244293
 30
0.0
 10
254.5894950464
 20
268.4452085139
 30
0.0
 10
256.7227948581
 20
268.3483655113
 30
0.0
 10
258.4485477888
 20
268.030642978
 30
0.0
 10
259.7391189055
 20
267.6349939275
 30
0.0
 10
260.6271757346
 20
267.2804640584
 30
0.0
 10
261.4382773821
 20
266.8681596713
 30
0.0
 10
262.3700272252
 20
266.2697267826
 30
0.0
 10
262.9748109944
 20
265.7224078817
 30
0.0
 10
263.2994967082
 20
265.3192063555
 30
0.0
  0
SPLINE
  5
4D8
100
AcDbEntity
  8
0
100
AcDbSpline
 62
7
  6
CONTINUOUS
 70
0
 71
3
 72
15
 73
11
 74
0
 42
0.0000001
 43
0.0000001
 44
0.0000000001
 40
0.0
 40
0.0
 40
0.0
 40
0.0
 40
0.1331434465
 40
0.2590799429
 40
0.3798496202
 40
0.4980281467
 40
0.6164899922
 40
0.7380759125
 40
0.865271693
 40
1.0
 40
1.0
 40
1.0
 40
1.0
 10
263.2994967082
 20
265.3192063555
 30
0.0
 10
263.4396386026
 20
265.1451752131
 30
0.0
 10
263.689507501
 20
264.7869903434
 30
0.0
 10
263.96700502
 20
264.2098022559
 30
0.0
 10
264.131158228
 20
263.616188218
 30
0.0
 10
264.1786088111
 20
263.0144742129
 30
0.0
 10
264.1083446766
 20
262.4136461783
 30
0.0
 10
263.9218519951
 20
261.8225962988
 30
0.0
 10
263.6228287712
 20
261.2494275467
 30
0.0
 10
263.359847664
 20
260.8948849072
 30
0.0
 10
263.21327702
 20
260.7227242193
 30
0.0
  0
SPLINE
  5
4D9
100
AcDbEntity
  8
0
100
AcDbSpline
 62
7
  6
CONTINUOUS
 70
0
 71
3
 72
9
 73
5
 74
0
 42
0.0000001
 43
0.0000001
 44
0.0000000001
 40
0.0
 40
0.0
 40
0.0
 40
0.0
 40
0.2454913448
 40
1.0
 40
1.0
 40
1.0
 40
1.0
 10
262.9705561831
 20
260.4568358468
 30
0.0
 10
262.9384981864
 20
260.4239989722
 30
0.0
 10
262.8062534706
 20
260.2918636646
 30
0.0
 10
262.6675900903
 20
260.166184476
 30
0.0
 10
262.5600258274
 20
260.0749520987
 30
0.0
  0
SPLINE
  5
4DA
100
AcDbEntity
  8
0
100
AcDbSpline
 62
7
  6
CONTINUOUS
 70
0
 71
3
 72
9
 73
5
 74
0
 42
0.0000001
 43
0.0000001
 44
0.0000000001
 40
0.0
 40
0.0
 40
0.0
 40
0.0
 40
0.2405996213
 40
1.0
 40
1.0
 40
1.0
 40
1.0
 10
262.5600258274
 20
260.0749520987
 30
0.0
 10
262.4777005104
 20
260.0051265436
 30
0.0
 10
262.1282263715
 20
259.7235615552
 30
0.0
 10
261.7518902532
 20
259.4759872126
 30
0.0
 10
261.4568187618
 20
259.3056286245
 30
0.0
  0
SPLINE
  5
4DB
100
AcDbEntity
  8
0
100
AcDbSpline
 62
7
  6
CONTINUOUS
 70
0
 71
3
 72
18
 73
14
 74
0
 42
0.0000001
 43
0.0000001
 44
0.0000000001
 40
0.0
 40
0.0
 40
0.0
 40
0.0
 40
0.1485679046
 40
0.2831453101
 40
0.4051755838
 40
0.4626747151
 40
0.5185965708
 40
0.5737161357
 40
0.6288654478
 40
0.6848744901
 40
0.7425119974
 40
0.8649355242
 40
1.0
 40
1.0
 40
1.0
 40
1.0
 10
251.0333181971
 20
266.3244750861
 30
0.0
 10
250.8160691686
 20
266.1990470498
 30
0.0
 10
250.4180767503
 20
265.9295768104
 30
0.0
 10
249.9268107081
 20
265.447420065
 30
0.0
 10
249.636809648
 20
264.9961145708
 30
0.0
 10
249.494339164
 20
264.6236768684
 30
0.0
 10
249.431601221
 20
264.3450213887
 30
0.0
 10
249.4116037224
 20
264.0640375391
 30
0.0
 10
249.4346354752
 20
263.7831390702
 30
0.0
 10
249.5003771344
 20
263.5047424401
 30
0.0
 10
249.6469021878
 20
263.1327484203
 30
0.0
 10
249.941576775
 20
262.6826889887
 30
0.0
 10
250.2563462942
 20
262.378222994
 30
0.0
 10
250.433129841
 20
262.2341486934
 30
0.0
  0
SPLINE
  5
4DC
100
AcDbEntity
  8
0
100
AcDbSpline
 62
7
  6
CONTINUOUS
 70
0
 71
3
 72
15
 73
11
 74
0
 42
0.0000001
 43
0.0000001
 44
0.0000000001
 40
0.0
 40
0.0
 40
0.0
 40
0.0
 40
0.1072595737
 40
0.2261006724
 40
0.3541463722
 40
0.4879481175
 40
0.6234713034
 40
0.7565170756
 40
0.8831202816
 40
1.0
 40
1.0
 40
1.0
 40
1.0
 10
250.433129841
 20
262.2341486934
 30
0.0
 10
250.6766502975
 20
262.0356854309
 30
0.0
 10
251.239808411
 20
261.6773055773
 30
0.0
 10
252.202414327
 20
261.2805768782
 30
0.0
 10
253.2879514139
 20
261.0103992996
 30
0.0
 10
254.4474675227
 20
260.8790601689
 30
0.0
 10
255.6288717724
 20
260.8922209452
 30
0.0
 10
256.7788407663
 20
261.0494474282
 30
0.0
 10
257.84516834
 20
261.3434115761
 30
0.0
 10
258.4998696528
 20
261.6361420499
 30
0.0
 10
258.7975289219
 20
261.8052153689
 30
0.0
  0
SPLINE
  5
4DD
100
AcDbEntity
  8
0
100
AcDbSpline
 62
7
  6
CONTINUOUS
 70
0
 71
3
 72
9
 73
5
 74
0
 42
0.0000001
 43
0.0000001
 44
0.0000000001
 40
0.0
 40
0.0
 40
0.0
 40
0.0
 40
0.2584194246
 40
1.0
 40
1.0
 40
1.0
 40
1.0
 10
258.8294350826
 20
261.8234867296
 30
0.0
 10
258.8836749937
 20
261.8548019699
 30
0.0
 10
259.0913302074
 20
261.9797725256
 30
0.0
 10
259.2898342129
 20
262.1202631719
 30
0.0
 10
259.4291766628
 20
262.233782333
 30
0.0
  0
SPLINE
  5
4DE
100
AcDbEntity
  8
0
100
AcDbSpline
 62
7
  6
CONTINUOUS
 70
0
 71
3
 72
28
 73
24
 74
0
 42
0.0000001
 43
0.0000001
 44
0.0000000001
 40
0.0
 40
0.0
 40
0.0
 40
0.0
 40
0.0549405168
 40
0.1044960474
 40
0.1278126605
 40
0.150517606
 40
0.1729727079
 40
0.1955602141
 40
0.2186513571
 40
0.2425773615
 40
0.2938547106
 40
0.3216370392
 40
0.3509274455
 40
0.3817353491
 40
0.4140213404
 40
0.4826214311
 40
0.5557313448
 40
0.6319203641
 40
0.709526185
 40
0.7867863711
 40
0.8619639892
 40
0.9334664243
 40
1.0
 40
1.0
 40
1.0
 40
1.0
 10
259.4291766628
 20
262.233782333
 30
0.0
 10
259.6155813795
 20
262.3856420648
 30
0.0
 10
259.9456012255
 20
262.7075951938
 30
0.0
 10
260.2464281713
 20
263.1875633135
 30
0.0
 10
260.386202651
 20
263.5833496918
 30
0.0
 10
260.4416843774
 20
263.879120291
 30
0.0
 10
260.4491456121
 20
264.176794418
 30
0.0
 10
260.4084821694
 20
264.4734526558
 30
0.0
 10
260.3201878422
 20
264.7662390675
 30
0.0
 10
260.1363820958
 20
265.1565891721
 30
0.0
 10
259.861125857
 20
265.5203398746
 30
0.0
 10
259.5177665981
 20
265.8479487989
 30
0.0
 10
259.2141587063
 20
266.085094208
 30
0.0
 10
258.8742237612
 20
266.3048170398
 30
0.0
 10
258.3660035229
 20
266.577718283
 30
0.0
 10
257.6564540689
 20
266.8612839632
 30
0.0
 10
256.7313466227
 20
267.1012546287
 30
0.0
 10
255.7460217842
 20
267.2399166068
 30
0.0
 10
254.7334962606
 20
267.2726134312
 30
0.0
 10
253.7275937919
 20
267.1982953434
 30
0.0
 10
252.7618648984
 20
267.0193695312
 30
0.0
 10
251.8686803278
 20
266.7419282515
 30
0.0
 10
251.3184003206
 20
266.4865528213
 30
0.0
 10
251.0652243578
 20
266.3427464468
 30
0.0
  0
SPLINE
  5
4DF
100
AcDbEntity
  8
0
100
AcDbSpline
 62
7
  6
CONTINUOUS
 70
0
 71
3
 72
12
 73
8
 74
0
 42
0.0000001
 43
0.0000001
 44
0.0000000001
 40
0.0
 40
0.0
 40
0.0
 40
0.0
 40
0.1077782897
 40
0.217632353
 40
0.4503133885
 40
0.7094547432
 40
1.0
 40
1.0
 40
1.0
 40
1.0
 10
182.3999550023
 20
219.0116108255
 30
0.0
 10
182.3999363826
 20
218.931200813
 30
0.0
 10
182.3876880556
 20
218.7685703209
 30
0.0
 10
182.3132123023
 20
218.4399085784
 30
0.0
 10
182.1197399238
 20
218.0283504043
 30
0.0
 10
181.7488902609
 20
217.5720258838
 30
0.0
 10
181.4310102961
 20
217.3088814888
 30
0.0
 10
181.2539390683
 20
217.1838470964
 30
0.0
  0
SPLINE
  5
4E0
100
AcDbEntity
  8
0
100
AcDbSpline
 62
7
  6
CONTINUOUS
 70
0
 71
3
 72
9
 73
5
 74
0
 42
0.0000001
 43
0.0000001
 44
0.0000000001
 40
0.0
 40
0.0
 40
0.0
 40
0.0
 40
0.2446566755
 40
1.0
 40
1.0
 40
1.0
 40
1.0
 10
181.2539390683
 20
217.1838470964
 30
0.0
 10
181.226255403
 20
217.1642989727
 30
0.0
 10
181.1121373196
 20
217.0857706291
 30
0.0
 10
180.9943152306
 20
217.012654026
 30
0.0
 10
180.9037029961
 20
216.9603393403
 30
0.0
  0
SPLINE
  5
4E1
100
AcDbEntity
  8
0
100
AcDbSpline
 62
7
  6
CONTINUOUS
 70
0
 71
3
 72
15
 73
11
 74
0
 42
0.0000001
 43
0.0000001
 44
0.0000000001
 40
0.0
 40
0.0
 40
0.0
 40
0.0
 40
0.1125734078
 40
0.2340777761
 40
0.3621645881
 40
0.494051848
 40
0.6267416449
 40
0.7571887228
 40
0.8824763884
 40
1.0
 40
1.0
 40
1.0
 40
1.0
 10
180.8733798361
 20
216.9429745114
 30
0.0
 10
180.6350407294
 20
216.8075956134
 30
0.0
 10
180.1161089758
 20
216.5662316068
 30
0.0
 10
179.27273164
 20
216.3017988592
 30
0.0
 10
178.3581978288
 20
216.128341653
 30
0.0
 10
177.4033705576
 20
216.0521912924
 30
0.0
 10
176.4400844891
 20
216.075967625
 30
0.0
 10
175.5004415587
 20
216.1988851291
 30
0.0
 10
174.6160974839
 20
216.4164933906
 30
0.0
 10
174.0616727103
 20
216.6277203419
 30
0.0
 10
173.8025030415
 20
216.7490339888
 30
0.0
  0
SPLINE
  5
4E2
100
AcDbEntity
  8
0
100
AcDbSpline
 62
7
  6
CONTINUOUS
 70
0
 71
3
 72
9
 73
5
 74
0
 42
0.0000001
 43
0.0000001
 44
0.0000000001
 40
0.0
 40
0.0
 40
0.0
 40
0.0
 40
0.2602889934
 40
1.0
 40
1.0
 40
1.0
 40
1.0
 10
173.7849115388
 20
216.7573045925
 30
0.0
 10
173.717833178
 20
216.7889801231
 30
0.0
 10
173.4625416011
 20
216.915649778
 30
0.0
 10
173.2171698808
 20
217.0628780642
 30
0.0
 10
173.0449951103
 20
217.1845271197
 30
0.0
  0
SPLINE
  5
4E3
100
AcDbEntity
  8
0
100
AcDbSpline
 62
7
  6
CONTINUOUS
 70
0
 71
3
 72
12
 73
8
 74
0
 42
0.0000001
 43
0.0000001
 44
0.0000000001
 40
0.0
 40
0.0
 40
0.0
 40
0.0
 40
0.2905175126
 40
0.5496589212
 40
0.782344039
 40
0.8922024125
 40
1.0
 40
1.0
 40
1.0
 40
1.0
 10
173.0449951103
 20
217.1845271197
 30
0.0
 10
172.8680008684
 20
217.3095813441
 30
0.0
 10
172.5502684576
 20
217.5727813744
 30
0.0
 10
172.1796431886
 20
218.0291612276
 30
0.0
 10
171.9863837032
 20
218.4407606677
 30
0.0
 10
171.9120922229
 20
218.7694372221
 30
0.0
 10
171.8999354699
 20
218.9320683974
 30
0.0
 10
171.8999540903
 20
219.0124814009
 30
0.0
  0
SPLINE
  5
4E4
100
AcDbEntity
  8
0
100
AcDbSpline
 62
7
  6
CONTINUOUS
 70
0
 71
3
 72
23
 73
19
 74
0
 42
0.0000001
 43
0.0000001
 44
0.0000000001
 40
0.0
 40
0.0
 40
0.0
 40
0.0
 40
0.0622799494
 40
0.1283008062
 40
0.1974263308
 40
0.268833566
 40
0.3415807434
 40
0.4146575645
 40
0.4870378218
 40
0.5577296719
 40
0.6258277727
 40
0.6905691926
 40
0.7513953754
 40
0.8080215932
 40
0.8605111749
 40
0.9093384951
 40
0.9554110995
 40
1.0
 40
1.0
 40
1.0
 40
1.0
 10
170.5549011208
 20
221.9242145094
 30
0.0
 10
170.892450924
 20
222.1190978159
 30
0.0
 10
171.6146116464
 20
222.4752666927
 30
0.0
 10
172.7782485782
 20
222.8967779197
 30
0.0
 10
174.0332121255
 20
223.2149716601
 30
0.0
 10
175.3533612537
 20
223.4235433663
 30
0.0
 10
176.7112237953
 20
223.5184049427
 30
0.0
 10
178.0783005349
 20
223.4976271915
 30
0.0
 10
179.4258773415
 20
223.3616366672
 30
0.0
 10
180.7257298884
 20
223.1131605154
 30
0.0
 10
181.9508376507
 20
222.757093126
 30
0.0
 10
183.0760227661
 20
222.3002070747
 30
0.0
 10
184.0784345037
 20
221.7507288218
 30
0.0
 10
184.9377101836
 20
221.1177641433
 30
0.0
 10
185.6355094804
 20
220.4109673174
 30
0.0
 10
186.1543446612
 20
219.6406140427
 30
0.0
 10
186.4764565716
 20
218.8211459497
 30
0.0
 10
186.5499545463
 20
218.2513569008
 30
0.0
 10
186.5499545463
 20
217.9723049315
 30
0.0
  0
SPLINE
  5
4E5
100
AcDbEntity
  8
0
100
AcDbSpline
 62
7
  6
CONTINUOUS
 70
0
 71
3
 72
11
 73
7
 74
0
 42
0.0000001
 43
0.0000001
 44
0.0000000001
 40
0.0
 40
0.0
 40
0.0
 40
0.0
 40
0.2399388001
 40
0.484066425
 40
0.736322727
 40
1.0
 40
1.0
 40
1.0
 40
1.0
 10
186.5499545463
 20
217.9723049315
 30
0.0
 10
186.5499545463
 20
217.7713070892
 30
0.0
 10
186.5125078959
 20
217.3648698982
 30
0.0
 10
186.3460152932
 20
216.7678105272
 30
0.0
 10
186.0733765211
 20
216.1894329063
 30
0.0
 10
185.8304368557
 20
215.8298430308
 30
0.0
 10
185.6948514066
 20
215.6554693457
 30
0.0
  0
SPLINE
  5
4E6
100
AcDbEntity
  8
0
100
AcDbSpline
 62
7
  6
CONTINUOUS
 70
0
 71
3
 72
10
 73
6
 74
0
 42
0.0000001
 43
0.0000001
 44
0.0000000001
 40
0.0
 40
0.0
 40
0.0
 40
0.0
 40
0.2329039556
 40
0.6031474522
 40
1.0
 40
1.0
 40
1.0
 40
1.0
 10
185.6948514066
 20
215.6554693457
 30
0.0
 10
185.5729252644
 20
215.4986626171
 30
0.0
 10
185.232589374
 20
215.1113271943
 30
0.0
 10
184.586850593
 20
214.5494330214
 30
0.0
 10
184.0381181827
 20
214.1896216026
 30
0.0
 10
183.7450079718
 20
214.0203953536
 30
0.0
  0
SPLINE
  5
4E7
100
AcDbEntity
  8
0
100
AcDbSpline
 62
7
  6
CONTINUOUS
 70
0
 71
3
 72
9
 73
5
 74
0
 42
0.0000001
 43
0.0000001
 44
0.0000000001
 40
0.0
 40
0.0
 40
0.0
 40
0.0
 40
0.4799403848
 40
1.0
 40
1.0
 40
1.0
 40
1.0
 10
183.7450079718
 20
214.0203953536
 30
0.0
 10
183.2096205272
 20
213.7112911134
 30
0.0
 10
182.0266041022
 20
213.1817385443
 30
0.0
 10
180.7770966904
 20
212.8487245397
 30
0.0
 10
180.1195347683
 20
212.7208051672
 30
0.0
  0
SPLINE
  5
4E8
100
AcDbEntity
  8
0
100
AcDbSpline
 62
7
  6
CONTINUOUS
 70
0
 71
3
 72
11
 73
7
 74
0
 42
0.0000001
 43
0.0000001
 44
0.0000000001
 40
0.0
 40
0.0
 40
0.0
 40
0.0
 40
0.2547895159
 40
0.5128214891
 40
0.7642108865
 40
1.0
 40
1.0
 40
1.0
 40
1.0
 10
180.1195347683
 20
212.7208051672
 30
0.0
 10
179.3857301756
 20
212.5780538615
 30
0.0
 10
177.8849745558
 20
212.4035960121
 30
0.0
 10
175.636372738
 20
212.4579988973
 30
0.0
 10
173.4726727202
 20
212.8198952014
 30
0.0
 10
172.1084051749
 20
213.2734517513
 30
0.0
 10
171.4759597743
 20
213.5538407793
 30
0.0
  0
SPLINE
  5
4E9
100
AcDbEntity
  8
0
100
AcDbSpline
 62
7
  6
CONTINUOUS
 70
0
 71
3
 72
10
 73
6
 74
0
 42
0.0000001
 43
0.0000001
 44
0.0000000001
 40
0.0
 40
0.0
 40
0.0
 40
0.0
 40
0.2732009581
 40
0.5312003474
 40
1.0
 40
1.0
 40
1.0
 40
1.0
 10
171.4759597743
 20
213.5538407793
 30
0.0
 10
171.1778926997
 20
213.6859861585
 30
0.0
 10
170.6093735901
 20
213.970006988
 30
0.0
 10
169.6032461617
 20
214.6128346059
 30
0.0
 10
168.9532396241
 20
215.2089162469
 30
0.0
 10
168.6092143601
 20
215.6501245058
 30
0.0
  0
SPLINE
  5
4EA
100
AcDbEntity
  8
0
100
AcDbSpline
 62
7
  6
CONTINUOUS
 70
0
 71
3
 72
11
 73
7
 74
0
 42
0.0000001
 43
0.0000001
 44
0.0000000001
 40
0.0
 40
0.0
 40
0.0
 40
0.0
 40
0.2637329194
 40
0.5160045149
 40
0.7601026927
 40
1.0
 40
1.0
 40
1.0
 40
1.0
 10
168.6092143601
 20
215.6501245058
 30
0.0
 10
168.4729990643
 20
215.8248189827
 30
0.0
 10
168.2289078509
 20
216.1851156576
 30
0.0
 10
167.9549285122
 20
216.7648101667
 30
0.0
 10
167.7875949903
 20
217.363328331
 30
0.0
 10
167.7499545463
 20
217.7708020299
 30
0.0
 10
167.7499545463
 20
217.9723049315
 30
0.0
  0
SPLINE
  5
4EB
100
AcDbEntity
  8
0
100
AcDbSpline
 62
7
  6
CONTINUOUS
 70
0
 71
3
 72
14
 73
10
 74
0
 42
0.0000001
 43
0.0000001
 44
0.0000000001
 40
0.0
 40
0.0
 40
0.0
 40
0.0
 40
0.1103990457
 40
0.2224579254
 40
0.3377712523
 40
0.4576873601
 40
0.5832962905
 40
0.7153534783
 40
1.0
 40
1.0
 40
1.0
 40
1.0
 10
167.7499545463
 20
217.9723049315
 30
0.0
 10
167.7499545463
 20
218.1589201847
 30
0.0
 10
167.7821515538
 20
218.5357106059
 30
0.0
 10
167.9255416241
 20
219.0908660822
 30
0.0
 10
168.1609884244
 20
219.6311445921
 30
0.0
 10
168.4843516687
 20
220.1506030404
 30
0.0
 10
168.8909323902
 20
220.6448101837
 30
0.0
 10
169.5536125963
 20
221.2804931698
 30
0.0
 10
170.1382054583
 20
221.6836365925
 30
0.0
 10
170.5549011208
 20
221.9242145094
 30
0.0
  0
SPLINE
  5
4EC
100
AcDbEntity
  8
0
100
AcDbSpline
 62
7
  6
CONTINUOUS
 70
0
 71
3
 72
9
 73
5
 74
0
 42
0.0000001
 43
0.0000001
 44
0.0000000001
 40
0.0
 40
0.0
 40
0.0
 40
0.0
 40
0.4847064629
 40
1.0
 40
1.0
 40
1.0
 40
1.0
 10
183.6753966683
 20
214.3987716986
 30
0.0
 10
183.3456004611
 20
214.2083649062
 30
0.0
 10
182.6391590613
 20
213.8597297861
 30
0.0
 10
181.8992784878
 20
213.5909673916
 30
0.0
 10
181.5125544402
 20
213.4711963452
 30
0.0
  0
SPLINE
  5
4ED
100
AcDbEntity
  8
0
100
AcDbSpline
 62
7
  6
CONTINUOUS
 70
0
 71
3
 72
9
 73
5
 74
0
 42
0.0000001
 43
0.0000001
 44
0.0000000001
 40
0.0
 40
0.0
 40
0.0
 40
0.0
 40
0.2441512877
 40
1.0
 40
1.0
 40
1.0
 40
1.0
 10
181.403913944
 20
213.4380853355
 30
0.0
 10
181.2259065148
 20
213.3847043678
 30
0.0
 10
180.492080052
 20
213.1820548464
 30
0.0
 10
179.741434972
 20
213.0415008167
 30
0.0
 10
179.1708795105
 20
212.9675759443
 30
0.0
  0
SPLINE
  5
4EE
100
AcDbEntity
  8
0
100
AcDbSpline
 62
7
  6
CONTINUOUS
 70
0
 71
3
 72
11
 73
7
 74
0
 42
0.0000001
 43
0.0000001
 44
0.0000000001
 40
0.0
 40
0.0
 40
0.0
 40
0.0
 40
0.2530662524
 40
0.5074883921
 40
0.7581070404
 40
1.0
 40
1.0
 40
1.0
 40
1.0
 10
179.1708795105
 20
212.9675759443
 30
0.0
 10
178.6409637433
 20
212.8989166148
 30
0.0
 10
177.5703571303
 20
212.8168585227
 30
0.0
 10
175.967487635
 20
212.8550801183
 30
0.0
 10
174.4000269124
 20
213.052127418
 30
0.0
 10
173.3853334475
 20
213.291328976
 30
0.0
 10
172.8961078721
 20
213.4380496921
 30
0.0
  0
SPLINE
  5
4EF
100
AcDbEntity
  8
0
100
AcDbSpline
 62
7
  6
CONTINUOUS
 70
0
 71
3
 72
9
 73
5
 74
0
 42
0.0000001
 43
0.0000001
 44
0.0000000001
 40
0.0
 40
0.0
 40
0.0
 40
0.0
 40
0.2556525289
 40
1.0
 40
1.0
 40
1.0
 40
1.0
 10
172.8961078721
 20
213.4380496921
 30
0.0
 10
172.7846865981
 20
213.4714653799
 30
0.0
 10
172.350683045
 20
213.6081424905
 30
0.0
 10
171.9242041813
 20
213.769079106
 30
0.0
 10
171.6133994829
 20
213.9036440929
 30
0.0
  0
SPLINE
  5
4F0
100
AcDbEntity
  8
0
100
AcDbSpline
 62
7
  6
CONTINUOUS
 70
0
 71
3
 72
9
 73
5
 74
0
 42
0.0000001
 43
0.0000001
 44
0.0000000001
 40
0.0
 40
0.0
 40
0.0
 40
0.0
 40
0.5210099528
 40
1.0
 40
1.0
 40
1.0
 40
1.0
 10
171.6133994829
 20
213.9036440929
 30
0.0
 10
171.2226389198
 20
214.0728265097
 30
0.0
 10
170.4910336466
 20
214.4428154126
 30
0.0
 10
169.8192389756
 20
214.9153521226
 30
0.0
 10
169.5207160629
 20
215.1685976459
 30
0.0
  0
SPLINE
  5
4F1
100
AcDbEntity
  8
0
100
AcDbSpline
 62
7
  6
CONTINUOUS
 70
0
 71
3
 72
9
 73
5
 74
0
 42
0.0000001
 43
0.0000001
 44
0.0000000001
 40
0.0
 40
0.0
 40
0.0
 40
0.0
 40
0.2543244295
 40
1.0
 40
1.0
 40
1.0
 40
1.0
 10
169.5207160629
 20
215.1685976459
 30
0.0
 10
169.4865744844
 20
215.1975609233
 30
0.0
 10
169.3535275817
 20
215.3128446584
 30
0.0
 10
169.2253800506
 20
215.4338087324
 30
0.0
 10
169.1331413131
 20
215.5272107715
 30
0.0
  0
SPLINE
  5
4F2
100
AcDbEntity
  8
0
100
AcDbSpline
 62
7
  6
CONTINUOUS
 70
0
 71
3
 72
15
 73
11
 74
0
 42
0.0000001
 43
0.0000001
 44
0.0000000001
 40
0.0
 40
0.0
 40
0.0
 40
0.0
 40
0.1351568902
 40
0.2634115498
 40
0.38637972
 40
0.5061213573
 40
0.625001467
 40
0.7454715868
 40
0.8698248429
 40
1.0
 40
1.0
 40
1.0
 40
1.0
 10
168.8160991068
 20
215.8778861506
 30
0.0
 10
168.6851207952
 20
216.0368890928
 30
0.0
 10
168.4488794908
 20
216.3633124803
 30
0.0
 10
168.1748694122
 20
216.8870665024
 30
0.0
 10
167.9947780093
 20
217.4257923803
 30
0.0
 10
167.9113973569
 20
217.9734369968
 30
0.0
 10
167.9261177641
 20
218.5234553743
 30
0.0
 10
168.0386911858
 20
219.0691089426
 30
0.0
 10
168.2471931309
 20
219.6038788721
 30
0.0
 10
168.4431170811
 20
219.9406166781
 30
0.0
 10
168.5543122788
 20
220.1049400053
 30
0.0
  0
SPLINE
  5
4F3
100
AcDbEntity
  8
0
100
AcDbSpline
 62
7
  6
CONTINUOUS
 70
0
 71
3
 72
9
 73
5
 74
0
 42
0.0000001
 43
0.0000001
 44
0.0000000001
 40
0.0
 40
0.0
 40
0.0
 40
0.0
 40
0.2375677765
 40
1.0
 40
1.0
 40
1.0
 40
1.0
 10
168.5777474739
 20
220.1392214971
 30
0.0
 10
168.6475037701
 20
220.2402363561
 30
0.0
 10
168.9588193138
 20
220.653192253
 30
0.0
 10
169.3344723185
 20
221.0155674044
 30
0.0
 10
169.6408895756
 20
221.2632069997
 30
0.0
  0
SPLINE
  5
4F4
100
AcDbEntity
  8
0
100
AcDbSpline
 62
7
  6
CONTINUOUS
 70
0
 71
3
 72
9
 73
5
 74
0
 42
0.0000001
 43
0.0000001
 44
0.0000000001
 40
0.0
 40
0.0
 40
0.0
 40
0.0
 40
0.2453796241
 40
1.0
 40
1.0
 40
1.0
 40
1.0
 10
169.6408895756
 20
221.2632069997
 30
0.0
 10
169.6811378863
 20
221.295734787
 30
0.0
 10
169.8467018892
 20
221.4263843565
 30
0.0
 10
170.0182179801
 20
221.5494535163
 30
0.0
 10
170.1503106381
 20
221.6382159791
 30
0.0
  0
SPLINE
  5
4F5
100
AcDbEntity
  8
0
100
AcDbSpline
 62
7
  6
CONTINUOUS
 70
0
 71
3
 72
17
 73
13
 74
0
 42
0.0000001
 43
0.0000001
 44
0.0000000001
 40
0.0
 40
0.0
 40
0.0
 40
0.0
 40
0.1215721677
 40
0.2530774226
 40
0.3902927497
 40
0.5283133791
 40
0.6621437197
 40
0.7260920046
 40
0.7873780277
 40
0.8456196653
 40
0.9005528198
 40
1.0
 40
1.0
 40
1.0
 40
1.0
 10
170.918996367
 20
222.096193121
 30
0.0
 10
171.4785301714
 20
222.3918700059
 30
0.0
 10
172.7066817812
 20
222.8905226918
 30
0.0
 10
174.6922379977
 20
223.3512675034
 30
0.0
 10
176.8080729529
 20
223.538351588
 30
0.0
 10
178.9413727645
 20
223.4415085855
 30
0.0
 10
180.6671256952
 20
223.1237860521
 30
0.0
 10
181.957696812
 20
222.7281370017
 30
0.0
 10
182.8457536411
 20
222.3736071325
 30
0.0
 10
183.6568552886
 20
221.9613027454
 30
0.0
 10
184.5886051317
 20
221.3628698568
 30
0.0
 10
185.1933889009
 20
220.8155509559
 30
0.0
 10
185.5180746147
 20
220.4123494297
 30
0.0
  0
SPLINE
  5
4F6
100
AcDbEntity
  8
0
100
AcDbSpline
 62
7
  6
CONTINUOUS
 70
0
 71
3
 72
15
 73
11
 74
0
 42
0.0000001
 43
0.0000001
 44
0.0000000001
 40
0.0
 40
0.0
 40
0.0
 40
0.0
 40
0.1331434465
 40
0.2590799429
 40
0.3798496202
 40
0.4980281467
 40
0.6164899922
 40
0.7380759125
 40
0.865271693
 40
1.0
 40
1.0
 40
1.0
 40
1.0
 10
185.5180746147
 20
220.4123494297
 30
0.0
 10
185.658216509
 20
220.2383182872
 30
0.0
 10
185.9080854075
 20
219.8801334176
 30
0.0
 10
186.1855829264
 20
219.30294533
 30
0.0
 10
186.3497361345
 20
218.7093312921
 30
0.0
 10
186.3971867176
 20
218.107617287
 30
0.0
 10
186.3269225831
 20
217.5067892524
 30
0.0
 10
186.1404299015
 20
216.915739373
 30
0.0
 10
185.8414066777
 20
216.3425706208
 30
0.0
 10
185.5784255705
 20
215.9880279814
 30
0.0
 10
185.4318549265
 20
215.8158672934
 30
0.0
  0
SPLINE
  5
4F7
100
AcDbEntity
  8
0
100
AcDbSpline
 62
7
  6
CONTINUOUS
 70
0
 71
3
 72
9
 73
5
 74
0
 42
0.0000001
 43
0.0000001
 44
0.0000000001
 40
0.0
 40
0.0
 40
0.0
 40
0.0
 40
0.2454912833
 40
1.0
 40
1.0
 40
1.0
 40
1.0
 10
185.1891340896
 20
215.5499789209
 30
0.0
 10
185.1570756473
 20
215.5171415899
 30
0.0
 10
185.0248290371
 20
215.3850044351
 30
0.0
 10
184.8861635857
 20
215.2593235801
 30
0.0
 10
184.7785976791
 20
215.1680900374
 30
0.0
  0
SPLINE
  5
4F8
100
AcDbEntity
  8
0
100
AcDbSpline
 62
7
  6
CONTINUOUS
 70
0
 71
3
 72
9
 73
5
 74
0
 42
0.0000001
 43
0.0000001
 44
0.0000000001
 40
0.0
 40
0.0
 40
0.0
 40
0.0
 40
0.2405996833
 40
1.0
 40
1.0
 40
1.0
 40
1.0
 10
184.7785976791
 20
215.1680900374
 30
0.0
 10
184.6962727393
 20
215.0982649772
 30
0.0
 10
184.3468003651
 20
214.8167020131
 30
0.0
 10
183.9704663984
 20
214.5691292699
 30
0.0
 10
183.6753966683
 20
214.3987716986
 30
0.0
  0
SPLINE
  5
4F9
100
AcDbEntity
  8
0
100
AcDbSpline
 62
7
  6
CONTINUOUS
 70
0
 71
3
 72
18
 73
14
 74
0
 42
0.0000001
 43
0.0000001
 44
0.0000000001
 40
0.0
 40
0.0
 40
0.0
 40
0.0
 40
0.1485679046
 40
0.2831453101
 40
0.4051755838
 40
0.4626747151
 40
0.5185965708
 40
0.5737161357
 40
0.6288654478
 40
0.6848744901
 40
0.7425119974
 40
0.8649355242
 40
1.0
 40
1.0
 40
1.0
 40
1.0
 10
173.2518961035
 20
221.4176181602
 30
0.0
 10
173.0346470751
 20
221.2921901239
 30
0.0
 10
172.6366546567
 20
221.0227198845
 30
0.0
 10
172.1453886146
 20
220.5405631391
 30
0.0
 10
171.8553875545
 20
220.089257645
 30
0.0
 10
171.7129170705
 20
219.7168199425
 30
0.0
 10
171.6501791274
 20
219.4381644628
 30
0.0
 10
171.6301816289
 20
219.1571806133
 30
0.0
 10
171.6532133817
 20
218.8762821443
 30
0.0
 10
171.7189550409
 20
218.5978855143
 30
0.0
 10
171.8654800943
 20
218.2258914945
 30
0.0
 10
172.1601546815
 20
217.7758320629
 30
0.0
 10
172.4749242007
 20
217.4713660681
 30
0.0
 10
172.6517077475
 20
217.3272917675
 30
0.0
  0
SPLINE
  5
4FA
100
AcDbEntity
  8
0
100
AcDbSpline
 62
7
  6
CONTINUOUS
 70
0
 71
3
 72
15
 73
11
 74
0
 42
0.0000001
 43
0.0000001
 44
0.0000000001
 40
0.0
 40
0.0
 40
0.0
 40
0.0
 40
0.1072595737
 40
0.2261006724
 40
0.3541463722
 40
0.4879481175
 40
0.6234713034
 40
0.7565170756
 40
0.8831202816
 40
1.0
 40
1.0
 40
1.0
 40
1.0
 10
172.6517077475
 20
217.3272917675
 30
0.0
 10
172.895228204
 20
217.1288285051
 30
0.0
 10
173.4583863175
 20
216.7704486514
 30
0.0
 10
174.4209922335
 20
216.3737199523
 30
0.0
 10
175.5065293204
 20
216.1035423737
 30
0.0
 10
176.6660454292
 20
215.9722032431
 30
0.0
 10
177.8474496789
 20
215.9853640194
 30
0.0
 10
178.9974186728
 20
216.1425905023
 30
0.0
 10
180.0637462464
 20
216.4365546502
 30
0.0
 10
180.7184475593
 20
216.729285124
 30
0.0
 10
181.0161068284
 20
216.898358443
 30
0.0
  0
SPLINE
  5
4FB
100
AcDbEntity
  8
0
100
AcDbSpline
 62
7
  6
CONTINUOUS
 70
0
 71
3
 72
9
 73
5
 74
0
 42
0.0000001
 43
0.0000001
 44
0.0000000001
 40
0.0
 40
0.0
 40
0.0
 40
0.0
 40
0.2584194246
 40
1.0
 40
1.0
 40
1.0
 40
1.0
 10
181.0480129891
 20
216.9166298037
 30
0.0
 10
181.1022529001
 20
216.947945044
 30
0.0
 10
181.3099081139
 20
217.0729155997
 30
0.0
 10
181.5084121194
 20
217.213406246
 30
0.0
 10
181.6477545692
 20
217.3269254071
 30
0.0
  0
SPLINE
  5
4FC
100
AcDbEntity
  8
0
100
AcDbSpline
 62
7
  6
CONTINUOUS
 70
0
 71
3
 72
28
 73
24
 74
0
 42
0.0000001
 43
0.0000001
 44
0.0000000001
 40
0.0
 40
0.0
 40
0.0
 40
0.0
 40
0.0549405168
 40
0.1044960474
 40
0.1278126605
 40
0.150517606
 40
0.1729727079
 40
0.1955602141
 40
0.2186513571
 40
0.2425773615
 40
0.2938547106
 40
0.3216370392
 40
0.3509274455
 40
0.3817353491
 40
0.4140213404
 40
0.4826214311
 40
0.5557313448
 40
0.6319203641
 40
0.709526185
 40
0.7867863711
 40
0.8619639892
 40
0.9334664243
 40
1.0
 40
1.0
 40
1.0
 40
1.0
 10
181.6477545692
 20
217.3269254071
 30
0.0
 10
181.834159286
 20
217.478785139
 30
0.0
 10
182.164179132
 20
217.8007382679
 30
0.0
 10
182.4650060778
 20
218.2807063877
 30
0.0
 10
182.6047805575
 20
218.676492766
 30
0.0
 10
182.6602622839
 20
218.9722633651
 30
0.0
 10
182.6677235186
 20
219.2699374922
 30
0.0
 10
182.6270600759
 20
219.5665957299
 30
0.0
 10
182.5387657487
 20
219.8593821417
 30
0.0
 10
182.3549600023
 20
220.2497322463
 30
0.0
 10
182.0797037635
 20
220.6134829487
 30
0.0
 10
181.7363445046
 20
220.9410918731
 30
0.0
 10
181.4327366128
 20
221.1782372821
 30
0.0
 10
181.0928016676
 20
221.3979601139
 30
0.0
 10
180.5845814294
 20
221.6708613571
 30
0.0
 10
179.8750319754
 20
221.9544270374
 30
0.0
 10
178.9499245292
 20
222.1943977029
 30
0.0
 10
177.9645996907
 20
222.3330596809
 30
0.0
 10
176.952074167
 20
222.3657565054
 30
0.0
 10
175.9461716983
 20
222.2914384176
 30
0.0
 10
174.9804428049
 20
222.1125126053
 30
0.0
 10
174.0872582343
 20
221.8350713257
 30
0.0
 10
173.5369782271
 20
221.5796958954
 30
0.0
 10
173.2838022643
 20
221.4358895209
 30
0.0
  0
SPLINE
  5
4FD
100
AcDbEntity
  8
0
100
AcDbSpline
 62
7
  6
CONTINUOUS
 70
0
 71
3
 72
9
 73
5
 74
0
 42
0.0000001
 43
0.0000001
 44
0.0000000001
 40
0.0
 40
0.0
 40
0.0
 40
0.0
 40
0.5227733961
 40
1.0
 40
1.0
 40
1.0
 40
1.0
 10
280.740769737
 20
260.2233106855
 30
0.0
 10
280.8462963098
 20
260.0867959429
 30
0.0
 10
281.0199981629
 20
259.800041833
 30
0.0
 10
281.0900750911
 20
259.4695340434
 30
0.0
 10
281.0943245996
 20
259.3120784727
 30
0.0
  0
SPLINE
  5
4FE
100
AcDbEntity
  8
0
100
AcDbSpline
 62
7
  6
CONTINUOUS
 70
0
 71
3
 72
9
 73
5
 74
0
 42
0.0000001
 43
0.0000001
 44
0.0000000001
 40
0.0
 40
0.0
 40
0.0
 40
0.0
 40
0.5227767983
 40
1.0
 40
1.0
 40
1.0
 40
1.0
 10
280.3872207623
 20
260.3180579898
 30
0.0
 10
280.6034319389
 20
260.0490900183
 30
0.0
 10
280.9387167082
 20
259.4696172813
 30
0.0
 10
281.0943304875
 20
258.8106184002
 30
0.0
 10
281.0943304875
 20
258.4955935643
 30
0.0
  0
SPLINE
  5
4FF
100
AcDbEntity
  8
0
100
AcDbSpline
 62
7
  6
CONTINUOUS
 70
0
 71
3
 72
8
 73
4
 74
0
 42
0.0000001
 43
0.0000001
 44
0.0000000001
 40
0.0
 40
0.0
 40
0.0
 40
0.0
 40
1.0
 40
1.0
 40
1.0
 40
1.0
 10
176.7965056666
 20
200.2114200663
 30
0.0
 10
176.8700925768
 20
200.1198775184
 30
0.0
 10
176.9341460204
 20
200.0199300791
 30
0.0
 10
176.9873378288
 20
199.9152128265
 30
0.0
  0
SPLINE
  5
500
100
AcDbEntity
  8
0
100
AcDbSpline
 62
7
  6
CONTINUOUS
 70
0
 71
3
 72
9
 73
5
 74
0
 42
0.0000001
 43
0.0000001
 44
0.0000000001
 40
0.0
 40
0.0
 40
0.0
 40
0.0
 40
0.2551901798
 40
1.0
 40
1.0
 40
1.0
 40
1.0
 10
176.9873378288
 20
199.9152128265
 30
0.0
 10
176.9999824923
 20
199.8903196246
 30
0.0
 10
177.0471140921
 20
199.7915746321
 30
0.0
 10
177.0846762158
 20
199.6881659506
 30
0.0
 10
177.1059524776
 20
199.6095021707
 30
0.0
  0
SPLINE
  5
501
100
AcDbEntity
  8
0
100
AcDbSpline
 62
7
  6
CONTINUOUS
 70
0
 71
3
 72
9
 73
5
 74
0
 42
0.0000001
 43
0.0000001
 44
0.0000000001
 40
0.0
 40
0.0
 40
0.0
 40
0.0
 40
0.2633586152
 40
1.0
 40
1.0
 40
1.0
 40
1.0
 10
177.1059524776
 20
199.6095021707
 30
0.0
 10
177.1131247603
 20
199.5829844077
 30
0.0
 10
177.1374089576
 20
199.4815625428
 30
0.0
 10
177.1500605291
 20
199.3770259494
 30
0.0
 10
177.1500605291
 20
199.3001878536
 30
0.0
  0
SPLINE
  5
502
100
AcDbEntity
  8
0
100
AcDbSpline
 62
7
  6
CONTINUOUS
 70
0
 71
3
 72
9
 73
5
 74
0
 42
0.0000001
 43
0.0000001
 44
0.0000000001
 40
0.0
 40
0.0
 40
0.0
 40
0.0
 40
0.2415272152
 40
1.0
 40
1.0
 40
1.0
 40
1.0
 10
174.1000841645
 20
203.8710640017
 30
0.0
 10
174.1350386741
 20
203.7868049462
 30
0.0
 10
174.2876681891
 20
203.4414163388
 30
0.0
 10
174.4791956821
 20
203.1120726922
 30
0.0
 10
174.6497923941
 20
202.8819439665
 30
0.0
  0
SPLINE
  5
503
100
AcDbEntity
  8
0
100
AcDbSpline
 62
7
  6
CONTINUOUS
 70
0
 71
3
 72
9
 73
5
 74
0
 42
0.0000001
 43
0.0000001
 44
0.0000000001
 40
0.0
 40
0.0
 40
0.0
 40
0.0
 40
0.2593486608
 40
1.0
 40
1.0
 40
1.0
 40
1.0
 10
176.7965056666
 20
200.2114200663
 30
0.0
 10
176.8151438154
 20
200.1873087736
 30
0.0
 10
176.8850995029
 20
200.0928961603
 30
0.0
 10
176.9470510281
 20
199.9924263237
 30
0.0
 10
176.9868530051
 20
199.9150295641
 30
0.0
  0
SPLINE
  5
504
100
AcDbEntity
  8
0
100
AcDbSpline
 62
7
  6
CONTINUOUS
 70
0
 71
3
 72
9
 73
5
 74
0
 42
0.0000001
 43
0.0000001
 44
0.0000000001
 40
0.0
 40
0.0
 40
0.0
 40
0.0
 40
0.2564052847
 40
1.0
 40
1.0
 40
1.0
 40
1.0
 10
176.9868530051
 20
199.9150295641
 30
0.0
 10
176.9996728718
 20
199.8901007487
 30
0.0
 10
177.0472411368
 20
199.7916571699
 30
0.0
 10
177.0845803065
 20
199.6881831489
 30
0.0
 10
177.10536269
 20
199.6095894365
 30
0.0
  0
SPLINE
  5
505
100
AcDbEntity
  8
0
100
AcDbSpline
 62
7
  6
CONTINUOUS
 70
0
 71
3
 72
11
 73
7
 74
0
 42
0.0000001
 43
0.0000001
 44
0.0000000001
 40
0.0
 40
0.0
 40
0.0
 40
0.0
 40
0.2178891108
 40
0.4510006973
 40
0.7106596392
 40
1.0
 40
1.0
 40
1.0
 40
1.0
 10
38.2637466466
 20
280.6390526603
 30
0.0
 10
38.1976976184
 20
280.6010244603
 30
0.0
 10
38.0741202767
 20
280.4973499662
 30
0.0
 10
37.9427191282
 20
280.2822981266
 30
0.0
 10
37.8650273389
 20
280.0174738025
 30
0.0
 10
37.8494446752
 20
279.8248233433
 30
0.0
 10
37.8494446752
 20
279.7236164941
 30
0.0
  0
SPLINE
  5
506
100
AcDbEntity
  8
0
100
AcDbSpline
 62
7
  6
CONTINUOUS
 70
0
 71
3
 72
9
 73
5
 74
0
 42
0.0000001
 43
0.0000001
 44
0.0000000001
 40
0.0
 40
0.0
 40
0.0
 40
0.0
 40
0.4937001302
 40
1.0
 40
1.0
 40
1.0
 40
1.0
 10
277.3486818063
 20
264.2891364077
 30
0.0
 10
277.6184559713
 20
264.1335626149
 30
0.0
 10
278.1142552019
 20
263.7228949009
 30
0.0
 10
278.4578399858
 20
263.1826938407
 30
0.0
 10
278.5940564645
 20
262.8938345856
 30
0.0
  0
SPLINE
  5
507
100
AcDbEntity
  8
0
100
AcDbSpline
 62
7
  6
CONTINUOUS
 70
0
 71
3
 72
9
 73
5
 74
0
 42
0.0000001
 43
0.0000001
 44
0.0000000001
 40
0.0
 40
0.0
 40
0.0
 40
0.0
 40
0.2217146806
 40
1.0
 40
1.0
 40
1.0
 40
1.0
 10
145.4020831768
 20
340.3882587437
 30
0.0
 10
145.3923915278
 20
340.3848045781
 30
0.0
 10
145.3494552951
 20
340.3670429758
 30
0.0
 10
145.3098245267
 20
340.3420249015
 30
0.0
 10
145.2807064636
 20
340.3206576442
 30
0.0
  0
SPLINE
  5
508
100
AcDbEntity
  8
0
100
AcDbSpline
 62
7
  6
CONTINUOUS
 70
0
 71
3
 72
9
 73
5
 74
0
 42
0.0000001
 43
0.0000001
 44
0.0000000001
 40
0.0
 40
0.0
 40
0.0
 40
0.0
 40
0.2272670422
 40
1.0
 40
1.0
 40
1.0
 40
1.0
 10
145.2807064636
 20
340.3206576442
 30
0.0
 10
145.2695064929
 20
340.3124389431
 30
0.0
 10
145.2212714472
 20
340.2748514575
 30
0.0
 10
145.1770142641
 20
340.2323340034
 30
0.0
 10
145.1446333579
 20
340.197945865
 30
0.0
  0
SPLINE
  5
509
100
AcDbEntity
  8
0
100
AcDbSpline
 62
7
  6
CONTINUOUS
 70
0
 71
3
 72
9
 73
5
 74
0
 42
0.0000001
 43
0.0000001
 44
0.0000000001
 40
0.0
 40
0.0
 40
0.0
 40
0.0
 40
0.2368076989
 40
1.0
 40
1.0
 40
1.0
 40
1.0
 10
145.1137211227
 20
340.1640295461
 30
0.0
 10
145.1042497649
 20
340.1533055225
 30
0.0
 10
145.0648936837
 20
340.1074559905
 30
0.0
 10
145.0280130092
 20
340.0595034147
 30
0.0
 10
145.0010983817
 20
340.0220618399
 30
0.0
  0
SPLINE
  5
50A
100
AcDbEntity
  8
0
100
AcDbSpline
 62
7
  6
CONTINUOUS
 70
0
 71
3
 72
8
 73
4
 74
0
 42
0.0000001
 43
0.0000001
 44
0.0000000001
 40
0.0
 40
0.0
 40
0.0
 40
0.0
 40
1.0
 40
1.0
 40
1.0
 40
1.0
 10
276.9772384089
 20
264.1910817967
 30
0.0
 10
276.5939285126
 20
264.3605210231
 30
0.0
 10
276.1822320431
 20
264.4812440736
 30
0.0
 10
275.7656293398
 20
264.5268326211
 30
0.0
  0
SPLINE
  5
50B
100
AcDbEntity
  8
0
100
AcDbSpline
 62
7
  6
CONTINUOUS
 70
0
 71
3
 72
9
 73
5
 74
0
 42
0.0000001
 43
0.0000001
 44
0.0000000001
 40
0.0
 40
0.0
 40
0.0
 40
0.0
 40
0.2584252932
 40
1.0
 40
1.0
 40
1.0
 40
1.0
 10
42.060939869
 20
280.7416832756
 30
0.0
 10
41.9868568002
 20
280.7101324647
 30
0.0
 10
41.70308752
 20
280.5812994975
 30
0.0
 10
41.4305178429
 20
280.4280994677
 30
0.0
 10
41.2362417478
 20
280.3030091376
 30
0.0
  0
SPLINE
  5
50C
100
AcDbEntity
  8
0
100
AcDbSpline
 62
7
  6
CONTINUOUS
 70
0
 71
3
 72
9
 73
5
 74
0
 42
0.0000001
 43
0.0000001
 44
0.0000000001
 40
0.0
 40
0.0
 40
0.0
 40
0.0
 40
0.280333026
 40
1.0
 40
1.0
 40
1.0
 40
1.0
 10
40.9667779022
 20
280.1186415772
 30
0.0
 10
40.9058831013
 20
280.0744402053
 30
0.0
 10
40.6917157863
 20
279.9125903327
 30
0.0
 10
40.4886579029
 20
279.7360955443
 30
0.0
 10
40.3497186982
 20
279.6018920495
 30
0.0
  0
SPLINE
  5
50D
100
AcDbEntity
  8
0
100
AcDbSpline
 62
7
  6
CONTINUOUS
 70
0
 71
3
 72
9
 73
5
 74
0
 42
0.0000001
 43
0.0000001
 44
0.0000000001
 40
0.0
 40
0.0
 40
0.0
 40
0.0
 40
0.2446332155
 40
1.0
 40
1.0
 40
1.0
 40
1.0
 10
43.1781458229
 20
281.2349036825
 30
0.0
 10
43.089965716
 20
281.2137745614
 30
0.0
 10
42.7339735284
 20
281.1089776781
 30
0.0
 10
42.3990840322
 20
280.9381066658
 30
0.0
 10
42.1649229435
 20
280.7846122784
 30
0.0
  0
SPLINE
  5
50E
100
AcDbEntity
  8
0
100
AcDbSpline
 62
7
  6
CONTINUOUS
 70
0
 71
3
 72
9
 73
5
 74
0
 42
0.0000001
 43
0.0000001
 44
0.0000000001
 40
0.0
 40
0.0
 40
0.0
 40
0.0
 40
0.2978140333
 40
1.0
 40
1.0
 40
1.0
 40
1.0
 10
145.0010983817
 20
340.0220618399
 30
0.0
 10
144.9886185367
 20
340.0600739592
 30
0.0
 10
144.9447991187
 20
340.1870554851
 30
0.0
 10
144.8943990075
 20
340.3118941356
 30
0.0
 10
144.8537398067
 20
340.3970134391
 30
0.0
  0
SPLINE
  5
50F
100
AcDbEntity
  8
0
100
AcDbSpline
 62
7
  6
CONTINUOUS
 70
0
 71
3
 72
9
 73
5
 74
0
 42
0.0000001
 43
0.0000001
 44
0.0000000001
 40
0.0
 40
0.0
 40
0.0
 40
0.0
 40
0.2951525257
 40
1.0
 40
1.0
 40
1.0
 40
1.0
 10
144.8537398067
 20
340.3970134391
 30
0.0
 10
144.8486783322
 20
340.4076095447
 30
0.0
 10
144.8312152006
 20
340.4433553004
 30
0.0
 10
144.8126402115
 20
340.478582513
 30
0.0
 10
144.7984880005
 20
340.5027925246
 30
0.0
  0
SPLINE
  5
510
100
AcDbEntity
  8
0
100
AcDbSpline
 62
7
  6
CONTINUOUS
 70
0
 71
3
 72
9
 73
5
 74
0
 42
0.0000001
 43
0.0000001
 44
0.0000000001
 40
0.0
 40
0.0
 40
0.0
 40
0.0
 40
0.3552860885
 40
1.0
 40
1.0
 40
1.0
 40
1.0
 10
145.3379444881
 20
340.3778058815
 30
0.0
 10
145.3460963929
 20
340.3870876988
 30
0.0
 10
145.3693350382
 20
340.4128225469
 30
0.0
 10
145.3911916512
 20
340.4405130018
 30
0.0
 10
145.4089599696
 20
340.4541805224
 30
0.0
  0
SPLINE
  5
511
100
AcDbEntity
  8
0
100
AcDbSpline
 62
7
  6
CONTINUOUS
 70
0
 71
3
 72
9
 73
5
 74
0
 42
0.0000001
 43
0.0000001
 44
0.0000000001
 40
0.0
 40
0.0
 40
0.0
 40
0.0
 40
0.6485818804
 40
1.0
 40
1.0
 40
1.0
 40
1.0
 10
145.4089599696
 20
340.4541805224
 30
0.0
 10
145.4106576182
 20
340.4554863661
 30
0.0
 10
145.4131547771
 20
340.4574516309
 30
0.0
 10
145.4169108032
 20
340.4582800312
 30
0.0
 10
145.4179055687
 20
340.4576824202
 30
0.0
  0
SPLINE
  5
512
100
AcDbEntity
  8
0
100
AcDbSpline
 62
7
  6
CONTINUOUS
 70
0
 71
3
 72
9
 73
5
 74
0
 42
0.0000001
 43
0.0000001
 44
0.0000000001
 40
0.0
 40
0.0
 40
0.0
 40
0.0
 40
0.4371309568
 40
1.0
 40
1.0
 40
1.0
 40
1.0
 10
38.053089164
 20
279.3609239535
 30
0.0
 10
37.9881402568
 20
279.3234259083
 30
0.0
 10
37.8722419084
 20
279.1793770191
 30
0.0
 10
37.8521396071
 20
279.0036628355
 30
0.0
 10
37.8494505631
 20
278.9071315857
 30
0.0
  0
SPLINE
  5
513
100
AcDbEntity
  8
0
100
AcDbSpline
 62
7
  6
CONTINUOUS
 70
0
 71
3
 72
9
 73
5
 74
0
 42
0.0000001
 43
0.0000001
 44
0.0000000001
 40
0.0
 40
0.0
 40
0.0
 40
0.0
 40
0.4772232017
 40
1.0
 40
1.0
 40
1.0
 40
1.0
 10
177.8571702543
 20
198.8919470991
 30
0.0
 10
177.8571702543
 20
199.206971935
 30
0.0
 10
177.701556475
 20
199.8659708161
 30
0.0
 10
177.3662717056
 20
200.4454435531
 30
0.0
 10
177.1500605291
 20
200.7144115246
 30
0.0
  0
SPLINE
  5
514
100
AcDbEntity
  8
0
100
AcDbSpline
 62
7
  6
CONTINUOUS
 70
0
 71
3
 72
9
 73
5
 74
0
 42
0.0000001
 43
0.0000001
 44
0.0000000001
 40
0.0
 40
0.0
 40
0.0
 40
0.0
 40
0.2607139501
 40
1.0
 40
1.0
 40
1.0
 40
1.0
 10
275.7656293398
 20
264.5268326211
 30
0.0
 10
275.8517067636
 20
264.5474579115
 30
0.0
 10
276.1852032308
 20
264.6103104837
 30
0.0
 10
276.535183725
 20
264.5997507584
 30
0.0
 10
276.7788522191
 20
264.5395616986
 30
0.0
  0
SPLINE
  5
515
100
AcDbEntity
  8
0
100
AcDbSpline
 62
7
  6
CONTINUOUS
 70
0
 71
3
 72
9
 73
5
 74
0
 42
0.0000001
 43
0.0000001
 44
0.0000000001
 40
0.0
 40
0.0
 40
0.0
 40
0.0
 40
0.2231624575
 40
1.0
 40
1.0
 40
1.0
 40
1.0
 10
173.942676781
 20
205.7396744636
 30
0.0
 10
173.9563856177
 20
205.6979189824
 30
0.0
 10
174.0147918766
 20
205.5098288593
 30
0.0
 10
174.0608807853
 20
205.3179405317
 30
0.0
 10
174.090035356
 20
205.1677584381
 30
0.0
  0
SPLINE
  5
516
100
AcDbEntity
  8
0
100
AcDbSpline
 62
7
  6
CONTINUOUS
 70
0
 71
3
 72
9
 73
5
 74
0
 42
0.0000001
 43
0.0000001
 44
0.0000000001
 40
0.0
 40
0.0
 40
0.0
 40
0.0
 40
0.2519655046
 40
1.0
 40
1.0
 40
1.0
 40
1.0
 10
173.9426885568
 20
202.4736998126
 30
0.0
 10
173.8809857868
 20
202.6045460683
 30
0.0
 10
173.6661947131
 20
203.1379534313
 30
0.0
 10
173.5615363722
 20
203.7122434133
 30
0.0
 10
173.534815193
 20
204.1408925257
 30
0.0
  0
SPLINE
  5
517
100
AcDbEntity
  8
0
100
AcDbSpline
 62
7
  6
CONTINUOUS
 70
0
 71
3
 72
9
 73
5
 74
0
 42
0.0000001
 43
0.0000001
 44
0.0000000001
 40
0.0
 40
0.0
 40
0.0
 40
0.0
 40
0.2600090187
 40
1.0
 40
1.0
 40
1.0
 40
1.0
 10
173.534815193
 20
204.1408925257
 30
0.0
 10
173.5305259547
 20
204.2096985544
 30
0.0
 10
173.5191360314
 20
204.4746287675
 30
0.0
 10
173.5264262976
 20
204.7403065276
 30
0.0
 10
173.5416919859
 20
204.9359152334
 30
0.0
  0
SPLINE
  5
518
100
AcDbEntity
  8
0
100
AcDbSpline
 62
7
  6
CONTINUOUS
 70
0
 71
3
 72
9
 73
5
 74
0
 42
0.0000001
 43
0.0000001
 44
0.0000000001
 40
0.0
 40
0.0
 40
0.0
 40
0.0
 40
0.2598791425
 40
1.0
 40
1.0
 40
1.0
 40
1.0
 10
173.5416919859
 20
204.9359152334
 30
0.0
 10
173.5540410429
 20
204.9718213007
 30
0.0
 10
173.6035920645
 20
205.1092739709
 30
0.0
 10
173.6610649515
 20
205.243904638
 30
0.0
 10
173.7083315468
 20
205.3411648023
 30
0.0
  0
SPLINE
  5
519
100
AcDbEntity
  8
0
100
AcDbSpline
 62
7
  6
CONTINUOUS
 70
0
 71
3
 72
9
 73
5
 74
0
 42
0.0000001
 43
0.0000001
 44
0.0000000001
 40
0.0
 40
0.0
 40
0.0
 40
0.0
 40
0.2697551125
 40
1.0
 40
1.0
 40
1.0
 40
1.0
 10
173.7083315468
 20
205.3411648023
 30
0.0
 10
173.7265136453
 20
205.3785779875
 30
0.0
 10
173.7965483146
 20
205.5159486095
 30
0.0
 10
173.8769498649
 20
205.6482401966
 30
0.0
 10
173.942676781
 20
205.7396744636
 30
0.0
  0
SPLINE
  5
51A
100
AcDbEntity
  8
0
100
AcDbSpline
 62
7
  6
CONTINUOUS
 70
0
 71
3
 72
9
 73
5
 74
0
 42
0.0000001
 43
0.0000001
 44
0.0000000001
 40
0.0
 40
0.0
 40
0.0
 40
0.0
 40
0.4772266039
 40
1.0
 40
1.0
 40
1.0
 40
1.0
 10
176.4429566919
 20
198.8919436997
 30
0.0
 10
176.4387071834
 20
199.0493992704
 30
0.0
 10
176.3686302553
 20
199.3799070601
 30
0.0
 10
176.1949284021
 20
199.6666611699
 30
0.0
 10
176.0894018293
 20
199.8031759125
 30
0.0
  0
SPLINE
  5
51B
100
AcDbEntity
  8
0
100
AcDbSpline
 62
7
  6
CONTINUOUS
 70
0
 71
3
 72
9
 73
5
 74
0
 42
0.0000001
 43
0.0000001
 44
0.0000000001
 40
0.0
 40
0.0
 40
0.0
 40
0.0
 40
0.2462762236
 40
1.0
 40
1.0
 40
1.0
 40
1.0
 10
41.9665367538
 20
281.1330921803
 30
0.0
 10
42.0624111591
 20
281.1622581791
 30
0.0
 10
42.4582598227
 20
281.2589590572
 30
0.0
 10
42.8732671532
 20
281.2682663458
 30
0.0
 10
43.1781458229
 20
281.2349036825
 30
0.0
  0
SPLINE
  5
51C
100
AcDbEntity
  8
0
100
AcDbSpline
 62
7
  6
CONTINUOUS
 70
0
 71
3
 72
11
 73
7
 74
0
 42
0.0000001
 43
0.0000001
 44
0.0000000001
 40
0.0
 40
0.0
 40
0.0
 40
0.0
 40
0.1700674133
 40
0.3828675481
 40
0.6586905601
 40
1.0
 40
1.0
 40
1.0
 40
1.0
 10
177.7964634729
 20
104.7880696946
 30
0.0
 10
177.7592161621
 20
104.7665650708
 30
0.0
 10
177.6578693888
 20
104.7478808509
 30
0.0
 10
177.4958969793
 20
104.8002700889
 30
0.0
 10
177.3197608285
 20
104.9170429352
 30
0.0
 10
177.2076483163
 20
105.0268640796
 30
0.0
 10
177.1500605291
 20
105.0911609206
 30
0.0
  0
SPLINE
  5
51D
100
AcDbEntity
  8
0
100
AcDbSpline
 62
7
  6
CONTINUOUS
 70
0
 71
3
 72
9
 73
5
 74
0
 42
0.0000001
 43
0.0000001
 44
0.0000000001
 40
0.0
 40
0.0
 40
0.0
 40
0.0
 40
0.4785193286
 40
1.0
 40
1.0
 40
1.0
 40
1.0
 10
281.7407197647
 20
164.7999558228
 30
0.0
 10
281.9322917615
 20
164.9105593232
 30
0.0
 10
282.2781418178
 20
165.2447056056
 30
0.0
 10
282.4527704302
 20
165.6850475424
 30
0.0
 10
282.5085440499
 20
165.919574865
 30
0.0
  0
SPLINE
  5
51E
100
AcDbEntity
  8
0
100
AcDbSpline
 62
7
  6
CONTINUOUS
 70
0
 71
3
 72
9
 73
5
 74
0
 42
0.0000001
 43
0.0000001
 44
0.0000000001
 40
0.0
 40
0.0
 40
0.0
 40
0.0
 40
0.2773063721
 40
1.0
 40
1.0
 40
1.0
 40
1.0
 10
177.2965102612
 20
105.6540192272
 30
0.0
 10
177.3028486581
 20
105.657678667
 30
0.0
 10
177.2899006068
 20
105.6929890699
 30
0.0
 10
177.2819746369
 20
105.7115113272
 30
0.0
 10
177.2730195669
 20
105.7283524905
 30
0.0
  0
SPLINE
  5
51F
100
AcDbEntity
  8
0
100
AcDbSpline
 62
7
  6
CONTINUOUS
 70
0
 71
3
 72
9
 73
5
 74
0
 42
0.0000001
 43
0.0000001
 44
0.0000000001
 40
0.0
 40
0.0
 40
0.0
 40
0.0
 40
0.1934196527
 40
1.0
 40
1.0
 40
1.0
 40
1.0
 10
177.2730195669
 20
105.7283524905
 30
0.0
 10
177.2664328407
 20
105.740739678
 30
0.0
 10
177.2300700519
 20
105.8035450863
 30
0.0
 10
177.1868561734
 20
105.862191304
 30
0.0
 10
177.1500664171
 20
105.9076808465
 30
0.0
  0
SPLINE
  5
520
100
AcDbEntity
  8
0
100
AcDbSpline
 62
7
  6
CONTINUOUS
 70
0
 71
3
 72
9
 73
5
 74
0
 42
0.0000001
 43
0.0000001
 44
0.0000000001
 40
0.0
 40
0.0
 40
0.0
 40
0.0
 40
0.521480675
 40
1.0
 40
1.0
 40
1.0
 40
1.0
 10
36.4352311128
 20
269.2060839176
 30
0.0
 10
36.4910047329
 20
269.4406112418
 30
0.0
 10
36.6656333458
 20
269.8809531781
 30
0.0
 10
37.0114834015
 20
270.2150994619
 30
0.0
 10
37.203055398
 20
270.3257029598
 30
0.0
  0
SPLINE
  5
521
100
AcDbEntity
  8
0
100
AcDbSpline
 62
7
  6
CONTINUOUS
 70
0
 71
3
 72
9
 73
5
 74
0
 42
0.0000001
 43
0.0000001
 44
0.0000000001
 40
0.0
 40
0.0
 40
0.0
 40
0.0
 40
0.478518753
 40
1.0
 40
1.0
 40
1.0
 40
1.0
 10
281.7407083449
 20
249.9141715314
 30
0.0
 10
281.9322813744
 20
249.8035692692
 30
0.0
 10
282.2781340209
 20
249.4694235095
 30
0.0
 10
282.4527638443
 20
249.0290807313
 30
0.0
 10
282.5085381619
 20
248.7945526949
 30
0.0
  0
SPLINE
  5
522
100
AcDbEntity
  8
0
100
AcDbSpline
 62
7
  6
CONTINUOUS
 70
0
 71
3
 72
9
 73
5
 74
0
 42
0.0000001
 43
0.0000001
 44
0.0000000001
 40
0.0
 40
0.0
 40
0.0
 40
0.0
 40
0.3046941383
 40
1.0
 40
1.0
 40
1.0
 40
1.0
 10
177.1500664171
 20
105.9076808465
 30
0.0
 10
177.1361691334
 20
105.8904973059
 30
0.0
 10
177.0917560595
 20
105.8331954112
 30
0.0
 10
177.0507903971
 20
105.7728815907
 30
0.0
 10
177.0271124485
 20
105.7283539705
 30
0.0
  0
SPLINE
  5
523
100
AcDbEntity
  8
0
100
AcDbSpline
 62
7
  6
CONTINUOUS
 70
0
 71
3
 72
9
 73
5
 74
0
 42
0.0000001
 43
0.0000001
 44
0.0000000001
 40
0.0
 40
0.0
 40
0.0
 40
0.0
 40
0.7227002367
 40
1.0
 40
1.0
 40
1.0
 40
1.0
 10
177.0271124485
 20
105.7283539705
 30
0.0
 10
177.0181566617
 20
105.7115121451
 30
0.0
 10
177.0102310309
 20
105.6929897035
 30
0.0
 10
176.9972795896
 20
105.6576778498
 30
0.0
 10
177.003618112
 20
105.6540184033
 30
0.0
  0
SPLINE
  5
524
100
AcDbEntity
  8
0
100
AcDbSpline
 62
7
  6
CONTINUOUS
 70
0
 71
3
 72
9
 73
5
 74
0
 42
0.0000001
 43
0.0000001
 44
0.0000000001
 40
0.0
 40
0.0
 40
0.0
 40
0.0
 40
0.449851724
 40
1.0
 40
1.0
 40
1.0
 40
1.0
 10
177.1500605291
 20
189.5991610935
 30
0.0
 10
177.0607507786
 20
189.3669264069
 30
0.0
 10
176.9568067597
 20
188.8152759186
 30
0.0
 10
177.0326626261
 20
188.2469029017
 30
0.0
 10
177.1500664171
 20
187.966173768
 30
0.0
  0
SPLINE
  5
525
100
AcDbEntity
  8
0
100
AcDbSpline
 62
7
  6
CONTINUOUS
 70
0
 71
3
 72
9
 73
5
 74
0
 42
0.0000001
 43
0.0000001
 44
0.0000000001
 40
0.0
 40
0.0
 40
0.0
 40
0.0
 40
0.5501480349
 40
1.0
 40
1.0
 40
1.0
 40
1.0
 10
177.1500664171
 20
187.966173768
 30
0.0
 10
177.2674691696
 20
188.2469033207
 30
0.0
 10
177.3433223214
 20
188.81527715
 30
0.0
 10
177.2393734242
 20
189.366927369
 30
0.0
 10
177.1500605291
 20
189.5991610935
 30
0.0
  0
SPLINE
  5
526
100
AcDbEntity
  8
0
100
AcDbSpline
 62
7
  6
CONTINUOUS
 70
0
 71
3
 72
11
 73
7
 74
0
 42
0.0000001
 43
0.0000001
 44
0.0000000001
 40
0.0
 40
0.0
 40
0.0
 40
0.0
 40
0.3413107951
 40
0.6171342882
 40
0.8299339249
 40
1.0
 40
1.0
 40
1.0
 40
1.0
 10
177.1500605291
 20
105.0911609206
 30
0.0
 10
177.0924740197
 20
105.026864194
 30
0.0
 10
176.980364058
 20
104.9170431257
 30
0.0
 10
176.804231768
 20
104.8002695863
 30
0.0
 10
176.6422629043
 20
104.7478787935
 30
0.0
 10
176.5409177628
 20
104.7665613947
 30
0.0
 10
176.5036711448
 20
104.7880652655
 30
0.0
  0
SPLINE
  5
527
100
AcDbEntity
  8
0
100
AcDbSpline
 62
7
  6
CONTINUOUS
 70
0
 71
3
 72
9
 73
5
 74
0
 42
0.0000001
 43
0.0000001
 44
0.0000000001
 40
0.0
 40
0.0
 40
0.0
 40
0.0
 40
0.5214812506
 40
1.0
 40
1.0
 40
1.0
 40
1.0
 10
36.4352370007
 20
186.3311060877
 30
0.0
 10
36.4910113188
 20
186.0965780496
 30
0.0
 10
36.6656411427
 20
185.6562352719
 30
0.0
 10
37.0114937886
 20
185.3220895107
 30
0.0
 10
37.2030668178
 20
185.2114872511
 30
0.0
  0
SPLINE
  5
528
100
AcDbEntity
  8
0
100
AcDbSpline
 62
7
  6
CONTINUOUS
 70
0
 71
3
 72
9
 73
5
 74
0
 42
0.0000001
 43
0.0000001
 44
0.0000000001
 40
0.0
 40
0.0
 40
0.0
 40
0.0
 40
0.2456318154
 40
1.0
 40
1.0
 40
1.0
 40
1.0
 10
38.5565544003
 20
270.4308513967
 30
0.0
 10
38.5263097489
 20
270.4218220638
 30
0.0
 10
38.4039167578
 20
270.3826159942
 30
0.0
 10
38.2845587813
 20
270.3341042612
 30
0.0
 10
38.1966805505
 20
270.2931887624
 30
0.0
  0
SPLINE
  5
529
100
AcDbEntity
  8
0
100
AcDbSpline
 62
7
  6
CONTINUOUS
 70
0
 71
3
 72
9
 73
5
 74
0
 42
0.0000001
 43
0.0000001
 44
0.0000000001
 40
0.0
 40
0.0
 40
0.0
 40
0.0
 40
0.2465511086
 40
1.0
 40
1.0
 40
1.0
 40
1.0
 10
38.1966805505
 20
270.2931887624
 30
0.0
 10
38.1330419083
 20
270.2635590491
 30
0.0
 10
37.8793043535
 20
270.1340609342
 30
0.0
 10
37.6436963763
 20
269.9700914265
 30
0.0
 10
37.4787528415
 20
269.8329286989
 30
0.0
  0
SPLINE
  5
52A
100
AcDbEntity
  8
0
100
AcDbSpline
 62
7
  6
CONTINUOUS
 70
0
 71
3
 72
9
 73
5
 74
0
 42
0.0000001
 43
0.0000001
 44
0.0000000001
 40
0.0
 40
0.0
 40
0.0
 40
0.0
 40
0.2567804735
 40
1.0
 40
1.0
 40
1.0
 40
1.0
 10
36.9881711849
 20
269.3420954886
 30
0.0
 10
36.9645360313
 20
269.3136765286
 30
0.0
 10
36.8741497186
 20
269.2016372585
 30
0.0
 10
36.7903058642
 20
269.0842947629
 30
0.0
 10
36.7323172032
 20
268.9943890964
 30
0.0
  0
SPLINE
  5
52B
100
AcDbEntity
  8
0
100
AcDbSpline
 62
7
  6
CONTINUOUS
 70
0
 71
3
 72
9
 73
5
 74
0
 42
0.0000001
 43
0.0000001
 44
0.0000000001
 40
0.0
 40
0.0
 40
0.0
 40
0.0
 40
0.2729711026
 40
1.0
 40
1.0
 40
1.0
 40
1.0
 10
36.7323172032
 20
268.9943890964
 30
0.0
 10
36.6990369296
 20
268.9427913334
 30
0.0
 10
36.5824892672
 20
268.7504843067
 30
0.0
 10
36.4861811037
 20
268.5449923977
 30
0.0
 10
36.4352370007
 20
268.3895990092
 30
0.0
  0
SPLINE
  5
52C
100
AcDbEntity
  8
0
100
AcDbSpline
 62
7
  6
CONTINUOUS
 70
0
 71
3
 72
9
 73
5
 74
0
 42
0.0000001
 43
0.0000001
 44
0.0000000001
 40
0.0
 40
0.0
 40
0.0
 40
0.0
 40
0.2255919144
 40
1.0
 40
1.0
 40
1.0
 40
1.0
 10
282.5085440499
 20
247.9780677865
 30
0.0
 10
282.4927351978
 20
248.0262894164
 30
0.0
 10
282.4140550536
 20
248.2371983219
 30
0.0
 10
282.3058840053
 20
248.4364695057
 30
0.0
 10
282.2114605331
 20
248.5828624605
 30
0.0
  0
SPLINE
  5
52D
100
AcDbEntity
  8
0
100
AcDbSpline
 62
7
  6
CONTINUOUS
 70
0
 71
3
 72
9
 73
5
 74
0
 42
0.0000001
 43
0.0000001
 44
0.0000000001
 40
0.0
 40
0.0
 40
0.0
 40
0.0
 40
0.242840712
 40
1.0
 40
1.0
 40
1.0
 40
1.0
 10
282.2114605331
 20
248.5828624605
 30
0.0
 10
282.192513351
 20
248.6122379315
 30
0.0
 10
282.1125957338
 20
248.7319734995
 30
0.0
 10
282.0252998239
 20
248.8467670434
 30
0.0
 10
281.9556082582
 20
248.9305636686
 30
0.0
  0
SPLINE
  5
52E
100
AcDbEntity
  8
0
100
AcDbSpline
 62
7
  6
CONTINUOUS
 70
0
 71
3
 72
9
 73
5
 74
0
 42
0.0000001
 43
0.0000001
 44
0.0000000001
 40
0.0
 40
0.0
 40
0.0
 40
0.0
 40
0.2527051982
 40
1.0
 40
1.0
 40
1.0
 40
1.0
 10
281.4574726795
 20
249.4276571529
 30
0.0
 10
281.4026687514
 20
249.472983526
 30
0.0
 10
281.1807095038
 20
249.6460046301
 30
0.0
 10
280.9377526613
 20
249.7928823747
 30
0.0
 10
280.747092025
 20
249.8816509957
 30
0.0
  0
SPLINE
  5
52F
100
AcDbEntity
  8
0
100
AcDbSpline
 62
7
  6
CONTINUOUS
 70
0
 71
3
 72
9
 73
5
 74
0
 42
0.0000001
 43
0.0000001
 44
0.0000000001
 40
0.0
 40
0.0
 40
0.0
 40
0.0
 40
0.2542675823
 40
1.0
 40
1.0
 40
1.0
 40
1.0
 10
280.747092025
 20
249.8816509957
 30
0.0
 10
280.7174725871
 20
249.8954413444
 30
0.0
 10
280.6000832538
 20
249.9477053519
 30
0.0
 10
280.4790400979
 20
249.9918985035
 30
0.0
 10
280.3872207623
 20
250.0193099759
 30
0.0
  0
SPLINE
  5
530
100
AcDbEntity
  8
0
100
AcDbSpline
 62
7
  6
CONTINUOUS
 70
0
 71
3
 72
9
 73
5
 74
0
 42
0.0000001
 43
0.0000001
 44
0.0000000001
 40
0.0
 40
0.0
 40
0.0
 40
0.0
 40
0.4785200208
 40
1.0
 40
1.0
 40
1.0
 40
1.0
 10
37.203055398
 20
270.3257029598
 30
0.0
 10
37.3946231068
 20
270.4363039821
 30
0.0
 10
37.8569154888
 20
270.5687426743
 30
0.0
 10
38.3255661818
 20
270.4998099351
 30
0.0
 10
38.5565544003
 20
270.4308513967
 30
0.0
  0
SPLINE
  5
531
100
AcDbEntity
  8
0
100
AcDbSpline
 62
7
  6
CONTINUOUS
 70
0
 71
3
 72
9
 73
5
 74
0
 42
0.0000001
 43
0.0000001
 44
0.0000000001
 40
0.0
 40
0.0
 40
0.0
 40
0.0
 40
0.5214802248
 40
1.0
 40
1.0
 40
1.0
 40
1.0
 10
280.3872207623
 20
250.0193099759
 30
0.0
 10
280.6182066161
 20
250.0882692158
 30
0.0
 10
281.0868525603
 20
250.1572043086
 30
0.0
 10
281.5491416726
 20
250.0247701233
 30
0.0
 10
281.7407083449
 20
249.9141715314
 30
0.0
  0
SPLINE
  5
532
100
AcDbEntity
  8
0
100
AcDbSpline
 62
7
  6
CONTINUOUS
 70
0
 71
3
 72
9
 73
5
 74
0
 42
0.0000001
 43
0.0000001
 44
0.0000000001
 40
0.0
 40
0.0
 40
0.0
 40
0.0
 40
0.2772973651
 40
1.0
 40
1.0
 40
1.0
 40
1.0
 10
177.003618112
 20
105.6540184033
 30
0.0
 10
177.0099572255
 20
105.6503586155
 30
0.0
 10
177.0340637273
 20
105.6792351915
 30
0.0
 10
177.0461425523
 20
105.6953619284
 30
0.0
 10
177.0562506191
 20
105.7115408269
 30
0.0
  0
SPLINE
  5
533
100
AcDbEntity
  8
0
100
AcDbSpline
 62
7
  6
CONTINUOUS
 70
0
 71
3
 72
9
 73
5
 74
0
 42
0.0000001
 43
0.0000001
 44
0.0000000001
 40
0.0
 40
0.0
 40
0.0
 40
0.0
 40
0.1934280931
 40
1.0
 40
1.0
 40
1.0
 40
1.0
 10
177.0562506191
 20
105.7115408269
 30
0.0
 10
177.0636836628
 20
105.7234381027
 30
0.0
 10
177.0998863248
 20
105.7863254476
 30
0.0
 10
177.1290637703
 20
105.8530648681
 30
0.0
 10
177.1500605291
 20
105.9076633378
 30
0.0
  0
SPLINE
  5
534
100
AcDbEntity
  8
0
100
AcDbSpline
 62
7
  6
CONTINUOUS
 70
0
 71
3
 72
11
 73
7
 74
0
 42
0.0000001
 43
0.0000001
 44
0.0000000001
 40
0.0
 40
0.0
 40
0.0
 40
0.0
 40
0.1700637662
 40
0.3828627558
 40
0.6586872261
 40
1.0
 40
1.0
 40
1.0
 40
1.0
 10
176.5036711448
 20
104.7880652655
 30
0.0
 10
176.466423229
 20
104.8095698857
 30
0.0
 10
176.3995675655
 20
104.8879990047
 30
0.0
 10
176.3639535593
 20
105.0544712137
 30
0.0
 10
176.377016896
 20
105.2654037776
 30
0.0
 10
176.4160718013
 20
105.4174124946
 30
0.0
 10
176.4429625798
 20
105.4994366926
 30
0.0
  0
SPLINE
  5
535
100
AcDbEntity
  8
0
100
AcDbSpline
 62
7
  6
CONTINUOUS
 70
0
 71
3
 72
9
 73
5
 74
0
 42
0.0000001
 43
0.0000001
 44
0.0000000001
 40
0.0
 40
0.0
 40
0.0
 40
0.0
 40
0.3046860393
 40
1.0
 40
1.0
 40
1.0
 40
1.0
 10
177.1500605291
 20
105.9076633378
 30
0.0
 10
177.1579921386
 20
105.8870393595
 30
0.0
 10
177.185407148
 20
105.8199340947
 30
0.0
 10
177.2171536258
 20
105.7543083067
 30
0.0
 10
177.2438729211
 20
105.7115432674
 30
0.0
  0
SPLINE
  5
536
100
AcDbEntity
  8
0
100
AcDbSpline
 62
7
  6
CONTINUOUS
 70
0
 71
3
 72
9
 73
5
 74
0
 42
0.0000001
 43
0.0000001
 44
0.0000000001
 40
0.0
 40
0.0
 40
0.0
 40
0.0
 40
0.7226982758
 40
1.0
 40
1.0
 40
1.0
 40
1.0
 10
177.2438729211
 20
105.7115432674
 30
0.0
 10
177.2539818112
 20
105.6953636835
 30
0.0
 10
177.2660615365
 20
105.6792355359
 30
0.0
 10
177.2901707001
 20
105.6503591153
 30
0.0
 10
177.2965102612
 20
105.6540192272
 30
0.0
  0
SPLINE
  5
537
100
AcDbEntity
  8
0
100
AcDbSpline
 62
7
  6
CONTINUOUS
 70
0
 71
3
 72
9
 73
5
 74
0
 42
0.0000001
 43
0.0000001
 44
0.0000000001
 40
0.0
 40
0.0
 40
0.0
 40
0.0
 40
0.5003944521
 40
1.0
 40
1.0
 40
1.0
 40
1.0
 10
268.7673836502
 20
232.4373037281
 30
0.0
 10
268.7148707582
 20
232.4069855767
 30
0.0
 10
268.6319428579
 20
232.3113098443
 30
0.0
 10
268.5906076909
 20
232.1916580619
 30
0.0
 10
268.5906076909
 20
232.1311170853
 30
0.0
  0
SPLINE
  5
538
100
AcDbEntity
  8
0
100
AcDbSpline
 62
7
  6
CONTINUOUS
 70
0
 71
3
 72
15
 73
11
 74
0
 42
0.0000001
 43
0.0000001
 44
0.0000000001
 40
0.0
 40
0.0
 40
0.0
 40
0.0
 40
0.1143297679
 40
0.2075538441
 40
0.3007906867
 40
0.4150976433
 40
0.5538354817
 40
0.7075293422
 40
0.8612217809
 40
1.0
 40
1.0
 40
1.0
 40
1.0
 10
161.9218291173
 20
187.7764960942
 30
0.0
 10
161.92183422
 20
187.9231875778
 30
0.0
 10
161.957496194
 20
188.1957768948
 30
0.0
 10
162.2164266097
 20
188.5203074888
 30
0.0
 10
162.627161137
 20
188.5818253518
 30
0.0
 10
163.0492486913
 20
188.4084085087
 30
0.0
 10
163.4533617287
 20
188.0696486641
 30
0.0
 10
163.7944320503
 20
187.6034376875
 30
0.0
 10
164.0271328643
 20
187.0760780518
 30
0.0
 10
164.0939202931
 20
186.7005236764
 30
0.0
 10
164.0939264868
 20
186.5224634632
 30
0.0
  0
SPLINE
  5
539
100
AcDbEntity
  8
0
100
AcDbSpline
 62
7
  6
CONTINUOUS
 70
0
 71
3
 72
15
 73
11
 74
0
 42
0.0000001
 43
0.0000001
 44
0.0000000001
 40
0.0
 40
0.0
 40
0.0
 40
0.0
 40
0.1143297679
 40
0.2075538441
 40
0.3007906867
 40
0.4150976433
 40
0.5538354817
 40
0.7075293422
 40
0.8612217809
 40
1.0
 40
1.0
 40
1.0
 40
1.0
 10
164.0939264868
 20
186.5224634632
 30
0.0
 10
164.0939213841
 20
186.3757719796
 30
0.0
 10
164.0582594101
 20
186.1031826627
 30
0.0
 10
163.7993289944
 20
185.7786520687
 30
0.0
 10
163.3885944671
 20
185.7171342057
 30
0.0
 10
162.9665069128
 20
185.8905510488
 30
0.0
 10
162.5623938754
 20
186.2293108934
 30
0.0
 10
162.2213235538
 20
186.69552187
 30
0.0
 10
161.9886227398
 20
187.2228815057
 30
0.0
 10
161.921835311
 20
187.5984358811
 30
0.0
 10
161.9218291173
 20
187.7764960942
 30
0.0
  0
SPLINE
  5
53A
100
AcDbEntity
  8
0
100
AcDbSpline
 62
7
  6
CONTINUOUS
 70
0
 71
3
 72
15
 73
11
 74
0
 42
0.0000001
 43
0.0000001
 44
0.0000000001
 40
0.0
 40
0.0
 40
0.0
 40
0.0
 40
0.1143297678
 40
0.2075538438
 40
0.3007906867
 40
0.4150976433
 40
0.5538354816
 40
0.7075293424
 40
0.8612217805
 40
1.0
 40
1.0
 40
1.0
 40
1.0
 10
48.7842730938
 20
253.0950168175
 30
0.0
 10
48.78427817
 20
253.2417083008
 30
0.0
 10
48.8199401845
 20
253.5142976156
 30
0.0
 10
49.0788705822
 20
253.8388282139
 30
0.0
 10
49.4896051146
 20
253.9003460743
 30
0.0
 10
49.9116926676
 20
253.7269292323
 30
0.0
 10
50.3158057039
 20
253.3881693868
 30
0.0
 10
50.6568760327
 20
252.9219584118
 30
0.0
 10
50.889576821
 20
252.3945987744
 30
0.0
 10
50.9563643018
 20
252.0190444001
 30
0.0
 10
50.9563704633
 20
251.8409841865
 30
0.0
  0
SPLINE
  5
53B
100
AcDbEntity
  8
0
100
AcDbSpline
 62
7
  6
CONTINUOUS
 70
0
 71
3
 72
15
 73
11
 74
0
 42
0.0000001
 43
0.0000001
 44
0.0000000001
 40
0.0
 40
0.0
 40
0.0
 40
0.0
 40
0.1143297678
 40
0.2075538438
 40
0.3007906867
 40
0.4150976433
 40
0.5538354816
 40
0.7075293424
 40
0.8612217805
 40
1.0
 40
1.0
 40
1.0
 40
1.0
 10
50.9563704633
 20
251.8409841865
 30
0.0
 10
50.956365387
 20
251.6942927032
 30
0.0
 10
50.9207033726
 20
251.4217033884
 30
0.0
 10
50.6617729748
 20
251.0971727901
 30
0.0
 10
50.2510384425
 20
251.0356549297
 30
0.0
 10
49.8289508894
 20
251.2090717717
 30
0.0
 10
49.4248378532
 20
251.5478316172
 30
0.0
 10
49.0837675244
 20
252.0140425922
 30
0.0
 10
48.851066736
 20
252.5414022295
 30
0.0
 10
48.7842792553
 20
252.9169566039
 30
0.0
 10
48.7842730938
 20
253.0950168175
 30
0.0
  0
SPLINE
  5
53C
100
AcDbEntity
  8
0
100
AcDbSpline
 62
7
  6
CONTINUOUS
 70
0
 71
3
 72
9
 73
5
 74
0
 42
0.0000001
 43
0.0000001
 44
0.0000000001
 40
0.0
 40
0.0
 40
0.0
 40
0.0
 40
0.5031449151
 40
1.0
 40
1.0
 40
1.0
 40
1.0
 10
176.4429625798
 20
187.5579296142
 30
0.0
 10
176.3516461604
 20
187.9419102966
 30
0.0
 10
176.3523052983
 20
188.7488484699
 30
0.0
 10
176.5960709137
 20
189.5072647996
 30
0.0
 10
176.7738727899
 20
189.8541017539
 30
0.0
  0
SPLINE
  5
53D
100
AcDbEntity
  8
0
100
AcDbSpline
 62
7
  6
CONTINUOUS
 70
0
 71
3
 72
9
 73
5
 74
0
 42
0.0000001
 43
0.0000001
 44
0.0000000001
 40
0.0
 40
0.0
 40
0.0
 40
0.0
 40
0.2730110998
 40
1.0
 40
1.0
 40
1.0
 40
1.0
 10
176.7738727899
 20
189.8541017539
 30
0.0
 10
176.8019743606
 20
189.9089193037
 30
0.0
 10
176.9104675927
 20
190.1066855139
 30
0.0
 10
177.0406224086
 20
190.2934732096
 30
0.0
 10
177.1500605291
 20
190.4156635107
 30
0.0
  0
SPLINE
  5
53E
100
AcDbEntity
  8
0
100
AcDbSpline
 62
7
  6
CONTINUOUS
 70
0
 71
3
 72
14
 73
10
 74
0
 42
0.0000001
 43
0.0000001
 44
0.0000000001
 40
0.0
 40
0.0
 40
0.0
 40
0.0
 40
0.1145456354
 40
0.2081635082
 40
0.3016930073
 40
0.4163302158
 40
0.5553562508
 40
0.7092116196
 40
1.0
 40
1.0
 40
1.0
 40
1.0
 10
162.8184067446
 20
187.4776440311
 30
0.0
 10
162.8184086869
 20
187.5288008988
 30
0.0
 10
162.8308969148
 20
187.6239382352
 30
0.0
 10
162.9213073234
 20
187.737291413
 30
0.0
 10
163.0648200694
 20
187.7585294782
 30
0.0
 10
163.2120185926
 20
187.697977136
 30
0.0
 10
163.3531128526
 20
187.5795174028
 30
0.0
 10
163.5072634995
 20
187.3686321792
 30
0.0
 10
163.5762816892
 20
187.1699609976
 30
0.0
 10
163.5762846638
 20
187.0400929091
 30
0.0
  0
SPLINE
  5
53F
100
AcDbEntity
  8
0
100
AcDbSpline
 62
7
  6
CONTINUOUS
 70
0
 71
3
 72
14
 73
10
 74
0
 42
0.0000001
 43
0.0000001
 44
0.0000000001
 40
0.0
 40
0.0
 40
0.0
 40
0.0
 40
0.1145455586
 40
0.2081636064
 40
0.3016929985
 40
0.4163302317
 40
0.555356249
 40
0.7092116196
 40
1.0
 40
1.0
 40
1.0
 40
1.0
 10
163.5762846638
 20
187.0400929091
 30
0.0
 10
163.576283492
 20
186.9889360735
 30
0.0
 10
163.563794357
 20
186.8937986548
 30
0.0
 10
163.4733841409
 20
186.7804455314
 30
0.0
 10
163.3298713142
 20
186.7592075145
 30
0.0
 10
163.1826727822
 20
186.8197597521
 30
0.0
 10
163.0415786906
 20
186.9382195933
 30
0.0
 10
162.887427298
 20
187.1491046696
 30
0.0
 10
162.8184116753
 20
187.3477759373
 30
0.0
 10
162.8184067446
 20
187.4776440311
 30
0.0
  0
SPLINE
  5
540
100
AcDbEntity
  8
0
100
AcDbSpline
 62
7
  6
CONTINUOUS
 70
0
 71
3
 72
14
 73
10
 74
0
 42
0.0000001
 43
0.0000001
 44
0.0000000001
 40
0.0
 40
0.0
 40
0.0
 40
0.0
 40
0.2910970157
 40
0.4449815732
 40
0.5839705396
 40
0.6984580245
 40
0.7918541144
 40
0.8855275721
 40
1.0
 40
1.0
 40
1.0
 40
1.0
 10
163.4908401764
 20
187.2241944942
 30
0.0
 10
163.4908401764
 20
187.2848405855
 30
0.0
 10
163.458607832
 20
187.3776066044
 30
0.0
 10
163.3865773898
 20
187.4759549501
 30
0.0
 10
163.3207879005
 20
187.5312238694
 30
0.0
 10
163.2521599146
 20
187.5593213767
 30
0.0
 10
163.185232745
 20
187.5494762524
 30
0.0
 10
163.1432443006
 20
187.496485978
 30
0.0
 10
163.1372853138
 20
187.4521636399
 30
0.0
 10
163.1372853138
 20
187.4283148715
 30
0.0
  0
SPLINE
  5
541
100
AcDbEntity
  8
0
100
AcDbSpline
 62
7
  6
CONTINUOUS
 70
0
 71
3
 72
14
 73
10
 74
0
 42
0.0000001
 43
0.0000001
 44
0.0000000001
 40
0.0
 40
0.0
 40
0.0
 40
0.0
 40
0.2910970157
 40
0.4449815732
 40
0.5839705396
 40
0.6984580245
 40
0.7918541144
 40
0.8855275721
 40
1.0
 40
1.0
 40
1.0
 40
1.0
 10
163.1372853138
 20
187.4283148715
 30
0.0
 10
163.1372853138
 20
187.3676687802
 30
0.0
 10
163.1695176582
 20
187.2749027613
 30
0.0
 10
163.2415481005
 20
187.1765544156
 30
0.0
 10
163.3073375897
 20
187.1212854963
 30
0.0
 10
163.3759655757
 20
187.093187989
 30
0.0
 10
163.4428927453
 20
187.1030331132
 30
0.0
 10
163.4848811896
 20
187.1560233877
 30
0.0
 10
163.4908401764
 20
187.2003457258
 30
0.0
 10
163.4908401764
 20
187.2241944942
 30
0.0
  0
SPLINE
  5
542
100
AcDbEntity
  8
0
100
AcDbSpline
 62
7
  6
CONTINUOUS
 70
0
 71
3
 72
14
 73
10
 74
0
 42
0.0000001
 43
0.0000001
 44
0.0000000001
 40
0.0
 40
0.0
 40
0.0
 40
0.0
 40
0.1145456355
 40
0.2081635092
 40
0.3016930071
 40
0.416330216
 40
0.5553562511
 40
0.7092116193
 40
1.0
 40
1.0
 40
1.0
 40
1.0
 10
49.6808507211
 20
252.7961647543
 30
0.0
 10
49.6808526533
 20
252.8473216221
 30
0.0
 10
49.6933408919
 20
252.9424589603
 30
0.0
 10
49.7837513004
 20
253.0558121345
 30
0.0
 10
49.9272640461
 20
253.0770502021
 30
0.0
 10
50.0744625689
 20
253.0164978591
 30
0.0
 10
50.2155568296
 20
252.8980381262
 30
0.0
 10
50.3697074719
 20
252.6871529024
 30
0.0
 10
50.4387256811
 20
252.4884817211
 30
0.0
 10
50.4387286403
 20
252.3586136324
 30
0.0
  0
SPLINE
  5
543
100
AcDbEntity
  8
0
100
AcDbSpline
 62
7
  6
CONTINUOUS
 70
0
 71
3
 72
14
 73
10
 74
0
 42
0.0000001
 43
0.0000001
 44
0.0000000001
 40
0.0
 40
0.0
 40
0.0
 40
0.0
 40
0.1145455592
 40
0.2081636069
 40
0.3016929984
 40
0.4163302318
 40
0.5553562493
 40
0.7092116192
 40
1.0
 40
1.0
 40
1.0
 40
1.0
 10
50.4387286403
 20
252.3586136324
 30
0.0
 10
50.4387274746
 20
252.3074567965
 30
0.0
 10
50.4262383337
 20
252.2123193764
 30
0.0
 10
50.3358281165
 20
252.0989662565
 30
0.0
 10
50.1923152907
 20
252.0777282368
 30
0.0
 10
50.045116759
 20
252.1382804758
 30
0.0
 10
49.9040226658
 20
252.2567403161
 30
0.0
 10
49.7498712818
 20
252.4676253934
 30
0.0
 10
49.6808556262
 20
252.6662966604
 30
0.0
 10
49.6808507211
 20
252.7961647543
 30
0.0
  0
SPLINE
  5
544
100
AcDbEntity
  8
0
100
AcDbSpline
 62
7
  6
CONTINUOUS
 70
0
 71
3
 72
14
 73
10
 74
0
 42
0.0000001
 43
0.0000001
 44
0.0000000001
 40
0.0
 40
0.0
 40
0.0
 40
0.0
 40
0.2908777938
 40
0.4448447543
 40
0.583964167
 40
0.6985331424
 40
0.7919577149
 40
0.8855793373
 40
1.0
 40
1.0
 40
1.0
 40
1.0
 10
49.9997292903
 20
252.7468355947
 30
0.0
 10
49.9997292903
 20
252.6862350364
 30
0.0
 10
50.0319390891
 20
252.5935005052
 30
0.0
 10
50.1039421348
 20
252.4951327362
 30
0.0
 10
50.1697627706
 20
252.4398058814
 30
0.0
 10
50.2384566979
 20
252.4116954801
 30
0.0
 10
50.3053768434
 20
252.4216101133
 30
0.0
 10
50.3473778214
 20
252.4745616191
 30
0.0
 10
50.3532841529
 20
252.518877179
 30
0.0
 10
50.3532841529
 20
252.5427152175
 30
0.0
  0
SPLINE
  5
545
100
AcDbEntity
  8
0
100
AcDbSpline
 62
7
  6
CONTINUOUS
 70
0
 71
3
 72
14
 73
10
 74
0
 42
0.0000001
 43
0.0000001
 44
0.0000000001
 40
0.0
 40
0.0
 40
0.0
 40
0.0
 40
0.2910970157
 40
0.4449815732
 40
0.5839705396
 40
0.6984580245
 40
0.7918541144
 40
0.8855275721
 40
1.0
 40
1.0
 40
1.0
 40
1.0
 10
50.3532841529
 20
252.5427152175
 30
0.0
 10
50.3532841529
 20
252.6033613088
 30
0.0
 10
50.3210518085
 20
252.6961273277
 30
0.0
 10
50.2490213662
 20
252.7944756734
 30
0.0
 10
50.183231877
 20
252.8497445926
 30
0.0
 10
50.1146038911
 20
252.8778420999
 30
0.0
 10
50.0476767215
 20
252.8679969757
 30
0.0
 10
50.0056882771
 20
252.8150067012
 30
0.0
 10
49.9997292903
 20
252.7706843631
 30
0.0
 10
49.9997292903
 20
252.7468355947
 30
0.0
  0
SPLINE
  5
546
100
AcDbEntity
  8
0
100
AcDbSpline
 62
7
  6
CONTINUOUS
 70
0
 71
3
 72
9
 73
5
 74
0
 42
0.0000001
 43
0.0000001
 44
0.0000000001
 40
0.0
 40
0.0
 40
0.0
 40
0.0
 40
0.499977523
 40
1.0
 40
1.0
 40
1.0
 40
1.0
 10
268.5906076909
 20
232.1311170853
 30
0.0
 10
268.5906076909
 20
232.0892413849
 30
0.0
 10
268.6238638948
 20
231.984608638
 30
0.0
 10
268.731114915
 20
232.0081128805
 30
0.0
 10
268.7673836502
 20
232.0290525195
 30
0.0
  0
SPLINE
  5
547
100
AcDbEntity
  8
0
100
AcDbSpline
 62
7
  6
CONTINUOUS
 70
0
 71
3
 72
11
 73
7
 74
0
 42
0.0000001
 43
0.0000001
 44
0.0000000001
 40
0.0
 40
0.0
 40
0.0
 40
0.0
 40
0.3413107729
 40
0.6171344527
 40
0.8299341489
 40
1.0
 40
1.0
 40
1.0
 40
1.0
 10
177.8571761422
 20
105.499440092
 30
0.0
 10
177.8840665746
 20
105.4174163958
 30
0.0
 10
177.9231208245
 20
105.2654083812
 30
0.0
 10
177.9361831291
 20
105.0544764218
 30
0.0
 10
177.9005677728
 20
104.8880041251
 30
0.0
 10
177.8337116585
 20
104.8095748236
 30
0.0
 10
177.7964634729
 20
104.7880696946
 30
0.0
  0
SPLINE
  5
548
100
AcDbEntity
  8
0
100
AcDbSpline
 62
7
  6
CONTINUOUS
 70
0
 71
3
 72
15
 73
11
 74
0
 42
0.0000001
 43
0.0000001
 44
0.0000000001
 40
0.0
 40
0.0
 40
0.0
 40
0.0
 40
0.1143282502
 40
0.2075511581
 40
0.3007882539
 40
0.4150964935
 40
0.5538356875
 40
0.7075303522
 40
0.8612227328
 40
1.0
 40
1.0
 40
1.0
 40
1.0
 10
191.2921490493
 20
188.4036125095
 30
0.0
 10
191.4191883332
 20
188.4769523443
 30
0.0
 10
191.6730856898
 20
188.5823606786
 30
0.0
 10
192.0835979371
 20
188.5203769505
 30
0.0
 10
192.342231156
 20
188.1954222861
 30
0.0
 10
192.4030856035
 20
187.7431730362
 30
0.0
 10
192.3117644649
 20
187.2238184073
 30
0.0
 10
192.0785482731
 20
186.6953365221
 30
0.0
 10
191.7381935009
 20
186.2301328802
 30
0.0
 10
191.4463494021
 20
185.9845172578
 30
0.0
 10
191.2921490493
 20
185.8954830221
 30
0.0
  0
SPLINE
  5
549
100
AcDbEntity
  8
0
100
AcDbSpline
 62
7
  6
CONTINUOUS
 70
0
 71
3
 72
15
 73
11
 74
0
 42
0.0000001
 43
0.0000001
 44
0.0000000001
 40
0.0
 40
0.0
 40
0.0
 40
0.0
 40
0.1143282502
 40
0.2075511581
 40
0.3007882539
 40
0.4150964935
 40
0.5538356875
 40
0.7075303522
 40
0.8612227328
 40
1.0
 40
1.0
 40
1.0
 40
1.0
 10
191.2921490493
 20
185.8954830221
 30
0.0
 10
191.1651097653
 20
185.8221431873
 30
0.0
 10
190.9112124087
 20
185.7167348529
 30
0.0
 10
190.5007001615
 20
185.7787185811
 30
0.0
 10
190.2420669425
 20
186.1036732455
 30
0.0
 10
190.1812124951
 20
186.5559224953
 30
0.0
 10
190.2725336336
 20
187.0752771242
 30
0.0
 10
190.5057498255
 20
187.6037590094
 30
0.0
 10
190.8461045976
 20
188.0689626513
 30
0.0
 10
191.1379486965
 20
188.3145782738
 30
0.0
 10
191.2921490493
 20
188.4036125095
 30
0.0
  0
SPLINE
  5
54A
100
AcDbEntity
  8
0
100
AcDbSpline
 62
7
  6
CONTINUOUS
 70
0
 71
3
 72
15
 73
11
 74
0
 42
0.0000001
 43
0.0000001
 44
0.0000000001
 40
0.0
 40
0.0
 40
0.0
 40
0.0
 40
0.11432825
 40
0.2075511578
 40
0.3007882539
 40
0.4150964935
 40
0.5538356874
 40
0.7075303524
 40
0.8612227324
 40
1.0
 40
1.0
 40
1.0
 40
1.0
 10
269.0735711428
 20
230.8023399479
 30
0.0
 10
268.9465318723
 20
230.7290000903
 30
0.0
 10
268.6926344973
 20
230.6235917921
 30
0.0
 10
268.2821222554
 20
230.6855755026
 30
0.0
 10
268.0234890362
 20
231.0105301726
 30
0.0
 10
267.9626345884
 20
231.4627794209
 30
0.0
 10
268.0539557282
 20
231.9821340492
 30
0.0
 10
268.2871719151
 20
232.5106159398
 30
0.0
 10
268.6275267015
 20
232.9758195604
 30
0.0
 10
268.9193707735
 20
233.2214352272
 30
0.0
 10
269.0735711428
 20
233.3104694353
 30
0.0
  0
SPLINE
  5
54B
100
AcDbEntity
  8
0
100
AcDbSpline
 62
7
  6
CONTINUOUS
 70
0
 71
3
 72
15
 73
11
 74
0
 42
0.0000001
 43
0.0000001
 44
0.0000000001
 40
0.0
 40
0.0
 40
0.0
 40
0.0
 40
0.11432825
 40
0.2075511578
 40
0.3007882539
 40
0.4150964935
 40
0.5538356874
 40
0.7075303524
 40
0.8612227324
 40
1.0
 40
1.0
 40
1.0
 40
1.0
 10
269.0735711428
 20
233.3104694353
 30
0.0
 10
269.2006104133
 20
233.3838092929
 30
0.0
 10
269.4545077883
 20
233.4892175911
 30
0.0
 10
269.8650200302
 20
233.4272338807
 30
0.0
 10
270.1236532494
 20
233.1022792107
 30
0.0
 10
270.1845076972
 20
232.6500299624
 30
0.0
 10
270.0931865574
 20
232.1306753341
 30
0.0
 10
269.8599703705
 20
231.6021934434
 30
0.0
 10
269.5196155841
 20
231.1369898229
 30
0.0
 10
269.2277715121
 20
230.891374156
 30
0.0
 10
269.0735711428
 20
230.8023399479
 30
0.0
  0
SPLINE
  5
54C
100
AcDbEntity
  8
0
100
AcDbSpline
 62
7
  6
CONTINUOUS
 70
0
 71
3
 72
9
 73
5
 74
0
 42
0.0000001
 43
0.0000001
 44
0.0000000001
 40
0.0
 40
0.0
 40
0.0
 40
0.0
 40
0.225544672
 40
1.0
 40
1.0
 40
1.0
 40
1.0
 10
177.1500605291
 20
190.4156635107
 30
0.0
 10
177.1840160103
 20
190.3777521707
 30
0.0
 10
177.3277569624
 20
190.2036011553
 30
0.0
 10
177.4465284822
 20
190.0096208106
 30
0.0
 10
177.5262519781
 20
189.8541083813
 30
0.0
  0
SPLINE
  5
54D
100
AcDbEntity
  8
0
100
AcDbSpline
 62
7
  6
CONTINUOUS
 70
0
 71
3
 72
9
 73
5
 74
0
 42
0.0000001
 43
0.0000001
 44
0.0000000001
 40
0.0
 40
0.0
 40
0.0
 40
0.0
 40
0.496855079
 40
1.0
 40
1.0
 40
1.0
 40
1.0
 10
177.5262519781
 20
189.8541083813
 30
0.0
 10
177.704057629
 20
189.5072722523
 30
0.0
 10
177.9478296764
 20
188.7488555023
 30
0.0
 10
177.9484919767
 20
187.9419148727
 30
0.0
 10
177.8571761422
 20
187.5579330135
 30
0.0
  0
SPLINE
  5
54E
100
AcDbEntity
  8
0
100
AcDbSpline
 62
7
  6
CONTINUOUS
 70
0
 71
3
 72
14
 73
10
 74
0
 42
0.0000001
 43
0.0000001
 44
0.0000000001
 40
0.0
 40
0.0
 40
0.0
 40
0.0
 40
0.1145440391
 40
0.2081609149
 40
0.3016905649
 40
0.4163290864
 40
0.5553564628
 40
0.7092126395
 40
1.0
 40
1.0
 40
1.0
 40
1.0
 10
191.1026795695
 20
187.6964978728
 30
0.0
 10
191.1469826402
 20
187.7220747569
 30
0.0
 10
191.2356176155
 20
187.7588268082
 30
0.0
 10
191.3789877682
 20
187.7372027821
 30
0.0
 10
191.4691333217
 20
187.623533576
 30
0.0
 10
191.4902907449
 20
187.4657789963
 30
0.0
 10
191.458247501
 20
187.284357103
 30
0.0
 10
191.3526913018
 20
187.0454158974
 30
0.0
 10
191.2151456596
 20
186.8863108531
 30
0.0
 10
191.1026795695
 20
186.8213732197
 30
0.0
  0
SPLINE
  5
54F
100
AcDbEntity
  8
0
100
AcDbSpline
 62
7
  6
CONTINUOUS
 70
0
 71
3
 72
14
 73
10
 74
0
 42
0.0000001
 43
0.0000001
 44
0.0000000001
 40
0.0
 40
0.0
 40
0.0
 40
0.0
 40
0.1145441158
 40
0.2081608167
 40
0.3016905737
 40
0.4163290706
 40
0.5553564646
 40
0.7092126396
 40
1.0
 40
1.0
 40
1.0
 40
1.0
 10
191.1026795695
 20
186.8213732197
 30
0.0
 10
191.0583760856
 20
186.7957969869
 30
0.0
 10
190.9697416351
 20
186.7590441912
 30
0.0
 10
190.826371339
 20
186.7806683567
 30
0.0
 10
190.7362257841
 20
186.8943374688
 30
0.0
 10
190.7150684559
 20
187.0520920931
 30
0.0
 10
190.7471115221
 20
187.2335140783
 30
0.0
 10
190.8526682217
 20
187.4724547118
 30
0.0
 10
190.9902125058
 20
187.6315619361
 30
0.0
 10
191.1026795695
 20
187.6964978728
 30
0.0
  0
SPLINE
  5
550
100
AcDbEntity
  8
0
100
AcDbSpline
 62
7
  6
CONTINUOUS
 70
0
 71
3
 72
9
 73
5
 74
0
 42
0.0000001
 43
0.0000001
 44
0.0000000001
 40
0.0
 40
0.0
 40
0.0
 40
0.0
 40
0.4997242652
 40
1.0
 40
1.0
 40
1.0
 40
1.0
 10
191.162737516
 20
187.4283822364
 30
0.0
 10
191.162737516
 20
187.4702368759
 30
0.0
 10
191.1295373463
 20
187.574859985
 30
0.0
 10
191.0222487924
 20
187.5513971224
 30
0.0
 10
190.9859615567
 20
187.5304468022
 30
0.0
  0
SPLINE
  5
551
100
AcDbEntity
  8
0
100
AcDbSpline
 62
7
  6
CONTINUOUS
 70
0
 71
3
 72
9
 73
5
 74
0
 42
0.0000001
 43
0.0000001
 44
0.0000000001
 40
0.0
 40
0.0
 40
0.0
 40
0.0
 40
0.5000348676
 40
1.0
 40
1.0
 40
1.0
 40
1.0
 10
190.9859615567
 20
187.1221955936
 30
0.0
 10
191.0384366859
 20
187.1524919428
 30
0.0
 10
191.1213755032
 20
187.2481445953
 30
0.0
 10
191.162737516
 20
187.3677977172
 30
0.0
 10
191.162737516
 20
187.4283822364
 30
0.0
  0
SPLINE
  5
552
100
AcDbEntity
  8
0
100
AcDbSpline
 62
7
  6
CONTINUOUS
 70
0
 71
3
 72
9
 73
5
 74
0
 42
0.0000001
 43
0.0000001
 44
0.0000000001
 40
0.0
 40
0.0
 40
0.0
 40
0.0
 40
0.499977523
 40
1.0
 40
1.0
 40
1.0
 40
1.0
 10
190.8091855973
 20
187.2242601594
 30
0.0
 10
190.8091855973
 20
187.182384459
 30
0.0
 10
190.8424418013
 20
187.0777517121
 30
0.0
 10
190.9496928215
 20
187.1012559546
 30
0.0
 10
190.9859615567
 20
187.1221955936
 30
0.0
  0
SPLINE
  5
553
100
AcDbEntity
  8
0
100
AcDbSpline
 62
7
  6
CONTINUOUS
 70
0
 71
3
 72
9
 73
5
 74
0
 42
0.0000001
 43
0.0000001
 44
0.0000000001
 40
0.0
 40
0.0
 40
0.0
 40
0.0
 40
0.5003944521
 40
1.0
 40
1.0
 40
1.0
 40
1.0
 10
190.9859615567
 20
187.5304468022
 30
0.0
 10
190.9334486647
 20
187.5001286509
 30
0.0
 10
190.8505207643
 20
187.4044529184
 30
0.0
 10
190.8091855973
 20
187.2848011361
 30
0.0
 10
190.8091855973
 20
187.2242601594
 30
0.0
  0
SPLINE
  5
554
100
AcDbEntity
  8
0
100
AcDbSpline
 62
7
  6
CONTINUOUS
 70
0
 71
3
 72
14
 73
10
 74
0
 42
0.0000001
 43
0.0000001
 44
0.0000000001
 40
0.0
 40
0.0
 40
0.0
 40
0.0
 40
0.114544116
 40
0.2081608177
 40
0.3016905736
 40
0.4163290708
 40
0.5553564649
 40
0.7092126392
 40
1.0
 40
1.0
 40
1.0
 40
1.0
 10
268.884101663
 20
231.7282301455
 30
0.0
 10
268.8397981841
 20
231.702653904
 30
0.0
 10
268.7511637267
 20
231.6659011165
 30
0.0
 10
268.6077934339
 20
231.6875252839
 30
0.0
 10
268.517647877
 20
231.8011943945
 30
0.0
 10
268.4964905496
 20
231.958949019
 30
0.0
 10
268.5285336151
 20
232.1403710046
 30
0.0
 10
268.6340903173
 20
232.3793116341
 30
0.0
 10
268.7716345914
 20
232.5384188752
 30
0.0
 10
268.884101663
 20
232.6033547987
 30
0.0
  0
SPLINE
  5
555
100
AcDbEntity
  8
0
100
AcDbSpline
 62
7
  6
CONTINUOUS
 70
0
 71
3
 72
14
 73
10
 74
0
 42
0.0000001
 43
0.0000001
 44
0.0000000001
 40
0.0
 40
0.0
 40
0.0
 40
0.0
 40
0.1145440397
 40
0.2081609154
 40
0.3016905648
 40
0.4163290865
 40
0.5553564631
 40
0.7092126391
 40
1.0
 40
1.0
 40
1.0
 40
1.0
 10
268.884101663
 20
232.6033547987
 30
0.0
 10
268.9284047309
 20
232.6289316881
 30
0.0
 10
269.0170397104
 20
232.6656837351
 30
0.0
 10
269.1604098606
 20
232.6440597064
 30
0.0
 10
269.2505554161
 20
232.5303905023
 30
0.0
 10
269.2717128379
 20
232.3726359222
 30
0.0
 10
269.2396695956
 20
232.191214028
 30
0.0
 10
269.1341133913
 20
231.9522728293
 30
0.0
 10
268.9965677661
 20
231.7931677569
 30
0.0
 10
268.884101663
 20
231.7282301455
 30
0.0
  0
SPLINE
  5
556
100
AcDbEntity
  8
0
100
AcDbSpline
 62
7
  6
CONTINUOUS
 70
0
 71
3
 72
9
 73
5
 74
0
 42
0.0000001
 43
0.0000001
 44
0.0000000001
 40
0.0
 40
0.0
 40
0.0
 40
0.0
 40
0.4997242652
 40
1.0
 40
1.0
 40
1.0
 40
1.0
 10
268.9441596095
 20
232.3352391622
 30
0.0
 10
268.9441596095
 20
232.3770938018
 30
0.0
 10
268.9109594399
 20
232.4817169109
 30
0.0
 10
268.8036708859
 20
232.4582540483
 30
0.0
 10
268.7673836502
 20
232.4373037281
 30
0.0
  0
SPLINE
  5
557
100
AcDbEntity
  8
0
100
AcDbSpline
 62
7
  6
CONTINUOUS
 70
0
 71
3
 72
9
 73
5
 74
0
 42
0.0000001
 43
0.0000001
 44
0.0000000001
 40
0.0
 40
0.0
 40
0.0
 40
0.0
 40
0.5000348676
 40
1.0
 40
1.0
 40
1.0
 40
1.0
 10
268.7673836502
 20
232.0290525195
 30
0.0
 10
268.8198587794
 20
232.0593488686
 30
0.0
 10
268.9027975967
 20
232.1550015212
 30
0.0
 10
268.9441596095
 20
232.274654643
 30
0.0
 10
268.9441596095
 20
232.3352391622
 30
0.0
  0
SPLINE
  5
558
100
AcDbEntity
  8
0
100
AcDbSpline
 62
7
  6
CONTINUOUS
 70
0
 71
3
 72
29
 73
25
 74
0
 42
0.0000001
 43
0.0000001
 44
0.0000000001
 40
0.0
 40
0.0
 40
0.0
 40
0.0
 40
0.047841036
 40
0.0986400339
 40
0.1518974777
 40
0.2069927711
 40
0.2632227759
 40
0.3198362703
 40
0.3760662306
 40
0.4311614367
 40
0.4844187543
 40
0.5352175929
 40
0.5830584448
 40
0.6276079124
 40
0.6687525548
 40
0.7066611879
 40
0.7418453952
 40
0.7751861561
 40
0.8078715051
 40
0.8412123412
 40
0.8763966851
 40
0.9143054956
 40
0.9554503347
 40
1.0
 40
1.0
 40
1.0
 40
1.0
 10
125.8840196066
 20
304.9276274755
 30
0.0
 10
125.7970053161
 20
304.977864063
 30
0.0
 10
125.6108917881
 20
305.070095246
 30
0.0
 10
125.3110227665
 20
305.1804158459
 30
0.0
 10
124.9871885879
 20
305.2651497429
 30
0.0
 10
124.6459066952
 20
305.3225901471
 30
0.0
 10
124.2939912009
 20
305.3516018768
 30
0.0
 10
123.9385080012
 20
305.3516009006
 30
0.0
 10
123.5865936984
 20
305.3225879944
 30
0.0
 10
123.2453096213
 20
305.2651442535
 30
0.0
 10
122.9214873532
 20
305.1804148258
 30
0.0
 10
122.6215827309
 20
305.0700719021
 30
0.0
 10
122.3515417678
 20
304.9362554589
 30
0.0
 10
122.1166938418
 20
304.7814875536
 30
0.0
 10
121.9217017144
 20
304.6085650219
 30
0.0
 10
121.7706155239
 20
304.4204737957
 30
0.0
 10
121.6670398458
 20
304.2204610867
 30
0.0
 10
121.61417769
 20
304.0124570758
 30
0.0
 10
121.6141791386
 20
303.8015648711
 30
0.0
 10
121.6670447639
 20
303.593560978
 30
0.0
 10
121.7706216617
 20
303.3935497768
 30
0.0
 10
121.921717373
 20
303.2054554968
 30
0.0
 10
122.1166830695
 20
303.0325501636
 30
0.0
 10
122.2674725448
 20
302.9331871137
 30
0.0
 10
122.3485004206
 20
302.8864067061
 30
0.0
  0
SPLINE
  5
559
100
AcDbEntity
  8
0
100
AcDbSpline
 62
7
  6
CONTINUOUS
 70
0
 71
3
 72
29
 73
25
 74
0
 42
0.0000001
 43
0.0000001
 44
0.0000000001
 40
0.0
 40
0.0
 40
0.0
 40
0.0
 40
0.0445496653
 40
0.0856945044
 40
0.1236033149
 40
0.1587876588
 40
0.1921284949
 40
0.2248138439
 40
0.2581546048
 40
0.2933388121
 40
0.3312474452
 40
0.3723920876
 40
0.4169415552
 40
0.4647824071
 40
0.5155812457
 40
0.5688385633
 40
0.6239337694
 40
0.6801637297
 40
0.7367772241
 40
0.7930072289
 40
0.8481025223
 40
0.9013599661
 40
0.952158964
 40
1.0
 40
1.0
 40
1.0
 40
1.0
 10
122.3485004206
 20
309.4184260431
 30
0.0
 10
122.2674725448
 20
309.4652064507
 30
0.0
 10
122.1166830695
 20
309.5645695006
 30
0.0
 10
121.921717373
 20
309.7374748339
 30
0.0
 10
121.7706216617
 20
309.9255691138
 30
0.0
 10
121.6670447639
 20
310.1255803151
 30
0.0
 10
121.6141791386
 20
310.3335842082
 30
0.0
 10
121.61417769
 20
310.5444764128
 30
0.0
 10
121.6670398458
 20
310.7524804237
 30
0.0
 10
121.7706155239
 20
310.9524931327
 30
0.0
 10
121.9217017144
 20
311.1405843589
 30
0.0
 10
122.1166938418
 20
311.3135068906
 30
0.0
 10
122.3515417678
 20
311.4682747959
 30
0.0
 10
122.6215827309
 20
311.6020912391
 30
0.0
 10
122.9214873532
 20
311.7124341628
 30
0.0
 10
123.2453096213
 20
311.7971635905
 30
0.0
 10
123.5865936984
 20
311.8546073314
 30
0.0
 10
123.9385080012
 20
311.8836202377
 30
0.0
 10
124.2939912009
 20
311.8836212138
 30
0.0
 10
124.6459066952
 20
311.8546094842
 30
0.0
 10
124.9871885879
 20
311.7971690799
 30
0.0
 10
125.3110227665
 20
311.712435183
 30
0.0
 10
125.6108917881
 20
311.6021145831
 30
0.0
 10
125.7970053161
 20
311.5098834
 30
0.0
 10
125.8840196066
 20
311.4596468125
 30
0.0
  0
SPLINE
  5
55A
100
AcDbEntity
  8
0
100
AcDbSpline
 62
7
  6
CONTINUOUS
 70
0
 71
3
 72
29
 73
25
 74
0
 42
0.0000001
 43
0.0000001
 44
0.0000000001
 40
0.0
 40
0.0
 40
0.0
 40
0.0
 40
0.0445496653
 40
0.0856945044
 40
0.1236033149
 40
0.1587876588
 40
0.1921284949
 40
0.2248138439
 40
0.2581546048
 40
0.2933388121
 40
0.3312474452
 40
0.3723920876
 40
0.4169415552
 40
0.4647824071
 40
0.5155812457
 40
0.5688385633
 40
0.6239337694
 40
0.6801637297
 40
0.7367772241
 40
0.7930072289
 40
0.8481025223
 40
0.9013599661
 40
0.952158964
 40
1.0
 40
1.0
 40
1.0
 40
1.0
 10
125.8840196066
 20
311.4596468125
 30
0.0
 10
125.9650474824
 20
311.412866405
 30
0.0
 10
126.1158369576
 20
311.313503355
 30
0.0
 10
126.3108026542
 20
311.1405980218
 30
0.0
 10
126.4618983655
 20
310.9525037419
 30
0.0
 10
126.5654752633
 20
310.7524925406
 30
0.0
 10
126.6183408886
 20
310.5444886475
 30
0.0
 10
126.6183423372
 20
310.3335964428
 30
0.0
 10
126.5654801814
 20
310.1255924319
 30
0.0
 10
126.4619045032
 20
309.9255797229
 30
0.0
 10
126.3108183128
 20
309.7374884967
 30
0.0
 10
126.1158261853
 20
309.5645659651
 30
0.0
 10
125.8809782594
 20
309.4097980597
 30
0.0
 10
125.6109372963
 20
309.2759816165
 30
0.0
 10
125.311032674
 20
309.1656386928
 30
0.0
 10
124.9872104059
 20
309.0809092651
 30
0.0
 10
124.6459263288
 20
309.0234655242
 30
0.0
 10
124.294012026
 20
308.994452618
 30
0.0
 10
123.9385288262
 20
308.9944516418
 30
0.0
 10
123.586613332
 20
309.0234633715
 30
0.0
 10
123.2453314393
 20
309.0809037757
 30
0.0
 10
122.9214972606
 20
309.1656376727
 30
0.0
 10
122.6216282391
 20
309.2759582726
 30
0.0
 10
122.435514711
 20
309.3681894556
 30
0.0
 10
122.3485004206
 20
309.4184260431
 30
0.0
  0
SPLINE
  5
55B
100
AcDbEntity
  8
0
100
AcDbSpline
 62
7
  6
CONTINUOUS
 70
0
 71
3
 72
29
 73
25
 74
0
 42
0.0000001
 43
0.0000001
 44
0.0000000001
 40
0.0
 40
0.0
 40
0.0
 40
0.0
 40
0.047841036
 40
0.0986400339
 40
0.1518974777
 40
0.2069927711
 40
0.2632227759
 40
0.3198362703
 40
0.3760662306
 40
0.4311614367
 40
0.4844187543
 40
0.5352175929
 40
0.5830584448
 40
0.6276079124
 40
0.6687525548
 40
0.7066611879
 40
0.7418453952
 40
0.7751861561
 40
0.8078715051
 40
0.8412123412
 40
0.8763966851
 40
0.9143054956
 40
0.9554503347
 40
1.0
 40
1.0
 40
1.0
 40
1.0
 10
122.3485004206
 20
302.8864067061
 30
0.0
 10
122.435514711
 20
302.8361701186
 30
0.0
 10
122.6216282391
 20
302.7439389355
 30
0.0
 10
122.9214972606
 20
302.6336183356
 30
0.0
 10
123.2453314393
 20
302.5488844387
 30
0.0
 10
123.586613332
 20
302.4914440345
 30
0.0
 10
123.9385288262
 20
302.4624323048
 30
0.0
 10
124.294012026
 20
302.4624332809
 30
0.0
 10
124.6459263288
 20
302.4914461872
 30
0.0
 10
124.9872104059
 20
302.5488899281
 30
0.0
 10
125.311032674
 20
302.6336193558
 30
0.0
 10
125.6109372963
 20
302.7439622795
 30
0.0
 10
125.8809782594
 20
302.8777787227
 30
0.0
 10
126.1158261853
 20
303.032546628
 30
0.0
 10
126.3108183128
 20
303.2054691597
 30
0.0
 10
126.4619045032
 20
303.3935603859
 30
0.0
 10
126.5654801814
 20
303.5935730949
 30
0.0
 10
126.6183423372
 20
303.8015771058
 30
0.0
 10
126.6183408886
 20
304.0124693104
 30
0.0
 10
126.5654752633
 20
304.2204732036
 30
0.0
 10
126.4618983655
 20
304.4204844048
 30
0.0
 10
126.3108026542
 20
304.6085786848
 30
0.0
 10
126.1158369576
 20
304.781484018
 30
0.0
 10
125.9650474824
 20
304.8808470679
 30
0.0
 10
125.8840196066
 20
304.9276274755
 30
0.0
  0
ENDSEC
  0
SECTION
  2
OBJECTS
  0
DICTIONARY
  5
C
100
AcDbDictionary
280
0
281
1
  3
ACAD_GROUP
350
D
  3
ACAD_MLINESTYLE
350
17
  3
ACAD_LAYOUT
350
1A
  3
ACAD_PLOTSETTINGS
350
19
  3
ACAD_PLOTSTYLENAME
350
E
  0
DICTIONARY
  5
D
102
{ACAD_REACTORS
330
C
102
}
100
AcDbDictionary
280
0
281
1
  0
ACDBDICTIONARYWDFLT
  5
E
102
{ACAD_REACTORS
330
C
102
}
100
AcDbDictionary
281
1
  3
Normal
350
F
100
AcDbDictionaryWithDefault
340
F
  0
DICTIONARY
  5
17
102
{ACAD_REACTORS
330
C
102
}
100
AcDbDictionary
280
0
281
1
  3
Standard
350
18
  0
DICTIONARY
  5
19
102
{ACAD_REACTORS
330
C
102
}
100
AcDbDictionary
281
1
  0
DICTIONARY
  5
1A
102
{ACAD_REACTORS
330
C
102
}
100
AcDbDictionary
281
1
  3
Model
350
55C
  3
Layout1
350
55D
  0
ACDBPLACEHOLDER
  5
F
102
{ACAD_REACTORS
330
E
102
}
  0
MLINESTYLE
  5
18
102
{ACAD_REACTORS
330
17
102
}
100
AcDbMlineStyle
  2
STANDARD
 70
0
  3

 62
256
 51
90.0
 52
90.0
 71
2
 49
0.5
 62
256
  6
BYLAYER
 49
-0.5
 62
256
  6
BYLAYER
  0
LAYOUT
  5
55C
102
{ACAD_REACTORS
330
1A
102
}
100
AcDbPlotSettings
  1

  2
none_device
  4

  6

 40
0.0
 41
0.0
 42
0.0
 43
0.0
 44
210.0
 45
297.0
 46
0.0
 47
0.0
 48
0.0
 49
0.0
140
0.0
141
0.0
142
1.0
143
1.0
 70
1024
 72
1
 73
0
 74
0
  7

 75
0
147
1.0
148
0.0
149
0.0
100
AcDbLayout
  1
Model
 70
0
 71
0
 10
0.0
 20
0.0
 11
210.0
 21
297.0
 12
0.0
 22
0.0
 32
0.0
 14
0.0
 24
0.0
 34
0.0
 15
0.0
 25
0.0
 35
0.0
146
0.0
 13
0.0
 23
0.0
 33
0.0
 16
1.0
 26
0.0
 36
0.0
 17
0.0
 27
1.0
 37
0.0
 76
0
330
210
345
0
346
0
  0
LAYOUT
  5
55D
102
{ACAD_REACTORS
330
1A
102
}
100
AcDbPlotSettings
  1

  2
none_device
  4

  6

 40
0.0
 41
0.0
 42
0.0
 43
0.0
 44
210.0
 45
297.0
 46
0.0
 47
0.0
 48
0.0
 49
0.0
140
0.0
141
0.0
142
1.0
143
1.0
 70
0
 72
1
 73
0
 74
0
  7

 75
0
147
1.0
148
0.0
149
0.0
100
AcDbLayout
  1
Layout1
 70
0
 71
1
 10
0.0
 20
0.0
 11
210.0
 21
297.0
 12
0.0
 22
0.0
 32
0.0
 14
0.0
 24
0.0
 34
0.0
 15
0.0
 25
0.0
 35
0.0
146
0.0
 13
0.0
 23
0.0
 33
0.0
 16
1.0
 26
0.0
 36
0.0
 17
0.0
 27
1.0
 37
0.0
 76
0
330
211
345
0
346
0
  0
ENDSEC
  0
EOF
