999
DXF file: C:\Users\sesa63760\Dev\_Creo\CAD\MCADPD0004719_3D-CAD\drw0001_6.dxf
999
Pro/ENGINEER 2019471 by Parametric Technology Corporation
  0
SECTION
  2
HEADER
  9
$ACADVER
  1
AC1024
  9
$DWGCODEPAGE
  3
ANSI_1252
  9
$EXTMAX
 10
164.4419490308
 20
232.5678993435
 30
0.0
  9
$EXTMIN
 10
0.0
 20
0.0
 30
0.0
  9
$LIMMIN
 10
0.0
 20
0.0
  9
$LIMMAX
 10
164.4419490308
 20
232.5678993435
  9
$VIEWCTR
 10
82.2209745154
 20
116.2839496718
  9
$VIEWSIZE
 40
232.5678993435
  9
$CLAYER
  8
0
  9
$LTSCALE
 40
15.1599815868
  9
$CELTYPE
  6
BYLAYER
  9
$DIMSCALE
 40
1.0
  9
$DIMASZ
 40
1.9576422504
  9
$DIMEXO
 40
1.0
  9
$DIMDLI
 40
10.4741690964
  9
$DIMEXE
 40
1.0
  9
$DIMCEN
 40
2.4807242597
  9
$DIMLFAC
 40
1.0
  9
$DIMBLK
  1
_FILLED
  9
$DIMALT
 70
0
  9
$DIMALTF
 40
0.0393700787
  9
$DIMTXT
 40
2.7406991505
  9
$DIMTOL
 70
1
  9
$DIMLIM
 70
0
  9
$DIMTFAC
 40
1.0
  9
$DIMTP
 40
0.01
  9
$DIMTM
 40
0.01
  9
$DIMGAP
 40
0.625
  9
$DIMDSEP
 70
46
  9
$AUNITS
 70
0
  9
$PDMODE
 70
3
  9
$PDSIZE
 40
0.3125
  9
$HANDSEED
  5
28F
  9
$TILEMODE
 70
1
  9
$MEASUREMENT
 70
1
  9
$INSUNITS
 70
4
  0
ENDSEC
  0
SECTION
  2
CLASSES
  0
CLASS
  1
ACDBDICTIONARYWDFLT
  2
AcDbDictionaryWithDefault
  3
AutoCAD 2000
 90
0
 91
1
280
0
281
0
  0
CLASS
  1
ACDBPLACEHOLDER
  2
AcDbPlaceHolder
  3
AutoCAD 2000
 90
0
 91
1
280
0
281
0
  0
CLASS
  1
LAYOUT
  2
AcDbLayout
  3
AutoCAD 2000
 90
0
 91
0
280
0
281
0
  0
ENDSEC
  0
SECTION
  2
TABLES
  0
TABLE
  2
VPORT
  5
8
100
AcDbSymbolTable
 70
2
  0
VPORT
  5
1F4
100
AcDbSymbolTableRecord
100
AcDbViewportTableRecord
  2
*ACTIVE
 70
0
 10
0.0
 20
0.0
 11
1.0
 21
1.0
 12
82.2209745154
 22
116.2839496718
 13
0.0
 23
0.0
 14
1.0
 24
1.0
 15
0.0
 25
0.0
 16
0.0
 26
0.0
 36
1.0
 17
0.0
 27
0.0
 37
0.0
 40
232.5678993435
 41
0.7070707071
 42
50.0
 43
0.0
 44
0.0
 50
0.0
 51
0.0
 71
0
 72
100
 73
1
 74
1
 75
0
 76
0
 77
0
 78
0
  0
ENDTAB
  0
TABLE
  2
LTYPE
  5
5
100
AcDbSymbolTable
 70
6
  0
LTYPE
  5
14
100
AcDbSymbolTableRecord
100
AcDbLinetypeTableRecord
  2
BYBLOCK
 70
0
  3

 72
65
 73
0
 40
0.0
  0
LTYPE
  5
15
100
AcDbSymbolTableRecord
100
AcDbLinetypeTableRecord
  2
BYLAYER
 70
0
  3

 72
65
 73
0
 40
0.0
  0
LTYPE
  5
16
100
AcDbSymbolTableRecord
100
AcDbLinetypeTableRecord
  2
CONTINUOUS
 70
64
  3
Solid line
 72
65
 73
0
 40
0.0
  0
LTYPE
  5
1F5
100
AcDbSymbolTableRecord
100
AcDbLinetypeTableRecord
  2
CENTER
 70
64
  3
____ _ ____ _ ____ _ ____ _ ____ _ ____ _ ____
 72
65
 73
4
 40
0.6
 49
0.375
 74
0
 49
-0.075
 74
0
 49
0.075
 74
0
 49
-0.075
 74
0
  0
LTYPE
  5
1F6
100
AcDbSymbolTableRecord
100
AcDbLinetypeTableRecord
  2
HIDDEN
 70
64
  3
- - - - - - - - - - - - - - - - - - - -
 72
65
 73
2
 40
0.2
 49
0.1
 74
0
 49
-0.1
 74
0
  0
LTYPE
  5
1F7
100
AcDbSymbolTableRecord
100
AcDbLinetypeTableRecord
  2
PHANTOM
 70
64
  3
_____ _ _ _____ _ _ _____ _ _ _____
 72
65
 73
6
 40
0.8
 49
0.45
 74
0
 49
-0.05
 74
0
 49
0.1
 74
0
 49
-0.05
 74
0
 49
0.1
 74
0
 49
-0.05
 74
0
  0
LTYPE
  5
1F8
100
AcDbSymbolTableRecord
100
AcDbLinetypeTableRecord
  2
DOT
 70
64
  3
. . . . . . . . . . . . . . . . . . . .
 72
65
 73
2
 40
0.2
 49
0.1
 74
0
 49
-0.1
 74
0
  0
LTYPE
  5
1F9
100
AcDbSymbolTableRecord
100
AcDbLinetypeTableRecord
  2
DASHED
 70
64
  3
- - - - - - - - - - - - - - - - - - - -
 72
65
 73
2
 40
0.2
 49
0.1
 74
0
 49
-0.1
 74
0
  0
ENDTAB
  0
TABLE
  2
LAYER
  5
2
100
AcDbSymbolTable
 70
36
  0
LAYER
  5
10
100
AcDbSymbolTableRecord
100
AcDbLayerTableRecord
  2
0
 70
0
 62
7
  6
CONTINUOUS
370
-3
390
F
  0
LAYER
  5
1FA
100
AcDbSymbolTableRecord
100
AcDbLayerTableRecord
  2
DEFAULT_1
 70
0
 62
7
  6
CENTER
370
-3
390
F
  0
LAYER
  5
1FB
100
AcDbSymbolTableRecord
100
AcDbLayerTableRecord
  2
DEFAULT_2
 70
0
 62
7
  6
HIDDEN
370
-3
390
F
  0
LAYER
  5
1FC
100
AcDbSymbolTableRecord
100
AcDbLayerTableRecord
  2
DEFAULT_3
 70
0
 62
7
  6
PHANTOM
370
-3
390
F
  0
LAYER
  5
1FD
100
AcDbSymbolTableRecord
100
AcDbLayerTableRecord
  2
00_COMPONENTS
 70
0
 62
7
  6
CONTINUOUS
370
-3
390
F
  0
LAYER
  5
1FE
100
AcDbSymbolTableRecord
100
AcDbLayerTableRecord
  2
01_1_DEFAULT_DATUMS
 70
0
 62
7
  6
CONTINUOUS
370
-3
390
F
  0
LAYER
  5
1FF
100
AcDbSymbolTableRecord
100
AcDbLayerTableRecord
  2
01_PLANES
 70
0
 62
7
  6
CONTINUOUS
370
-3
390
F
  0
LAYER
  5
200
100
AcDbSymbolTableRecord
100
AcDbLayerTableRecord
  2
02_COORD_SYS
 70
0
 62
7
  6
CONTINUOUS
370
-3
390
F
  0
LAYER
  5
201
100
AcDbSymbolTableRecord
100
AcDbLayerTableRecord
  2
03_AXES
 70
0
 62
7
  6
CONTINUOUS
370
-3
390
F
  0
LAYER
  5
202
100
AcDbSymbolTableRecord
100
AcDbLayerTableRecord
  2
04_POINTS
 70
0
 62
7
  6
CONTINUOUS
370
-3
390
F
  0
LAYER
  5
203
100
AcDbSymbolTableRecord
100
AcDbLayerTableRecord
  2
05_CURVES
 70
0
 62
7
  6
CONTINUOUS
370
-3
390
F
  0
LAYER
  5
204
100
AcDbSymbolTableRecord
100
AcDbLayerTableRecord
  2
06_SURFS
 70
0
 62
7
  6
CONTINUOUS
370
-3
390
F
  0
LAYER
  5
205
100
AcDbSymbolTableRecord
100
AcDbLayerTableRecord
  2
07_COSMETICS
 70
0
 62
7
  6
CONTINUOUS
370
-3
390
F
  0
LAYER
  5
206
100
AcDbSymbolTableRecord
100
AcDbLayerTableRecord
  2
10_NOTES
 70
0
 62
7
  6
CONTINUOUS
370
-3
390
F
  0
LAYER
  5
207
100
AcDbSymbolTableRecord
100
AcDbLayerTableRecord
  2
11_NOTES_PUB
 70
0
 62
7
  6
CONTINUOUS
370
-3
390
F
  0
LAYER
  5
208
100
AcDbSymbolTableRecord
100
AcDbLayerTableRecord
  2
13_REF_GTOL
 70
0
 62
7
  6
CONTINUOUS
370
-3
390
F
  0
LAYER
  5
209
100
AcDbSymbolTableRecord
100
AcDbLayerTableRecord
  2
16_MISC
 70
0
 62
7
  6
CONTINUOUS
370
-3
390
F
  0
LAYER
  5
20A
100
AcDbSymbolTableRecord
100
AcDbLayerTableRecord
  2
17_NO_PRINT
 70
0
 62
7
  6
CONTINUOUS
370
-3
390
F
  0
LAYER
  5
20B
100
AcDbSymbolTableRecord
100
AcDbLayerTableRecord
  2
18_DATUM_CAMS_JOINTS
 70
0
 62
7
  6
CONTINUOUS
370
-3
390
F
  0
LAYER
  5
20C
100
AcDbSymbolTableRecord
100
AcDbLayerTableRecord
  2
19_DATUM_FUNCTIONAL
 70
0
 62
7
  6
CONTINUOUS
370
-3
390
F
  0
LAYER
  5
20D
100
AcDbSymbolTableRecord
100
AcDbLayerTableRecord
  2
20_DATUM_KINEMATIC_SCHEME
 70
0
 62
7
  6
CONTINUOUS
370
-3
390
F
  0
ENDTAB
  0
TABLE
  2
STYLE
  5
3
100
AcDbSymbolTable
 70
1
  0
STYLE
  5
11
100
AcDbSymbolTableRecord
100
AcDbTextStyleTableRecord
  2
STANDARD
 70
0
 40
0.0
 41
1.0
 50
0.0
 71
0
 42
0.2
  3
ARIAL.TTF
  4

  0
STYLE
  5
20E
100
AcDbSymbolTableRecord
100
AcDbTextStyleTableRecord
  2
TEXTSTYLE_1
 70
0
 40
0.0
 41
0.8
 50
0.0
 71
0
 42
0.2
  3
gdt
  4

  0
ENDTAB
  0
TABLE
  2
VIEW
  5
6
100
AcDbSymbolTable
 70
0
  0
ENDTAB
  0
TABLE
  2
UCS
  5
7
100
AcDbSymbolTable
 70
0
  0
ENDTAB
  0
TABLE
  2
APPID
  5
9
100
AcDbSymbolTable
 70
1
  0
APPID
  5
20F
100
AcDbSymbolTableRecord
100
AcDbRegAppTableRecord
  2
ACAD
 70
0
  0
ENDTAB
  0
TABLE
  2
BLOCK_RECORD
  5
1
100
AcDbSymbolTable
 70
0
  0
BLOCK_RECORD
  5
210
100
AcDbSymbolTableRecord
100
AcDbBlockTableRecord
  2
*Model_Space
  0
BLOCK_RECORD
  5
211
100
AcDbSymbolTableRecord
100
AcDbBlockTableRecord
  2
*Paper_Space
  0
BLOCK_RECORD
  5
212
100
AcDbSymbolTableRecord
100
AcDbBlockTableRecord
  2
_FILLED
  0
ENDTAB
  0
TABLE
  2
DIMSTYLE
  5
A
100
AcDbSymbolTable
 70
1
100
AcDbDimStyleTable
 71
0
  0
DIMSTYLE
105
213
100
AcDbSymbolTableRecord
100
AcDbDimStyleTableRecord
  2
STANDARD
 70
0
  3

  4

 40
1.0
 41
1.9576422504
 42
1.0
 43
0.38
 44
1.0
 45
0.0
 46
0.0
 47
0.01
 48
0.01
140
2.7406991505
141
0.09
142
0.0
143
25.4
144
1.0
145
0.0
146
1.0
147
0.625
 71
1
 72
0
 73
0
 74
0
 75
0
 76
0
 77
1
 78
8
 79
2
170
0
171
1
172
0
173
0
174
0
175
0
176
0
177
0
178
0
270
2
179
2
271
2
272
2
273
2
274
2
275
0
280
0
281
0
282
0
283
1
284
8
285
0
286
0
287
3
288
0
340
11
278
46
341
212
342
212
343
212
344
212
  0
ENDTAB
  0
ENDSEC
  0
SECTION
  2
BLOCKS
  0
BLOCK
  5
20
100
AcDbEntity
  8
0
100
AcDbBlockBegin
  2
*Model_Space
 70
0
 10
0.0
 20
0.0
 30
0.0
  3
*Model_Space
  1

  0
ENDBLK
  5
21
100
AcDbEntity
  8
0
100
AcDbBlockEnd
  0
BLOCK
  5
1C
100
AcDbEntity
  8
0
100
AcDbBlockBegin
  2
*Paper_Space
 70
0
 10
0.0
 20
0.0
 30
0.0
  3
*Paper_Space
  1

  0
ENDBLK
  5
1D
100
AcDbEntity
  8
0
100
AcDbBlockEnd
  0
BLOCK
  5
214
100
AcDbEntity
  8
0
100
AcDbBlockBegin
  2
_FILLED
 70
64
 10
0.0
 20
0.0
  3
_FILLED
  1

  0
SOLID
  5
215
100
AcDbEntity
  8
0
  6
BYBLOCK
 62
0
100
AcDbTrace
 10
0.0
 20
0.0
 11
-1.0
 21
0.25
 12
-1.0
 22
-0.25
 13
-1.0
 23
-0.25
  0
ENDBLK
  5
216
100
AcDbEntity
  8
0
  6
BYBLOCK
 62
0
100
AcDbBlockEnd
  0
ENDSEC
  0
SECTION
  2
ENTITIES
  0
LINE
  5
217
100
AcDbEntity
  8
0
100
AcDbLine
 62
7
  6
BYLAYER
 10
19.0303988224
 20
172.6403706136
 11
18.6492861009
 21
171.9684782832
  0
LINE
  5
218
100
AcDbEntity
  8
0
100
AcDbLine
 62
7
  6
BYLAYER
 10
141.9992786729
 20
36.9839496718
 11
143.1992786729
 21
36.9839496718
  0
LINE
  5
219
100
AcDbEntity
  8
0
100
AcDbLine
 62
7
  6
BYLAYER
 10
141.9992786729
 20
37.926519068
 11
143.1992786729
 21
37.926519068
  0
LINE
  5
21A
100
AcDbEntity
  8
0
100
AcDbLine
 62
7
  6
BYLAYER
 10
99.0492786729
 20
38.7839496718
 11
145.6492786729
 21
38.7839496718
  0
LINE
  5
21B
100
AcDbEntity
  8
0
100
AcDbLine
 62
7
  6
BYLAYER
 10
18.5992786729
 20
170.6323422031
 11
18.5992786729
 21
167.1355584766
  0
LINE
  5
21C
100
AcDbEntity
  8
0
100
AcDbLine
 62
7
  6
BYLAYER
 10
18.6492861009
 20
171.9686398161
 11
18.6492861009
 21
170.6323422031
  0
LINE
  5
21D
100
AcDbEntity
  8
0
100
AcDbLine
 62
7
  6
BYLAYER
 10
18.6492861009
 20
167.1355584766
 11
18.6492861009
 21
165.7992595275
  0
LINE
  5
21E
100
AcDbEntity
  8
0
100
AcDbLine
 62
7
  6
BYLAYER
 10
105.0492786729
 20
50.8839496718
 11
99.0492786729
 21
50.8839496718
  0
LINE
  5
21F
100
AcDbEntity
  8
0
100
AcDbLine
 62
7
  6
BYLAYER
 10
105.0492786729
 20
51.1839496718
 11
79.4492786729
 21
51.1839496718
  0
LINE
  5
220
100
AcDbEntity
  8
0
100
AcDbLine
 62
7
  6
BYLAYER
 10
33.0492786729
 20
160.5866882576
 11
33.0492786729
 21
177.1812110859
  0
LINE
  5
221
100
AcDbEntity
  8
0
100
AcDbLine
 62
7
  6
BYLAYER
 10
33.9492786729
 20
175.2089496718
 11
33.9492786729
 21
183.1589496718
  0
LINE
  5
222
100
AcDbEntity
  8
0
100
AcDbLine
 62
7
  6
BYLAYER
 10
34.0492786729
 20
157.7839496718
 11
34.0492786729
 21
175.2089496718
  0
LINE
  5
223
100
AcDbEntity
  8
0
100
AcDbLine
 62
7
  6
BYLAYER
 10
34.9492786729
 20
175.2089496718
 11
34.9492786729
 21
183.1589496718
  0
LINE
  5
224
100
AcDbEntity
  8
0
100
AcDbLine
 62
7
  6
BYLAYER
 10
35.8505566649
 20
180.3839496718
 11
35.8505566649
 21
157.7839496718
  0
LINE
  5
225
100
AcDbEntity
  8
0
100
AcDbLine
 62
7
  6
BYLAYER
 10
36.2764846261
 20
73.7839496718
 11
36.2764846261
 21
93.3839496718
  0
LINE
  5
226
100
AcDbEntity
  8
0
100
AcDbLine
 62
7
  6
BYLAYER
 10
79.4492786729
 20
62.6839496718
 11
58.4492786729
 21
62.6839496718
  0
LINE
  5
227
100
AcDbEntity
  8
0
100
AcDbLine
 62
7
  6
BYLAYER
 10
36.8367006283
 20
157.7839496718
 11
36.8367006373
 21
180.3839496718
  0
LINE
  5
228
100
AcDbEntity
  8
0
100
AcDbLine
 62
7
  6
BYLAYER
 10
38.0377457294
 20
93.3839496718
 11
38.0377457294
 21
73.5992818905
  0
LINE
  5
229
100
AcDbEntity
  8
0
100
AcDbLine
 62
7
  6
BYLAYER
 10
38.9978089286
 20
93.3839496718
 11
38.9978089287
 21
73.5912664662
  0
LINE
  5
22A
100
AcDbEntity
  8
0
100
AcDbLine
 62
7
  6
BYLAYER
 10
40.0764846261
 20
118.7840190462
 11
40.0764846261
 21
117.2839496718
  0
LINE
  5
22B
100
AcDbEntity
  8
0
100
AcDbLine
 62
7
  6
BYLAYER
 10
58.2764846261
 20
73.6024308217
 11
58.4492786729
 21
73.6024308217
  0
LINE
  5
22C
100
AcDbEntity
  8
0
100
AcDbLine
 62
7
  6
BYLAYER
 10
38.9978453077
 20
73.592000666
 11
58.2764846261
 21
73.5875952024
  0
LINE
  5
22D
100
AcDbEntity
  8
0
100
AcDbLine
 62
7
  6
BYLAYER
 10
145.6492786729
 20
82.9839496718
 11
145.9992786729
 21
82.9839496718
  0
LINE
  5
22E
100
AcDbEntity
  8
0
100
AcDbLine
 62
7
  6
BYLAYER
 10
53.6830700077
 20
117.2839496718
 11
53.683078895
 21
118.783965978
  0
LINE
  5
22F
100
AcDbEntity
  8
0
100
AcDbLine
 62
7
  6
BYLAYER
 10
54.0764792099
 20
96.5839814627
 11
54.0765388065
 21
118.7839796964
  0
LINE
  5
230
100
AcDbEntity
  8
0
100
AcDbLine
 62
7
  6
BYLAYER
 10
55.0764846261
 20
130.8839507802
 11
55.0764846261
 21
118.7839787782
  0
LINE
  5
231
100
AcDbEntity
  8
0
100
AcDbLine
 62
7
  6
BYLAYER
 10
55.2492786729
 20
130.8839507802
 11
55.2492786729
 21
157.7839496718
  0
LINE
  5
232
100
AcDbEntity
  8
0
100
AcDbLine
 62
7
  6
BYLAYER
 10
18.6492861009
 20
165.7991044766
 11
19.0303988224
 21
165.12752873
  0
LINE
  5
233
100
AcDbEntity
  8
0
100
AcDbLine
 62
7
  6
BYLAYER
 10
57.6492786729
 20
150.7839496718
 11
57.6492786729
 21
157.7839496718
  0
LINE
  5
234
100
AcDbEntity
  8
0
100
AcDbLine
 62
7
  6
BYLAYER
 10
57.9492786729
 20
93.3839496718
 11
57.9492787192
 21
96.5839801182
  0
LINE
  5
235
100
AcDbEntity
  8
0
100
AcDbLine
 62
7
  6
BYLAYER
 10
58.0492786729
 20
157.7839496718
 11
58.0492786729
 21
96.3839800603
  0
LINE
  5
236
100
AcDbEntity
  8
0
100
AcDbLine
 62
7
  6
BYLAYER
 10
58.2764846261
 20
93.3839496718
 11
58.2764846261
 21
73.5883294104
  0
LINE
  5
237
100
AcDbEntity
  8
0
100
AcDbLine
 62
7
  6
BYLAYER
 10
58.4492786729
 20
62.6839496718
 11
58.4492786729
 21
96.3839799677
  0
LINE
  5
238
100
AcDbEntity
  8
0
100
AcDbLine
 62
7
  6
BYLAYER
 10
36.2764846261
 20
93.3839496718
 11
58.4492786729
 21
93.3839496718
  0
LINE
  5
239
100
AcDbEntity
  8
0
100
AcDbLine
 62
7
  6
BYLAYER
 10
58.4492786729
 20
96.3839799677
 11
58.0492503364
 21
96.3839800603
  0
LINE
  5
23A
100
AcDbEntity
  8
0
100
AcDbLine
 62
7
  6
BYLAYER
 10
57.9492787192
 20
96.5839801182
 11
54.0764792099
 21
96.5839814627
  0
LINE
  5
23B
100
AcDbEntity
  8
0
100
AcDbLine
 62
7
  6
BYLAYER
 10
141.6492786729
 20
102.4839496718
 11
143.0512024616
 21
102.4839496718
  0
LINE
  5
23C
100
AcDbEntity
  8
0
100
AcDbLine
 62
7
  6
BYLAYER
 10
141.6492786729
 20
103.3839496718
 11
142.6892786729
 21
103.3839496718
  0
LINE
  5
23D
100
AcDbEntity
  8
0
100
AcDbLine
 62
7
  6
BYLAYER
 10
142.6892786729
 20
107.2339496718
 11
148.6892786729
 21
107.2339496718
  0
LINE
  5
23E
100
AcDbEntity
  8
0
100
AcDbLine
 62
7
  6
BYLAYER
 10
147.6492786729
 20
108.2739496718
 11
141.6492786729
 21
108.2739496718
  0
LINE
  5
23F
100
AcDbEntity
  8
0
100
AcDbLine
 62
7
  6
BYLAYER
 10
79.4492786729
 20
51.1839496718
 11
79.4492786729
 21
62.6839496718
  0
LINE
  5
240
100
AcDbEntity
  8
0
100
AcDbLine
 62
7
  6
BYLAYER
 10
40.076484626
 20
117.2839496718
 11
54.0765354508
 21
117.2839496718
  0
LINE
  5
241
100
AcDbEntity
  8
0
100
AcDbLine
 62
7
  6
BYLAYER
 10
55.0764792123
 20
118.7839787782
 11
54.0765388065
 21
118.7839814626
  0
LINE
  5
242
100
AcDbEntity
  8
0
100
AcDbLine
 62
7
  6
BYLAYER
 10
53.6831088388
 20
118.7839825188
 11
40.0764856904
 21
118.7840190462
  0
LINE
  5
243
100
AcDbEntity
  8
0
100
AcDbLine
 62
7
  6
BYLAYER
 10
99.0492786729
 20
50.8839496718
 11
99.0492786729
 21
49.6839496718
  0
LINE
  5
244
100
AcDbEntity
  8
0
100
AcDbLine
 62
7
  6
BYLAYER
 10
99.0492786729
 20
41.8839496718
 11
99.0492786729
 21
38.7839496718
  0
LINE
  5
245
100
AcDbEntity
  8
0
100
AcDbLine
 62
7
  6
BYLAYER
 10
99.0492786729
 20
180.6839496718
 11
99.0492786729
 21
181.8839496718
  0
LINE
  5
246
100
AcDbEntity
  8
0
100
AcDbLine
 62
7
  6
BYLAYER
 10
99.0492786729
 20
189.6839496718
 11
99.0492786729
 21
192.7839496718
  0
LINE
  5
247
100
AcDbEntity
  8
0
100
AcDbLine
 62
7
  6
BYLAYER
 10
101.0492786729
 20
192.7839496718
 11
101.0492786729
 21
180.6839496718
  0
LINE
  5
248
100
AcDbEntity
  8
0
100
AcDbLine
 62
7
  6
BYLAYER
 10
101.0492786729
 20
50.8839496718
 11
101.0492786729
 21
38.7839496718
  0
LINE
  5
249
100
AcDbEntity
  8
0
100
AcDbLine
 62
7
  6
BYLAYER
 10
105.0492786729
 20
50.8839496718
 11
105.0492786729
 21
51.1839496718
  0
LINE
  5
24A
100
AcDbEntity
  8
0
100
AcDbLine
 62
7
  6
BYLAYER
 10
58.0492855087
 20
130.8839496718
 11
55.0764900399
 21
130.8839496718
  0
LINE
  5
24B
100
AcDbEntity
  8
0
100
AcDbLine
 62
7
  6
BYLAYER
 10
141.6492786729
 20
133.1939496718
 11
147.6492786729
 21
133.1939496718
  0
LINE
  5
24C
100
AcDbEntity
  8
0
100
AcDbLine
 62
7
  6
BYLAYER
 10
148.6892786729
 20
134.2339496718
 11
142.6892786729
 21
134.2339496718
  0
LINE
  5
24D
100
AcDbEntity
  8
0
100
AcDbLine
 62
7
  6
BYLAYER
 10
145.6492786729
 20
135.7839496718
 11
143.7217862867
 21
135.7839496718
  0
LINE
  5
24E
100
AcDbEntity
  8
0
100
AcDbLine
 62
7
  6
BYLAYER
 10
143.0512024616
 20
102.4839496718
 11
145.6492786729
 21
100.9839496718
  0
LINE
  5
24F
100
AcDbEntity
  8
0
100
AcDbLine
 62
7
  6
BYLAYER
 10
106.5492786729
 20
180.3839496718
 11
106.5492786729
 21
180.6839496718
  0
LINE
  5
250
100
AcDbEntity
  8
0
100
AcDbLine
 62
7
  6
BYLAYER
 10
142.6892786729
 20
138.0839496718
 11
140.9492786729
 21
138.0839496718
  0
LINE
  5
251
100
AcDbEntity
  8
0
100
AcDbLine
 62
7
  6
BYLAYER
 10
145.1492786729
 20
112.8839496718
 11
141.6492786729
 21
110.8632237296
  0
LINE
  5
252
100
AcDbEntity
  8
0
100
AcDbLine
 62
7
  6
BYLAYER
 10
55.2492786729
 20
146.8839496718
 11
58.0492786729
 21
146.8839496718
  0
LINE
  5
253
100
AcDbEntity
  8
0
100
AcDbLine
 62
7
  6
BYLAYER
 10
57.6492786729
 20
150.7839496718
 11
58.0492786729
 21
150.7839496718
  0
LINE
  5
254
100
AcDbEntity
  8
0
100
AcDbLine
 62
7
  6
BYLAYER
 10
142.6892786729
 20
105.6587496718
 11
145.3992786729
 21
102.9487496718
  0
LINE
  5
255
100
AcDbEntity
  8
0
100
AcDbLine
 62
7
  6
BYLAYER
 10
145.6492786729
 20
85.4849870553
 11
145.9992786729
 21
84.9851352529
  0
LINE
  5
256
100
AcDbEntity
  8
0
100
AcDbLine
 62
7
  6
BYLAYER
 10
55.2492786729
 20
156.9839496718
 11
57.6492786729
 21
156.9839496718
  0
LINE
  5
257
100
AcDbEntity
  8
0
100
AcDbLine
 62
7
  6
BYLAYER
 10
34.0492786729
 20
157.7839496718
 11
58.0492692274
 21
157.7839496718
  0
LINE
  5
258
100
AcDbEntity
  8
0
100
AcDbLine
 62
7
  6
BYLAYER
 10
140.9492786729
 20
130.7088208024
 11
145.1492786729
 21
128.2839496718
  0
LINE
  5
259
100
AcDbEntity
  8
0
100
AcDbLine
 62
7
  6
BYLAYER
 10
33.0492786729
 20
160.5866882576
 11
34.0492786729
 21
160.5866882576
  0
LINE
  5
25A
100
AcDbEntity
  8
0
100
AcDbLine
 62
7
  6
BYLAYER
 10
33.0492786729
 20
165.1301424265
 11
19.0303988223
 21
165.1275287299
  0
LINE
  5
25B
100
AcDbEntity
  8
0
100
AcDbLine
 62
7
  6
BYLAYER
 10
18.5992786729
 20
167.1355584766
 11
20.9060595128
 21
167.1355584766
  0
LINE
  5
25C
100
AcDbEntity
  8
0
100
AcDbLine
 62
7
  6
BYLAYER
 10
18.5992786729
 20
170.6323422031
 11
20.9060594792
 21
170.6323422031
  0
LINE
  5
25D
100
AcDbEntity
  8
0
100
AcDbLine
 62
7
  6
BYLAYER
 10
140.9492786729
 20
138.0839496718
 11
140.9492786729
 21
130.7088208024
  0
LINE
  5
25E
100
AcDbEntity
  8
0
100
AcDbLine
 62
7
  6
BYLAYER
 10
141.6492786729
 20
138.0839496718
 11
141.6492786729
 21
133.1939496718
  0
LINE
  5
25F
100
AcDbEntity
  8
0
100
AcDbLine
 62
7
  6
BYLAYER
 10
141.6492786729
 20
110.8632237296
 11
141.6492786729
 21
102.4839496718
  0
LINE
  5
260
100
AcDbEntity
  8
0
100
AcDbLine
 62
7
  6
BYLAYER
 10
141.9992786729
 20
38.7839496718
 11
141.9992786729
 21
36.9839496718
  0
LINE
  5
261
100
AcDbEntity
  8
0
100
AcDbLine
 62
7
  6
BYLAYER
 10
141.9992786729
 20
102.4839496718
 11
141.9992786729
 21
103.3839496718
  0
LINE
  5
262
100
AcDbEntity
  8
0
100
AcDbLine
 62
7
  6
BYLAYER
 10
142.6892786729
 20
103.3839496718
 11
142.6892786729
 21
107.2339496718
  0
LINE
  5
263
100
AcDbEntity
  8
0
100
AcDbLine
 62
7
  6
BYLAYER
 10
142.6892786729
 20
134.2339496718
 11
142.6892786729
 21
138.0839496718
  0
LINE
  5
264
100
AcDbEntity
  8
0
100
AcDbLine
 62
7
  6
BYLAYER
 10
143.1992786729
 20
36.9839496718
 11
143.1992786729
 21
38.7839496718
  0
LINE
  5
265
100
AcDbEntity
  8
0
100
AcDbLine
 62
7
  6
BYLAYER
 10
144.0492786729
 20
177.5839496718
 11
144.0492786729
 21
195.5839496718
  0
LINE
  5
266
100
AcDbEntity
  8
0
100
AcDbLine
 62
7
  6
BYLAYER
 10
145.1492786729
 20
128.2839496718
 11
145.1492786729
 21
112.8839496718
  0
LINE
  5
267
100
AcDbEntity
  8
0
100
AcDbLine
 62
7
  6
BYLAYER
 10
145.3992786729
 20
101.1282872391
 11
145.3992786729
 21
102.9487496718
  0
LINE
  5
268
100
AcDbEntity
  8
0
100
AcDbLine
 62
7
  6
BYLAYER
 10
145.5492786729
 20
177.5839496718
 11
145.5492786729
 21
195.5839496718
  0
LINE
  5
269
100
AcDbEntity
  8
0
100
AcDbLine
 62
7
  6
BYLAYER
 10
145.6492786729
 20
192.7839496718
 11
145.6492786729
 21
135.7839496718
  0
LINE
  5
26A
100
AcDbEntity
  8
0
100
AcDbLine
 62
7
  6
BYLAYER
 10
145.6492786729
 20
100.9839496718
 11
145.6492786729
 21
38.7839496718
  0
LINE
  5
26B
100
AcDbEntity
  8
0
100
AcDbLine
 62
7
  6
BYLAYER
 10
145.9992786729
 20
82.9839496718
 11
145.9992786729
 21
84.9851352529
  0
LINE
  5
26C
100
AcDbEntity
  8
0
100
AcDbLine
 62
7
  6
BYLAYER
 10
33.0492786729
 20
172.6377569171
 11
19.0303988223
 21
172.6403706136
  0
LINE
  5
26D
100
AcDbEntity
  8
0
100
AcDbLine
 62
7
  6
BYLAYER
 10
33.9492786729
 20
175.2089496718
 11
34.9492786729
 21
175.2089496718
  0
LINE
  5
26E
100
AcDbEntity
  8
0
100
AcDbLine
 62
7
  6
BYLAYER
 10
33.0492786729
 20
177.1812110859
 11
33.9492786729
 21
177.1812110859
  0
LINE
  5
26F
100
AcDbEntity
  8
0
100
AcDbLine
 62
7
  6
BYLAYER
 10
144.0492786729
 20
177.5839496718
 11
145.6492786729
 21
177.5839496718
  0
LINE
  5
270
100
AcDbEntity
  8
0
100
AcDbLine
 62
7
  6
BYLAYER
 10
147.6492786729
 20
133.1939496718
 11
147.6492786729
 21
108.2739496718
  0
LINE
  5
271
100
AcDbEntity
  8
0
100
AcDbLine
 62
7
  6
BYLAYER
 10
148.6892786729
 20
107.2339496718
 11
148.6892786729
 21
134.2339496718
  0
LINE
  5
272
100
AcDbEntity
  8
0
100
AcDbLine
 62
7
  6
BYLAYER
 10
145.5492786729
 20
179.0839496718
 11
144.0492786729
 21
179.0839496718
  0
LINE
  5
273
100
AcDbEntity
  8
0
100
AcDbLine
 62
7
  6
BYLAYER
 10
34.9492786729
 20
180.3839496718
 11
106.5492786729
 21
180.3839496718
  0
LINE
  5
274
100
AcDbEntity
  8
0
100
AcDbLine
 62
7
  6
BYLAYER
 10
99.0492786729
 20
180.6839496718
 11
106.5492786729
 21
180.6839496718
  0
LINE
  5
275
100
AcDbEntity
  8
0
100
AcDbLine
 62
7
  6
BYLAYER
 10
33.9492786729
 20
183.1589496718
 11
34.9492786729
 21
183.1589496718
  0
LINE
  5
276
100
AcDbEntity
  8
0
100
AcDbLine
 62
7
  6
BYLAYER
 10
143.7217862867
 20
135.7839496718
 11
142.6892786729
 21
137.998169395
  0
LINE
  5
277
100
AcDbEntity
  8
0
100
AcDbLine
 62
7
  6
BYLAYER
 10
99.0492786729
 20
192.7839496718
 11
144.0492786729
 21
192.7839496718
  0
LINE
  5
278
100
AcDbEntity
  8
0
100
AcDbLine
 62
7
  6
BYLAYER
 10
145.5492786729
 20
192.7839496718
 11
145.6492786729
 21
192.7839496718
  0
LINE
  5
279
100
AcDbEntity
  8
0
100
AcDbLine
 62
7
  6
BYLAYER
 10
145.5492786729
 20
193.4669496718
 11
144.0492786729
 21
193.4669496718
  0
LINE
  5
27A
100
AcDbEntity
  8
0
100
AcDbLine
 62
7
  6
BYLAYER
 10
145.5492786729
 20
194.5853020765
 11
144.0492786729
 21
194.5853020765
  0
LINE
  5
27B
100
AcDbEntity
  8
0
100
AcDbLine
 62
7
  6
BYLAYER
 10
144.0492786729
 20
195.5839496718
 11
145.5492786729
 21
195.5839496718
  0
ARC
  5
27C
100
AcDbEntity
  8
0
100
AcDbCircle
 62
7
  6
BYLAYER
 10
-27.3448715723
 20
185.7839496718
 40
126.4543048544
100
AcDbArc
 50
358.2326502877
 51
1.7673497123
  0
ARC
  5
27D
100
AcDbEntity
  8
0
100
AcDbCircle
 62
7
  6
BYLAYER
 10
-27.3446099955
 20
45.7839496718
 40
126.454043402
100
AcDbArc
 50
358.2326466324
 51
1.7673533676
  0
ARC
  5
27E
100
AcDbEntity
  8
0
100
AcDbCircle
 62
7
  6
BYLAYER
 10
-49.2610846571
 20
168.8982759979
 40
70.2045162373
100
AcDbArc
 50
356.923247127
 51
358.5586672578
  0
ARC
  5
27F
100
AcDbEntity
  8
0
100
AcDbCircle
 62
7
  6
BYLAYER
 10
-49.2318759016
 20
168.8707755759
 40
70.175287742
100
AcDbArc
 50
1.4409932362
 51
3.0770934797
  0
ARC
  5
280
100
AcDbEntity
  8
0
100
AcDbCircle
 62
7
  6
BYLAYER
 10
-48.8247335258
 20
168.8839496718
 40
69.7527086898
100
AcDbArc
 50
358.5636983707
 51
1.4363027271
  0
ARC
  5
281
100
AcDbEntity
  8
0
100
AcDbCircle
 62
7
  6
BYLAYER
 10
-48.7484974844
 20
168.8839496705
 40
69.6917309044
100
AcDbArc
 50
358.5598416816
 51
1.4401594256
  0
SPLINE
  5
282
100
AcDbEntity
  8
0
100
AcDbSpline
 62
7
  6
BYLAYER
 70
0
 71
3
 72
12
 73
8
 74
0
 42
0.0000001
 43
0.0000001
 44
0.0000000001
 40
0.0
 40
0.0
 40
0.0
 40
0.0
 40
0.0603724457
 40
0.1385147187
 40
0.350652202
 40
0.6381381789
 40
1.0
 40
1.0
 40
1.0
 40
1.0
 10
18.8321743523
 20
171.8340915632
 30
0.0
 10
18.8759460778
 20
171.8340929786
 30
0.0
 10
18.9762323448
 20
171.8462515765
 30
0.0
 10
19.2233807395
 20
171.9066564226
 30
0.0
 10
19.6168835595
 20
172.0534503515
 30
0.0
 10
20.1868797307
 20
172.3087066236
 30
0.0
 10
20.608605176
 20
172.5183818259
 30
0.0
 10
20.8422338769
 20
172.6377569171
 30
0.0
  0
SPLINE
  5
283
100
AcDbEntity
  8
0
100
AcDbSpline
 62
7
  6
BYLAYER
 70
0
 71
3
 72
29
 73
25
 74
0
 42
0.0000001
 43
0.0000001
 44
0.0000000001
 40
0.0
 40
0.0
 40
0.0
 40
0.0
 40
0.0057203018
 40
0.0145288309
 40
0.027327836
 40
0.0443192285
 40
0.0654512069
 40
0.0905956635
 40
0.152108809
 40
0.2267402787
 40
0.3117761206
 40
0.4040457721
 40
0.5000142522
 40
0.5959829978
 40
0.6882497936
 40
0.7732767159
 40
0.847899883
 40
0.9094108768
 40
0.9345545634
 40
0.955684188
 40
0.9726734066
 40
0.9854714039
 40
0.9942795492
 40
1.0
 40
1.0
 40
1.0
 40
1.0
 10
99.7720419868
 20
189.6839496718
 30
0.0
 10
99.787213354
 20
189.6839496718
 30
0.0
 10
99.8237165097
 20
189.6622895467
 30
0.0
 10
99.8627765731
 20
189.6010873911
 30
0.0
 10
99.9045110594
 20
189.5071766712
 30
0.0
 10
99.9453572104
 20
189.3783214815
 30
0.0
 10
99.9863232887
 20
189.2155243505
 30
0.0
 10
100.0432553019
 20
188.9352976819
 30
0.0
 10
100.1065366899
 20
188.5119837779
 30
0.0
 10
100.168280303
 20
187.9285174907
 30
0.0
 10
100.2156669801
 20
187.2618909127
 30
0.0
 10
100.2454905178
 20
186.5376327032
 30
0.0
 10
100.2556440753
 20
185.7838347303
 30
0.0
 10
100.2454758122
 20
185.0300443037
 30
0.0
 10
100.2156304037
 20
184.3058179401
 30
0.0
 10
100.1682917091
 20
183.6392418562
 30
0.0
 10
100.1065560646
 20
183.0558248772
 30
0.0
 10
100.0432187552
 20
182.632549815
 30
0.0
 10
99.986289555
 20
182.3523372778
 30
0.0
 10
99.9453385504
 20
182.1895510267
 30
0.0
 10
99.9045089314
 20
182.0607059283
 30
0.0
 10
99.8627822093
 20
181.9668018662
 30
0.0
 10
99.8237176797
 20
181.9056052307
 30
0.0
 10
99.7872137492
 20
181.8839496718
 30
0.0
 10
99.7720419868
 20
181.8839496718
 30
0.0
  0
SPLINE
  5
284
100
AcDbEntity
  8
0
100
AcDbSpline
 62
7
  6
BYLAYER
 70
0
 71
3
 72
12
 73
8
 74
0
 42
0.0000001
 43
0.0000001
 44
0.0000000001
 40
0.0
 40
0.0
 40
0.0
 40
0.0
 40
0.3618574664
 40
0.649344159
 40
0.8614859177
 40
0.939628693
 40
1.0
 40
1.0
 40
1.0
 40
1.0
 10
20.842233877
 20
165.1301424265
 30
0.0
 10
20.6086035948
 20
165.2495183256
 30
0.0
 10
20.1868758076
 20
165.4592024871
 30
0.0
 10
19.6168795525
 20
165.7144874099
 30
0.0
 10
19.2233767427
 20
165.8613149529
 30
0.0
 10
18.9762255854
 20
165.9217396681
 30
0.0
 10
18.875938303
 20
165.9339039742
 30
0.0
 10
18.8321665801
 20
165.9339064631
 30
0.0
  0
LINE
  5
285
100
AcDbEntity
  8
0
100
AcDbLine
 62
7
  6
BYLAYER
 10
53.683078895
 20
118.783965978
 11
54.0765203605
 21
118.7839744566
  0
SPLINE
  5
286
100
AcDbEntity
  8
0
100
AcDbSpline
 62
7
  6
BYLAYER
 70
0
 71
3
 72
11
 73
7
 74
0
 42
0.0000001
 43
0.0000001
 44
0.0000000001
 40
0.0
 40
0.0
 40
0.0
 40
0.0
 40
0.1186227686
 40
0.3440585995
 40
0.6498199269
 40
1.0
 40
1.0
 40
1.0
 40
1.0
 10
38.0377457294
 20
73.5992818905
 30
0.0
 10
38.0756596636
 20
73.5973080268
 30
0.0
 10
38.1858091017
 20
73.5960976
 30
0.0
 10
38.3937422161
 20
73.5935794
 30
0.0
 10
38.6758395147
 20
73.5924385549
 30
0.0
 10
38.8857699903
 20
73.5920262775
 30
0.0
 10
38.9978453077
 20
73.592000666
 30
0.0
  0
SPLINE
  5
287
100
AcDbEntity
  8
0
100
AcDbSpline
 62
7
  6
BYLAYER
 70
0
 71
3
 72
29
 73
25
 74
0
 42
0.0000001
 43
0.0000001
 44
0.0000000001
 40
0.0
 40
0.0
 40
0.0
 40
0.0
 40
0.0057203052
 40
0.0145288126
 40
0.0273277662
 40
0.0443190325
 40
0.0654508581
 40
0.0905952436
 40
0.1521082068
 40
0.2267393962
 40
0.3117747296
 40
0.4040439002
 40
0.5000128143
 40
0.5959809345
 40
0.6882458783
 40
0.7732749368
 40
0.8478998715
 40
0.9094080646
 40
0.9345513732
 40
0.9556822802
 40
0.9726730218
 40
0.9854716759
 40
0.9942798114
 40
1.0
 40
1.0
 40
1.0
 40
1.0
 10
99.7720419868
 20
49.6839496718
 30
0.0
 10
99.7872133616
 20
49.6839496718
 30
0.0
 10
99.8237165233
 20
49.6622897511
 30
0.0
 10
99.8627767694
 20
49.601087898
 30
0.0
 10
99.9045110747
 20
49.5071776846
 30
0.0
 10
99.945356953
 20
49.3783233399
 30
0.0
 10
99.9863227403
 20
49.2155271076
 30
0.0
 10
100.0432545028
 20
48.9353015193
 30
0.0
 10
100.1065368465
 20
48.5119892361
 30
0.0
 10
100.1682800549
 20
47.9285255132
 30
0.0
 10
100.2156652446
 20
47.2619022735
 30
0.0
 10
100.2454887686
 20
46.5376456004
 30
0.0
 10
100.2556409854
 20
45.7838494508
 30
0.0
 10
100.2454798132
 20
45.0300646245
 30
0.0
 10
100.2156506797
 20
44.3058382485
 30
0.0
 10
100.1682707997
 20
43.6392592213
 30
0.0
 10
100.1065292983
 20
43.0558413598
 30
0.0
 10
100.043247051
 20
42.6325615827
 30
0.0
 10
99.9863179178
 20
42.352353777
 30
0.0
 10
99.9453530909
 20
42.1895642138
 30
0.0
 10
99.9045083943
 20
42.0607143184
 30
0.0
 10
99.8627761849
 20
41.9668068517
 30
0.0
 10
99.8237157472
 20
41.9056068967
 30
0.0
 10
99.7872130524
 20
41.8839496718
 30
0.0
 10
99.7720419868
 20
41.8839496718
 30
0.0
  0
SPLINE
  5
288
100
AcDbEntity
  8
0
100
AcDbSpline
 62
7
  6
BYLAYER
 70
0
 71
3
 72
11
 73
7
 74
0
 42
0.0000001
 43
0.0000001
 44
0.0000000001
 40
0.0
 40
0.0
 40
0.0
 40
0.0
 40
0.3126725556
 40
0.5554794079
 40
0.7664224192
 40
1.0
 40
1.0
 40
1.0
 40
1.0
 10
18.8321665801
 20
165.9339064631
 30
0.0
 10
18.8053487414
 20
165.933907988
 30
0.0
 10
18.7575160442
 20
165.9304040208
 30
0.0
 10
18.6943536756
 20
165.906242115
 30
0.0
 10
18.6549222391
 20
165.8585934427
 30
0.0
 10
18.6493134935
 20
165.8192607587
 30
0.0
 10
18.649338236
 20
165.7992268894
 30
0.0
  0
SPLINE
  5
289
100
AcDbEntity
  8
0
100
AcDbSpline
 62
7
  6
BYLAYER
 70
0
 71
3
 72
11
 73
7
 74
0
 42
0.0000001
 43
0.0000001
 44
0.0000000001
 40
0.0
 40
0.0
 40
0.0
 40
0.0
 40
0.2335374819
 40
0.4444725172
 40
0.6872986884
 40
1.0
 40
1.0
 40
1.0
 40
1.0
 10
18.6493344237
 20
171.9687383476
 30
0.0
 10
18.6493105672
 20
171.9487094521
 30
0.0
 10
18.6549238048
 20
171.9093837631
 30
0.0
 10
18.6943613394
 20
171.861750035
 30
0.0
 10
18.7575231619
 20
171.8375952405
 30
0.0
 10
18.8053561032
 20
171.8340906959
 30
0.0
 10
18.8321743523
 20
171.8340915632
 30
0.0
  0
SPLINE
  5
28A
100
AcDbEntity
  8
0
100
AcDbSpline
 62
7
  6
BYLAYER
 70
0
 71
3
 72
31
 73
27
 74
0
 42
0.0000001
 43
0.0000001
 44
0.0000000001
 40
0.0
 40
0.0
 40
0.0
 40
0.0
 40
0.0056038246
 40
0.0141869884
 40
0.026759498
 40
0.0435580533
 40
0.0645450215
 40
0.0895988493
 40
0.1185390583
 40
0.1510972372
 40
0.225881106
 40
0.3111719805
 40
0.4037364857
 40
0.5000097405
 40
0.5962828606
 40
0.6888455352
 40
0.7741325845
 40
0.8489119365
 40
0.8814674967
 40
0.9104056196
 40
0.935458217
 40
0.9564438184
 40
0.9732414511
 40
0.9858135091
 40
0.994396277
 40
1.0
 40
1.0
 40
1.0
 40
1.0
 10
99.7720419868
 20
181.8839496718
 30
0.0
 10
99.7572472589
 20
181.8839496718
 30
0.0
 10
99.7216953417
 20
181.9054045136
 30
0.0
 10
99.6864195944
 20
181.9670625873
 30
0.0
 10
99.6503668956
 20
182.0608641327
 30
0.0
 10
99.6171801033
 20
182.1897826448
 30
0.0
 10
99.5854347437
 20
182.3526678819
 30
0.0
 10
99.5561496645
 20
182.5485014739
 30
0.0
 10
99.5293345149
 20
182.7754536386
 30
0.0
 10
99.4955356249
 20
183.1336896495
 30
0.0
 10
99.4621754277
 20
183.6412577237
 30
0.0
 10
99.4344974091
 20
184.3077183169
 30
0.0
 10
99.4179137922
 20
185.0312952986
 30
0.0
 10
99.4123771346
 20
185.784027
 30
0.0
 10
99.4179182047
 20
186.5367538168
 30
0.0
 10
99.434502809
 20
187.2603154915
 30
0.0
 10
99.4621829607
 20
187.9267490964
 30
0.0
 10
99.4955408755
 20
188.4342883226
 30
0.0
 10
99.5293396501
 20
188.7924999075
 30
0.0
 10
99.5561546753
 20
189.019436289
 30
0.0
 10
99.5854379203
 20
189.2152576613
 30
0.0
 10
99.6171834978
 20
189.3781334118
 30
0.0
 10
99.6503699519
 20
189.5070445056
 30
0.0
 10
99.6864200205
 20
189.6008418547
 30
0.0
 10
99.7216961029
 20
189.6624975154
 30
0.0
 10
99.7572475269
 20
189.6839496718
 30
0.0
 10
99.7720419868
 20
189.6839496718
 30
0.0
  0
SPLINE
  5
28B
100
AcDbEntity
  8
0
100
AcDbSpline
 62
7
  6
BYLAYER
 70
0
 71
3
 72
31
 73
27
 74
0
 42
0.0000001
 43
0.0000001
 44
0.0000000001
 40
0.0
 40
0.0
 40
0.0
 40
0.0
 40
0.0056038151
 40
0.0141869933
 40
0.0267595516
 40
0.0435582272
 40
0.0645453359
 40
0.0895992206
 40
0.1185394836
 40
0.1510977524
 40
0.2258818747
 40
0.3111732347
 40
0.4037381665
 40
0.5000108726
 40
0.5962845632
 40
0.6888491649
 40
0.7741341321
 40
0.8489116904
 40
0.8814684198
 40
0.9104080728
 40
0.935461139
 40
0.9564456401
 40
0.9732419399
 40
0.9858133999
 40
0.9943961003
 40
1.0
 40
1.0
 40
1.0
 40
1.0
 10
99.7720419868
 20
41.8839496718
 30
0.0
 10
99.7572472828
 20
41.8839496718
 30
0.0
 10
99.7216954045
 20
41.9054046989
 30
0.0
 10
99.6864199182
 20
41.9670630502
 30
0.0
 10
99.6503669749
 20
42.0608650147
 30
0.0
 10
99.6171797671
 20
42.1897842752
 30
0.0
 10
99.5854340091
 20
42.3526703001
 30
0.0
 10
99.5561486872
 20
42.5485045449
 30
0.0
 10
99.5293340205
 20
42.77545732
 30
0.0
 10
99.4955360415
 20
43.133694489
 30
0.0
 10
99.4621755783
 20
43.6412647523
 30
0.0
 10
99.4344965236
 20
44.3077284306
 30
0.0
 10
99.4179131069
 20
45.0313064243
 30
0.0
 10
99.4123759921
 20
45.7840393463
 30
0.0
 10
99.4179201964
 20
46.5367713969
 30
0.0
 10
99.434512522
 20
47.2603339227
 30
0.0
 10
99.462168798
 20
47.9267632772
 30
0.0
 10
99.4955255612
 20
48.4342958748
 30
0.0
 10
99.529347312
 20
48.7925077873
 30
0.0
 10
99.5561756741
 20
49.019450941
 30
0.0
 10
99.5854577553
 20
49.2152747523
 30
0.0
 10
99.6171940961
 20
49.37814694
 30
0.0
 10
99.6503702673
 20
49.5070524113
 30
0.0
 10
99.6864157471
 20
49.6008462003
 30
0.0
 10
99.7216948954
 20
49.6624990182
 30
0.0
 10
99.7572470596
 20
49.6839496718
 30
0.0
 10
99.7720419868
 20
49.6839496718
 30
0.0
  0
ELLIPSE
  5
28C
100
AcDbEntity
  8
0
100
AcDbEllipse
 62
7
  6
BYLAYER
 10
164.2764846261
 20
73.7839496718
 30
0.0
 11
128.0
 21
-0.0
 31
0.0
 40
0.0087268678
 41
-3.1415926536
 42
-2.9755112021
  0
ENDSEC
  0
SECTION
  2
OBJECTS
  0
DICTIONARY
  5
C
100
AcDbDictionary
280
0
281
1
  3
ACAD_GROUP
350
D
  3
ACAD_MLINESTYLE
350
17
  3
ACAD_LAYOUT
350
1A
  3
ACAD_PLOTSETTINGS
350
19
  3
ACAD_PLOTSTYLENAME
350
E
  0
DICTIONARY
  5
D
102
{ACAD_REACTORS
330
C
102
}
100
AcDbDictionary
280
0
281
1
  0
ACDBDICTIONARYWDFLT
  5
E
102
{ACAD_REACTORS
330
C
102
}
100
AcDbDictionary
281
1
  3
Normal
350
F
100
AcDbDictionaryWithDefault
340
F
  0
DICTIONARY
  5
17
102
{ACAD_REACTORS
330
C
102
}
100
AcDbDictionary
280
0
281
1
  3
Standard
350
18
  0
DICTIONARY
  5
19
102
{ACAD_REACTORS
330
C
102
}
100
AcDbDictionary
281
1
  0
DICTIONARY
  5
1A
102
{ACAD_REACTORS
330
C
102
}
100
AcDbDictionary
281
1
  3
Model
350
28D
  3
Layout1
350
28E
  0
ACDBPLACEHOLDER
  5
F
102
{ACAD_REACTORS
330
E
102
}
  0
MLINESTYLE
  5
18
102
{ACAD_REACTORS
330
17
102
}
100
AcDbMlineStyle
  2
STANDARD
 70
0
  3

 62
256
 51
90.0
 52
90.0
 71
2
 49
0.5
 62
256
  6
BYLAYER
 49
-0.5
 62
256
  6
BYLAYER
  0
LAYOUT
  5
28D
102
{ACAD_REACTORS
330
1A
102
}
100
AcDbPlotSettings
  1

  2
none_device
  4

  6

 40
0.0
 41
0.0
 42
0.0
 43
0.0
 44
210.0
 45
297.0
 46
0.0
 47
0.0
 48
0.0
 49
0.0
140
0.0
141
0.0
142
1.0
143
1.0
 70
1024
 72
1
 73
0
 74
0
  7

 75
0
147
1.0
148
0.0
149
0.0
100
AcDbLayout
  1
Model
 70
0
 71
0
 10
0.0
 20
0.0
 11
210.0
 21
297.0
 12
0.0
 22
0.0
 32
0.0
 14
0.0
 24
0.0
 34
0.0
 15
0.0
 25
0.0
 35
0.0
146
0.0
 13
0.0
 23
0.0
 33
0.0
 16
1.0
 26
0.0
 36
0.0
 17
0.0
 27
1.0
 37
0.0
 76
0
330
210
345
0
346
0
  0
LAYOUT
  5
28E
102
{ACAD_REACTORS
330
1A
102
}
100
AcDbPlotSettings
  1

  2
none_device
  4

  6

 40
0.0
 41
0.0
 42
0.0
 43
0.0
 44
210.0
 45
297.0
 46
0.0
 47
0.0
 48
0.0
 49
0.0
140
0.0
141
0.0
142
1.0
143
1.0
 70
0
 72
1
 73
0
 74
0
  7

 75
0
147
1.0
148
0.0
149
0.0
100
AcDbLayout
  1
Layout1
 70
0
 71
1
 10
0.0
 20
0.0
 11
210.0
 21
297.0
 12
0.0
 22
0.0
 32
0.0
 14
0.0
 24
0.0
 34
0.0
 15
0.0
 25
0.0
 35
0.0
146
0.0
 13
0.0
 23
0.0
 33
0.0
 16
1.0
 26
0.0
 36
0.0
 17
0.0
 27
1.0
 37
0.0
 76
0
330
211
345
0
346
0
  0
ENDSEC
  0
EOF
