999
DXF file: C:\Users\sesa63760\Dev\_Creo\CAD\MCADID0000577_3D-CAD\drw0001_7.dxf
999
Pro/ENGINEER 2019471 by Parametric Technology Corporation
  0
SECTION
  2
HEADER
  9
$ACADVER
  1
AC1024
  9
$DWGCODEPAGE
  3
ANSI_1252
  9
$EXTMAX
 10
287.2026129729
 20
406.1865526331
 30
0.0
  9
$EXTMIN
 10
0.0
 20
0.0
 30
0.0
  9
$LIMMIN
 10
0.0
 20
0.0
  9
$LIMMAX
 10
287.2026129729
 20
406.1865526331
  9
$VIEWCTR
 10
143.6013064865
 20
203.0932763166
  9
$VIEWSIZE
 40
406.1865526331
  9
$CLAYER
  8
0
  9
$LTSCALE
 40
26.4773456531
  9
$CELTYPE
  6
BYLAYER
  9
$DIMSCALE
 40
1.0
  9
$DIMASZ
 40
3.4190787259
  9
$DIMEXO
 40
1.0
  9
$DIMDLI
 40
18.2934388149
  9
$DIMEXE
 40
1.0
  9
$DIMCEN
 40
4.3326565614
  9
$DIMLFAC
 40
1.0
  9
$DIMBLK
  1
_FILLED
  9
$DIMALT
 70
0
  9
$DIMALTF
 40
0.0393700787
  9
$DIMTXT
 40
4.7867102162
  9
$DIMTOL
 70
1
  9
$DIMLIM
 70
0
  9
$DIMTFAC
 40
1.0
  9
$DIMTP
 40
0.01
  9
$DIMTM
 40
0.01
  9
$DIMGAP
 40
0.625
  9
$DIMDSEP
 70
46
  9
$AUNITS
 70
0
  9
$PDMODE
 70
3
  9
$PDSIZE
 40
0.3125
  9
$HANDSEED
  5
3DC
  9
$TILEMODE
 70
1
  9
$MEASUREMENT
 70
1
  9
$INSUNITS
 70
4
  0
ENDSEC
  0
SECTION
  2
CLASSES
  0
CLASS
  1
ACDBDICTIONARYWDFLT
  2
AcDbDictionaryWithDefault
  3
AutoCAD 2000
 90
0
 91
1
280
0
281
0
  0
CLASS
  1
ACDBPLACEHOLDER
  2
AcDbPlaceHolder
  3
AutoCAD 2000
 90
0
 91
1
280
0
281
0
  0
CLASS
  1
LAYOUT
  2
AcDbLayout
  3
AutoCAD 2000
 90
0
 91
0
280
0
281
0
  0
ENDSEC
  0
SECTION
  2
TABLES
  0
TABLE
  2
VPORT
  5
8
100
AcDbSymbolTable
 70
2
  0
VPORT
  5
1F4
100
AcDbSymbolTableRecord
100
AcDbViewportTableRecord
  2
*ACTIVE
 70
0
 10
0.0
 20
0.0
 11
1.0
 21
1.0
 12
143.6013064865
 22
203.0932763166
 13
0.0
 23
0.0
 14
1.0
 24
1.0
 15
0.0
 25
0.0
 16
0.0
 26
0.0
 36
1.0
 17
0.0
 27
0.0
 37
0.0
 40
406.1865526331
 41
0.7070707071
 42
50.0
 43
0.0
 44
0.0
 50
0.0
 51
0.0
 71
0
 72
100
 73
1
 74
1
 75
0
 76
0
 77
0
 78
0
  0
ENDTAB
  0
TABLE
  2
LTYPE
  5
5
100
AcDbSymbolTable
 70
6
  0
LTYPE
  5
14
100
AcDbSymbolTableRecord
100
AcDbLinetypeTableRecord
  2
BYBLOCK
 70
0
  3

 72
65
 73
0
 40
0.0
  0
LTYPE
  5
15
100
AcDbSymbolTableRecord
100
AcDbLinetypeTableRecord
  2
BYLAYER
 70
0
  3

 72
65
 73
0
 40
0.0
  0
LTYPE
  5
16
100
AcDbSymbolTableRecord
100
AcDbLinetypeTableRecord
  2
CONTINUOUS
 70
64
  3
Solid line
 72
65
 73
0
 40
0.0
  0
LTYPE
  5
1F5
100
AcDbSymbolTableRecord
100
AcDbLinetypeTableRecord
  2
CENTER
 70
64
  3
____ _ ____ _ ____ _ ____ _ ____ _ ____ _ ____
 72
65
 73
4
 40
0.6
 49
0.375
 74
0
 49
-0.075
 74
0
 49
0.075
 74
0
 49
-0.075
 74
0
  0
LTYPE
  5
1F6
100
AcDbSymbolTableRecord
100
AcDbLinetypeTableRecord
  2
HIDDEN
 70
64
  3
- - - - - - - - - - - - - - - - - - - -
 72
65
 73
2
 40
0.2
 49
0.1
 74
0
 49
-0.1
 74
0
  0
LTYPE
  5
1F7
100
AcDbSymbolTableRecord
100
AcDbLinetypeTableRecord
  2
PHANTOM
 70
64
  3
_____ _ _ _____ _ _ _____ _ _ _____
 72
65
 73
6
 40
0.8
 49
0.45
 74
0
 49
-0.05
 74
0
 49
0.1
 74
0
 49
-0.05
 74
0
 49
0.1
 74
0
 49
-0.05
 74
0
  0
LTYPE
  5
1F8
100
AcDbSymbolTableRecord
100
AcDbLinetypeTableRecord
  2
DOT
 70
64
  3
. . . . . . . . . . . . . . . . . . . .
 72
65
 73
2
 40
0.2
 49
0.1
 74
0
 49
-0.1
 74
0
  0
LTYPE
  5
1F9
100
AcDbSymbolTableRecord
100
AcDbLinetypeTableRecord
  2
DASHED
 70
64
  3
- - - - - - - - - - - - - - - - - - - -
 72
65
 73
2
 40
0.2
 49
0.1
 74
0
 49
-0.1
 74
0
  0
ENDTAB
  0
TABLE
  2
LAYER
  5
2
100
AcDbSymbolTable
 70
36
  0
LAYER
  5
10
100
AcDbSymbolTableRecord
100
AcDbLayerTableRecord
  2
0
 70
0
 62
7
  6
CONTINUOUS
370
-3
390
F
  0
LAYER
  5
1FA
100
AcDbSymbolTableRecord
100
AcDbLayerTableRecord
  2
DEFAULT_1
 70
0
 62
7
  6
CENTER
370
-3
390
F
  0
LAYER
  5
1FB
100
AcDbSymbolTableRecord
100
AcDbLayerTableRecord
  2
DEFAULT_2
 70
0
 62
8
  6
HIDDEN
370
-3
390
F
  0
LAYER
  5
1FC
100
AcDbSymbolTableRecord
100
AcDbLayerTableRecord
  2
DEFAULT_3
 70
0
 62
7
  6
PHANTOM
370
-3
390
F
  0
LAYER
  5
1FD
100
AcDbSymbolTableRecord
100
AcDbLayerTableRecord
  2
00_COMPONENTS
 70
0
 62
7
  6
CONTINUOUS
370
-3
390
F
  0
LAYER
  5
1FE
100
AcDbSymbolTableRecord
100
AcDbLayerTableRecord
  2
01_1_DEFAULT_DATUMS
 70
0
 62
7
  6
CONTINUOUS
370
-3
390
F
  0
LAYER
  5
1FF
100
AcDbSymbolTableRecord
100
AcDbLayerTableRecord
  2
01_PLANES
 70
0
 62
7
  6
CONTINUOUS
370
-3
390
F
  0
LAYER
  5
200
100
AcDbSymbolTableRecord
100
AcDbLayerTableRecord
  2
02_COORD_SYS
 70
0
 62
7
  6
CONTINUOUS
370
-3
390
F
  0
LAYER
  5
201
100
AcDbSymbolTableRecord
100
AcDbLayerTableRecord
  2
03_AXES
 70
0
 62
7
  6
CONTINUOUS
370
-3
390
F
  0
LAYER
  5
202
100
AcDbSymbolTableRecord
100
AcDbLayerTableRecord
  2
04_POINTS
 70
0
 62
7
  6
CONTINUOUS
370
-3
390
F
  0
LAYER
  5
203
100
AcDbSymbolTableRecord
100
AcDbLayerTableRecord
  2
05_CURVES
 70
0
 62
7
  6
CONTINUOUS
370
-3
390
F
  0
LAYER
  5
204
100
AcDbSymbolTableRecord
100
AcDbLayerTableRecord
  2
06_SURFS
 70
0
 62
7
  6
CONTINUOUS
370
-3
390
F
  0
LAYER
  5
205
100
AcDbSymbolTableRecord
100
AcDbLayerTableRecord
  2
07_COSMETICS
 70
0
 62
7
  6
CONTINUOUS
370
-3
390
F
  0
LAYER
  5
206
100
AcDbSymbolTableRecord
100
AcDbLayerTableRecord
  2
10_NOTES
 70
0
 62
7
  6
CONTINUOUS
370
-3
390
F
  0
LAYER
  5
207
100
AcDbSymbolTableRecord
100
AcDbLayerTableRecord
  2
11_NOTES_PUB
 70
0
 62
7
  6
CONTINUOUS
370
-3
390
F
  0
LAYER
  5
208
100
AcDbSymbolTableRecord
100
AcDbLayerTableRecord
  2
13_REF_GTOL
 70
0
 62
7
  6
CONTINUOUS
370
-3
390
F
  0
LAYER
  5
209
100
AcDbSymbolTableRecord
100
AcDbLayerTableRecord
  2
16_MISC
 70
0
 62
7
  6
CONTINUOUS
370
-3
390
F
  0
LAYER
  5
20A
100
AcDbSymbolTableRecord
100
AcDbLayerTableRecord
  2
17_NO_PRINT
 70
0
 62
7
  6
CONTINUOUS
370
-3
390
F
  0
LAYER
  5
20B
100
AcDbSymbolTableRecord
100
AcDbLayerTableRecord
  2
18_DATUM_CAMS_JOINTS
 70
0
 62
7
  6
CONTINUOUS
370
-3
390
F
  0
LAYER
  5
20C
100
AcDbSymbolTableRecord
100
AcDbLayerTableRecord
  2
19_DATUM_FUNCTIONAL
 70
0
 62
7
  6
CONTINUOUS
370
-3
390
F
  0
LAYER
  5
20D
100
AcDbSymbolTableRecord
100
AcDbLayerTableRecord
  2
20_DATUM_KINEMATIC_SCHEME
 70
0
 62
7
  6
CONTINUOUS
370
-3
390
F
  0
ENDTAB
  0
TABLE
  2
STYLE
  5
3
100
AcDbSymbolTable
 70
1
  0
STYLE
  5
11
100
AcDbSymbolTableRecord
100
AcDbTextStyleTableRecord
  2
STANDARD
 70
0
 40
0.0
 41
0.8
 50
0.0
 71
0
 42
0.2
  3
txt
  4

  0
STYLE
  5
20E
100
AcDbSymbolTableRecord
100
AcDbTextStyleTableRecord
  2
TEXTSTYLE_1
 70
0
 40
0.0
 41
0.8
 50
0.0
 71
0
 42
0.2
  3
gdt
  4

  0
ENDTAB
  0
TABLE
  2
VIEW
  5
6
100
AcDbSymbolTable
 70
0
  0
ENDTAB
  0
TABLE
  2
UCS
  5
7
100
AcDbSymbolTable
 70
0
  0
ENDTAB
  0
TABLE
  2
APPID
  5
9
100
AcDbSymbolTable
 70
1
  0
APPID
  5
20F
100
AcDbSymbolTableRecord
100
AcDbRegAppTableRecord
  2
ACAD
 70
0
  0
ENDTAB
  0
TABLE
  2
BLOCK_RECORD
  5
1
100
AcDbSymbolTable
 70
0
  0
BLOCK_RECORD
  5
210
100
AcDbSymbolTableRecord
100
AcDbBlockTableRecord
  2
*Model_Space
  0
BLOCK_RECORD
  5
211
100
AcDbSymbolTableRecord
100
AcDbBlockTableRecord
  2
*Paper_Space
  0
BLOCK_RECORD
  5
212
100
AcDbSymbolTableRecord
100
AcDbBlockTableRecord
  2
_FILLED
  0
ENDTAB
  0
TABLE
  2
DIMSTYLE
  5
A
100
AcDbSymbolTable
 70
1
100
AcDbDimStyleTable
 71
0
  0
DIMSTYLE
105
213
100
AcDbSymbolTableRecord
100
AcDbDimStyleTableRecord
  2
STANDARD
 70
0
  3

  4

 40
1.0
 41
3.4190787259
 42
1.0
 43
0.38
 44
1.0
 45
0.0
 46
0.0
 47
0.01
 48
0.01
140
4.7867102162
141
0.09
142
0.0
143
25.4
144
1.0
145
0.0
146
1.0
147
0.625
 71
1
 72
0
 73
0
 74
0
 75
0
 76
0
 77
1
 78
8
 79
2
170
0
171
1
172
0
173
0
174
0
175
0
176
0
177
0
178
0
270
2
179
2
271
2
272
2
273
2
274
2
275
0
280
0
281
0
282
0
283
1
284
8
285
0
286
0
287
3
288
0
340
11
278
46
341
212
342
212
343
212
344
212
  0
ENDTAB
  0
ENDSEC
  0
SECTION
  2
BLOCKS
  0
BLOCK
  5
20
100
AcDbEntity
  8
0
100
AcDbBlockBegin
  2
*Model_Space
 70
0
 10
0.0
 20
0.0
 30
0.0
  3
*Model_Space
  1

  0
ENDBLK
  5
21
100
AcDbEntity
  8
0
100
AcDbBlockEnd
  0
BLOCK
  5
1C
100
AcDbEntity
  8
0
100
AcDbBlockBegin
  2
*Paper_Space
 70
0
 10
0.0
 20
0.0
 30
0.0
  3
*Paper_Space
  1

  0
ENDBLK
  5
1D
100
AcDbEntity
  8
0
100
AcDbBlockEnd
  0
BLOCK
  5
214
100
AcDbEntity
  8
0
100
AcDbBlockBegin
  2
_FILLED
 70
64
 10
0.0
 20
0.0
  3
_FILLED
  1

  0
SOLID
  5
215
100
AcDbEntity
  8
0
  6
BYBLOCK
 62
0
100
AcDbTrace
 10
0.0
 20
0.0
 11
-1.0
 21
0.25
 12
-1.0
 22
-0.25
 13
-1.0
 23
-0.25
  0
ENDBLK
  5
216
100
AcDbEntity
  8
0
  6
BYBLOCK
 62
0
100
AcDbBlockEnd
  0
ENDSEC
  0
SECTION
  2
ENTITIES
  0
LINE
  5
217
100
AcDbEntity
  8
0
100
AcDbLine
 62
7
  6
CONTINUOUS
 10
30.49168034
 20
172.1126130427
 11
30.49168034
 21
229.3126130427
  0
LINE
  5
218
100
AcDbEntity
  8
0
100
AcDbLine
 62
7
  6
CONTINUOUS
 10
33.6038395651
 20
172.1126130427
 11
33.6038395651
 21
229.3126130427
  0
LINE
  5
219
100
AcDbEntity
  8
0
100
AcDbLine
 62
7
  6
CONTINUOUS
 10
34.29168034
 20
172.1126130427
 11
34.29168034
 21
229.3126130427
  0
LINE
  5
21A
100
AcDbEntity
  8
0
100
AcDbLine
 62
7
  6
CONTINUOUS
 10
35.241986982
 20
172.1126130427
 11
35.241986982
 21
229.3126130427
  0
LINE
  5
21B
100
AcDbEntity
  8
0
100
AcDbLine
 62
7
  6
CONTINUOUS
 10
37.99168034
 20
172.1126130427
 11
37.99168034
 21
175.6126130427
  0
LINE
  5
21C
100
AcDbEntity
  8
0
100
AcDbLine
 62
7
  6
CONTINUOUS
 10
37.99168034
 20
225.8126130427
 11
37.99168034
 21
229.3126130427
  0
LINE
  5
21D
100
AcDbEntity
  8
0
100
AcDbLine
 62
7
  6
CONTINUOUS
 10
43.99168034
 20
229.3126130427
 11
43.99168034
 21
225.8126130427
  0
LINE
  5
21E
100
AcDbEntity
  8
0
100
AcDbLine
 62
7
  6
CONTINUOUS
 10
43.99168034
 20
175.6126130427
 11
43.99168034
 21
172.1126130427
  0
LINE
  5
21F
100
AcDbEntity
  8
0
100
AcDbLine
 62
7
  6
CONTINUOUS
 10
47.79168034
 20
169.4126130427
 11
47.79168034
 21
172.1126130427
  0
LINE
  5
220
100
AcDbEntity
  8
0
100
AcDbLine
 62
7
  6
CONTINUOUS
 10
56.49168034
 20
229.3126130427
 11
56.49168034
 21
231.7429137545
  0
LINE
  5
221
100
AcDbEntity
  8
0
100
AcDbLine
 62
7
  6
CONTINUOUS
 10
56.5070836519
 20
230.6484744197
 11
56.5070836519
 21
229.3126130427
  0
LINE
  5
222
100
AcDbEntity
  8
0
100
AcDbLine
 62
7
  6
CONTINUOUS
 10
90.49168034
 20
233.7126130427
 11
90.49168034
 21
229.3126130427
  0
LINE
  5
223
100
AcDbEntity
  8
0
100
AcDbLine
 62
7
  6
CONTINUOUS
 10
90.49168034
 20
169.4126130427
 11
90.49168034
 21
167.7126130427
  0
LINE
  5
224
100
AcDbEntity
  8
0
100
AcDbLine
 62
7
  6
CONTINUOUS
 10
93.69168034
 20
169.4126130427
 11
93.69168034
 21
172.1126130427
  0
LINE
  5
225
100
AcDbEntity
  8
0
100
AcDbLine
 62
7
  6
CONTINUOUS
 10
96.99168034
 20
172.1126130427
 11
96.99168034
 21
175.6126130427
  0
LINE
  5
226
100
AcDbEntity
  8
0
100
AcDbLine
 62
7
  6
CONTINUOUS
 10
96.99168034
 20
225.8126130427
 11
96.99168034
 21
229.3126130427
  0
LINE
  5
227
100
AcDbEntity
  8
0
100
AcDbLine
 62
7
  6
CONTINUOUS
 10
103.49168034
 20
172.2126130427
 11
103.49168034
 21
229.2126130427
  0
LINE
  5
228
100
AcDbEntity
  8
0
100
AcDbLine
 62
7
  6
CONTINUOUS
 10
106.19168034
 20
223.6626130427
 11
106.19168034
 21
177.7626130427
  0
LINE
  5
229
100
AcDbEntity
  8
0
100
AcDbLine
 62
7
  6
CONTINUOUS
 10
152.59168034
 20
167.5649782375
 11
149.59168034
 21
167.5126130427
  0
LINE
  5
22A
100
AcDbEntity
  8
0
100
AcDbLine
 62
7
  6
CONTINUOUS
 10
149.96568034
 20
167.2626130427
 11
144.46568034
 21
167.2626130427
  0
LINE
  5
22B
100
AcDbEntity
  8
0
100
AcDbLine
 62
7
  6
CONTINUOUS
 10
84.49168034
 20
167.7126130427
 11
90.49168034
 21
167.7126130427
  0
LINE
  5
22C
100
AcDbEntity
  8
0
100
AcDbLine
 62
7
  6
CONTINUOUS
 10
90.49168034
 20
168.2126130427
 11
134.09168034
 21
168.2126130427
  0
LINE
  5
22D
100
AcDbEntity
  8
0
100
AcDbLine
 62
7
  6
CONTINUOUS
 10
116.09168034
 20
168.2326130427
 11
134.09168034
 21
168.2326130427
  0
LINE
  5
22E
100
AcDbEntity
  8
0
100
AcDbLine
 62
7
  6
CONTINUOUS
 10
93.69168034
 20
169.4126130427
 11
47.79168034
 21
169.4126130427
  0
LINE
  5
22F
100
AcDbEntity
  8
0
100
AcDbLine
 62
7
  6
CONTINUOUS
 10
152.59168034
 20
170.9468023693
 11
134.09168034
 21
170.9468023693
  0
LINE
  5
230
100
AcDbEntity
  8
0
100
AcDbLine
 62
7
  6
CONTINUOUS
 10
134.09168034
 20
171.5311873462
 11
116.09168034
 21
171.5311873462
  0
LINE
  5
231
100
AcDbEntity
  8
0
100
AcDbLine
 62
7
  6
CONTINUOUS
 10
116.09168034
 20
171.5437005998
 11
93.69168034
 21
171.5437005998
  0
LINE
  5
232
100
AcDbEntity
  8
0
100
AcDbLine
 62
7
  6
CONTINUOUS
 10
30.4916867208
 20
172.1126130427
 11
100.49168034
 21
172.1126130427
  0
LINE
  5
233
100
AcDbEntity
  8
0
100
AcDbLine
 62
7
  6
CONTINUOUS
 10
103.49168034
 20
172.2126130427
 11
101.212296617
 21
172.2126130427
  0
LINE
  5
234
100
AcDbEntity
  8
0
100
AcDbLine
 62
7
  6
CONTINUOUS
 10
134.3913948065
 20
168.1762718416
 11
149.59168034
 21
167.5126130427
  0
LINE
  5
235
100
AcDbEntity
  8
0
100
AcDbLine
 62
7
  6
CONTINUOUS
 10
134.09168034
 20
168.4893576578
 11
134.3913948065
 21
168.1762718416
  0
LINE
  5
236
100
AcDbEntity
  8
0
100
AcDbLine
 62
7
  6
CONTINUOUS
 10
116.09168034
 20
168.2126130427
 11
116.09168034
 21
233.2126130427
  0
LINE
  5
237
100
AcDbEntity
  8
0
100
AcDbLine
 62
7
  6
CONTINUOUS
 10
134.3913948065
 20
233.2489542438
 11
134.09168034
 21
232.9358684276
  0
LINE
  5
238
100
AcDbEntity
  8
0
100
AcDbLine
 62
7
  6
CONTINUOUS
 10
239.5723193126
 20
194.0748043657
 11
239.442966198
 21
194.0482761258
  0
LINE
  5
239
100
AcDbEntity
  8
0
100
AcDbLine
 62
7
  6
CONTINUOUS
 10
211.69168034
 20
194.0748043657
 11
211.5623272254
 21
194.0482761258
  0
LINE
  5
23A
100
AcDbEntity
  8
0
100
AcDbLine
 62
7
  6
CONTINUOUS
 10
103.49168034
 20
175.9979114303
 11
116.09168034
 21
175.9979114303
  0
LINE
  5
23B
100
AcDbEntity
  8
0
100
AcDbLine
 62
7
  6
CONTINUOUS
 10
116.09168034
 20
176.0288605271
 11
152.59168034
 21
176.0272198349
  0
LINE
  5
23C
100
AcDbEntity
  8
0
100
AcDbLine
 62
7
  6
CONTINUOUS
 10
106.19168034
 20
177.7626130427
 11
103.49168034
 21
177.7626130427
  0
LINE
  5
23D
100
AcDbEntity
  8
0
100
AcDbLine
 62
7
  6
CONTINUOUS
 10
152.59168034
 20
177.9563468453
 11
134.09168034
 21
177.9563468453
  0
LINE
  5
23E
100
AcDbEntity
  8
0
100
AcDbLine
 62
7
  6
CONTINUOUS
 10
99.99168034
 20
178.6126130427
 11
103.49168034
 21
178.6126130427
  0
LINE
  5
23F
100
AcDbEntity
  8
0
100
AcDbLine
 62
7
  6
CONTINUOUS
 10
116.09168034
 20
178.7111137686
 11
106.19168034
 21
178.7111137686
  0
LINE
  5
240
100
AcDbEntity
  8
0
100
AcDbLine
 62
7
  6
CONTINUOUS
 10
134.09168034
 20
178.7311137686
 11
116.09168034
 21
178.7311137686
  0
LINE
  5
241
100
AcDbEntity
  8
0
100
AcDbLine
 62
7
  6
CONTINUOUS
 10
134.09168034
 20
180.0153170672
 11
152.59168034
 21
180.0153170672
  0
LINE
  5
242
100
AcDbEntity
  8
0
100
AcDbLine
 62
7
  6
CONTINUOUS
 10
106.19168034
 20
180.1428979274
 11
116.09168034
 21
180.1428979274
  0
LINE
  5
243
100
AcDbEntity
  8
0
100
AcDbLine
 62
7
  6
CONTINUOUS
 10
116.09168034
 20
180.1628979274
 11
134.09168034
 21
180.1628979274
  0
LINE
  5
244
100
AcDbEntity
  8
0
100
AcDbLine
 62
7
  6
CONTINUOUS
 10
170.59168034
 20
181.2126130427
 11
166.29168034
 21
181.2126130427
  0
LINE
  5
245
100
AcDbEntity
  8
0
100
AcDbLine
 62
7
  6
CONTINUOUS
 10
165.99168034
 20
181.2126130427
 11
152.59168034
 21
181.2126130427
  0
LINE
  5
246
100
AcDbEntity
  8
0
100
AcDbLine
 62
7
  6
CONTINUOUS
 10
184.4110413675
 20
194.0748043657
 11
184.2816882528
 21
194.0482761258
  0
LINE
  5
247
100
AcDbEntity
  8
0
100
AcDbLine
 62
7
  6
CONTINUOUS
 10
165.99168034
 20
181.5126130427
 11
166.29168034
 21
181.5126130427
  0
LINE
  5
248
100
AcDbEntity
  8
0
100
AcDbLine
 62
7
  6
CONTINUOUS
 10
172.59168034
 20
182.2126130427
 11
170.59168034
 21
182.2126130427
  0
LINE
  5
249
100
AcDbEntity
  8
0
100
AcDbLine
 62
7
  6
CONTINUOUS
 10
134.09168034
 20
184.2948916701
 11
116.09168034
 21
184.2948916701
  0
LINE
  5
24A
100
AcDbEntity
  8
0
100
AcDbLine
 62
7
  6
CONTINUOUS
 10
116.09168034
 20
184.7126130427
 11
106.19168034
 21
184.7126130427
  0
LINE
  5
24B
100
AcDbEntity
  8
0
100
AcDbLine
 62
7
  6
CONTINUOUS
 10
173.4343230671
 20
184.995847811
 11
173.4718892157
 21
184.995847811
  0
LINE
  5
24C
100
AcDbEntity
  8
0
100
AcDbLine
 62
7
  6
CONTINUOUS
 10
173.4916965396
 20
185.0237875966
 11
173.4343230671
 21
185.0237875966
  0
LINE
  5
24D
100
AcDbEntity
  8
0
100
AcDbLine
 62
7
  6
CONTINUOUS
 10
152.59168034
 20
185.4204800968
 11
165.99168034
 21
185.4204800968
  0
LINE
  5
24E
100
AcDbEntity
  8
0
100
AcDbLine
 62
7
  6
CONTINUOUS
 10
166.29168034
 20
185.4204800968
 11
170.59168034
 21
185.4204800968
  0
LINE
  5
24F
100
AcDbEntity
  8
0
100
AcDbLine
 62
7
  6
CONTINUOUS
 10
166.29168034
 20
185.6077879121
 11
165.99168034
 21
185.6077879121
  0
LINE
  5
250
100
AcDbEntity
  8
0
100
AcDbLine
 62
7
  6
CONTINUOUS
 10
175.2522253748
 20
185.7149908812
 11
173.4276290586
 21
185.7149908812
  0
LINE
  5
251
100
AcDbEntity
  8
0
100
AcDbLine
 62
7
  6
CONTINUOUS
 10
179.4727150616
 20
186.0126130427
 11
175.6164849096
 21
186.0126130427
  0
LINE
  5
252
100
AcDbEntity
  8
0
100
AcDbLine
 62
7
  6
CONTINUOUS
 10
173.4718892061
 20
186.0126130427
 11
175.2522253748
 21
186.0126130427
  0
LINE
  5
253
100
AcDbEntity
  8
0
100
AcDbLine
 62
7
  6
CONTINUOUS
 10
173.4916965396
 20
187.4014384888
 11
173.4342999481
 21
187.4014384888
  0
LINE
  5
254
100
AcDbEntity
  8
0
100
AcDbLine
 62
7
  6
CONTINUOUS
 10
173.4342999481
 20
187.4293782963
 11
173.4718892062
 21
187.4293782963
  0
LINE
  5
255
100
AcDbEntity
  8
0
100
AcDbLine
 62
7
  6
CONTINUOUS
 10
173.4917417932
 20
187.4983273783
 11
174.9311042376
 21
187.4983273783
  0
LINE
  5
256
100
AcDbEntity
  8
0
100
AcDbLine
 62
7
  6
CONTINUOUS
 10
174.59168034
 20
188.2096452009
 11
170.59168034
 21
188.2096452009
  0
LINE
  5
257
100
AcDbEntity
  8
0
100
AcDbLine
 62
7
  6
CONTINUOUS
 10
170.59168034
 20
188.577406162
 11
174.59168034
 21
188.577406162
  0
LINE
  5
258
100
AcDbEntity
  8
0
100
AcDbLine
 62
7
  6
CONTINUOUS
 10
134.09168034
 20
168.2130749661
 11
134.09168034
 21
233.2121500062
  0
LINE
  5
259
100
AcDbEntity
  8
0
100
AcDbLine
 62
7
  6
CONTINUOUS
 10
134.3913948065
 20
182.4934903296
 11
134.3913948065
 21
218.9317357558
  0
LINE
  5
25A
100
AcDbEntity
  8
0
100
AcDbLine
 62
7
  6
CONTINUOUS
 10
146.6538061025
 20
229.2293782745
 11
146.632811361
 21
229.2014384888
  0
LINE
  5
25B
100
AcDbEntity
  8
0
100
AcDbLine
 62
7
  6
CONTINUOUS
 10
146.6935735101
 20
229.2751130427
 11
146.6538061025
 21
229.2293782745
  0
LINE
  5
25C
100
AcDbEntity
  8
0
100
AcDbLine
 62
7
  6
CONTINUOUS
 10
152.59168034
 20
189.4308933959
 11
165.99168034
 21
189.4308933959
  0
LINE
  5
25D
100
AcDbEntity
  8
0
100
AcDbLine
 62
7
  6
CONTINUOUS
 10
166.29168034
 20
189.4308933959
 11
174.59168034
 21
189.4308933959
  0
LINE
  5
25E
100
AcDbEntity
  8
0
100
AcDbLine
 62
7
  6
CONTINUOUS
 10
166.29168034
 20
189.757181828
 11
165.99168034
 21
189.757181828
  0
LINE
  5
25F
100
AcDbEntity
  8
0
100
AcDbLine
 62
7
  6
CONTINUOUS
 10
230.0416537018
 20
190.5126130427
 11
190.5417069783
 21
190.5126130427
  0
LINE
  5
260
100
AcDbEntity
  8
0
100
AcDbLine
 62
7
  6
CONTINUOUS
 10
171.5958846076
 20
194.1921146072
 11
166.29168034
 21
194.1921146072
  0
LINE
  5
261
100
AcDbEntity
  8
0
100
AcDbLine
 62
7
  6
CONTINUOUS
 10
241.1723193126
 20
194.7126130427
 11
235.1723193126
 21
194.7126130427
  0
LINE
  5
262
100
AcDbEntity
  8
0
100
AcDbLine
 62
7
  6
CONTINUOUS
 10
213.29168034
 20
194.7126130427
 11
207.29168034
 21
194.7126130427
  0
LINE
  5
263
100
AcDbEntity
  8
0
100
AcDbLine
 62
7
  6
CONTINUOUS
 10
186.0110413675
 20
194.7126130427
 11
180.0110413675
 21
194.7126130427
  0
LINE
  5
264
100
AcDbEntity
  8
0
100
AcDbLine
 62
7
  6
CONTINUOUS
 10
166.29168034
 20
196.2126130427
 11
165.99168034
 21
196.2126130427
  0
LINE
  5
265
100
AcDbEntity
  8
0
100
AcDbLine
 62
7
  6
CONTINUOUS
 10
180.0114422467
 20
196.3126130427
 11
186.0106404883
 21
196.3126130427
  0
LINE
  5
266
100
AcDbEntity
  8
0
100
AcDbLine
 62
7
  6
CONTINUOUS
 10
207.2920812192
 20
196.3126130427
 11
213.2912794608
 21
196.3126130427
  0
LINE
  5
267
100
AcDbEntity
  8
0
100
AcDbLine
 62
7
  6
CONTINUOUS
 10
235.1727201918
 20
196.3126130427
 11
241.1719184334
 21
196.3126130427
  0
LINE
  5
268
100
AcDbEntity
  8
0
100
AcDbLine
 62
7
  6
CONTINUOUS
 10
241.991646349
 20
196.5126130427
 11
178.5917143311
 21
196.5126130427
  0
LINE
  5
269
100
AcDbEntity
  8
0
100
AcDbLine
 62
7
  6
CONTINUOUS
 10
242.29168034
 20
196.8126130427
 11
178.29168034
 21
196.8126130427
  0
LINE
  5
26A
100
AcDbEntity
  8
0
100
AcDbLine
 62
7
  6
CONTINUOUS
 10
144.46568034
 20
167.7364190361
 11
144.46568034
 21
167.2626130427
  0
LINE
  5
26B
100
AcDbEntity
  8
0
100
AcDbLine
 62
7
  6
CONTINUOUS
 10
146.6538061025
 20
229.4995814347
 11
146.7451094353
 21
229.9876130427
  0
LINE
  5
26C
100
AcDbEntity
  8
0
100
AcDbLine
 62
7
  6
CONTINUOUS
 10
171.19168034
 20
237.4126130427
 11
170.79168034
 21
237.0126130427
  0
LINE
  5
26D
100
AcDbEntity
  8
0
100
AcDbLine
 62
7
  6
CONTINUOUS
 10
178.29168034
 20
200.8126130427
 11
240.6669793974
 21
200.8126130427
  0
LINE
  5
26E
100
AcDbEntity
  8
0
100
AcDbLine
 62
7
  6
CONTINUOUS
 10
240.8438151552
 20
200.8126130427
 11
242.29168034
 21
200.8126130427
  0
LINE
  5
26F
100
AcDbEntity
  8
0
100
AcDbLine
 62
7
  6
CONTINUOUS
 10
178.5916976367
 20
201.1126130427
 11
209.8435583336
 21
201.1126130427
  0
LINE
  5
270
100
AcDbEntity
  8
0
100
AcDbLine
 62
7
  6
CONTINUOUS
 10
210.7398023465
 20
201.1126130427
 11
240.0362268414
 21
201.1126130427
  0
LINE
  5
271
100
AcDbEntity
  8
0
100
AcDbLine
 62
7
  6
CONTINUOUS
 10
240.85239814
 20
201.1126130427
 11
241.9915594726
 21
201.1126130427
  0
LINE
  5
272
100
AcDbEntity
  8
0
100
AcDbLine
 62
7
  6
CONTINUOUS
 10
236.9519981716
 20
201.3126130427
 11
213.0259314442
 21
201.3126130427
  0
LINE
  5
273
100
AcDbEntity
  8
0
100
AcDbLine
 62
7
  6
CONTINUOUS
 10
207.5574292358
 20
201.3126130427
 11
183.7156073357
 21
201.3126130427
  0
LINE
  5
274
100
AcDbEntity
  8
0
100
AcDbLine
 62
7
  6
CONTINUOUS
 10
185.3525544532
 20
201.6126130427
 11
171.3959704834
 21
201.6126130427
  0
LINE
  5
275
100
AcDbEntity
  8
0
100
AcDbLine
 62
7
  6
CONTINUOUS
 10
240.9148571049
 20
201.6126130427
 11
250.49168034
 21
201.6126130427
  0
LINE
  5
276
100
AcDbEntity
  8
0
100
AcDbLine
 62
7
  6
CONTINUOUS
 10
251.59168034
 20
201.6126130427
 11
254.99168034
 21
201.6126130427
  0
LINE
  5
277
100
AcDbEntity
  8
0
100
AcDbLine
 62
7
  6
CONTINUOUS
 10
249.79168034
 20
202.2126130427
 11
241.665712316
 21
202.2126130427
  0
LINE
  5
278
100
AcDbEntity
  8
0
100
AcDbLine
 62
7
  6
CONTINUOUS
 10
181.7878585577
 20
202.2126130427
 11
170.7955021224
 21
202.2126130427
  0
LINE
  5
279
100
AcDbEntity
  8
0
100
AcDbLine
 62
7
  6
CONTINUOUS
 10
256.79168034
 20
202.3595647155
 11
255.29168034
 21
202.3595647155
  0
LINE
  5
27A
100
AcDbEntity
  8
0
100
AcDbLine
 62
7
  6
CONTINUOUS
 10
254.99168034
 20
203.6126130427
 11
251.59168034
 21
203.6126130427
  0
LINE
  5
27B
100
AcDbEntity
  8
0
100
AcDbLine
 62
7
  6
CONTINUOUS
 10
257.5896522857
 20
204.9216869079
 11
257.6718892082
 21
204.9216869079
  0
LINE
  5
27C
100
AcDbEntity
  8
0
100
AcDbLine
 62
7
  6
CONTINUOUS
 10
257.6989690511
 20
204.9948429209
 11
257.5890786076
 21
204.9948429209
  0
LINE
  5
27D
100
AcDbEntity
  8
0
100
AcDbLine
 62
7
  6
CONTINUOUS
 10
257.5933315904
 20
205.0647076273
 11
257.6718892207
 21
205.0647076273
  0
LINE
  5
27E
100
AcDbEntity
  8
0
100
AcDbLine
 62
7
  6
CONTINUOUS
 10
181.7403944821
 20
194.0482761258
 11
181.6110413675
 21
194.0748043657
  0
LINE
  5
27F
100
AcDbEntity
  8
0
100
AcDbLine
 62
7
  6
CONTINUOUS
 10
145.66568034
 20
167.2626130427
 11
145.66568034
 21
167.6840259046
  0
LINE
  5
280
100
AcDbEntity
  8
0
100
AcDbLine
 62
7
  6
CONTINUOUS
 10
147.59168034
 20
224.0126130427
 11
147.59168034
 21
232.0126130427
  0
LINE
  5
281
100
AcDbEntity
  8
0
100
AcDbLine
 62
7
  6
CONTINUOUS
 10
148.59168034
 20
234.1626130427
 11
148.59168034
 21
233.8689520998
  0
LINE
  5
282
100
AcDbEntity
  8
0
100
AcDbLine
 62
7
  6
CONTINUOUS
 10
148.76568034
 20
167.5486769815
 11
148.76568034
 21
167.2626130427
  0
LINE
  5
283
100
AcDbEntity
  8
0
100
AcDbLine
 62
7
  6
CONTINUOUS
 10
149.09168034
 20
233.8907825712
 11
149.09168034
 21
234.1626130427
  0
LINE
  5
284
100
AcDbEntity
  8
0
100
AcDbLine
 62
7
  6
CONTINUOUS
 10
149.59168034
 20
185.1126130427
 11
149.59168034
 21
233.9126130427
  0
LINE
  5
285
100
AcDbEntity
  8
0
100
AcDbLine
 62
7
  6
CONTINUOUS
 10
149.96568034
 20
167.2626130427
 11
149.96568034
 21
167.519141237
  0
LINE
  5
286
100
AcDbEntity
  8
0
100
AcDbLine
 62
7
  6
CONTINUOUS
 10
150.09168034
 20
234.1626130427
 11
150.09168034
 21
233.9038855102
  0
LINE
  5
287
100
AcDbEntity
  8
0
100
AcDbLine
 62
7
  6
CONTINUOUS
 10
151.29168034
 20
233.8829394323
 11
151.29168034
 21
234.1626130427
  0
LINE
  5
288
100
AcDbEntity
  8
0
100
AcDbLine
 62
7
  6
CONTINUOUS
 10
152.59168034
 20
195.34733961
 11
152.59168034
 21
167.5649782375
  0
LINE
  5
289
100
AcDbEntity
  8
0
100
AcDbLine
 62
7
  6
CONTINUOUS
 10
192.59168034
 20
240.9126130427
 11
192.29168034
 21
240.6126130427
  0
LINE
  5
28A
100
AcDbEntity
  8
0
100
AcDbLine
 62
7
  6
CONTINUOUS
 10
184.668854844
 20
237.3005127003
 11
184.368854844
 21
237.0126130427
  0
LINE
  5
28B
100
AcDbEntity
  8
0
100
AcDbLine
 62
7
  6
CONTINUOUS
 10
257.6801142083
 20
205.4505499523
 11
257.632562378
 21
205.4505499523
  0
LINE
  5
28C
100
AcDbEntity
  8
0
100
AcDbLine
 62
7
  6
CONTINUOUS
 10
251.29168034
 20
205.6126130427
 11
250.79168034
 21
205.6126130427
  0
LINE
  5
28D
100
AcDbEntity
  8
0
100
AcDbLine
 62
7
  6
CONTINUOUS
 10
250.49168034
 20
205.6126130427
 11
249.79168034
 21
205.6126130427
  0
LINE
  5
28E
100
AcDbEntity
  8
0
100
AcDbLine
 62
7
  6
CONTINUOUS
 10
257.615842182
 20
206.5025853836
 11
257.6718892175
 21
206.5025853836
  0
LINE
  5
28F
100
AcDbEntity
  8
0
100
AcDbLine
 62
7
  6
CONTINUOUS
 10
257.5960343867
 20
207.0245778014
 11
257.6718892157
 21
207.0245778014
  0
LINE
  5
290
100
AcDbEntity
  8
0
100
AcDbLine
 62
7
  6
CONTINUOUS
 10
257.6989690511
 20
207.7242865101
 11
257.6718892157
 21
207.7242865101
  0
LINE
  5
291
100
AcDbEntity
  8
0
100
AcDbLine
 62
7
  6
CONTINUOUS
 10
257.6270831745
 20
207.9373099749
 11
257.67188921
 21
207.9373099749
  0
LINE
  5
292
100
AcDbEntity
  8
0
100
AcDbLine
 62
7
  6
CONTINUOUS
 10
256.79168034
 20
210.3595647155
 11
255.29168034
 21
210.3595647155
  0
LINE
  5
293
100
AcDbEntity
  8
0
100
AcDbLine
 62
7
  6
CONTINUOUS
 10
209.0210334547
 20
194.0482761258
 11
208.89168034
 21
194.0748043657
  0
LINE
  5
294
100
AcDbEntity
  8
0
100
AcDbLine
 62
7
  6
CONTINUOUS
 10
236.9016724272
 20
194.0482761258
 11
236.7723193126
 21
194.0748043657
  0
LINE
  5
295
100
AcDbEntity
  8
0
100
AcDbLine
 62
7
  6
CONTINUOUS
 10
146.7451094353
 20
226.0376130427
 11
146.6538061016
 21
226.5256446559
  0
LINE
  5
296
100
AcDbEntity
  8
0
100
AcDbLine
 62
7
  6
CONTINUOUS
 10
153.89168034
 20
234.1626130427
 11
153.89168034
 21
233.8375562635
  0
LINE
  5
297
100
AcDbEntity
  8
0
100
AcDbLine
 62
7
  6
CONTINUOUS
 10
155.09168034
 20
233.8166101856
 11
155.09168034
 21
234.1626130427
  0
LINE
  5
298
100
AcDbEntity
  8
0
100
AcDbLine
 62
7
  6
CONTINUOUS
 10
116.09168034
 20
216.2548916701
 11
134.09168034
 21
216.2548916701
  0
LINE
  5
299
100
AcDbEntity
  8
0
100
AcDbLine
 62
7
  6
CONTINUOUS
 10
207.29168034
 20
216.3626130427
 11
213.29168034
 21
216.3626130427
  0
LINE
  5
29A
100
AcDbEntity
  8
0
100
AcDbLine
 62
7
  6
CONTINUOUS
 10
236.8473954751
 20
216.3626130427
 11
241.1723193126
 21
216.3626130427
  0
LINE
  5
29B
100
AcDbEntity
  8
0
100
AcDbLine
 62
7
  6
CONTINUOUS
 10
106.19168034
 20
216.7126130427
 11
116.09168034
 21
216.7126130427
  0
LINE
  5
29C
100
AcDbEntity
  8
0
100
AcDbLine
 62
7
  6
CONTINUOUS
 10
146.6538060964
 20
226.7958478243
 11
146.6935551691
 21
226.7501130427
  0
LINE
  5
29D
100
AcDbEntity
  8
0
100
AcDbLine
 62
7
  6
CONTINUOUS
 10
173.4718892062
 20
187.4293782963
 11
173.4342999481
 21
187.4751130427
  0
LINE
  5
29E
100
AcDbEntity
  8
0
100
AcDbLine
 62
7
  6
CONTINUOUS
 10
146.632786551
 20
226.8237875965
 11
146.6538060964
 21
226.7958478243
  0
LINE
  5
29F
100
AcDbEntity
  8
0
100
AcDbLine
 62
7
  6
CONTINUOUS
 10
173.4917417932
 20
187.4014384888
 11
173.4718892062
 21
187.4293782963
  0
LINE
  5
2A0
100
AcDbEntity
  8
0
100
AcDbLine
 62
7
  6
CONTINUOUS
 10
165.99168034
 20
181.2128076839
 11
165.99168034
 21
233.6263499779
  0
LINE
  5
2A1
100
AcDbEntity
  8
0
100
AcDbLine
 62
7
  6
CONTINUOUS
 10
166.29168034
 20
181.2128076839
 11
166.29168034
 21
233.6126130427
  0
LINE
  5
2A2
100
AcDbEntity
  8
0
100
AcDbLine
 62
7
  6
CONTINUOUS
 10
167.59168034
 20
233.6126130427
 11
167.59168034
 21
235.9126130427
  0
LINE
  5
2A3
100
AcDbEntity
  8
0
100
AcDbLine
 62
7
  6
CONTINUOUS
 10
134.09168034
 20
221.262328158
 11
116.09168034
 21
221.262328158
  0
LINE
  5
2A4
100
AcDbEntity
  8
0
100
AcDbLine
 62
7
  6
CONTINUOUS
 10
116.09168034
 20
221.282328158
 11
106.19168034
 21
221.282328158
  0
LINE
  5
2A5
100
AcDbEntity
  8
0
100
AcDbLine
 62
7
  6
CONTINUOUS
 10
149.59168034
 20
221.4099090182
 11
134.09168034
 21
221.4099090182
  0
LINE
  5
2A6
100
AcDbEntity
  8
0
100
AcDbLine
 62
7
  6
CONTINUOUS
 10
116.09168034
 20
222.6941123168
 11
134.09168034
 21
222.6941123168
  0
LINE
  5
2A7
100
AcDbEntity
  8
0
100
AcDbLine
 62
7
  6
CONTINUOUS
 10
106.19168034
 20
222.7141123168
 11
116.09168034
 21
222.7141123168
  0
LINE
  5
2A8
100
AcDbEntity
  8
0
100
AcDbLine
 62
7
  6
CONTINUOUS
 10
103.49168034
 20
222.8126130427
 11
99.99168034
 21
222.8126130427
  0
LINE
  5
2A9
100
AcDbEntity
  8
0
100
AcDbLine
 62
7
  6
CONTINUOUS
 10
256.79168034
 20
222.8656613699
 11
255.29168034
 21
222.8656613699
  0
LINE
  5
2AA
100
AcDbEntity
  8
0
100
AcDbLine
 62
7
  6
CONTINUOUS
 10
134.09168034
 20
223.4688792401
 11
149.59168034
 21
223.4688792401
  0
LINE
  5
2AB
100
AcDbEntity
  8
0
100
AcDbLine
 62
7
  6
CONTINUOUS
 10
106.19168034
 20
223.6626130427
 11
103.49168034
 21
223.6626130427
  0
LINE
  5
2AC
100
AcDbEntity
  8
0
100
AcDbLine
 62
7
  6
CONTINUOUS
 10
149.59168034
 20
224.0126130427
 11
147.59168034
 21
224.0126130427
  0
LINE
  5
2AD
100
AcDbEntity
  8
0
100
AcDbLine
 62
7
  6
CONTINUOUS
 10
146.9444832078
 20
225.3980062505
 11
116.09168034
 21
225.3963655583
  0
LINE
  5
2AE
100
AcDbEntity
  8
0
100
AcDbLine
 62
7
  6
CONTINUOUS
 10
116.09168034
 20
225.4273146551
 11
103.49168034
 21
225.4273146551
  0
LINE
  5
2AF
100
AcDbEntity
  8
0
100
AcDbLine
 62
7
  6
CONTINUOUS
 10
257.5896522857
 20
225.4277835623
 11
257.6718892082
 21
225.4277835623
  0
LINE
  5
2B0
100
AcDbEntity
  8
0
100
AcDbLine
 62
7
  6
CONTINUOUS
 10
257.6989690511
 20
225.5009395753
 11
257.5890786076
 21
225.5009395753
  0
LINE
  5
2B1
100
AcDbEntity
  8
0
100
AcDbLine
 62
7
  6
CONTINUOUS
 10
257.5933315904
 20
225.5708042817
 11
257.6718892207
 21
225.5708042817
  0
LINE
  5
2B2
100
AcDbEntity
  8
0
100
AcDbLine
 62
7
  6
CONTINUOUS
 10
257.6801142083
 20
225.9566466067
 11
257.632562378
 21
225.9566466067
  0
LINE
  5
2B3
100
AcDbEntity
  8
0
100
AcDbLine
 62
7
  6
CONTINUOUS
 10
146.6935551691
 20
226.7958478243
 11
146.6538060964
 21
226.7958478243
  0
LINE
  5
2B4
100
AcDbEntity
  8
0
100
AcDbLine
 62
7
  6
CONTINUOUS
 10
165.99168034
 20
226.8126130427
 11
166.29168034
 21
226.8126130427
  0
LINE
  5
2B5
100
AcDbEntity
  8
0
100
AcDbLine
 62
7
  6
CONTINUOUS
 10
146.6328581487
 20
226.8237875966
 11
146.7141508671
 21
226.8237875966
  0
LINE
  5
2B6
100
AcDbEntity
  8
0
100
AcDbLine
 62
7
  6
CONTINUOUS
 10
257.615842182
 20
227.008682038
 11
257.6718892175
 21
227.008682038
  0
LINE
  5
2B7
100
AcDbEntity
  8
0
100
AcDbLine
 62
7
  6
CONTINUOUS
 10
257.5960343867
 20
227.5306744558
 11
257.6718892157
 21
227.5306744558
  0
LINE
  5
2B8
100
AcDbEntity
  8
0
100
AcDbLine
 62
7
  6
CONTINUOUS
 10
251.29168034
 20
227.6126130427
 11
250.79168034
 21
227.6126130427
  0
LINE
  5
2B9
100
AcDbEntity
  8
0
100
AcDbLine
 62
7
  6
CONTINUOUS
 10
249.79168034
 20
227.6126130427
 11
250.49168034
 21
227.6126130427
  0
LINE
  5
2BA
100
AcDbEntity
  8
0
100
AcDbLine
 62
7
  6
CONTINUOUS
 10
257.6989690511
 20
228.2303831646
 11
257.6718892157
 21
228.2303831646
  0
LINE
  5
2BB
100
AcDbEntity
  8
0
100
AcDbLine
 62
7
  6
CONTINUOUS
 10
257.6270831745
 20
228.4434066293
 11
257.67188921
 21
228.4434066293
  0
LINE
  5
2BC
100
AcDbEntity
  8
0
100
AcDbLine
 62
7
  6
CONTINUOUS
 10
178.59168034
 20
196.5126130427
 11
178.29168034
 21
196.8126130427
  0
LINE
  5
2BD
100
AcDbEntity
  8
0
100
AcDbLine
 62
7
  6
CONTINUOUS
 10
190.54168034
 20
190.5126130427
 11
186.0110413675
 21
195.0432520153
  0
LINE
  5
2BE
100
AcDbEntity
  8
0
100
AcDbLine
 62
7
  6
CONTINUOUS
 10
184.74168034
 20
196.3126130427
 11
184.54168034
 21
196.5126130427
  0
LINE
  5
2BF
100
AcDbEntity
  8
0
100
AcDbLine
 62
7
  6
CONTINUOUS
 10
170.7916825852
 20
229.682154762
 11
170.7955021224
 21
229.1101114782
  0
LINE
  5
2C0
100
AcDbEntity
  8
0
100
AcDbLine
 62
7
  6
CONTINUOUS
 10
170.59168034
 20
188.5774061377
 11
170.59168034
 21
181.2128076839
  0
LINE
  5
2C1
100
AcDbEntity
  8
0
100
AcDbLine
 62
7
  6
CONTINUOUS
 10
170.79168034
 20
229.6841835745
 11
170.79168034
 21
237.0126130427
  0
LINE
  5
2C2
100
AcDbEntity
  8
0
100
AcDbLine
 62
7
  6
CONTINUOUS
 10
170.7955021224
 20
229.1101114782
 11
170.7955021224
 21
202.212483997
  0
LINE
  5
2C3
100
AcDbEntity
  8
0
100
AcDbLine
 62
7
  6
CONTINUOUS
 10
171.5958846076
 20
201.6126130427
 11
171.5958846076
 21
194.1921146072
  0
LINE
  5
2C4
100
AcDbEntity
  8
0
100
AcDbLine
 62
7
  6
CONTINUOUS
 10
172.59168034
 20
188.2096452009
 11
172.59168034
 21
182.2126130427
  0
LINE
  5
2C5
100
AcDbEntity
  8
0
100
AcDbLine
 62
7
  6
CONTINUOUS
 10
174.2702517686
 20
189.6508129393
 11
174.2702517686
 21
201.6126130427
  0
LINE
  5
2C6
100
AcDbEntity
  8
0
100
AcDbLine
 62
7
  6
CONTINUOUS
 10
174.59168034
 20
188.2096861892
 11
174.59168034
 21
201.6126130427
  0
LINE
  5
2C7
100
AcDbEntity
  8
0
100
AcDbLine
 62
7
  6
CONTINUOUS
 10
175.2522253748
 20
186.0126130427
 11
175.2522253748
 21
185.7149908812
  0
LINE
  5
2C8
100
AcDbEntity
  8
0
100
AcDbLine
 62
7
  6
CONTINUOUS
 10
171.5884256748
 20
193.6180406226
 11
171.5958846076
 21
194.1921146072
  0
LINE
  5
2C9
100
AcDbEntity
  8
0
100
AcDbLine
 62
7
  6
CONTINUOUS
 10
173.4718892047
 20
184.7256445882
 11
173.3856250826
 21
184.2376130427
  0
LINE
  5
2CA
100
AcDbEntity
  8
0
100
AcDbLine
 62
7
  6
CONTINUOUS
 10
178.59168034
 20
201.1126130427
 11
178.29168034
 21
200.8126130427
  0
LINE
  5
2CB
100
AcDbEntity
  8
0
100
AcDbLine
 62
7
  6
CONTINUOUS
 10
134.3913948065
 20
233.2489542438
 11
149.59168034
 21
233.9126130427
  0
LINE
  5
2CC
100
AcDbEntity
  8
0
100
AcDbLine
 62
7
  6
CONTINUOUS
 10
166.29168034
 20
229.1101114782
 11
170.7955021224
 21
229.1101114782
  0
LINE
  5
2CD
100
AcDbEntity
  8
0
100
AcDbLine
 62
7
  6
CONTINUOUS
 10
181.7878585577
 20
229.1101114782
 11
185.3525544532
 21
229.1101114782
  0
LINE
  5
2CE
100
AcDbEntity
  8
0
100
AcDbLine
 62
7
  6
CONTINUOUS
 10
146.6328581487
 20
229.2014384888
 11
146.7138315105
 21
229.2014384888
  0
LINE
  5
2CF
100
AcDbEntity
  8
0
100
AcDbLine
 62
7
  6
CONTINUOUS
 10
103.49168034
 20
229.2126130427
 11
101.212296617
 21
229.2126130427
  0
LINE
  5
2D0
100
AcDbEntity
  8
0
100
AcDbLine
 62
7
  6
CONTINUOUS
 10
146.6935735101
 20
229.2293782745
 11
146.6538061025
 21
229.2293782745
  0
LINE
  5
2D1
100
AcDbEntity
  8
0
100
AcDbLine
 62
7
  6
CONTINUOUS
 10
30.4916867208
 20
229.3126130427
 11
100.49168034
 21
229.3126130427
  0
LINE
  5
2D2
100
AcDbEntity
  8
0
100
AcDbLine
 62
7
  6
CONTINUOUS
 10
251.59168034
 20
229.6126130427
 11
254.99168034
 21
229.6126130427
  0
LINE
  5
2D3
100
AcDbEntity
  8
0
100
AcDbLine
 62
7
  6
CONTINUOUS
 10
90.49168034
 20
229.8815254856
 11
116.09168034
 21
229.8815254856
  0
LINE
  5
2D4
100
AcDbEntity
  8
0
100
AcDbLine
 62
7
  6
CONTINUOUS
 10
116.09168034
 20
229.8940387392
 11
134.09168034
 21
229.8940387392
  0
LINE
  5
2D5
100
AcDbEntity
  8
0
100
AcDbLine
 62
7
  6
CONTINUOUS
 10
56.5716038367
 20
230.0345371984
 11
90.49168034
 21
230.0345371984
  0
LINE
  5
2D6
100
AcDbEntity
  8
0
100
AcDbLine
 62
7
  6
CONTINUOUS
 10
134.09168034
 20
230.4784237161
 11
146.8981073335
 21
230.4784237161
  0
LINE
  5
2D7
100
AcDbEntity
  8
0
100
AcDbLine
 62
7
  6
CONTINUOUS
 10
256.79168034
 20
230.8656613699
 11
255.29168034
 21
230.8656613699
  0
LINE
  5
2D8
100
AcDbEntity
  8
0
100
AcDbLine
 62
7
  6
CONTINUOUS
 10
254.99168034
 20
231.6126130427
 11
251.59168034
 21
231.6126130427
  0
LINE
  5
2D9
100
AcDbEntity
  8
0
100
AcDbLine
 62
7
  6
CONTINUOUS
 10
250.49168034
 20
231.6126130427
 11
249.79168034
 21
231.6126130427
  0
LINE
  5
2DA
100
AcDbEntity
  8
0
100
AcDbLine
 62
7
  6
CONTINUOUS
 10
239.29168034
 20
231.6126130427
 11
241.665712316
 21
231.6126130427
  0
LINE
  5
2DB
100
AcDbEntity
  8
0
100
AcDbLine
 62
7
  6
CONTINUOUS
 10
149.59168034
 20
232.0126130427
 11
147.59168034
 21
232.0126130427
  0
LINE
  5
2DC
100
AcDbEntity
  8
0
100
AcDbLine
 62
7
  6
CONTINUOUS
 10
134.09168034
 20
233.1926130427
 11
116.09168034
 21
233.1926130427
  0
LINE
  5
2DD
100
AcDbEntity
  8
0
100
AcDbLine
 62
7
  6
CONTINUOUS
 10
134.09168034
 20
233.2126130427
 11
90.49168034
 21
233.2126130427
  0
LINE
  5
2DE
100
AcDbEntity
  8
0
100
AcDbLine
 62
7
  6
CONTINUOUS
 10
166.29168034
 20
233.3126130427
 11
165.99168034
 21
233.3126130427
  0
LINE
  5
2DF
100
AcDbEntity
  8
0
100
AcDbLine
 62
7
  6
CONTINUOUS
 10
183.1815064939
 20
233.6126130427
 11
181.79168034
 21
233.6126130427
  0
LINE
  5
2E0
100
AcDbEntity
  8
0
100
AcDbLine
 62
7
  6
CONTINUOUS
 10
170.79168034
 20
233.6126130427
 11
166.29168034
 21
233.6126130427
  0
LINE
  5
2E1
100
AcDbEntity
  8
0
100
AcDbLine
 62
7
  6
CONTINUOUS
 10
90.49168034
 20
233.7126130427
 11
84.49168034
 21
233.7126130427
  0
LINE
  5
2E2
100
AcDbEntity
  8
0
100
AcDbLine
 62
7
  6
CONTINUOUS
 10
148.59168034
 20
234.1626130427
 11
155.09168034
 21
234.1626130427
  0
LINE
  5
2E3
100
AcDbEntity
  8
0
100
AcDbLine
 62
7
  6
CONTINUOUS
 10
167.5917015664
 20
235.9126130427
 11
170.79168034
 21
235.9126130427
  0
LINE
  5
2E4
100
AcDbEntity
  8
0
100
AcDbLine
 62
7
  6
CONTINUOUS
 10
181.79168034
 20
235.9126130427
 11
239.2914399828
 21
235.9126130427
  0
LINE
  5
2E5
100
AcDbEntity
  8
0
100
AcDbLine
 62
7
  6
CONTINUOUS
 10
165.99168034
 20
233.6263499779
 11
149.59168034
 21
233.9126130427
  0
LINE
  5
2E6
100
AcDbEntity
  8
0
100
AcDbLine
 62
7
  6
CONTINUOUS
 10
182.2235283652
 20
194.0274541469
 11
182.213678537
 21
194.0482761258
  0
LINE
  5
2E7
100
AcDbEntity
  8
0
100
AcDbLine
 62
7
  6
CONTINUOUS
 10
182.21104137
 20
194.054462975
 11
182.213678537
 21
194.0482761258
  0
LINE
  5
2E8
100
AcDbEntity
  8
0
100
AcDbLine
 62
7
  6
CONTINUOUS
 10
173.3856250826
 20
188.1876130427
 11
173.4718892157
 21
187.6995814347
  0
LINE
  5
2E9
100
AcDbEntity
  8
0
100
AcDbLine
 62
7
  6
CONTINUOUS
 10
180.2772311076
 20
201.1126130427
 11
180.2685035752
 21
201.6126130427
  0
LINE
  5
2EA
100
AcDbEntity
  8
0
100
AcDbLine
 62
7
  6
CONTINUOUS
 10
178.29168034
 20
196.8126130427
 11
178.29168034
 21
200.8126130427
  0
LINE
  5
2EB
100
AcDbEntity
  8
0
100
AcDbLine
 62
7
  6
CONTINUOUS
 10
180.0110413675
 20
194.7126130427
 11
180.0110413675
 21
196.3126130427
  0
LINE
  5
2EC
100
AcDbEntity
  8
0
100
AcDbLine
 62
7
  6
CONTINUOUS
 10
180.59168034
 20
186.1232023464
 11
180.59168034
 21
194.4217448913
  0
LINE
  5
2ED
100
AcDbEntity
  8
0
100
AcDbLine
 62
7
  6
CONTINUOUS
 10
180.59168034
 20
196.3126130427
 11
180.59168034
 21
196.5126130427
  0
LINE
  5
2EE
100
AcDbEntity
  8
0
100
AcDbLine
 62
7
  6
CONTINUOUS
 10
181.59168034
 20
186.9317305646
 11
181.59168034
 21
194.0748043657
  0
LINE
  5
2EF
100
AcDbEntity
  8
0
100
AcDbLine
 62
7
  6
CONTINUOUS
 10
181.59168034
 20
196.3126130427
 11
181.59168034
 21
196.5126130427
  0
LINE
  5
2F0
100
AcDbEntity
  8
0
100
AcDbLine
 62
7
  6
CONTINUOUS
 10
181.7878585577
 20
202.2124839991
 11
181.7878585577
 21
229.1101114782
  0
LINE
  5
2F1
100
AcDbEntity
  8
0
100
AcDbLine
 62
7
  6
CONTINUOUS
 10
181.79168034
 20
229.6841835745
 11
181.79168034
 21
237.0126130427
  0
LINE
  5
2F2
100
AcDbEntity
  8
0
100
AcDbLine
 62
7
  6
CONTINUOUS
 10
182.0110413675
 20
196.3126130427
 11
182.0110413675
 21
196.5126130427
  0
LINE
  5
2F3
100
AcDbEntity
  8
0
100
AcDbLine
 62
7
  6
CONTINUOUS
 10
182.2918074528
 20
235.9126130427
 11
182.2918074528
 21
233.6126130427
  0
LINE
  5
2F4
100
AcDbEntity
  8
0
100
AcDbLine
 62
7
  6
CONTINUOUS
 10
184.0110413675
 20
196.3126130427
 11
184.0110413675
 21
196.5126130427
  0
LINE
  5
2F5
100
AcDbEntity
  8
0
100
AcDbLine
 62
7
  6
CONTINUOUS
 10
184.368854844
 20
237.0126130427
 11
184.368854844
 21
235.9126130427
  0
LINE
  5
2F6
100
AcDbEntity
  8
0
100
AcDbLine
 62
7
  6
CONTINUOUS
 10
184.628959492
 20
237.2622378017
 11
184.628959492
 21
237.3005127003
  0
LINE
  5
2F7
100
AcDbEntity
  8
0
100
AcDbLine
 62
7
  6
CONTINUOUS
 10
181.7878585577
 20
229.1101114782
 11
181.7916778095
 21
229.6820286836
  0
LINE
  5
2F8
100
AcDbEntity
  8
0
100
AcDbLine
 62
7
  6
CONTINUOUS
 10
183.7156073357
 20
201.3126130427
 11
183.7177278186
 21
201.6126130427
  0
LINE
  5
2F9
100
AcDbEntity
  8
0
100
AcDbLine
 62
7
  6
CONTINUOUS
 10
183.8084041979
 20
194.0482761258
 11
183.8110413649
 21
194.0544643995
  0
LINE
  5
2FA
100
AcDbEntity
  8
0
100
AcDbLine
 62
7
  6
CONTINUOUS
 10
183.7985543699
 20
194.0273495975
 11
183.8084041979
 21
194.0482761258
  0
LINE
  5
2FB
100
AcDbEntity
  8
0
100
AcDbLine
 62
7
  6
CONTINUOUS
 10
173.4718892157
 20
184.995847811
 11
173.491765661
 21
185.0237875966
  0
LINE
  5
2FC
100
AcDbEntity
  8
0
100
AcDbLine
 62
7
  6
CONTINUOUS
 10
173.4343230671
 20
184.9501130427
 11
173.4718892157
 21
184.995847811
  0
LINE
  5
2FD
100
AcDbEntity
  8
0
100
AcDbLine
 62
7
  6
CONTINUOUS
 10
170.79168034
 20
237.0126130427
 11
181.79168034
 21
237.0126130427
  0
LINE
  5
2FE
100
AcDbEntity
  8
0
100
AcDbLine
 62
7
  6
CONTINUOUS
 10
184.368854844
 20
237.0126130427
 11
237.29168034
 21
237.0126130427
  0
LINE
  5
2FF
100
AcDbEntity
  8
0
100
AcDbLine
 62
7
  6
CONTINUOUS
 10
238.79168034
 20
237.0126130427
 11
249.79168034
 21
237.0126130427
  0
LINE
  5
300
100
AcDbEntity
  8
0
100
AcDbLine
 62
7
  6
CONTINUOUS
 10
171.1920179541
 20
237.4126130427
 11
181.391342726
 21
237.4126130427
  0
LINE
  5
301
100
AcDbEntity
  8
0
100
AcDbLine
 62
7
  6
CONTINUOUS
 10
184.6489397513
 20
237.4126130427
 11
236.891241206
 21
237.4126130427
  0
LINE
  5
302
100
AcDbEntity
  8
0
100
AcDbLine
 62
7
  6
CONTINUOUS
 10
239.1920179541
 20
237.4126130427
 11
249.391342726
 21
237.4126130427
  0
LINE
  5
303
100
AcDbEntity
  8
0
100
AcDbLine
 62
7
  6
CONTINUOUS
 10
192.29168034
 20
240.6126130427
 11
228.29168034
 21
240.6126130427
  0
LINE
  5
304
100
AcDbEntity
  8
0
100
AcDbLine
 62
7
  6
CONTINUOUS
 10
192.5921497964
 20
240.9126130427
 11
227.9912108837
 21
240.9126130427
  0
LINE
  5
305
100
AcDbEntity
  8
0
100
AcDbLine
 62
7
  6
CONTINUOUS
 10
185.3525544532
 20
229.1101114782
 11
185.3525544532
 21
201.6126130427
  0
LINE
  5
306
100
AcDbEntity
  8
0
100
AcDbLine
 62
7
  6
CONTINUOUS
 10
186.0110413675
 20
194.7126130427
 11
186.0110413675
 21
196.3126130427
  0
LINE
  5
307
100
AcDbEntity
  8
0
100
AcDbLine
 62
7
  6
CONTINUOUS
 10
192.29168034
 20
237.4126130427
 11
192.29168034
 21
240.6126130427
  0
LINE
  5
308
100
AcDbEntity
  8
0
100
AcDbLine
 62
7
  6
CONTINUOUS
 10
239.19168034
 20
237.4126130427
 11
238.79168034
 21
237.0126130427
  0
LINE
  5
309
100
AcDbEntity
  8
0
100
AcDbLine
 62
7
  6
CONTINUOUS
 10
257.6718892077
 20
207.2722968651
 11
257.6573576241
 21
207.2783818508
  0
LINE
  5
30A
100
AcDbEntity
  8
0
100
AcDbLine
 62
7
  6
CONTINUOUS
 10
257.6803264939
 20
207.2685794803
 11
257.6718892077
 21
207.2722968651
  0
LINE
  5
30B
100
AcDbEntity
  8
0
100
AcDbLine
 62
7
  6
CONTINUOUS
 10
251.59168034
 20
231.6126130427
 11
251.29168034
 21
231.3126130427
  0
LINE
  5
30C
100
AcDbEntity
  8
0
100
AcDbLine
 62
7
  6
CONTINUOUS
 10
181.39168034
 20
237.4126130427
 11
181.79168034
 21
237.0126130427
  0
LINE
  5
30D
100
AcDbEntity
  8
0
100
AcDbLine
 62
7
  6
CONTINUOUS
 10
209.5041673378
 20
194.0274541469
 11
209.4943175096
 21
194.0482761258
  0
LINE
  5
30E
100
AcDbEntity
  8
0
100
AcDbLine
 62
7
  6
CONTINUOUS
 10
209.4916803425
 20
194.054462975
 11
209.4943175096
 21
194.0482761258
  0
LINE
  5
30F
100
AcDbEntity
  8
0
100
AcDbLine
 62
7
  6
CONTINUOUS
 10
207.5578700802
 20
201.1126130427
 11
207.29168034
 21
216.3626130427
  0
LINE
  5
310
100
AcDbEntity
  8
0
100
AcDbLine
 62
7
  6
CONTINUOUS
 10
207.29168034
 20
194.7126130427
 11
207.29168034
 21
196.3126130427
  0
LINE
  5
311
100
AcDbEntity
  8
0
100
AcDbLine
 62
7
  6
CONTINUOUS
 10
254.99168034
 20
229.6126130427
 11
255.29168034
 21
229.9126130427
  0
LINE
  5
312
100
AcDbEntity
  8
0
100
AcDbLine
 62
7
  6
CONTINUOUS
 10
209.29168034
 20
196.3126130427
 11
209.29168034
 21
196.5126130427
  0
LINE
  5
313
100
AcDbEntity
  8
0
100
AcDbLine
 62
7
  6
CONTINUOUS
 10
211.29168034
 20
196.3126130427
 11
211.29168034
 21
196.5126130427
  0
LINE
  5
314
100
AcDbEntity
  8
0
100
AcDbLine
 62
7
  6
CONTINUOUS
 10
213.29168034
 20
194.7126130427
 11
213.29168034
 21
196.3126130427
  0
LINE
  5
315
100
AcDbEntity
  8
0
100
AcDbLine
 62
7
  6
CONTINUOUS
 10
213.0254905999
 20
201.1126130427
 11
213.29168034
 21
216.3626130427
  0
LINE
  5
316
100
AcDbEntity
  8
0
100
AcDbLine
 62
7
  6
CONTINUOUS
 10
211.0890431705
 20
194.0482761258
 11
211.0916803375
 21
194.0544643995
  0
LINE
  5
317
100
AcDbEntity
  8
0
100
AcDbLine
 62
7
  6
CONTINUOUS
 10
211.0791933425
 20
194.0273495975
 11
211.0890431705
 21
194.0482761258
  0
LINE
  5
318
100
AcDbEntity
  8
0
100
AcDbLine
 62
7
  6
CONTINUOUS
 10
230.04168034
 20
190.5126130427
 11
235.1723193126
 21
195.6432520153
  0
LINE
  5
319
100
AcDbEntity
  8
0
100
AcDbLine
 62
7
  6
CONTINUOUS
 10
235.84168034
 20
196.3126130427
 11
236.04168034
 21
196.5126130427
  0
LINE
  5
31A
100
AcDbEntity
  8
0
100
AcDbLine
 62
7
  6
CONTINUOUS
 10
257.6718892077
 20
227.7783935195
 11
257.6573576241
 21
227.7844785053
  0
LINE
  5
31B
100
AcDbEntity
  8
0
100
AcDbLine
 62
7
  6
CONTINUOUS
 10
257.6803264939
 20
227.7746761347
 11
257.6718892077
 21
227.7783935195
  0
LINE
  5
31C
100
AcDbEntity
  8
0
100
AcDbLine
 62
7
  6
CONTINUOUS
 10
241.99168034
 20
201.1126130427
 11
242.29168034
 21
200.8126130427
  0
LINE
  5
31D
100
AcDbEntity
  8
0
100
AcDbLine
 62
7
  6
CONTINUOUS
 10
241.99168034
 20
196.5126130427
 11
242.29168034
 21
196.8126130427
  0
LINE
  5
31E
100
AcDbEntity
  8
0
100
AcDbLine
 62
7
  6
CONTINUOUS
 10
251.59168034
 20
203.6126130427
 11
251.29168034
 21
203.3126130427
  0
LINE
  5
31F
100
AcDbEntity
  8
0
100
AcDbLine
 62
7
  6
CONTINUOUS
 10
250.49168034
 20
201.6126130427
 11
250.79168034
 21
201.9126130427
  0
LINE
  5
320
100
AcDbEntity
  8
0
100
AcDbLine
 62
7
  6
CONTINUOUS
 10
254.99168034
 20
201.6126130427
 11
255.29168034
 21
201.9126130427
  0
LINE
  5
321
100
AcDbEntity
  8
0
100
AcDbLine
 62
7
  6
CONTINUOUS
 10
251.29168034
 20
201.9126130427
 11
251.59168034
 21
201.6126130427
  0
LINE
  5
322
100
AcDbEntity
  8
0
100
AcDbLine
 62
7
  6
CONTINUOUS
 10
255.29168034
 20
203.3126130427
 11
254.99168034
 21
203.6126130427
  0
LINE
  5
323
100
AcDbEntity
  8
0
100
AcDbLine
 62
7
  6
CONTINUOUS
 10
237.3848063104
 20
194.0274541469
 11
237.3749564821
 21
194.0482761258
  0
LINE
  5
324
100
AcDbEntity
  8
0
100
AcDbLine
 62
7
  6
CONTINUOUS
 10
228.29168034
 20
237.4126130427
 11
228.29168034
 21
240.6126130427
  0
LINE
  5
325
100
AcDbEntity
  8
0
100
AcDbLine
 62
7
  6
CONTINUOUS
 10
227.99168034
 20
240.9126130427
 11
228.29168034
 21
240.6126130427
  0
LINE
  5
326
100
AcDbEntity
  8
0
100
AcDbLine
 62
7
  6
CONTINUOUS
 10
237.3723193151
 20
194.054462975
 11
237.3749564821
 21
194.0482761258
  0
LINE
  5
327
100
AcDbEntity
  8
0
100
AcDbLine
 62
7
  6
CONTINUOUS
 10
235.1723193126
 20
194.7126130427
 11
235.1723193126
 21
196.3126130427
  0
LINE
  5
328
100
AcDbEntity
  8
0
100
AcDbLine
 62
7
  6
CONTINUOUS
 10
237.1723193126
 20
196.3126130427
 11
237.1723193126
 21
196.5126130427
  0
LINE
  5
329
100
AcDbEntity
  8
0
100
AcDbLine
 62
7
  6
CONTINUOUS
 10
237.29168034
 20
235.9126130427
 11
237.29168034
 21
237.0126130427
  0
LINE
  5
32A
100
AcDbEntity
  8
0
100
AcDbLine
 62
7
  6
CONTINUOUS
 10
238.79168034
 20
235.9126130427
 11
238.79168034
 21
237.0126130427
  0
LINE
  5
32B
100
AcDbEntity
  8
0
100
AcDbLine
 62
7
  6
CONTINUOUS
 10
239.1723193126
 20
196.3126130427
 11
239.1723193126
 21
196.5126130427
  0
LINE
  5
32C
100
AcDbEntity
  8
0
100
AcDbLine
 62
7
  6
CONTINUOUS
 10
239.29168034
 20
219.0626811594
 11
239.29168034
 21
235.9126130427
  0
LINE
  5
32D
100
AcDbEntity
  8
0
100
AcDbLine
 62
7
  6
CONTINUOUS
 10
238.9696821431
 20
194.0482761258
 11
238.97231931
 21
194.0544643995
  0
LINE
  5
32E
100
AcDbEntity
  8
0
100
AcDbLine
 62
7
  6
CONTINUOUS
 10
238.959832315
 20
194.0273495975
 11
238.9696821431
 21
194.0482761258
  0
LINE
  5
32F
100
AcDbEntity
  8
0
100
AcDbLine
 62
7
  6
CONTINUOUS
 10
236.89168034
 20
237.4126130427
 11
237.29168034
 21
237.0126130427
  0
LINE
  5
330
100
AcDbEntity
  8
0
100
AcDbLine
 62
7
  6
CONTINUOUS
 10
251.29168034
 20
229.9126130427
 11
251.59168034
 21
229.6126130427
  0
LINE
  5
331
100
AcDbEntity
  8
0
100
AcDbLine
 62
7
  6
CONTINUOUS
 10
250.79168034
 20
231.3126130427
 11
250.49168034
 21
231.6126130427
  0
LINE
  5
332
100
AcDbEntity
  8
0
100
AcDbLine
 62
7
  6
CONTINUOUS
 10
241.1723193126
 20
194.7126130427
 11
241.1723193126
 21
196.3126130427
  0
LINE
  5
333
100
AcDbEntity
  8
0
100
AcDbLine
 62
7
  6
CONTINUOUS
 10
241.665712316
 20
231.6126130427
 11
241.665712316
 21
202.2126130427
  0
LINE
  5
334
100
AcDbEntity
  8
0
100
AcDbLine
 62
7
  6
CONTINUOUS
 10
242.29168034
 20
196.8126130427
 11
242.29168034
 21
200.8126130427
  0
LINE
  5
335
100
AcDbEntity
  8
0
100
AcDbLine
 62
7
  6
CONTINUOUS
 10
240.9027114542
 20
200.9167891822
 11
241.1723193126
 21
216.3626130427
  0
LINE
  5
336
100
AcDbEntity
  8
0
100
AcDbLine
 62
7
  6
CONTINUOUS
 10
257.6718892082
 20
225.4277835623
 11
257.6989171478
 21
225.5009395753
  0
LINE
  5
337
100
AcDbEntity
  8
0
100
AcDbLine
 62
7
  6
CONTINUOUS
 10
255.29168034
 20
231.3126130427
 11
254.99168034
 21
231.6126130427
  0
LINE
  5
338
100
AcDbEntity
  8
0
100
AcDbLine
 62
7
  6
CONTINUOUS
 10
249.39168034
 20
237.4126130427
 11
249.79168034
 21
237.0126130427
  0
LINE
  5
339
100
AcDbEntity
  8
0
100
AcDbLine
 62
7
  6
CONTINUOUS
 10
249.69168034
 20
201.6126130427
 11
249.69168034
 21
201.8809505637
  0
LINE
  5
33A
100
AcDbEntity
  8
0
100
AcDbLine
 62
7
  6
CONTINUOUS
 10
249.79168034
 20
201.6126130427
 11
249.79168034
 21
237.0126130427
  0
LINE
  5
33B
100
AcDbEntity
  8
0
100
AcDbLine
 62
7
  6
CONTINUOUS
 10
250.49168034
 20
205.6126130427
 11
250.49168034
 21
227.6126130427
  0
LINE
  5
33C
100
AcDbEntity
  8
0
100
AcDbLine
 62
7
  6
CONTINUOUS
 10
250.79168034
 20
201.9126130427
 11
250.79168034
 21
231.3126130427
  0
LINE
  5
33D
100
AcDbEntity
  8
0
100
AcDbLine
 62
7
  6
CONTINUOUS
 10
251.29168034
 20
201.9126130427
 11
251.29168034
 21
231.3126130427
  0
LINE
  5
33E
100
AcDbEntity
  8
0
100
AcDbLine
 62
7
  6
CONTINUOUS
 10
251.59168034
 20
203.6126130427
 11
251.59168034
 21
229.6126130427
  0
LINE
  5
33F
100
AcDbEntity
  8
0
100
AcDbLine
 62
7
  6
CONTINUOUS
 10
254.99168034
 20
203.6126130427
 11
254.99168034
 21
229.6126130427
  0
LINE
  5
340
100
AcDbEntity
  8
0
100
AcDbLine
 62
7
  6
CONTINUOUS
 10
255.29168034
 20
201.9126130427
 11
255.29168034
 21
231.3126130427
  0
LINE
  5
341
100
AcDbEntity
  8
0
100
AcDbLine
 62
7
  6
CONTINUOUS
 10
256.79168034
 20
230.8656613699
 11
256.79168034
 21
222.8656613699
  0
LINE
  5
342
100
AcDbEntity
  8
0
100
AcDbLine
 62
7
  6
CONTINUOUS
 10
256.79168034
 20
210.3595647155
 11
256.79168034
 21
202.3595647155
  0
LINE
  5
343
100
AcDbEntity
  8
0
100
AcDbLine
 62
7
  6
CONTINUOUS
 10
257.6718892082
 20
204.9216869079
 11
257.6989171478
 21
204.9948429208
  0
LINE
  5
344
100
AcDbEntity
  8
0
100
AcDbLine
 62
7
  6
CONTINUOUS
 10
257.6301636668
 20
208.1440215384
 11
257.5889368406
 21
208.286009018
  0
LINE
  5
345
100
AcDbEntity
  8
0
100
AcDbLine
 62
7
  6
CONTINUOUS
 10
257.6301636668
 20
228.6501181928
 11
257.5889368406
 21
228.7921056724
  0
ARC
  5
346
100
AcDbEntity
  8
0
100
AcDbCircle
 62
7
  6
CONTINUOUS
 10
84.49168034
 20
33.7126130427
 40
200.0
100
AcDbArc
 50
90.0
 51
98.0452395453
  0
ARC
  5
347
100
AcDbEntity
  8
0
100
AcDbCircle
 62
7
  6
CONTINUOUS
 10
139.7579707939
 20
186.2003197998
 40
35.1970757297
100
AcDbArc
 50
2.1134489777
 51
5.4874554416
  0
CIRCLE
  5
348
100
AcDbEntity
  8
0
100
AcDbCircle
 62
7
  6
CONTINUOUS
 10
40.99168034
 20
175.6126130427
 40
3.0
  0
ARC
  5
349
100
AcDbEntity
  8
0
100
AcDbCircle
 62
7
  6
CONTINUOUS
 10
100.49168034
 20
175.1126130427
 40
3.0
100
AcDbArc
 50
270.0
 51
360.0
  0
CIRCLE
  5
34A
100
AcDbEntity
  8
0
100
AcDbCircle
 62
7
  6
CONTINUOUS
 10
99.99168034
 20
175.6126130427
 40
3.0
  0
ARC
  5
34B
100
AcDbEntity
  8
0
100
AcDbCircle
 62
7
  6
CONTINUOUS
 10
84.49168034
 20
367.7126130427
 40
200.0
100
AcDbArc
 50
262.6783302064
 51
270.0
  0
ARC
  5
34C
100
AcDbEntity
  8
0
100
AcDbCircle
 62
7
  6
CONTINUOUS
 10
154.31468034
 20
228.0126130427
 40
7.8229616514
100
AcDbArc
 50
149.2485188693
 51
165.3775308072
  0
ARC
  5
34D
100
AcDbEntity
  8
0
100
AcDbCircle
 62
7
  6
CONTINUOUS
 10
154.31468034
 20
228.0126130427
 40
7.8229616514
100
AcDbArc
 50
194.6224697656
 51
210.7514811307
  0
CIRCLE
  5
34E
100
AcDbEntity
  8
0
100
AcDbCircle
 62
7
  6
CONTINUOUS
 10
92.49168034
 20
222.1126130427
 40
4.0
  0
CIRCLE
  5
34F
100
AcDbEntity
  8
0
100
AcDbCircle
 62
7
  6
CONTINUOUS
 10
40.99168034
 20
225.8126130427
 40
3.0
  0
CIRCLE
  5
350
100
AcDbEntity
  8
0
100
AcDbCircle
 62
7
  6
CONTINUOUS
 10
99.99168034
 20
225.8126130427
 40
3.0
  0
ARC
  5
351
100
AcDbEntity
  8
0
100
AcDbCircle
 62
7
  6
CONTINUOUS
 10
100.49168034
 20
226.3126130427
 40
3.0
100
AcDbArc
 50
0.0
 51
90.0
  0
ARC
  5
352
100
AcDbEntity
  8
0
100
AcDbCircle
 62
7
  6
CONTINUOUS
 10
170.9325654724
 20
188.906711643
 40
17.8132688976
100
AcDbArc
 50
43.25244009
 51
44.1422052865
  0
ARC
  5
353
100
AcDbEntity
  8
0
100
AcDbCircle
 62
7
  6
CONTINUOUS
 10
248.969973849
 20
190.6179226744
 40
16.0875150802
100
AcDbArc
 50
138.3343971877
 51
139.2809834217
  0
ARC
  5
354
100
AcDbEntity
  8
0
100
AcDbCircle
 62
7
  6
CONTINUOUS
 10
165.36868034
 20
186.2126130427
 40
8.2566172855
100
AcDbArc
 50
331.0229072897
 51
346.1612807741
  0
ARC
  5
355
100
AcDbEntity
  8
0
100
AcDbCircle
 62
7
  6
CONTINUOUS
 10
210.29168034
 20
199.9126130427
 40
6.0033324079
100
AcDbArc
 50
240.0183606312
 51
256.5142737851
  0
ARC
  5
356
100
AcDbEntity
  8
0
100
AcDbCircle
 62
7
  6
CONTINUOUS
 10
210.29168034
 20
199.9126130427
 40
6.0033324079
100
AcDbArc
 50
283.4857262054
 51
299.9816393688
  0
ARC
  5
357
100
AcDbEntity
  8
0
100
AcDbCircle
 62
7
  6
CONTINUOUS
 10
183.0110413675
 20
199.9126130427
 40
6.0033324079
100
AcDbArc
 50
240.0183606312
 51
256.5142737851
  0
ARC
  5
358
100
AcDbEntity
  8
0
100
AcDbCircle
 62
7
  6
CONTINUOUS
 10
183.0110413675
 20
199.9126130427
 40
6.0033324079
100
AcDbArc
 50
283.4857262054
 51
299.9816393688
  0
ARC
  5
359
100
AcDbEntity
  8
0
100
AcDbCircle
 62
7
  6
CONTINUOUS
 10
238.1723193126
 20
199.9126130427
 40
6.0033324079
100
AcDbArc
 50
240.0183606312
 51
256.5142737851
  0
ARC
  5
35A
100
AcDbEntity
  8
0
100
AcDbCircle
 62
7
  6
CONTINUOUS
 10
238.1723193126
 20
199.9126130427
 40
6.0033324079
100
AcDbArc
 50
283.4857262054
 51
299.9816393688
  0
ARC
  5
35B
100
AcDbEntity
  8
0
100
AcDbCircle
 62
7
  6
CONTINUOUS
 10
270.5407680726
 20
202.7911330817
 40
13.0681744753
100
AcDbArc
 50
169.9808118768
 51
170.2615559682
  0
ARC
  5
35C
100
AcDbEntity
  8
0
100
AcDbCircle
 62
7
  6
CONTINUOUS
 10
270.540768071
 20
223.2972297364
 40
13.0681744737
100
AcDbArc
 50
169.9808118768
 51
170.2615559682
  0
ARC
  5
35D
100
AcDbEntity
  8
0
100
AcDbCircle
 62
7
  6
CONTINUOUS
 10
249.56868034
 20
206.3595647155
 40
8.2566172855
100
AcDbArc
 50
331.0229072897
 51
347.518864655
  0
ARC
  5
35E
100
AcDbEntity
  8
0
100
AcDbCircle
 62
7
  6
CONTINUOUS
 10
249.56868034
 20
226.8656613699
 40
8.2566172855
100
AcDbArc
 50
331.0229072897
 51
347.518864655
  0
ARC
  5
35F
100
AcDbEntity
  8
0
100
AcDbCircle
 62
7
  6
CONTINUOUS
 10
249.56868034
 20
226.8656613699
 40
8.2566172855
100
AcDbArc
 50
13.507761745
 51
28.9770927103
  0
ARC
  5
360
100
AcDbEntity
  8
0
100
AcDbCircle
 62
7
  6
CONTINUOUS
 10
249.56868034
 20
206.3595647155
 40
8.2566172855
100
AcDbArc
 50
13.507761745
 51
28.9770927103
  0
ARC
  5
361
100
AcDbEntity
  8
0
100
AcDbCircle
 62
7
  6
CONTINUOUS
 10
249.6599577073
 20
226.7888304275
 40
8.151306042
100
AcDbArc
 50
348.3428954588
 51
349.3894839651
  0
ARC
  5
362
100
AcDbEntity
  8
0
100
AcDbCircle
 62
7
  6
CONTINUOUS
 10
249.6599577114
 20
206.2827337722
 40
8.1513060378
100
AcDbArc
 50
348.3428954586
 51
349.3894839654
  0
ARC
  5
363
100
AcDbEntity
  8
0
100
AcDbCircle
 62
7
  6
CONTINUOUS
 10
252.782336328
 20
205.6443445456
 40
4.9643425473
100
AcDbArc
 50
347.5619823196
 51
348.2774848103
  0
ARC
  5
364
100
AcDbEntity
  8
0
100
AcDbCircle
 62
7
  6
CONTINUOUS
 10
252.7823363288
 20
226.1504411999
 40
4.9643425464
100
AcDbArc
 50
347.5619823186
 51
348.2774848095
  0
ARC
  5
365
100
AcDbEntity
  8
0
100
AcDbCircle
 62
7
  6
CONTINUOUS
 10
210.2917301021
 20
204.1168733391
 40
3.0374905209
100
AcDbArc
 50
261.5171159321
 51
278.4828840679
  0
ARC
  5
366
100
AcDbEntity
  8
0
100
AcDbCircle
 62
7
  6
CONTINUOUS
 10
238.1723193126
 20
216.3626130427
 40
3.0
100
AcDbArc
 50
0.0
 51
95.7394558109
  0
ARC
  5
367
100
AcDbEntity
  8
0
100
AcDbCircle
 62
7
  6
CONTINUOUS
 10
210.29168034
 20
216.3626130427
 40
3.0
100
AcDbArc
 50
0.0
 51
180.0
  0
ARC
  5
368
100
AcDbEntity
  8
0
100
AcDbCircle
 62
7
  6
CONTINUOUS
 10
181.1876580953
 20
202.2128454765
 40
0.6002160069
100
AcDbArc
 50
269.9614038134
 51
359.9654929806
  0
ARC
  5
369
100
AcDbEntity
  8
0
100
AcDbCircle
 62
7
  6
CONTINUOUS
 10
171.3957025865
 20
202.2128454773
 40
0.6002160072
100
AcDbArc
 50
180.0345073003
 51
270.0385952652
  0
ARC
  5
36A
100
AcDbEntity
  8
0
100
AcDbCircle
 62
7
  6
CONTINUOUS
 10
249.19168034
 20
202.2126130427
 40
0.6
100
AcDbArc
 50
326.4426902381
 51
360.0
  0
SPLINE
  5
36B
100
AcDbEntity
  8
0
100
AcDbSpline
 62
7
  6
CONTINUOUS
 70
0
 71
3
 72
9
 73
5
 74
0
 42
0.0000001
 43
0.0000001
 44
0.0000000001
 40
0.0
 40
0.0
 40
0.0
 40
0.0
 40
0.2547286281
 40
1.0
 40
1.0
 40
1.0
 40
1.0
 10
56.5716038367
 20
230.0345371984
 30
0.0
 10
56.5622429087
 20
230.086143062
 30
0.0
 10
56.5284233323
 20
230.2891769807
 30
0.0
 10
56.5078407455
 20
230.4950267554
 30
0.0
 10
56.5070836519
 20
230.6484744197
 30
0.0
  0
SPLINE
  5
36C
100
AcDbEntity
  8
0
100
AcDbSpline
 62
7
  6
CONTINUOUS
 70
0
 71
3
 72
9
 73
5
 74
0
 42
0.0000001
 43
0.0000001
 44
0.0000000001
 40
0.0
 40
0.0
 40
0.0
 40
0.0
 40
0.2638324694
 40
1.0
 40
1.0
 40
1.0
 40
1.0
 10
56.5070836519
 20
230.6484744197
 30
0.0
 10
56.506608594
 20
230.7447591148
 30
0.0
 10
56.504709583
 20
231.1097049774
 30
0.0
 10
56.5024556183
 20
231.4746489082
 30
0.0
 10
56.500694237
 20
231.7433080529
 30
0.0
  0
SPLINE
  5
36D
100
AcDbEntity
  8
0
100
AcDbSpline
 62
7
  6
CONTINUOUS
 70
0
 71
3
 72
9
 73
5
 74
0
 42
0.0000001
 43
0.0000001
 44
0.0000000001
 40
0.0
 40
0.0
 40
0.0
 40
0.0
 40
0.3028959595
 40
1.0
 40
1.0
 40
1.0
 40
1.0
 10
257.6339283307
 20
206.3777761627
 30
0.0
 10
257.636699197
 20
206.390665443
 30
0.0
 10
257.6466404952
 20
206.4329782699
 30
0.0
 10
257.6588167721
 20
206.4752039433
 30
0.0
 10
257.6718892175
 20
206.5025853836
 30
0.0
  0
SPLINE
  5
36E
100
AcDbEntity
  8
0
100
AcDbSpline
 62
7
  6
CONTINUOUS
 70
0
 71
3
 72
9
 73
5
 74
0
 42
0.0000001
 43
0.0000001
 44
0.0000000001
 40
0.0
 40
0.0
 40
0.0
 40
0.0
 40
0.1053523825
 40
1.0
 40
1.0
 40
1.0
 40
1.0
 10
257.6989721858
 20
207.7243118965
 30
0.0
 10
257.6994194613
 20
207.7243156491
 30
0.0
 10
257.70277362
 20
207.7278682924
 30
0.0
 10
257.7014627726
 20
207.732592254
 30
0.0
 10
257.7014372884
 20
207.7363905452
 30
0.0
  0
SPLINE
  5
36F
100
AcDbEntity
  8
0
100
AcDbSpline
 62
7
  6
CONTINUOUS
 70
0
 71
3
 72
9
 73
5
 74
0
 42
0.0000001
 43
0.0000001
 44
0.0000000001
 40
0.0
 40
0.0
 40
0.0
 40
0.0
 40
0.3690526426
 40
1.0
 40
1.0
 40
1.0
 40
1.0
 10
257.7014372884
 20
207.7363905452
 30
0.0
 10
257.7012695993
 20
207.7613837128
 30
0.0
 10
257.6907589578
 20
207.8286361934
 30
0.0
 10
257.6797746521
 20
207.8953135722
 30
0.0
 10
257.67188921
 20
207.9373099749
 30
0.0
  0
SPLINE
  5
370
100
AcDbEntity
  8
0
100
AcDbSpline
 62
7
  6
CONTINUOUS
 70
0
 71
3
 72
16
 73
12
 74
0
 42
0.0000001
 43
0.0000001
 44
0.0000000001
 40
0.0
 40
0.0
 40
0.0
 40
0.0
 40
0.0060750268
 40
0.0212475134
 40
0.046112068
 40
0.0804975643
 40
0.176520041
 40
0.304562903
 40
0.4584161188
 40
0.6310187009
 40
1.0
 40
1.0
 40
1.0
 40
1.0
 10
257.5889371588
 20
208.2860063806
 30
0.0
 10
257.5876438819
 20
208.2860140799
 30
0.0
 10
257.585851482
 20
208.2801030649
 30
0.0
 10
257.5856406882
 20
208.2715922116
 30
0.0
 10
257.5856693673
 20
208.2550319936
 30
0.0
 10
257.5878177098
 20
208.2224530235
 30
0.0
 10
257.5933096416
 20
208.1673977818
 30
0.0
 10
257.6033000936
 20
208.087697811
 30
0.0
 10
257.6167779741
 20
207.9918328809
 30
0.0
 10
257.6391309319
 20
207.8454972806
 30
0.0
 10
257.6582215288
 20
207.7317752948
 30
0.0
 10
257.6718892157
 20
207.6544218322
 30
0.0
  0
SPLINE
  5
371
100
AcDbEntity
  8
0
100
AcDbSpline
 62
7
  6
CONTINUOUS
 70
0
 71
3
 72
8
 73
4
 74
0
 42
0.0000001
 43
0.0000001
 44
0.0000000001
 40
0.0
 40
0.0
 40
0.0
 40
0.0
 40
1.0
 40
1.0
 40
1.0
 40
1.0
 10
257.6577433191
 20
207.2783027888
 30
0.0
 10
257.6535137712
 20
207.2782784593
 30
0.0
 10
257.6492378906
 20
207.276334559
 30
0.0
 10
257.6459087806
 20
207.2737255948
 30
0.0
  0
SPLINE
  5
372
100
AcDbEntity
  8
0
100
AcDbSpline
 62
7
  6
CONTINUOUS
 70
0
 71
3
 72
9
 73
5
 74
0
 42
0.0000001
 43
0.0000001
 44
0.0000000001
 40
0.0
 40
0.0
 40
0.0
 40
0.0
 40
0.7092022218
 40
1.0
 40
1.0
 40
1.0
 40
1.0
 10
257.6459087806
 20
207.2737255948
 30
0.0
 10
257.6420069046
 20
207.2706677642
 30
0.0
 10
257.6375536937
 20
207.265055312
 30
0.0
 10
257.6339792509
 20
207.2590681061
 30
0.0
 10
257.6329937538
 20
207.2572903115
 30
0.0
  0
SPLINE
  5
373
100
AcDbEntity
  8
0
100
AcDbSpline
 62
7
  6
CONTINUOUS
 70
0
 71
3
 72
14
 73
10
 74
0
 42
0.0000001
 43
0.0000001
 44
0.0000000001
 40
0.0
 40
0.0
 40
0.0
 40
0.0
 40
0.0710972817
 40
0.1818266264
 40
0.3233975786
 40
0.4827245673
 40
0.7926599962
 40
0.9146562233
 40
1.0
 40
1.0
 40
1.0
 40
1.0
 10
257.6329937538
 20
207.2572903115
 30
0.0
 10
257.6208797841
 20
207.235437229
 30
0.0
 10
257.6054042406
 20
207.1721655759
 30
0.0
 10
257.5908948834
 20
207.0598942458
 30
0.0
 10
257.5844354794
 20
206.9150013563
 30
0.0
 10
257.5872704467
 20
206.7004514327
 30
0.0
 10
257.604450301
 20
206.4925707403
 30
0.0
 10
257.6383510624
 20
206.314108471
 30
0.0
 10
257.6589671736
 20
206.243610458
 30
0.0
 10
257.6718892175
 20
206.2165440474
 30
0.0
  0
SPLINE
  5
374
100
AcDbEntity
  8
0
100
AcDbSpline
 62
7
  6
CONTINUOUS
 70
0
 71
3
 72
14
 73
10
 74
0
 42
0.0000001
 43
0.0000001
 44
0.0000000001
 40
0.0
 40
0.0
 40
0.0
 40
0.0
 40
0.0298443706
 40
0.1002895619
 40
0.2106092265
 40
0.3528741372
 40
0.5158654068
 40
0.6865894777
 40
1.0
 40
1.0
 40
1.0
 40
1.0
 10
257.614208416
 20
204.8019354698
 30
0.0
 10
257.6052048241
 20
204.8019459054
 30
0.0
 10
257.5909498713
 20
204.8396322882
 30
0.0
 10
257.5870092003
 20
204.8957391622
 30
0.0
 10
257.5843711952
 20
204.9969864303
 30
0.0
 10
257.590830967
 20
205.1207998036
 30
0.0
 10
257.6031478325
 20
205.2643739691
 30
0.0
 10
257.6270536139
 20
205.4579713012
 30
0.0
 10
257.651277256
 20
205.6022744129
 30
0.0
 10
257.6718892157
 20
205.6945516296
 30
0.0
  0
SPLINE
  5
375
100
AcDbEntity
  8
0
100
AcDbSpline
 62
7
  6
CONTINUOUS
 70
0
 71
3
 72
13
 73
9
 74
0
 42
0.0000001
 43
0.0000001
 44
0.0000000001
 40
0.0
 40
0.0
 40
0.0
 40
0.0
 40
0.0198148825
 40
0.0718728276
 40
0.1577273441
 40
0.2753841003
 40
0.5955880056
 40
1.0
 40
1.0
 40
1.0
 40
1.0
 10
257.6989721858
 20
204.9948175345
 30
0.0
 10
257.7003975163
 20
204.9948055761
 30
0.0
 10
257.7016618609
 20
204.9875914748
 30
0.0
 10
257.7013909222
 20
204.9780876577
 30
0.0
 10
257.700101593
 20
204.9587280794
 30
0.0
 10
257.695661064
 20
204.9218986407
 30
0.0
 10
257.68642666
 20
204.8615873207
 30
0.0
 10
257.6772577229
 20
204.8104111614
 30
0.0
 10
257.6718892157
 20
204.7818194867
 30
0.0
  0
SPLINE
  5
376
100
AcDbEntity
  8
0
100
AcDbSpline
 62
7
  6
CONTINUOUS
 70
0
 71
3
 72
9
 73
5
 74
0
 42
0.0000001
 43
0.0000001
 44
0.0000000001
 40
0.0
 40
0.0
 40
0.0
 40
0.0
 40
0.3028959595
 40
1.0
 40
1.0
 40
1.0
 40
1.0
 10
257.6339283307
 20
226.8838728171
 30
0.0
 10
257.636699197
 20
226.8967620974
 30
0.0
 10
257.6466404952
 20
226.9390749243
 30
0.0
 10
257.6588167721
 20
226.9813005977
 30
0.0
 10
257.6718892175
 20
227.008682038
 30
0.0
  0
SPLINE
  5
377
100
AcDbEntity
  8
0
100
AcDbSpline
 62
7
  6
CONTINUOUS
 70
0
 71
3
 72
9
 73
5
 74
0
 42
0.0000001
 43
0.0000001
 44
0.0000000001
 40
0.0
 40
0.0
 40
0.0
 40
0.0
 40
0.1053523825
 40
1.0
 40
1.0
 40
1.0
 40
1.0
 10
257.6989721858
 20
228.2304085509
 30
0.0
 10
257.6994194613
 20
228.2304123035
 30
0.0
 10
257.70277362
 20
228.2339649468
 30
0.0
 10
257.7014627726
 20
228.2386889084
 30
0.0
 10
257.7014372884
 20
228.2424871997
 30
0.0
  0
SPLINE
  5
378
100
AcDbEntity
  8
0
100
AcDbSpline
 62
7
  6
CONTINUOUS
 70
0
 71
3
 72
9
 73
5
 74
0
 42
0.0000001
 43
0.0000001
 44
0.0000000001
 40
0.0
 40
0.0
 40
0.0
 40
0.0
 40
0.3690526426
 40
1.0
 40
1.0
 40
1.0
 40
1.0
 10
257.7014372884
 20
228.2424871997
 30
0.0
 10
257.7012695993
 20
228.2674803672
 30
0.0
 10
257.6907589578
 20
228.3347328478
 30
0.0
 10
257.6797746521
 20
228.4014102266
 30
0.0
 10
257.67188921
 20
228.4434066293
 30
0.0
  0
SPLINE
  5
379
100
AcDbEntity
  8
0
100
AcDbSpline
 62
7
  6
CONTINUOUS
 70
0
 71
3
 72
16
 73
12
 74
0
 42
0.0000001
 43
0.0000001
 44
0.0000000001
 40
0.0
 40
0.0
 40
0.0
 40
0.0
 40
0.0060750268
 40
0.0212475134
 40
0.046112068
 40
0.0804975643
 40
0.176520041
 40
0.304562903
 40
0.4584161188
 40
0.6310187009
 40
1.0
 40
1.0
 40
1.0
 40
1.0
 10
257.5889371588
 20
228.7921030351
 30
0.0
 10
257.5876438819
 20
228.7921107343
 30
0.0
 10
257.585851482
 20
228.7861997193
 30
0.0
 10
257.5856406882
 20
228.777688866
 30
0.0
 10
257.5856693673
 20
228.761128648
 30
0.0
 10
257.5878177098
 20
228.7285496779
 30
0.0
 10
257.5933096416
 20
228.6734944362
 30
0.0
 10
257.6033000936
 20
228.5937944654
 30
0.0
 10
257.6167779741
 20
228.4979295353
 30
0.0
 10
257.6391309319
 20
228.351593935
 30
0.0
 10
257.6582215288
 20
228.2378719493
 30
0.0
 10
257.6718892157
 20
228.1605184866
 30
0.0
  0
SPLINE
  5
37A
100
AcDbEntity
  8
0
100
AcDbSpline
 62
7
  6
CONTINUOUS
 70
0
 71
3
 72
8
 73
4
 74
0
 42
0.0000001
 43
0.0000001
 44
0.0000000001
 40
0.0
 40
0.0
 40
0.0
 40
0.0
 40
1.0
 40
1.0
 40
1.0
 40
1.0
 10
257.6577433191
 20
227.7843994432
 30
0.0
 10
257.6535137712
 20
227.7843751138
 30
0.0
 10
257.6492378906
 20
227.7824312134
 30
0.0
 10
257.6459087806
 20
227.7798222493
 30
0.0
  0
SPLINE
  5
37B
100
AcDbEntity
  8
0
100
AcDbSpline
 62
7
  6
CONTINUOUS
 70
0
 71
3
 72
9
 73
5
 74
0
 42
0.0000001
 43
0.0000001
 44
0.0000000001
 40
0.0
 40
0.0
 40
0.0
 40
0.0
 40
0.7092022218
 40
1.0
 40
1.0
 40
1.0
 40
1.0
 10
257.6459087806
 20
227.7798222493
 30
0.0
 10
257.6420069046
 20
227.7767644186
 30
0.0
 10
257.6375536937
 20
227.7711519664
 30
0.0
 10
257.6339792509
 20
227.7651647605
 30
0.0
 10
257.6329937538
 20
227.7633869659
 30
0.0
  0
SPLINE
  5
37C
100
AcDbEntity
  8
0
100
AcDbSpline
 62
7
  6
CONTINUOUS
 70
0
 71
3
 72
14
 73
10
 74
0
 42
0.0000001
 43
0.0000001
 44
0.0000000001
 40
0.0
 40
0.0
 40
0.0
 40
0.0
 40
0.0710972817
 40
0.1818266264
 40
0.3233975786
 40
0.4827245673
 40
0.7926599962
 40
0.9146562233
 40
1.0
 40
1.0
 40
1.0
 40
1.0
 10
257.6329937538
 20
227.7633869659
 30
0.0
 10
257.6208797841
 20
227.7415338834
 30
0.0
 10
257.6054042406
 20
227.6782622304
 30
0.0
 10
257.5908948834
 20
227.5659909002
 30
0.0
 10
257.5844354794
 20
227.4210980107
 30
0.0
 10
257.5872704467
 20
227.2065480871
 30
0.0
 10
257.604450301
 20
226.9986673947
 30
0.0
 10
257.6383510624
 20
226.8202051254
 30
0.0
 10
257.6589671736
 20
226.7497071124
 30
0.0
 10
257.6718892175
 20
226.7226407018
 30
0.0
  0
SPLINE
  5
37D
100
AcDbEntity
  8
0
100
AcDbSpline
 62
7
  6
CONTINUOUS
 70
0
 71
3
 72
14
 73
10
 74
0
 42
0.0000001
 43
0.0000001
 44
0.0000000001
 40
0.0
 40
0.0
 40
0.0
 40
0.0
 40
0.0298443706
 40
0.1002895619
 40
0.2106092265
 40
0.3528741372
 40
0.5158654068
 40
0.6865894777
 40
1.0
 40
1.0
 40
1.0
 40
1.0
 10
257.614208416
 20
225.3080321242
 30
0.0
 10
257.6052048241
 20
225.3080425598
 30
0.0
 10
257.5909498713
 20
225.3457289426
 30
0.0
 10
257.5870092003
 20
225.4018358166
 30
0.0
 10
257.5843711952
 20
225.5030830847
 30
0.0
 10
257.590830967
 20
225.626896458
 30
0.0
 10
257.6031478325
 20
225.7704706235
 30
0.0
 10
257.6270536139
 20
225.9640679556
 30
0.0
 10
257.651277256
 20
226.1083710673
 30
0.0
 10
257.6718892157
 20
226.200648284
 30
0.0
  0
SPLINE
  5
37E
100
AcDbEntity
  8
0
100
AcDbSpline
 62
7
  6
CONTINUOUS
 70
0
 71
3
 72
13
 73
9
 74
0
 42
0.0000001
 43
0.0000001
 44
0.0000000001
 40
0.0
 40
0.0
 40
0.0
 40
0.0
 40
0.0198148825
 40
0.0718728276
 40
0.1577273441
 40
0.2753841003
 40
0.5955880056
 40
1.0
 40
1.0
 40
1.0
 40
1.0
 10
257.6989721858
 20
225.5009141889
 30
0.0
 10
257.7003975163
 20
225.5009022305
 30
0.0
 10
257.7016618609
 20
225.4936881292
 30
0.0
 10
257.7013909222
 20
225.4841843121
 30
0.0
 10
257.700101593
 20
225.4648247338
 30
0.0
 10
257.695661064
 20
225.4279952952
 30
0.0
 10
257.68642666
 20
225.3676839752
 30
0.0
 10
257.6772577229
 20
225.3165078158
 30
0.0
 10
257.6718892157
 20
225.2879161411
 30
0.0
  0
SPLINE
  5
37F
100
AcDbEntity
  8
0
100
AcDbSpline
 62
7
  6
CONTINUOUS
 70
0
 71
3
 72
9
 73
5
 74
0
 42
0.0000001
 43
0.0000001
 44
0.0000000001
 40
0.0
 40
0.0
 40
0.0
 40
0.0
 40
0.4692952133
 40
1.0
 40
1.0
 40
1.0
 40
1.0
 10
211.0916316082
 20
194.0542814606
 30
0.0
 10
211.0916233985
 20
194.0551852286
 30
0.0
 10
211.0911612695
 20
194.0571241502
 30
0.0
 10
211.0899905108
 20
194.0587044712
 30
0.0
 10
211.0892884161
 20
194.0594472333
 30
0.0
  0
SPLINE
  5
380
100
AcDbEntity
  8
0
100
AcDbSpline
 62
7
  6
CONTINUOUS
 70
0
 71
3
 72
10
 73
6
 74
0
 42
0.0000001
 43
0.0000001
 44
0.0000000001
 40
0.0
 40
0.0
 40
0.0
 40
0.0
 40
0.1256213644
 40
0.3427010841
 40
1.0
 40
1.0
 40
1.0
 40
1.0
 10
211.0892884161
 20
194.0594472333
 30
0.0
 10
211.0851477572
 20
194.0638277311
 30
0.0
 10
211.0684968354
 20
194.0691906694
 30
0.0
 10
211.0217519052
 20
194.0760368908
 30
0.0
 10
210.9791067521
 20
194.0752117879
 30
0.0
 10
210.947607584
 20
194.0736171112
 30
0.0
  0
SPLINE
  5
381
100
AcDbEntity
  8
0
100
AcDbSpline
 62
7
  6
CONTINUOUS
 70
0
 71
3
 72
9
 73
5
 74
0
 42
0.0000001
 43
0.0000001
 44
0.0000000001
 40
0.0
 40
0.0
 40
0.0
 40
0.0
 40
0.2608681969
 40
1.0
 40
1.0
 40
1.0
 40
1.0
 10
210.947607584
 20
194.0736171112
 30
0.0
 10
210.9315822881
 20
194.0728058146
 30
0.0
 10
210.8702621033
 20
194.0681527807
 30
0.0
 10
210.8090969452
 20
194.0591960949
 30
0.0
 10
210.7649643949
 20
194.0482761258
 30
0.0
  0
SPLINE
  5
382
100
AcDbEntity
  8
0
100
AcDbSpline
 62
7
  6
CONTINUOUS
 70
0
 71
3
 72
9
 73
5
 74
0
 42
0.0000001
 43
0.0000001
 44
0.0000000001
 40
0.0
 40
0.0
 40
0.0
 40
0.0
 40
0.4692952133
 40
1.0
 40
1.0
 40
1.0
 40
1.0
 10
183.8109926356
 20
194.0542814606
 30
0.0
 10
183.8109844259
 20
194.0551852286
 30
0.0
 10
183.8105222969
 20
194.0571241502
 30
0.0
 10
183.8093515383
 20
194.0587044712
 30
0.0
 10
183.8086494435
 20
194.0594472333
 30
0.0
  0
SPLINE
  5
383
100
AcDbEntity
  8
0
100
AcDbSpline
 62
7
  6
CONTINUOUS
 70
0
 71
3
 72
10
 73
6
 74
0
 42
0.0000001
 43
0.0000001
 44
0.0000000001
 40
0.0
 40
0.0
 40
0.0
 40
0.0
 40
0.1256213644
 40
0.3427010841
 40
1.0
 40
1.0
 40
1.0
 40
1.0
 10
183.8086494435
 20
194.0594472333
 30
0.0
 10
183.8045087846
 20
194.0638277311
 30
0.0
 10
183.7878578628
 20
194.0691906694
 30
0.0
 10
183.7411129326
 20
194.0760368908
 30
0.0
 10
183.6984677796
 20
194.0752117879
 30
0.0
 10
183.6669686114
 20
194.0736171112
 30
0.0
  0
SPLINE
  5
384
100
AcDbEntity
  8
0
100
AcDbSpline
 62
7
  6
CONTINUOUS
 70
0
 71
3
 72
9
 73
5
 74
0
 42
0.0000001
 43
0.0000001
 44
0.0000000001
 40
0.0
 40
0.0
 40
0.0
 40
0.0
 40
0.2608681969
 40
1.0
 40
1.0
 40
1.0
 40
1.0
 10
183.6669686114
 20
194.0736171112
 30
0.0
 10
183.6509433155
 20
194.0728058146
 30
0.0
 10
183.5896231307
 20
194.0681527807
 30
0.0
 10
183.5284579726
 20
194.0591960949
 30
0.0
 10
183.4843254224
 20
194.0482761258
 30
0.0
  0
SPLINE
  5
385
100
AcDbEntity
  8
0
100
AcDbSpline
 62
7
  6
CONTINUOUS
 70
0
 71
3
 72
9
 73
5
 74
0
 42
0.0000001
 43
0.0000001
 44
0.0000000001
 40
0.0
 40
0.0
 40
0.0
 40
0.0
 40
0.2402173856
 40
1.0
 40
1.0
 40
1.0
 40
1.0
 10
179.4727150616
 20
186.0126130427
 30
0.0
 10
179.5628241331
 20
186.0126130427
 30
0.0
 10
179.9379318001
 20
186.022836554
 30
0.0
 10
180.311478998
 20
186.071092715
 30
0.0
 10
180.59168034
 20
186.1232023464
 30
0.0
  0
SPLINE
  5
386
100
AcDbEntity
  8
0
100
AcDbSpline
 62
7
  6
CONTINUOUS
 70
0
 71
3
 72
9
 73
5
 74
0
 42
0.0000001
 43
0.0000001
 44
0.0000000001
 40
0.0
 40
0.0
 40
0.0
 40
0.0
 40
0.2728279565
 40
1.0
 40
1.0
 40
1.0
 40
1.0
 10
175.2522253748
 20
185.7149908812
 30
0.0
 10
175.2606333476
 20
185.7309872982
 30
0.0
 10
175.292763379
 20
185.78888259
 30
0.0
 10
175.3305966616
 20
185.8438885485
 30
0.0
 10
175.3623320446
 20
185.8801218397
 30
0.0
  0
SPLINE
  5
387
100
AcDbEntity
  8
0
100
AcDbSpline
 62
7
  6
CONTINUOUS
 70
0
 71
3
 72
9
 73
5
 74
0
 42
0.0000001
 43
0.0000001
 44
0.0000000001
 40
0.0
 40
0.0
 40
0.0
 40
0.0
 40
0.5355558368
 40
1.0
 40
1.0
 40
1.0
 40
1.0
 10
175.3623320446
 20
185.8801218397
 30
0.0
 10
175.3968798819
 20
185.9195661991
 30
0.0
 10
175.4717969942
 20
185.9868284425
 30
0.0
 10
175.571012439
 20
186.0126130427
 30
0.0
 10
175.6164849096
 20
186.0126130427
 30
0.0
  0
SPLINE
  5
388
100
AcDbEntity
  8
0
100
AcDbSpline
 62
7
  6
CONTINUOUS
 70
0
 71
3
 72
11
 73
7
 74
0
 42
0.0000001
 43
0.0000001
 44
0.0000000001
 40
0.0
 40
0.0
 40
0.0
 40
0.0
 40
0.3231745541
 40
0.5788248911
 40
0.7904503611
 40
1.0
 40
1.0
 40
1.0
 40
1.0
 10
180.59168034
 20
186.1232023464
 30
0.0
 10
180.7402394493
 20
186.1508301956
 30
0.0
 10
181.0041633572
 20
186.2155014953
 30
0.0
 10
181.3404624342
 20
186.3821447361
 30
0.0
 10
181.5539211071
 20
186.6316083707
 30
0.0
 10
181.59168034
 20
186.8337517311
 30
0.0
 10
181.59168034
 20
186.9317305646
 30
0.0
  0
SPLINE
  5
389
100
AcDbEntity
  8
0
100
AcDbSpline
 62
7
  6
CONTINUOUS
 70
0
 71
3
 72
9
 73
5
 74
0
 42
0.0000001
 43
0.0000001
 44
0.0000000001
 40
0.0
 40
0.0
 40
0.0
 40
0.0
 40
0.4692952133
 40
1.0
 40
1.0
 40
1.0
 40
1.0
 10
238.9722705807
 20
194.0542814606
 30
0.0
 10
238.972262371
 20
194.0551852286
 30
0.0
 10
238.971800242
 20
194.0571241502
 30
0.0
 10
238.9706294834
 20
194.0587044712
 30
0.0
 10
238.9699273886
 20
194.0594472333
 30
0.0
  0
SPLINE
  5
38A
100
AcDbEntity
  8
0
100
AcDbSpline
 62
7
  6
CONTINUOUS
 70
0
 71
3
 72
10
 73
6
 74
0
 42
0.0000001
 43
0.0000001
 44
0.0000000001
 40
0.0
 40
0.0
 40
0.0
 40
0.0
 40
0.1256213644
 40
0.3427010841
 40
1.0
 40
1.0
 40
1.0
 40
1.0
 10
238.9699273886
 20
194.0594472333
 30
0.0
 10
238.9657867297
 20
194.0638277311
 30
0.0
 10
238.9491358079
 20
194.0691906694
 30
0.0
 10
238.9023908777
 20
194.0760368908
 30
0.0
 10
238.8597457247
 20
194.0752117879
 30
0.0
 10
238.8282465565
 20
194.0736171112
 30
0.0
  0
SPLINE
  5
38B
100
AcDbEntity
  8
0
100
AcDbSpline
 62
7
  6
CONTINUOUS
 70
0
 71
3
 72
9
 73
5
 74
0
 42
0.0000001
 43
0.0000001
 44
0.0000000001
 40
0.0
 40
0.0
 40
0.0
 40
0.0
 40
0.2608681969
 40
1.0
 40
1.0
 40
1.0
 40
1.0
 10
238.8282465565
 20
194.0736171112
 30
0.0
 10
238.8122212607
 20
194.0728058146
 30
0.0
 10
238.7509010759
 20
194.0681527807
 30
0.0
 10
238.6897359178
 20
194.0591960949
 30
0.0
 10
238.6456033675
 20
194.0482761258
 30
0.0
  0
SPLINE
  5
38C
100
AcDbEntity
  8
0
100
AcDbSpline
 62
7
  6
CONTINUOUS
 70
0
 71
3
 72
13
 73
9
 74
0
 42
0.0000001
 43
0.0000001
 44
0.0000000001
 40
0.0
 40
0.0
 40
0.0
 40
0.0
 40
0.2761457759
 40
0.6135807276
 40
0.7656693103
 40
0.8862633914
 40
0.9648727059
 40
1.0
 40
1.0
 40
1.0
 40
1.0
 10
173.4718892061
 20
185.9424098498
 30
0.0
 10
173.4456712895
 20
185.8532258456
 30
0.0
 10
173.4109918927
 20
185.6488685599
 30
0.0
 10
173.3878335097
 20
185.3911846853
 30
0.0
 10
173.3837783335
 20
185.1874145819
 30
0.0
 10
173.3922346878
 20
185.0656313359
 30
0.0
 10
173.4008907381
 20
184.9947360358
 30
0.0
 10
173.4225092739
 20
184.9500538696
 30
0.0
 10
173.4343338791
 20
184.9501150427
 30
0.0
  0
SPLINE
  5
38D
100
AcDbEntity
  8
0
100
AcDbSpline
 62
7
  6
CONTINUOUS
 70
0
 71
3
 72
11
 73
7
 74
0
 42
0.0000001
 43
0.0000001
 44
0.0000000001
 40
0.0
 40
0.0
 40
0.0
 40
0.0
 40
0.2208645774
 40
0.5000935455
 40
0.7792617698
 40
1.0
 40
1.0
 40
1.0
 40
1.0
 10
173.4718892157
 20
186.482816203
 30
0.0
 10
173.4832007263
 20
186.4443384828
 30
0.0
 10
173.4970772297
 20
186.3540239454
 30
0.0
 10
173.5038920593
 20
186.2125733603
 30
0.0
 10
173.4970186265
 20
186.0711544396
 30
0.0
 10
173.4831942494
 20
185.9808655575
 30
0.0
 10
173.4718892061
 20
185.9424098498
 30
0.0
  0
SPLINE
  5
38E
100
AcDbEntity
  8
0
100
AcDbSpline
 62
7
  6
CONTINUOUS
 70
0
 71
3
 72
9
 73
5
 74
0
 42
0.0000001
 43
0.0000001
 44
0.0000000001
 40
0.0
 40
0.0
 40
0.0
 40
0.0
 40
0.5791601388
 40
1.0
 40
1.0
 40
1.0
 40
1.0
 10
173.4718892157
 20
187.6995814347
 30
0.0
 10
173.4804576303
 20
187.6508574675
 30
0.0
 10
173.4931462385
 20
187.5664302652
 30
0.0
 10
173.5015672993
 20
187.4811614527
 30
0.0
 10
173.5014372884
 20
187.4452137094
 30
0.0
  0
SPLINE
  5
38F
100
AcDbEntity
  8
0
100
AcDbSpline
 62
7
  6
CONTINUOUS
 70
0
 71
3
 72
9
 73
5
 74
0
 42
0.0000001
 43
0.0000001
 44
0.0000000001
 40
0.0
 40
0.0
 40
0.0
 40
0.0
 40
0.7118988941
 40
1.0
 40
1.0
 40
1.0
 40
1.0
 10
173.5014372884
 20
187.4452137094
 30
0.0
 10
173.5013978279
 20
187.4343029802
 30
0.0
 10
173.5017917347
 20
187.4220045498
 30
0.0
 10
173.496093437
 20
187.4013982092
 30
0.0
 10
173.4916783134
 20
187.4014583994
 30
0.0
  0
SPLINE
  5
390
100
AcDbEntity
  8
0
100
AcDbSpline
 62
7
  6
CONTINUOUS
 70
0
 71
3
 72
8
 73
4
 74
0
 42
0.0000001
 43
0.0000001
 44
0.0000000001
 40
0.0
 40
0.0
 40
0.0
 40
0.0
 40
1.0
 40
1.0
 40
1.0
 40
1.0
 10
184.6289606528
 20
237.3398438543
 30
0.0
 10
184.6289599374
 20
237.3433756536
 30
0.0
 10
184.6292081946
 20
237.3469113799
 30
0.0
 10
184.6296266782
 20
237.3504182985
 30
0.0
  0
SPLINE
  5
391
100
AcDbEntity
  8
0
100
AcDbSpline
 62
7
  6
CONTINUOUS
 70
0
 71
3
 72
9
 73
5
 74
0
 42
0.0000001
 43
0.0000001
 44
0.0000000001
 40
0.0
 40
0.0
 40
0.0
 40
0.0
 40
0.2109433404
 40
1.0
 40
1.0
 40
1.0
 40
1.0
 10
184.6296266782
 20
237.3504182985
 30
0.0
 10
184.6301704249
 20
237.3549749296
 30
0.0
 10
184.6341400642
 20
237.3764087311
 30
0.0
 10
184.6420296175
 20
237.3968998442
 30
0.0
 10
184.6489397513
 20
237.4126130427
 30
0.0
  0
SPLINE
  5
392
100
AcDbEntity
  8
0
100
AcDbSpline
 62
7
  6
CONTINUOUS
 70
0
 71
3
 72
14
 73
10
 74
0
 42
0.0000001
 43
0.0000001
 44
0.0000000001
 40
0.0
 40
0.0
 40
0.0
 40
0.0
 40
0.0359505976
 40
0.0697233505
 40
0.1147486834
 40
0.2352002651
 40
0.3871038013
 40
0.7240671948
 40
1.0
 40
1.0
 40
1.0
 40
1.0
 10
146.6935411834
 20
226.7501155058
 30
0.0
 10
146.7056681497
 20
226.7500552777
 30
0.0
 10
146.7204262502
 20
226.7774629446
 30
0.0
 10
146.7294808245
 20
226.8122673719
 30
0.0
 10
146.7408261165
 20
226.8799710191
 30
0.0
 10
146.7462173838
 20
226.9862265189
 30
0.0
 10
146.7433608576
 20
227.1923089985
 30
0.0
 10
146.7180314442
 20
227.4489658327
 30
0.0
 10
146.6814438631
 20
227.6535280755
 30
0.0
 10
146.6538061025
 20
227.7424098824
 30
0.0
  0
SPLINE
  5
393
100
AcDbEntity
  8
0
100
AcDbSpline
 62
7
  6
CONTINUOUS
 70
0
 71
3
 72
9
 73
5
 74
0
 42
0.0000001
 43
0.0000001
 44
0.0000000001
 40
0.0
 40
0.0
 40
0.0
 40
0.0
 40
0.2787058792
 40
1.0
 40
1.0
 40
1.0
 40
1.0
 10
146.6328774022
 20
229.2014584952
 30
0.0
 10
146.6264144002
 20
229.2013752788
 30
0.0
 10
146.621510509
 20
229.2347966691
 30
0.0
 10
146.6223508747
 20
229.2522253661
 30
0.0
 10
146.6231179746
 20
229.2689354803
 30
0.0
  0
SPLINE
  5
394
100
AcDbEntity
  8
0
100
AcDbSpline
 62
7
  6
CONTINUOUS
 70
0
 71
3
 72
9
 73
5
 74
0
 42
0.0000001
 43
0.0000001
 44
0.0000000001
 40
0.0
 40
0.0
 40
0.0
 40
0.0
 40
0.2006498231
 40
1.0
 40
1.0
 40
1.0
 40
1.0
 10
146.6231179746
 20
229.2689354803
 30
0.0
 10
146.6238319329
 20
229.2844879855
 30
0.0
 10
146.6300669465
 20
229.3618644597
 30
0.0
 10
146.642463672
 20
229.4386039373
 30
0.0
 10
146.6538061025
 20
229.4995814347
 30
0.0
  0
SPLINE
  5
395
100
AcDbEntity
  8
0
100
AcDbSpline
 62
7
  6
CONTINUOUS
 70
0
 71
3
 72
13
 73
9
 74
0
 42
0.0000001
 43
0.0000001
 44
0.0000000001
 40
0.0
 40
0.0
 40
0.0
 40
0.0
 40
0.0351558711
 40
0.1138157072
 40
0.2344574857
 40
0.386585206
 40
0.7239684313
 40
1.0
 40
1.0
 40
1.0
 40
1.0
 10
173.4343374198
 20
187.4751052703
 30
0.0
 10
173.4225033432
 20
187.4751821287
 30
0.0
 10
173.4008809965
 20
187.430425488
 30
0.0
 10
173.3922245262
 20
187.3595237293
 30
0.0
 10
173.3837702852
 20
187.2376774026
 30
0.0
 10
173.3878514322
 20
187.0339045736
 30
0.0
 10
173.4109972348
 20
186.7762602687
 30
0.0
 10
173.4456822647
 20
186.5719628928
 30
0.0
 10
173.4718892157
 20
186.482816203
 30
0.0
  0
SPLINE
  5
396
100
AcDbEntity
  8
0
100
AcDbSpline
 62
7
  6
CONTINUOUS
 70
0
 71
3
 72
9
 73
5
 74
0
 42
0.0000001
 43
0.0000001
 44
0.0000000001
 40
0.0
 40
0.0
 40
0.0
 40
0.0
 40
0.2763240876
 40
1.0
 40
1.0
 40
1.0
 40
1.0
 10
173.491704408
 20
185.0237569799
 30
0.0
 10
173.4981446235
 20
185.0238618217
 30
0.0
 10
173.5021153428
 20
184.9897560935
 30
0.0
 10
173.5016244086
 20
184.9725573246
 30
0.0
 10
173.5008690831
 20
184.9557054777
 30
0.0
  0
SPLINE
  5
397
100
AcDbEntity
  8
0
100
AcDbSpline
 62
7
  6
CONTINUOUS
 70
0
 71
3
 72
9
 73
5
 74
0
 42
0.0000001
 43
0.0000001
 44
0.0000000001
 40
0.0
 40
0.0
 40
0.0
 40
0.0
 40
0.2010647859
 40
1.0
 40
1.0
 40
1.0
 40
1.0
 10
173.5008690831
 20
184.9557054777
 30
0.0
 10
173.5001729585
 20
184.9401744421
 30
0.0
 10
173.4942295168
 20
184.8630518167
 30
0.0
 10
173.4825885209
 20
184.7864858397
 30
0.0
 10
173.4718892047
 20
184.7256445882
 30
0.0
  0
SPLINE
  5
398
100
AcDbEntity
  8
0
100
AcDbSpline
 62
7
  6
CONTINUOUS
 70
0
 71
3
 72
12
 73
8
 74
0
 42
0.0000001
 43
0.0000001
 44
0.0000000001
 40
0.0
 40
0.0
 40
0.0
 40
0.0
 40
0.3652338962
 40
0.6876819259
 40
0.9077814116
 40
0.9684211316
 40
1.0
 40
1.0
 40
1.0
 40
1.0
 10
257.6718892207
 20
205.0647076273
 30
0.0
 10
257.6802240369
 20
205.1118792476
 30
0.0
 10
257.6929826161
 20
205.2013540286
 30
0.0
 10
257.7029638932
 20
205.3196311485
 30
0.0
 10
257.7006101989
 20
205.399945887
 30
0.0
 10
257.69374959
 20
205.4394092686
 30
0.0
 10
257.6842432118
 20
205.4504507918
 30
0.0
 10
257.6801016436
 20
205.4504875258
 30
0.0
  0
SPLINE
  5
399
100
AcDbEntity
  8
0
100
AcDbSpline
 62
7
  6
CONTINUOUS
 70
0
 71
3
 72
10
 73
6
 74
0
 42
0.0000001
 43
0.0000001
 44
0.0000000001
 40
0.0
 40
0.0
 40
0.0
 40
0.0
 40
0.1730030349
 40
0.4343823388
 40
1.0
 40
1.0
 40
1.0
 40
1.0
 10
257.6718892175
 20
206.5025853836
 30
0.0
 10
257.6849656878
 20
206.5299752584
 30
0.0
 10
257.6976165555
 20
206.6068263977
 30
0.0
 10
257.7058623822
 20
206.7811506541
 30
0.0
 10
257.693521286
 20
206.927733675
 30
0.0
 10
257.6718892157
 20
207.0245778014
 30
0.0
  0
SPLINE
  5
39A
100
AcDbEntity
  8
0
100
AcDbSpline
 62
7
  6
CONTINUOUS
 70
0
 71
3
 72
9
 73
5
 74
0
 42
0.0000001
 43
0.0000001
 44
0.0000000001
 40
0.0
 40
0.0
 40
0.0
 40
0.0
 40
0.2273969345
 40
1.0
 40
1.0
 40
1.0
 40
1.0
 10
257.6718892157
 20
207.0245778014
 30
0.0
 10
257.6679181733
 20
207.0423556713
 30
0.0
 10
257.6514039162
 20
207.1207464612
 30
0.0
 10
257.6379301359
 20
207.1997597521
 30
0.0
 10
257.6287735205
 20
207.2609691949
 30
0.0
  0
SPLINE
  5
39B
100
AcDbEntity
  8
0
100
AcDbSpline
 62
7
  6
CONTINUOUS
 70
0
 71
3
 72
9
 73
5
 74
0
 42
0.0000001
 43
0.0000001
 44
0.0000000001
 40
0.0
 40
0.0
 40
0.0
 40
0.0
 40
0.2773487951
 40
1.0
 40
1.0
 40
1.0
 40
1.0
 10
257.67188921
 20
207.9373099749
 30
0.0
 10
257.6682913738
 20
207.9564713832
 30
0.0
 10
257.6551144408
 20
208.0255195457
 30
0.0
 10
257.6411423282
 20
208.0944232563
 30
0.0
 10
257.6301636668
 20
208.1440215384
 30
0.0
  0
SPLINE
  5
39C
100
AcDbEntity
  8
0
100
AcDbSpline
 62
7
  6
CONTINUOUS
 70
0
 71
3
 72
12
 73
8
 74
0
 42
0.0000001
 43
0.0000001
 44
0.0000000001
 40
0.0
 40
0.0
 40
0.0
 40
0.0
 40
0.3652338893
 40
0.6876819208
 40
0.9077814106
 40
0.9684211319
 40
1.0
 40
1.0
 40
1.0
 40
1.0
 10
257.6718892157
 20
207.6544218322
 30
0.0
 10
257.6802240329
 20
207.6072502095
 30
0.0
 10
257.6929826139
 20
207.5177754227
 30
0.0
 10
257.702963893
 20
207.3994982944
 30
0.0
 10
257.7006101993
 20
207.3191835489
 30
0.0
 10
257.6937495908
 20
207.2797201638
 30
0.0
 10
257.6842432121
 20
207.2686786393
 30
0.0
 10
257.6801016435
 20
207.2686419052
 30
0.0
  0
SPLINE
  5
39D
100
AcDbEntity
  8
0
100
AcDbSpline
 62
7
  6
CONTINUOUS
 70
0
 71
3
 72
10
 73
6
 74
0
 42
0.0000001
 43
0.0000001
 44
0.0000000001
 40
0.0
 40
0.0
 40
0.0
 40
0.0
 40
0.1730030349
 40
0.4343823388
 40
1.0
 40
1.0
 40
1.0
 40
1.0
 10
257.6718892175
 20
206.2165440474
 30
0.0
 10
257.6849656878
 20
206.1891541726
 30
0.0
 10
257.6976165555
 20
206.1123030333
 30
0.0
 10
257.7058623822
 20
205.9379787769
 30
0.0
 10
257.693521286
 20
205.791395756
 30
0.0
 10
257.6718892157
 20
205.6945516296
 30
0.0
  0
SPLINE
  5
39E
100
AcDbEntity
  8
0
100
AcDbSpline
 62
7
  6
CONTINUOUS
 70
0
 71
3
 72
12
 73
8
 74
0
 42
0.0000001
 43
0.0000001
 44
0.0000000001
 40
0.0
 40
0.0
 40
0.0
 40
0.0
 40
0.3652338962
 40
0.6876819259
 40
0.9077814116
 40
0.9684211316
 40
1.0
 40
1.0
 40
1.0
 40
1.0
 10
257.6718892207
 20
225.5708042817
 30
0.0
 10
257.6802240369
 20
225.617975902
 30
0.0
 10
257.6929826161
 20
225.707450683
 30
0.0
 10
257.7029638932
 20
225.825727803
 30
0.0
 10
257.7006101989
 20
225.9060425414
 30
0.0
 10
257.69374959
 20
225.945505923
 30
0.0
 10
257.6842432118
 20
225.9565474462
 30
0.0
 10
257.6801016436
 20
225.9565841802
 30
0.0
  0
SPLINE
  5
39F
100
AcDbEntity
  8
0
100
AcDbSpline
 62
7
  6
CONTINUOUS
 70
0
 71
3
 72
10
 73
6
 74
0
 42
0.0000001
 43
0.0000001
 44
0.0000000001
 40
0.0
 40
0.0
 40
0.0
 40
0.0
 40
0.1730030349
 40
0.4343823388
 40
1.0
 40
1.0
 40
1.0
 40
1.0
 10
257.6718892175
 20
227.008682038
 30
0.0
 10
257.6849656878
 20
227.0360719128
 30
0.0
 10
257.6976165555
 20
227.1129230521
 30
0.0
 10
257.7058623822
 20
227.2872473085
 30
0.0
 10
257.693521286
 20
227.4338303294
 30
0.0
 10
257.6718892157
 20
227.5306744558
 30
0.0
  0
SPLINE
  5
3A0
100
AcDbEntity
  8
0
100
AcDbSpline
 62
7
  6
CONTINUOUS
 70
0
 71
3
 72
9
 73
5
 74
0
 42
0.0000001
 43
0.0000001
 44
0.0000000001
 40
0.0
 40
0.0
 40
0.0
 40
0.0
 40
0.2273969345
 40
1.0
 40
1.0
 40
1.0
 40
1.0
 10
257.6718892157
 20
227.5306744558
 30
0.0
 10
257.6679181733
 20
227.5484523258
 30
0.0
 10
257.6514039162
 20
227.6268431157
 30
0.0
 10
257.6379301359
 20
227.7058564065
 30
0.0
 10
257.6287735205
 20
227.7670658493
 30
0.0
  0
SPLINE
  5
3A1
100
AcDbEntity
  8
0
100
AcDbSpline
 62
7
  6
CONTINUOUS
 70
0
 71
3
 72
9
 73
5
 74
0
 42
0.0000001
 43
0.0000001
 44
0.0000000001
 40
0.0
 40
0.0
 40
0.0
 40
0.0
 40
0.2773487951
 40
1.0
 40
1.0
 40
1.0
 40
1.0
 10
257.67188921
 20
228.4434066293
 30
0.0
 10
257.6682913738
 20
228.4625680377
 30
0.0
 10
257.6551144408
 20
228.5316162001
 30
0.0
 10
257.6411423282
 20
228.6005199107
 30
0.0
 10
257.6301636668
 20
228.6501181928
 30
0.0
  0
SPLINE
  5
3A2
100
AcDbEntity
  8
0
100
AcDbSpline
 62
7
  6
CONTINUOUS
 70
0
 71
3
 72
12
 73
8
 74
0
 42
0.0000001
 43
0.0000001
 44
0.0000000001
 40
0.0
 40
0.0
 40
0.0
 40
0.0
 40
0.3652338893
 40
0.6876819208
 40
0.9077814106
 40
0.9684211319
 40
1.0
 40
1.0
 40
1.0
 40
1.0
 10
257.6718892157
 20
228.1605184866
 30
0.0
 10
257.6802240329
 20
228.1133468639
 30
0.0
 10
257.6929826139
 20
228.0238720771
 30
0.0
 10
257.702963893
 20
227.9055949488
 30
0.0
 10
257.7006101993
 20
227.8252802033
 30
0.0
 10
257.6937495908
 20
227.7858168182
 30
0.0
 10
257.6842432121
 20
227.7747752937
 30
0.0
 10
257.6801016435
 20
227.7747385596
 30
0.0
  0
SPLINE
  5
3A3
100
AcDbEntity
  8
0
100
AcDbSpline
 62
7
  6
CONTINUOUS
 70
0
 71
3
 72
10
 73
6
 74
0
 42
0.0000001
 43
0.0000001
 44
0.0000000001
 40
0.0
 40
0.0
 40
0.0
 40
0.0
 40
0.1730030349
 40
0.4343823388
 40
1.0
 40
1.0
 40
1.0
 40
1.0
 10
257.6718892175
 20
226.7226407018
 30
0.0
 10
257.6849656878
 20
226.695250827
 30
0.0
 10
257.6976165555
 20
226.6183996877
 30
0.0
 10
257.7058623822
 20
226.4440754314
 30
0.0
 10
257.693521286
 20
226.2974924104
 30
0.0
 10
257.6718892157
 20
226.200648284
 30
0.0
  0
SPLINE
  5
3A4
100
AcDbEntity
  8
0
100
AcDbSpline
 62
7
  6
CONTINUOUS
 70
0
 71
3
 72
14
 73
10
 74
0
 42
0.0000001
 43
0.0000001
 44
0.0000000001
 40
0.0
 40
0.0
 40
0.0
 40
0.0
 40
0.2758388552
 40
0.6127562022
 40
0.7646922121
 40
0.8851832294
 40
0.9302396714
 40
0.9640241872
 40
1.0
 40
1.0
 40
1.0
 40
1.0
 10
146.6538060989
 20
228.2828161913
 30
0.0
 10
146.6814343855
 20
228.3716675258
 30
0.0
 10
146.7180295248
 20
228.5761799689
 30
0.0
 10
146.7433410084
 20
228.83279952
 30
0.0
 10
146.746227915
 20
229.038892202
 30
0.0
 10
146.7408297087
 20
229.1451776994
 30
0.0
 10
146.7294969323
 20
229.2129166475
 30
0.0
 10
146.7204307725
 20
229.2477320341
 30
0.0
 10
146.7056721739
 20
229.2751779074
 30
0.0
 10
146.6935367937
 20
229.2751060502
 30
0.0
  0
SPLINE
  5
3A5
100
AcDbEntity
  8
0
100
AcDbSpline
 62
7
  6
CONTINUOUS
 70
0
 71
3
 72
11
 73
7
 74
0
 42
0.0000001
 43
0.0000001
 44
0.0000000001
 40
0.0
 40
0.0
 40
0.0
 40
0.0
 40
0.2208341119
 40
0.4999103596
 40
0.7790439699
 40
1.0
 40
1.0
 40
1.0
 40
1.0
 10
146.6538061025
 20
227.7424098824
 30
0.0
 10
146.6418880863
 20
227.7807376919
 30
0.0
 10
146.6272286605
 20
227.8710434391
 30
0.0
 10
146.6199653451
 20
228.0125748867
 30
0.0
 10
146.6271670201
 20
228.1541382282
 30
0.0
 10
146.6418815043
 20
228.2444672214
 30
0.0
 10
146.6538060989
 20
228.2828161913
 30
0.0
  0
SPLINE
  5
3A6
100
AcDbEntity
  8
0
100
AcDbSpline
 62
7
  6
CONTINUOUS
 70
0
 71
3
 72
9
 73
5
 74
0
 42
0.0000001
 43
0.0000001
 44
0.0000000001
 40
0.0
 40
0.0
 40
0.0
 40
0.0
 40
0.5765410019
 40
1.0
 40
1.0
 40
1.0
 40
1.0
 10
146.6538061016
 20
226.5256446559
 30
0.0
 10
146.6448776169
 20
226.5736446549
 30
0.0
 10
146.6315805397
 20
226.6572390433
 30
0.0
 10
146.6226864919
 20
226.7417171757
 30
0.0
 10
146.6225586322
 20
226.7775768071
 30
0.0
  0
SPLINE
  5
3A7
100
AcDbEntity
  8
0
100
AcDbSpline
 62
7
  6
CONTINUOUS
 70
0
 71
3
 72
9
 73
5
 74
0
 42
0.0000001
 43
0.0000001
 44
0.0000000001
 40
0.0
 40
0.0
 40
0.0
 40
0.0
 40
0.7105996397
 40
1.0
 40
1.0
 40
1.0
 40
1.0
 10
146.6225586322
 20
226.7775768071
 30
0.0
 10
146.622517585
 20
226.7890889197
 30
0.0
 10
146.6218657157
 20
226.8021908299
 30
0.0
 10
146.6281618222
 20
226.8238290457
 30
0.0
 10
146.6328497518
 20
226.8237573437
 30
0.0
  0
SPLINE
  5
3A8
100
AcDbEntity
  8
0
100
AcDbSpline
 62
7
  6
CONTINUOUS
 70
0
 71
3
 72
9
 73
5
 74
0
 42
0.0000001
 43
0.0000001
 44
0.0000000001
 40
0.0
 40
0.0
 40
0.0
 40
0.0
 40
0.5736512171
 40
1.0
 40
1.0
 40
1.0
 40
1.0
 10
211.5623272254
 20
194.0482761258
 30
0.0
 10
211.489982422
 20
194.0334724463
 30
0.0
 10
211.3632557467
 20
194.011059969
 30
0.0
 10
211.2347835672
 20
193.9974352096
 30
0.0
 10
211.1799013591
 20
193.99740285
 30
0.0
  0
SPLINE
  5
3A9
100
AcDbEntity
  8
0
100
AcDbSpline
 62
7
  6
CONTINUOUS
 70
0
 71
3
 72
10
 73
6
 74
0
 42
0.0000001
 43
0.0000001
 44
0.0000000001
 40
0.0
 40
0.0
 40
0.0
 40
0.0
 40
0.3975074023
 40
0.6906626298
 40
1.0
 40
1.0
 40
1.0
 40
1.0
 10
211.1799013591
 20
193.99740285
 30
0.0
 10
211.1653683247
 20
193.9973942811
 30
0.0
 10
211.1394156084
 20
193.9987299328
 30
0.0
 10
211.1055556078
 20
194.002388495
 30
0.0
 10
211.0792672955
 20
194.0162001903
 30
0.0
 10
211.0792550034
 20
194.0275096873
 30
0.0
  0
SPLINE
  5
3AA
100
AcDbEntity
  8
0
100
AcDbSpline
 62
7
  6
CONTINUOUS
 70
0
 71
3
 72
12
 73
8
 74
0
 42
0.0000001
 43
0.0000001
 44
0.0000000001
 40
0.0
 40
0.0
 40
0.0
 40
0.0
 40
0.290998874
 40
0.6076435379
 40
0.8653159785
 40
0.9500024347
 40
1.0
 40
1.0
 40
1.0
 40
1.0
 10
209.8183962851
 20
194.0482761258
 30
0.0
 10
209.7874628523
 20
194.0559301618
 30
0.0
 10
209.7216589521
 20
194.0672401376
 30
0.0
 10
209.6274547459
 20
194.0753212266
 30
0.0
 10
209.5544651537
 20
194.075403126
 30
0.0
 10
209.5125812445
 20
194.0686281972
 30
0.0
 10
209.4978620017
 20
194.0634436821
 30
0.0
 10
209.494092417
 20
194.0594729682
 30
0.0
  0
SPLINE
  5
3AB
100
AcDbEntity
  8
0
100
AcDbSpline
 62
7
  6
CONTINUOUS
 70
0
 71
3
 72
9
 73
5
 74
0
 42
0.0000001
 43
0.0000001
 44
0.0000000001
 40
0.0
 40
0.0
 40
0.0
 40
0.0
 40
0.5309303826
 40
1.0
 40
1.0
 40
1.0
 40
1.0
 10
209.494092417
 20
194.0594729682
 30
0.0
 10
209.4933845682
 20
194.0587273515
 30
0.0
 10
209.4922038218
 20
194.0571408286
 30
0.0
 10
209.4917371983
 20
194.0551912612
 30
0.0
 10
209.4917289818
 20
194.0542829844
 30
0.0
  0
SPLINE
  5
3AC
100
AcDbEntity
  8
0
100
AcDbSpline
 62
7
  6
CONTINUOUS
 70
0
 71
3
 72
9
 73
5
 74
0
 42
0.0000001
 43
0.0000001
 44
0.0000000001
 40
0.0
 40
0.0
 40
0.0
 40
0.0
 40
0.2850389055
 40
1.0
 40
1.0
 40
1.0
 40
1.0
 10
209.0210334547
 20
194.0482761258
 30
0.0
 10
209.0515695485
 20
194.0420276252
 30
0.0
 10
209.1589372421
 20
194.0214821773
 30
0.0
 10
209.2673430789
 20
194.0049399784
 30
0.0
 10
209.3453416863
 20
193.9996087362
 30
0.0
  0
SPLINE
  5
3AD
100
AcDbEntity
  8
0
100
AcDbSpline
 62
7
  6
CONTINUOUS
 70
0
 71
3
 72
10
 73
6
 74
0
 42
0.0000001
 43
0.0000001
 44
0.0000000001
 40
0.0
 40
0.0
 40
0.0
 40
0.0
 40
0.4094542988
 40
0.7108072132
 40
1.0
 40
1.0
 40
1.0
 40
1.0
 10
209.3453416863
 20
193.9996087362
 30
0.0
 10
209.3680227648
 20
193.9980584736
 30
0.0
 10
209.409256431
 20
193.9969702404
 30
0.0
 10
209.4587157155
 20
193.9983288671
 30
0.0
 10
209.5041481712
 20
194.0114191456
 30
0.0
 10
209.5041372677
 20
194.0274758986
 30
0.0
  0
SPLINE
  5
3AE
100
AcDbEntity
  8
0
100
AcDbSpline
 62
7
  6
CONTINUOUS
 70
0
 71
3
 72
9
 73
5
 74
0
 42
0.0000001
 43
0.0000001
 44
0.0000000001
 40
0.0
 40
0.0
 40
0.0
 40
0.0
 40
0.5002096328
 40
1.0
 40
1.0
 40
1.0
 40
1.0
 10
209.8183962851
 20
194.0482761258
 30
0.0
 10
209.9724861436
 20
194.0101487917
 30
0.0
 10
210.2917495038
 20
193.9846315543
 30
0.0
 10
210.6110036914
 20
194.0101807492
 30
0.0
 10
210.7649643949
 20
194.0482761258
 30
0.0
  0
SPLINE
  5
3AF
100
AcDbEntity
  8
0
100
AcDbSpline
 62
7
  6
CONTINUOUS
 70
0
 71
3
 72
9
 73
5
 74
0
 42
0.0000001
 43
0.0000001
 44
0.0000000001
 40
0.0
 40
0.0
 40
0.0
 40
0.0
 40
0.5736512171
 40
1.0
 40
1.0
 40
1.0
 40
1.0
 10
184.2816882528
 20
194.0482761258
 30
0.0
 10
184.2093434495
 20
194.0334724463
 30
0.0
 10
184.0826167741
 20
194.011059969
 30
0.0
 10
183.9541445946
 20
193.9974352096
 30
0.0
 10
183.8992623865
 20
193.99740285
 30
0.0
  0
SPLINE
  5
3B0
100
AcDbEntity
  8
0
100
AcDbSpline
 62
7
  6
CONTINUOUS
 70
0
 71
3
 72
10
 73
6
 74
0
 42
0.0000001
 43
0.0000001
 44
0.0000000001
 40
0.0
 40
0.0
 40
0.0
 40
0.0
 40
0.3975074023
 40
0.6906626298
 40
1.0
 40
1.0
 40
1.0
 40
1.0
 10
183.8992623865
 20
193.99740285
 30
0.0
 10
183.8847293522
 20
193.9973942811
 30
0.0
 10
183.8587766358
 20
193.9987299328
 30
0.0
 10
183.8249166352
 20
194.002388495
 30
0.0
 10
183.7986283229
 20
194.0162001903
 30
0.0
 10
183.7986160308
 20
194.0275096873
 30
0.0
  0
SPLINE
  5
3B1
100
AcDbEntity
  8
0
100
AcDbSpline
 62
7
  6
CONTINUOUS
 70
0
 71
3
 72
12
 73
8
 74
0
 42
0.0000001
 43
0.0000001
 44
0.0000000001
 40
0.0
 40
0.0
 40
0.0
 40
0.0
 40
0.290998874
 40
0.6076435379
 40
0.8653159785
 40
0.9500024347
 40
1.0
 40
1.0
 40
1.0
 40
1.0
 10
182.5377573126
 20
194.0482761258
 30
0.0
 10
182.5068238797
 20
194.0559301618
 30
0.0
 10
182.4410199796
 20
194.0672401376
 30
0.0
 10
182.3468157734
 20
194.0753212266
 30
0.0
 10
182.2738261811
 20
194.075403126
 30
0.0
 10
182.231942272
 20
194.0686281972
 30
0.0
 10
182.2172230291
 20
194.0634436821
 30
0.0
 10
182.2134534445
 20
194.0594729682
 30
0.0
  0
SPLINE
  5
3B2
100
AcDbEntity
  8
0
100
AcDbSpline
 62
7
  6
CONTINUOUS
 70
0
 71
3
 72
9
 73
5
 74
0
 42
0.0000001
 43
0.0000001
 44
0.0000000001
 40
0.0
 40
0.0
 40
0.0
 40
0.0
 40
0.5309303826
 40
1.0
 40
1.0
 40
1.0
 40
1.0
 10
182.2134534445
 20
194.0594729682
 30
0.0
 10
182.2127455957
 20
194.0587273515
 30
0.0
 10
182.2115648493
 20
194.0571408286
 30
0.0
 10
182.2110982258
 20
194.0551912612
 30
0.0
 10
182.2110900093
 20
194.0542829844
 30
0.0
  0
SPLINE
  5
3B3
100
AcDbEntity
  8
0
100
AcDbSpline
 62
7
  6
CONTINUOUS
 70
0
 71
3
 72
9
 73
5
 74
0
 42
0.0000001
 43
0.0000001
 44
0.0000000001
 40
0.0
 40
0.0
 40
0.0
 40
0.0
 40
0.2850389055
 40
1.0
 40
1.0
 40
1.0
 40
1.0
 10
181.7403944821
 20
194.0482761258
 30
0.0
 10
181.7709305759
 20
194.0420276252
 30
0.0
 10
181.8782982695
 20
194.0214821773
 30
0.0
 10
181.9867041064
 20
194.0049399784
 30
0.0
 10
182.0647027137
 20
193.9996087362
 30
0.0
  0
SPLINE
  5
3B4
100
AcDbEntity
  8
0
100
AcDbSpline
 62
7
  6
CONTINUOUS
 70
0
 71
3
 72
10
 73
6
 74
0
 42
0.0000001
 43
0.0000001
 44
0.0000000001
 40
0.0
 40
0.0
 40
0.0
 40
0.0
 40
0.4094542988
 40
0.7108072132
 40
1.0
 40
1.0
 40
1.0
 40
1.0
 10
182.0647027137
 20
193.9996087362
 30
0.0
 10
182.0873837923
 20
193.9980584736
 30
0.0
 10
182.1286174584
 20
193.9969702404
 30
0.0
 10
182.1780767429
 20
193.9983288671
 30
0.0
 10
182.2235091987
 20
194.0114191456
 30
0.0
 10
182.2234982952
 20
194.0274758986
 30
0.0
  0
SPLINE
  5
3B5
100
AcDbEntity
  8
0
100
AcDbSpline
 62
7
  6
CONTINUOUS
 70
0
 71
3
 72
9
 73
5
 74
0
 42
0.0000001
 43
0.0000001
 44
0.0000000001
 40
0.0
 40
0.0
 40
0.0
 40
0.0
 40
0.5002096328
 40
1.0
 40
1.0
 40
1.0
 40
1.0
 10
182.5377573126
 20
194.0482761258
 30
0.0
 10
182.6918471711
 20
194.0101487917
 30
0.0
 10
183.0111105312
 20
193.9846315543
 30
0.0
 10
183.3303647189
 20
194.0101807492
 30
0.0
 10
183.4843254224
 20
194.0482761258
 30
0.0
  0
SPLINE
  5
3B6
100
AcDbEntity
  8
0
100
AcDbSpline
 62
7
  6
CONTINUOUS
 70
0
 71
3
 72
9
 73
5
 74
0
 42
0.0000001
 43
0.0000001
 44
0.0000000001
 40
0.0
 40
0.0
 40
0.0
 40
0.0
 40
0.5736512171
 40
1.0
 40
1.0
 40
1.0
 40
1.0
 10
239.442966198
 20
194.0482761258
 30
0.0
 10
239.3706213946
 20
194.0334724463
 30
0.0
 10
239.2438947193
 20
194.011059969
 30
0.0
 10
239.1154225397
 20
193.9974352096
 30
0.0
 10
239.0605403317
 20
193.99740285
 30
0.0
  0
SPLINE
  5
3B7
100
AcDbEntity
  8
0
100
AcDbSpline
 62
7
  6
CONTINUOUS
 70
0
 71
3
 72
10
 73
6
 74
0
 42
0.0000001
 43
0.0000001
 44
0.0000000001
 40
0.0
 40
0.0
 40
0.0
 40
0.0
 40
0.3975074023
 40
0.6906626298
 40
1.0
 40
1.0
 40
1.0
 40
1.0
 10
239.0605403317
 20
193.99740285
 30
0.0
 10
239.0460072973
 20
193.9973942811
 30
0.0
 10
239.0200545809
 20
193.9987299328
 30
0.0
 10
238.9861945804
 20
194.002388495
 30
0.0
 10
238.959906268
 20
194.0162001903
 30
0.0
 10
238.959893976
 20
194.0275096873
 30
0.0
  0
SPLINE
  5
3B8
100
AcDbEntity
  8
0
100
AcDbSpline
 62
7
  6
CONTINUOUS
 70
0
 71
3
 72
12
 73
8
 74
0
 42
0.0000001
 43
0.0000001
 44
0.0000000001
 40
0.0
 40
0.0
 40
0.0
 40
0.0
 40
0.290998874
 40
0.6076435379
 40
0.8653159785
 40
0.9500024347
 40
1.0
 40
1.0
 40
1.0
 40
1.0
 10
237.6990352577
 20
194.0482761258
 30
0.0
 10
237.6681018248
 20
194.0559301618
 30
0.0
 10
237.6022979247
 20
194.0672401376
 30
0.0
 10
237.5080937185
 20
194.0753212266
 30
0.0
 10
237.4351041262
 20
194.075403126
 30
0.0
 10
237.3932202171
 20
194.0686281972
 30
0.0
 10
237.3785009742
 20
194.0634436821
 30
0.0
 10
237.3747313896
 20
194.0594729682
 30
0.0
  0
SPLINE
  5
3B9
100
AcDbEntity
  8
0
100
AcDbSpline
 62
7
  6
CONTINUOUS
 70
0
 71
3
 72
9
 73
5
 74
0
 42
0.0000001
 43
0.0000001
 44
0.0000000001
 40
0.0
 40
0.0
 40
0.0
 40
0.0
 40
0.5309303826
 40
1.0
 40
1.0
 40
1.0
 40
1.0
 10
237.3747313896
 20
194.0594729682
 30
0.0
 10
237.3740235408
 20
194.0587273515
 30
0.0
 10
237.3728427944
 20
194.0571408286
 30
0.0
 10
237.3723761709
 20
194.0551912612
 30
0.0
 10
237.3723679544
 20
194.0542829844
 30
0.0
  0
SPLINE
  5
3BA
100
AcDbEntity
  8
0
100
AcDbSpline
 62
7
  6
CONTINUOUS
 70
0
 71
3
 72
9
 73
5
 74
0
 42
0.0000001
 43
0.0000001
 44
0.0000000001
 40
0.0
 40
0.0
 40
0.0
 40
0.0
 40
0.2850389055
 40
1.0
 40
1.0
 40
1.0
 40
1.0
 10
236.9016724272
 20
194.0482761258
 30
0.0
 10
236.9322085211
 20
194.0420276252
 30
0.0
 10
237.0395762146
 20
194.0214821773
 30
0.0
 10
237.1479820515
 20
194.0049399784
 30
0.0
 10
237.2259806589
 20
193.9996087362
 30
0.0
  0
SPLINE
  5
3BB
100
AcDbEntity
  8
0
100
AcDbSpline
 62
7
  6
CONTINUOUS
 70
0
 71
3
 72
10
 73
6
 74
0
 42
0.0000001
 43
0.0000001
 44
0.0000000001
 40
0.0
 40
0.0
 40
0.0
 40
0.0
 40
0.4094542988
 40
0.7108072132
 40
1.0
 40
1.0
 40
1.0
 40
1.0
 10
237.2259806589
 20
193.9996087362
 30
0.0
 10
237.2486617374
 20
193.9980584736
 30
0.0
 10
237.2898954035
 20
193.9969702404
 30
0.0
 10
237.339354688
 20
193.9983288671
 30
0.0
 10
237.3847871438
 20
194.0114191456
 30
0.0
 10
237.3847762403
 20
194.0274758986
 30
0.0
  0
SPLINE
  5
3BC
100
AcDbEntity
  8
0
100
AcDbSpline
 62
7
  6
CONTINUOUS
 70
0
 71
3
 72
9
 73
5
 74
0
 42
0.0000001
 43
0.0000001
 44
0.0000000001
 40
0.0
 40
0.0
 40
0.0
 40
0.0
 40
0.5002096328
 40
1.0
 40
1.0
 40
1.0
 40
1.0
 10
237.6990352577
 20
194.0482761258
 30
0.0
 10
237.8531251162
 20
194.0101487917
 30
0.0
 10
238.1723884763
 20
193.9846315543
 30
0.0
 10
238.491642664
 20
194.0101807492
 30
0.0
 10
238.6456033675
 20
194.0482761258
 30
0.0
  0
SPLINE
  5
3BD
100
AcDbEntity
  8
0
100
AcDbSpline
 62
7
  6
CONTINUOUS
 70
0
 71
3
 72
10
 73
6
 74
0
 42
0.0000001
 43
0.0000001
 44
0.0000000001
 40
0.0
 40
0.0
 40
0.0
 40
0.0
 40
0.6782623371
 40
0.8825441724
 40
1.0
 40
1.0
 40
1.0
 40
1.0
 10
257.6718892082
 20
225.4277835623
 30
0.0
 10
257.6637191593
 20
225.3986573831
 30
0.0
 10
257.6519764873
 20
225.3602727043
 30
0.0
 10
257.6320472768
 20
225.3213118739
 30
0.0
 10
257.6215903333
 20
225.3096269237
 30
0.0
 10
257.6165148536
 20
225.3083302207
 30
0.0
  0
LINE
  5
3BE
100
AcDbEntity
  8
0
100
AcDbLine
 62
7
  6
CONTINUOUS
 10
257.6165148536
 20
225.3083302207
 11
257.614208416
 21
225.3080321242
  0
SPLINE
  5
3BF
100
AcDbEntity
  8
0
100
AcDbSpline
 62
7
  6
CONTINUOUS
 70
0
 71
3
 72
9
 73
5
 74
0
 42
0.0000001
 43
0.0000001
 44
0.0000000001
 40
0.0
 40
0.0
 40
0.0
 40
0.0
 40
0.2455074043
 40
1.0
 40
1.0
 40
1.0
 40
1.0
 10
243.1435321919
 20
201.6189905204
 30
0.0
 10
243.2367716421
 20
201.6201574457
 30
0.0
 10
243.6165361349
 20
201.6264199815
 30
0.0
 10
243.9962163432
 20
201.6366543176
 30
0.0
 10
244.2826975484
 20
201.6436098616
 30
0.0
  0
SPLINE
  5
3C0
100
AcDbEntity
  8
0
100
AcDbSpline
 62
7
  6
CONTINUOUS
 70
0
 71
3
 72
9
 73
5
 74
0
 42
0.0000001
 43
0.0000001
 44
0.0000000001
 40
0.0
 40
0.0
 40
0.0
 40
0.0
 40
0.5151046596
 40
1.0
 40
1.0
 40
1.0
 40
1.0
 10
244.2826975484
 20
201.6436098616
 30
0.0
 10
244.7482591585
 20
201.6549133404
 30
0.0
 10
245.6521762321
 20
201.6732549567
 30
0.0
 10
246.5557025363
 20
201.7060657716
 30
0.0
 10
246.9937272228
 20
201.7238851372
 30
0.0
  0
SPLINE
  5
3C1
100
AcDbEntity
  8
0
100
AcDbSpline
 62
7
  6
CONTINUOUS
 70
0
 71
3
 72
9
 73
5
 74
0
 42
0.0000001
 43
0.0000001
 44
0.0000000001
 40
0.0
 40
0.0
 40
0.0
 40
0.0
 40
0.7304278891
 40
1.0
 40
1.0
 40
1.0
 40
1.0
 10
246.9937272228
 20
201.7238851372
 30
0.0
 10
247.6512145308
 20
201.7506325035
 30
0.0
 10
248.5512019292
 20
201.7944376365
 30
0.0
 10
249.4496363716
 20
201.8610051053
 30
0.0
 10
249.69168034
 20
201.8809505637
 30
0.0
  0
SPLINE
  5
3C2
100
AcDbEntity
  8
0
100
AcDbSpline
 62
7
  6
CONTINUOUS
 70
0
 71
3
 72
15
 73
11
 74
0
 42
0.0000001
 43
0.0000001
 44
0.0000000001
 40
0.0
 40
0.0
 40
0.0
 40
0.0
 40
0.1248776073
 40
0.2497567685
 40
0.3752732574
 40
0.5014243626
 40
0.6276689051
 40
0.7532842408
 40
0.8776416294
 40
1.0
 40
1.0
 40
1.0
 40
1.0
 10
241.665712316
 20
202.2126130427
 30
0.0
 10
241.665712316
 20
202.1399775875
 30
0.0
 10
241.7085109777
 20
201.9923975582
 30
0.0
 10
241.8651411141
 20
201.8320330704
 30
0.0
 10
242.0627335288
 20
201.7320787038
 30
0.0
 10
242.275898079
 20
201.6749601849
 30
0.0
 10
242.493930704
 20
201.644229056
 30
0.0
 10
242.7124606366
 20
201.6305843202
 30
0.0
 10
242.9289209662
 20
201.6251791553
 30
0.0
 10
243.0723676318
 20
201.6180998703
 30
0.0
 10
243.1435321919
 20
201.6189905204
 30
0.0
  0
SPLINE
  5
3C3
100
AcDbEntity
  8
0
100
AcDbSpline
 62
7
  6
CONTINUOUS
 70
0
 71
3
 72
8
 73
4
 74
0
 42
0.0000001
 43
0.0000001
 44
0.0000000001
 40
0.0
 40
0.0
 40
0.0
 40
0.0
 40
1.0
 40
1.0
 40
1.0
 40
1.0
 10
236.9519981716
 20
201.3126130427
 30
0.0
 10
236.9174828467
 20
206.3292821452
 30
0.0
 10
236.8826161482
 20
211.3459488427
 30
0.0
 10
236.8473954751
 20
216.3626130427
 30
0.0
  0
SPLINE
  5
3C4
100
AcDbEntity
  8
0
100
AcDbSpline
 62
7
  6
CONTINUOUS
 70
0
 71
3
 72
12
 73
8
 74
0
 42
0.0000001
 43
0.0000001
 44
0.0000000001
 40
0.0
 40
0.0
 40
0.0
 40
0.0
 40
0.0822179357
 40
0.1781755023
 40
0.4087667171
 40
0.6857022157
 40
1.0
 40
1.0
 40
1.0
 40
1.0
 10
183.1815064939
 20
233.6126130427
 30
0.0
 10
183.2897087534
 20
233.5250723479
 30
0.0
 10
183.5074571672
 20
233.3145856423
 30
0.0
 10
183.9451616396
 20
232.7773538398
 30
0.0
 10
184.4709002557
 20
231.8951295908
 30
0.0
 10
185.0064179686
 20
230.6070413347
 30
0.0
 10
185.2570989589
 20
229.6335279089
 30
0.0
 10
185.3525544532
 20
229.1101114782
 30
0.0
  0
SPLINE
  5
3C5
100
AcDbEntity
  8
0
100
AcDbSpline
 62
7
  6
CONTINUOUS
 70
0
 71
3
 72
21
 73
17
 74
0
 42
0.0000001
 43
0.0000001
 44
0.0000000001
 40
0.0
 40
0.0
 40
0.0
 40
0.0
 40
0.001100659
 40
0.004264318
 40
0.0094979309
 40
0.0167987984
 40
0.0375866365
 40
0.0665943308
 40
0.1037488355
 40
0.1489026633
 40
0.2018999529
 40
0.2625850645
 40
0.4063146443
 40
0.578412537
 40
0.777052641
 40
1.0
 40
1.0
 40
1.0
 40
1.0
 10
174.5918214625
 20
191.2126073517
 30
0.0
 10
174.5924297647
 20
191.2125854415
 30
0.0
 10
174.5923133255
 20
191.2090687217
 30
0.0
 10
174.5939990193
 20
191.2050750247
 30
0.0
 10
174.5951570934
 20
191.1958802302
 30
0.0
 10
174.598421451
 20
191.1780964543
 30
0.0
 10
174.6031502099
 20
191.1466109641
 30
0.0
 10
174.610407132
 20
191.0992033015
 30
0.0
 10
174.6192976362
 20
191.0382377781
 30
0.0
 10
174.6298620007
 20
190.9641770107
 30
0.0
 10
174.6419262077
 20
190.8771620742
 30
0.0
 10
174.6609827622
 20
190.7360893311
 30
0.0
 10
174.6877050076
 20
190.5295849477
 30
0.0
 10
174.7218991609
 20
190.247128615
 30
0.0
 10
174.758385392
 20
189.9208319038
 30
0.0
 10
174.7819423824
 20
189.688869518
 30
0.0
 10
174.7937439341
 20
189.5661392234
 30
0.0
  0
SPLINE
  5
3C6
100
AcDbEntity
  8
0
100
AcDbSpline
 62
7
  6
CONTINUOUS
 70
0
 71
3
 72
9
 73
5
 74
0
 42
0.0000001
 43
0.0000001
 44
0.0000000001
 40
0.0
 40
0.0
 40
0.0
 40
0.0
 40
0.5087599598
 40
1.0
 40
1.0
 40
1.0
 40
1.0
 10
184.668854844
 20
237.3005127003
 30
0.0
 10
184.6582683111
 20
237.3006315962
 30
0.0
 10
184.634505159
 20
237.3059608225
 30
0.0
 10
184.6289627236
 20
237.3296212403
 30
0.0
 10
184.6289606528
 20
237.3398438543
 30
0.0
  0
SPLINE
  5
3C7
100
AcDbEntity
  8
0
100
AcDbSpline
 62
7
  6
CONTINUOUS
 70
0
 71
3
 72
10
 73
6
 74
0
 42
0.0000001
 43
0.0000001
 44
0.0000000001
 40
0.0
 40
0.0
 40
0.0
 40
0.0
 40
0.680633511
 40
0.8859163471
 40
1.0
 40
1.0
 40
1.0
 40
1.0
 10
174.2702517686
 20
189.6508129393
 30
0.0
 10
174.3502587911
 20
189.6388405529
 30
0.0
 10
174.4562378996
 20
189.6153893607
 30
0.0
 10
174.5615211651
 20
189.5674200239
 30
0.0
 10
174.59168034
 20
189.535538561
 30
0.0
 10
174.59168034
 20
189.5219789554
 30
0.0
  0
SPLINE
  5
3C8
100
AcDbEntity
  8
0
100
AcDbSpline
 62
7
  6
CONTINUOUS
 70
0
 71
3
 72
15
 73
11
 74
0
 42
0.0000001
 43
0.0000001
 44
0.0000000001
 40
0.0
 40
0.0
 40
0.0
 40
0.0
 40
0.1375845614
 40
0.2609338636
 40
0.3726912983
 40
0.4806941408
 40
0.5940128504
 40
0.7180360083
 40
0.8538055001
 40
1.0
 40
1.0
 40
1.0
 40
1.0
 10
174.2702517686
 20
189.6508129393
 30
0.0
 10
174.0231687099
 20
189.6877868668
 30
0.0
 10
173.5569104793
 20
189.7787853971
 30
0.0
 10
172.9168581463
 20
190.0114375693
 30
0.0
 10
172.3932994425
 20
190.3648325527
 30
0.0
 10
172.014468929
 20
190.8486836725
 30
0.0
 10
171.7794032698
 20
191.4365517841
 30
0.0
 10
171.6523921959
 20
192.1044548334
 30
0.0
 10
171.5981011007
 20
192.8404864355
 30
0.0
 10
171.5915704357
 20
193.3525938364
 30
0.0
 10
171.5915903915
 20
193.6180624335
 30
0.0
  0
SPLINE
  5
3C9
100
AcDbEntity
  8
0
100
AcDbSpline
 62
7
  6
CONTINUOUS
 70
0
 71
3
 72
13
 73
9
 74
0
 42
0.0000001
 43
0.0000001
 44
0.0000000001
 40
0.0
 40
0.0
 40
0.0
 40
0.0
 40
0.0590615103
 40
0.1369649147
 40
0.2376773242
 40
0.3604838686
 40
0.6594347538
 40
1.0
 40
1.0
 40
1.0
 40
1.0
 10
237.8723200144
 20
219.3475052292
 30
0.0
 10
237.8076953619
 20
219.3410097777
 30
0.0
 10
237.6645021878
 20
219.2734123745
 30
0.0
 10
237.4856142507
 20
219.0795718321
 30
0.0
 10
237.3138580651
 20
218.7941379777
 30
0.0
 10
237.0916573031
 20
218.2627956984
 30
0.0
 10
236.8997268436
 20
217.4412512487
 30
0.0
 10
236.8473954751
 20
216.7371344869
 30
0.0
 10
236.8473954751
 20
216.3626130427
 30
0.0
  0
SPLINE
  5
3CA
100
AcDbEntity
  8
0
100
AcDbSpline
 62
7
  6
CONTINUOUS
 70
0
 71
3
 72
9
 73
5
 74
0
 42
0.0000001
 43
0.0000001
 44
0.0000000001
 40
0.0
 40
0.0
 40
0.0
 40
0.0
 40
0.5757098972
 40
1.0
 40
1.0
 40
1.0
 40
1.0
 10
240.0362268414
 20
201.1126130427
 30
0.0
 10
240.1508827647
 20
201.0425583262
 30
0.0
 10
240.3540124711
 20
200.9281879678
 30
0.0
 10
240.5706033316
 20
200.8353607835
 30
0.0
 10
240.6669793974
 20
200.8126130427
 30
0.0
  0
SPLINE
  5
3CB
100
AcDbEntity
  8
0
100
AcDbSpline
 62
7
  6
CONTINUOUS
 70
0
 71
3
 72
19
 73
15
 74
0
 42
0.0000001
 43
0.0000001
 44
0.0000000001
 40
0.0
 40
0.0
 40
0.0
 40
0.0
 40
0.1331552635
 40
0.2653288679
 40
0.3306823556
 40
0.3949698769
 40
0.4564835753
 40
0.5000802268
 40
0.5436359083
 40
0.6051221985
 40
0.6693886659
 40
0.7347246628
 40
0.8668691377
 40
1.0
 40
1.0
 40
1.0
 40
1.0
 10
240.6669793974
 20
200.8126130427
 30
0.0
 10
240.671056112
 20
200.740664162
 30
0.0
 10
240.6796190052
 20
200.5975736836
 30
0.0
 10
240.692645554
 20
200.4181300817
 30
0.0
 10
240.7044326389
 20
200.2787874328
 30
0.0
 10
240.7169873003
 20
200.1705503041
 30
0.0
 10
240.7240726563
 20
200.0970475423
 30
0.0
 10
240.7566644372
 20
199.9717728592
 30
0.0
 10
240.7889569279
 20
200.0970522698
 30
0.0
 10
240.7957847405
 20
200.1705587476
 30
0.0
 10
240.8080145781
 20
200.2787900744
 30
0.0
 10
240.8193681498
 20
200.4181342628
 30
0.0
 10
240.8318418304
 20
200.5975774969
 30
0.0
 10
240.8399612884
 20
200.7406651063
 30
0.0
 10
240.8438151552
 20
200.8126130427
 30
0.0
  0
SPLINE
  5
3CC
100
AcDbEntity
  8
0
100
AcDbSpline
 62
7
  6
CONTINUOUS
 70
0
 71
3
 72
9
 73
5
 74
0
 42
0.0000001
 43
0.0000001
 44
0.0000000001
 40
0.0
 40
0.0
 40
0.0
 40
0.0
 40
0.4712378685
 40
1.0
 40
1.0
 40
1.0
 40
1.0
 10
240.8438151552
 20
200.8126130427
 30
0.0
 10
240.861683238
 20
200.8209118782
 30
0.0
 10
240.8953813013
 20
200.8511833454
 30
0.0
 10
240.9023306732
 20
200.8948675005
 30
0.0
 10
240.902717113
 20
200.9169703092
 30
0.0
  0
SPLINE
  5
3CD
100
AcDbEntity
  8
0
100
AcDbSpline
 62
7
  6
CONTINUOUS
 70
0
 71
3
 72
13
 73
9
 74
0
 42
0.0000001
 43
0.0000001
 44
0.0000000001
 40
0.0
 40
0.0
 40
0.0
 40
0.0
 40
0.3842876796
 40
0.5502435189
 40
0.6930442556
 40
0.809780799
 40
0.8987963929
 40
1.0
 40
1.0
 40
1.0
 40
1.0
 10
174.9311042376
 20
187.4983273783
 30
0.0
 10
174.9384555322
 20
187.2985660709
 30
0.0
 10
174.9550635339
 20
187.0127676641
 30
0.0
 10
174.9965816116
 20
186.6541183531
 30
0.0
 10
175.0323054549
 20
186.4366141872
 30
0.0
 10
175.0769579603
 20
186.2575636304
 30
0.0
 10
175.1269615259
 20
186.1147448357
 30
0.0
 10
175.1995818719
 20
186.0126130427
 30
0.0
 10
175.2522253748
 20
186.0126130427
 30
0.0
  0
SPLINE
  5
3CE
100
AcDbEntity
  8
0
100
AcDbSpline
 62
7
  6
CONTINUOUS
 70
0
 71
3
 72
10
 73
6
 74
0
 42
0.0000001
 43
0.0000001
 44
0.0000000001
 40
0.0
 40
0.0
 40
0.0
 40
0.0
 40
0.6782623371
 40
0.8825441724
 40
1.0
 40
1.0
 40
1.0
 40
1.0
 10
257.6718892082
 20
204.9216869079
 30
0.0
 10
257.6637191593
 20
204.8925607287
 30
0.0
 10
257.6519764873
 20
204.8541760499
 30
0.0
 10
257.6320472768
 20
204.8152152195
 30
0.0
 10
257.6215903333
 20
204.8035302692
 30
0.0
 10
257.6165148536
 20
204.8022335662
 30
0.0
  0
LINE
  5
3CF
100
AcDbEntity
  8
0
100
AcDbLine
 62
7
  6
CONTINUOUS
 10
257.6165148536
 20
204.8022335662
 11
257.614208416
 21
204.8019354698
  0
ELLIPSE
  5
3D0
100
AcDbEntity
  8
0
100
AcDbEllipse
 62
7
  6
CONTINUOUS
 10
57.0070555437
 20
230.7989822667
 30
0.0
 11
-0.0
 21
1.5554756641
 31
0.0
 40
0.3214450805
 41
-4.1986302374
 42
-3.4407941801
  0
ELLIPSE
  5
3D1
100
AcDbEntity
  8
0
100
AcDbEllipse
 62
7
  6
CONTINUOUS
 10
254.49168034
 20
205.6126130427
 30
0.0
 11
0.0
 21
4.0
 31
0.0
 40
1.0
 41
1.5707963268
 42
1.9605570596
  0
ELLIPSE
  5
3D2
100
AcDbEntity
  8
0
100
AcDbEllipse
 62
7
  6
CONTINUOUS
 10
254.49168034
 20
227.6126130427
 30
0.0
 11
0.0
 21
4.0
 31
0.0
 40
1.0
 41
1.181035594
 42
1.5707963268
  0
ELLIPSE
  5
3D3
100
AcDbEntity
  8
0
100
AcDbEllipse
 62
7
  6
CONTINUOUS
 10
539.1634194292
 20
196.1896130427
 30
0.0
 11
389.5717390891
 21
0.0
 31
0.0
 40
0.0174550649
 41
-3.0174099824
 42
-2.8504011785
  0
ELLIPSE
  5
3D4
100
AcDbEntity
  8
0
100
AcDbEllipse
 62
7
  6
CONTINUOUS
 10
539.1634194292
 20
227.1126130427
 30
0.0
 11
389.5717390891
 21
0.0
 31
0.0
 40
0.0174550649
 41
2.8504011785
 42
3.1415926536
  0
ELLIPSE
  5
3D5
100
AcDbEntity
  8
0
100
AcDbEllipse
 62
7
  6
CONTINUOUS
 10
23.6209698237
 20
216.3126130427
 30
0.0
 11
125.9707105164
 21
-0.0
 31
0.0
 40
0.0436609429
 41
0.0
 42
0.4963328891
  0
ELLIPSE
  5
3D6
100
AcDbEntity
  8
0
100
AcDbEllipse
 62
7
  6
CONTINUOUS
 10
129.7616053119
 20
216.3126130427
 30
0.0
 11
0.0
 21
5.5
 31
0.0
 40
0.9572917423
 41
-1.0744634377
 42
-0.9656345423
  0
ELLIPSE
  5
3D7
100
AcDbEntity
  8
0
100
AcDbEllipse
 62
7
  6
CONTINUOUS
 10
23.6209698237
 20
185.1126130427
 30
0.0
 11
125.9707105164
 21
0.0
 31
0.0
 40
0.0436609429
 41
-0.4963328891
 42
-0.0
  0
ELLIPSE
  5
3D8
100
AcDbEntity
  8
0
100
AcDbEllipse
 62
7
  6
CONTINUOUS
 10
129.7616053119
 20
185.1126130427
 30
0.0
 11
0.0
 21
5.5
 31
0.0
 40
0.9572917423
 41
-2.1759581113
 42
-2.0671292159
  0
ELLIPSE
  5
3D9
100
AcDbEntity
  8
0
100
AcDbEllipse
 62
7
  6
CONTINUOUS
 10
464.6864693092
 20
185.1126130427
 30
0.0
 11
315.0947889692
 21
0.0
 31
0.0
 40
0.0174550649
 41
3.1415926536
 42
3.2796947249
  0
ENDSEC
  0
SECTION
  2
OBJECTS
  0
DICTIONARY
  5
C
100
AcDbDictionary
280
0
281
1
  3
ACAD_GROUP
350
D
  3
ACAD_MLINESTYLE
350
17
  3
ACAD_LAYOUT
350
1A
  3
ACAD_PLOTSETTINGS
350
19
  3
ACAD_PLOTSTYLENAME
350
E
  0
DICTIONARY
  5
D
102
{ACAD_REACTORS
330
C
102
}
100
AcDbDictionary
280
0
281
1
  0
ACDBDICTIONARYWDFLT
  5
E
102
{ACAD_REACTORS
330
C
102
}
100
AcDbDictionary
281
1
  3
Normal
350
F
100
AcDbDictionaryWithDefault
340
F
  0
DICTIONARY
  5
17
102
{ACAD_REACTORS
330
C
102
}
100
AcDbDictionary
280
0
281
1
  3
Standard
350
18
  0
DICTIONARY
  5
19
102
{ACAD_REACTORS
330
C
102
}
100
AcDbDictionary
281
1
  0
DICTIONARY
  5
1A
102
{ACAD_REACTORS
330
C
102
}
100
AcDbDictionary
281
1
  3
Model
350
3DA
  3
Layout1
350
3DB
  0
ACDBPLACEHOLDER
  5
F
102
{ACAD_REACTORS
330
E
102
}
  0
MLINESTYLE
  5
18
102
{ACAD_REACTORS
330
17
102
}
100
AcDbMlineStyle
  2
STANDARD
 70
0
  3

 62
256
 51
90.0
 52
90.0
 71
2
 49
0.5
 62
256
  6
BYLAYER
 49
-0.5
 62
256
  6
BYLAYER
  0
LAYOUT
  5
3DA
102
{ACAD_REACTORS
330
1A
102
}
100
AcDbPlotSettings
  1

  2
none_device
  4

  6

 40
0.0
 41
0.0
 42
0.0
 43
0.0
 44
210.0
 45
297.0
 46
0.0
 47
0.0
 48
0.0
 49
0.0
140
0.0
141
0.0
142
1.0
143
1.0
 70
1024
 72
1
 73
0
 74
0
  7

 75
0
147
1.0
148
0.0
149
0.0
100
AcDbLayout
  1
Model
 70
0
 71
0
 10
0.0
 20
0.0
 11
210.0
 21
297.0
 12
0.0
 22
0.0
 32
0.0
 14
0.0
 24
0.0
 34
0.0
 15
0.0
 25
0.0
 35
0.0
146
0.0
 13
0.0
 23
0.0
 33
0.0
 16
1.0
 26
0.0
 36
0.0
 17
0.0
 27
1.0
 37
0.0
 76
0
330
210
345
0
346
0
  0
LAYOUT
  5
3DB
102
{ACAD_REACTORS
330
1A
102
}
100
AcDbPlotSettings
  1

  2
none_device
  4

  6

 40
0.0
 41
0.0
 42
0.0
 43
0.0
 44
210.0
 45
297.0
 46
0.0
 47
0.0
 48
0.0
 49
0.0
140
0.0
141
0.0
142
1.0
143
1.0
 70
0
 72
1
 73
0
 74
0
  7

 75
0
147
1.0
148
0.0
149
0.0
100
AcDbLayout
  1
Layout1
 70
0
 71
1
 10
0.0
 20
0.0
 11
210.0
 21
297.0
 12
0.0
 22
0.0
 32
0.0
 14
0.0
 24
0.0
 34
0.0
 15
0.0
 25
0.0
 35
0.0
146
0.0
 13
0.0
 23
0.0
 33
0.0
 16
1.0
 26
0.0
 36
0.0
 17
0.0
 27
1.0
 37
0.0
 76
0
330
211
345
0
346
0
  0
ENDSEC
  0
EOF
