999
DXF file: C:\Users\sesa63760\Dev\_Creo\CAD\MCADPE0010591_3D-CAD\drw0001_1.dxf
999
Pro/ENGINEER 2019471 by Parametric Technology Corporation
  0
SECTION
  2
HEADER
  9
$ACADVER
  1
AC1024
  9
$DWGCODEPAGE
  3
ANSI_1252
  9
$EXTMAX
 10
51.3314167406
 20
72.5972893903
 30
0.0
  9
$EXTMIN
 10
0.0
 20
0.0
 30
0.0
  9
$LIMMIN
 10
0.0
 20
0.0
  9
$LIMMAX
 10
51.3314167406
 20
72.5972893903
  9
$VIEWCTR
 10
25.6657083703
 20
36.2986446952
  9
$VIEWSIZE
 40
72.5972893903
  9
$CLAYER
  8
0
  9
$LTSCALE
 40
4.7322677529
  9
$CELTYPE
  6
BYLAYER
  9
$DIMSCALE
 40
1.0
  9
$DIMASZ
 40
0.6110882945
  9
$DIMEXO
 40
1.0
  9
$DIMDLI
 40
3.2695668111
  9
$DIMEXE
 40
1.0
  9
$DIMCEN
 40
0.7743710868
  9
$DIMLFAC
 40
1.0
  9
$DIMBLK
  1
_FILLED
  9
$DIMALT
 70
0
  9
$DIMALTF
 40
0.0393700787
  9
$DIMTXT
 40
0.8555236123
  9
$DIMTOL
 70
1
  9
$DIMLIM
 70
0
  9
$DIMTFAC
 40
1.0
  9
$DIMTP
 40
0.01
  9
$DIMTM
 40
0.01
  9
$DIMGAP
 40
0.625
  9
$DIMDSEP
 70
46
  9
$AUNITS
 70
0
  9
$PDMODE
 70
3
  9
$PDSIZE
 40
0.3125
  9
$HANDSEED
  5
311
  9
$TILEMODE
 70
1
  9
$MEASUREMENT
 70
1
  9
$INSUNITS
 70
4
  0
ENDSEC
  0
SECTION
  2
CLASSES
  0
CLASS
  1
ACDBDICTIONARYWDFLT
  2
AcDbDictionaryWithDefault
  3
AutoCAD 2000
 90
0
 91
1
280
0
281
0
  0
CLASS
  1
ACDBPLACEHOLDER
  2
AcDbPlaceHolder
  3
AutoCAD 2000
 90
0
 91
1
280
0
281
0
  0
CLASS
  1
LAYOUT
  2
AcDbLayout
  3
AutoCAD 2000
 90
0
 91
0
280
0
281
0
  0
ENDSEC
  0
SECTION
  2
TABLES
  0
TABLE
  2
VPORT
  5
8
100
AcDbSymbolTable
 70
2
  0
VPORT
  5
1F4
100
AcDbSymbolTableRecord
100
AcDbViewportTableRecord
  2
*ACTIVE
 70
0
 10
0.0
 20
0.0
 11
1.0
 21
1.0
 12
25.6657083703
 22
36.2986446952
 13
0.0
 23
0.0
 14
1.0
 24
1.0
 15
0.0
 25
0.0
 16
0.0
 26
0.0
 36
1.0
 17
0.0
 27
0.0
 37
0.0
 40
72.5972893903
 41
0.7070707071
 42
50.0
 43
0.0
 44
0.0
 50
0.0
 51
0.0
 71
0
 72
100
 73
1
 74
1
 75
0
 76
0
 77
0
 78
0
  0
ENDTAB
  0
TABLE
  2
LTYPE
  5
5
100
AcDbSymbolTable
 70
6
  0
LTYPE
  5
14
100
AcDbSymbolTableRecord
100
AcDbLinetypeTableRecord
  2
BYBLOCK
 70
0
  3

 72
65
 73
0
 40
0.0
  0
LTYPE
  5
15
100
AcDbSymbolTableRecord
100
AcDbLinetypeTableRecord
  2
BYLAYER
 70
0
  3

 72
65
 73
0
 40
0.0
  0
LTYPE
  5
16
100
AcDbSymbolTableRecord
100
AcDbLinetypeTableRecord
  2
CONTINUOUS
 70
64
  3
Solid line
 72
65
 73
0
 40
0.0
  0
LTYPE
  5
1F5
100
AcDbSymbolTableRecord
100
AcDbLinetypeTableRecord
  2
CENTER
 70
64
  3
____ _ ____ _ ____ _ ____ _ ____ _ ____ _ ____
 72
65
 73
4
 40
0.6
 49
0.375
 74
0
 49
-0.075
 74
0
 49
0.075
 74
0
 49
-0.075
 74
0
  0
LTYPE
  5
1F6
100
AcDbSymbolTableRecord
100
AcDbLinetypeTableRecord
  2
HIDDEN
 70
64
  3
- - - - - - - - - - - - - - - - - - - -
 72
65
 73
2
 40
0.2
 49
0.1
 74
0
 49
-0.1
 74
0
  0
LTYPE
  5
1F7
100
AcDbSymbolTableRecord
100
AcDbLinetypeTableRecord
  2
PHANTOM
 70
64
  3
_____ _ _ _____ _ _ _____ _ _ _____
 72
65
 73
6
 40
0.8
 49
0.45
 74
0
 49
-0.05
 74
0
 49
0.1
 74
0
 49
-0.05
 74
0
 49
0.1
 74
0
 49
-0.05
 74
0
  0
LTYPE
  5
1F8
100
AcDbSymbolTableRecord
100
AcDbLinetypeTableRecord
  2
DOT
 70
64
  3
. . . . . . . . . . . . . . . . . . . .
 72
65
 73
2
 40
0.2
 49
0.1
 74
0
 49
-0.1
 74
0
  0
LTYPE
  5
1F9
100
AcDbSymbolTableRecord
100
AcDbLinetypeTableRecord
  2
DASHED
 70
64
  3
- - - - - - - - - - - - - - - - - - - -
 72
65
 73
2
 40
0.2
 49
0.1
 74
0
 49
-0.1
 74
0
  0
ENDTAB
  0
TABLE
  2
LAYER
  5
2
100
AcDbSymbolTable
 70
36
  0
LAYER
  5
10
100
AcDbSymbolTableRecord
100
AcDbLayerTableRecord
  2
0
 70
0
 62
7
  6
CONTINUOUS
370
-3
390
F
  0
LAYER
  5
1FA
100
AcDbSymbolTableRecord
100
AcDbLayerTableRecord
  2
DEFAULT_1
 70
0
 62
7
  6
CENTER
370
-3
390
F
  0
LAYER
  5
1FB
100
AcDbSymbolTableRecord
100
AcDbLayerTableRecord
  2
DEFAULT_2
 70
0
 62
7
  6
HIDDEN
370
-3
390
F
  0
LAYER
  5
1FC
100
AcDbSymbolTableRecord
100
AcDbLayerTableRecord
  2
DEFAULT_3
 70
0
 62
7
  6
PHANTOM
370
-3
390
F
  0
LAYER
  5
1FD
100
AcDbSymbolTableRecord
100
AcDbLayerTableRecord
  2
00_COMPONENTS
 70
0
 62
7
  6
CONTINUOUS
370
-3
390
F
  0
LAYER
  5
1FE
100
AcDbSymbolTableRecord
100
AcDbLayerTableRecord
  2
01_1_DEFAULT_DATUMS
 70
0
 62
7
  6
CONTINUOUS
370
-3
390
F
  0
LAYER
  5
1FF
100
AcDbSymbolTableRecord
100
AcDbLayerTableRecord
  2
01_PLANES
 70
0
 62
7
  6
CONTINUOUS
370
-3
390
F
  0
LAYER
  5
200
100
AcDbSymbolTableRecord
100
AcDbLayerTableRecord
  2
02_COORD_SYS
 70
0
 62
7
  6
CONTINUOUS
370
-3
390
F
  0
LAYER
  5
201
100
AcDbSymbolTableRecord
100
AcDbLayerTableRecord
  2
03_AXES
 70
0
 62
7
  6
CONTINUOUS
370
-3
390
F
  0
LAYER
  5
202
100
AcDbSymbolTableRecord
100
AcDbLayerTableRecord
  2
04_POINTS
 70
0
 62
7
  6
CONTINUOUS
370
-3
390
F
  0
LAYER
  5
203
100
AcDbSymbolTableRecord
100
AcDbLayerTableRecord
  2
05_CURVES
 70
0
 62
7
  6
CONTINUOUS
370
-3
390
F
  0
LAYER
  5
204
100
AcDbSymbolTableRecord
100
AcDbLayerTableRecord
  2
06_SURFS
 70
0
 62
7
  6
CONTINUOUS
370
-3
390
F
  0
LAYER
  5
205
100
AcDbSymbolTableRecord
100
AcDbLayerTableRecord
  2
07_COSMETICS
 70
0
 62
7
  6
CONTINUOUS
370
-3
390
F
  0
LAYER
  5
206
100
AcDbSymbolTableRecord
100
AcDbLayerTableRecord
  2
10_NOTES
 70
0
 62
7
  6
CONTINUOUS
370
-3
390
F
  0
LAYER
  5
207
100
AcDbSymbolTableRecord
100
AcDbLayerTableRecord
  2
11_NOTES_PUB
 70
0
 62
7
  6
CONTINUOUS
370
-3
390
F
  0
LAYER
  5
208
100
AcDbSymbolTableRecord
100
AcDbLayerTableRecord
  2
13_REF_GTOL
 70
0
 62
7
  6
CONTINUOUS
370
-3
390
F
  0
LAYER
  5
209
100
AcDbSymbolTableRecord
100
AcDbLayerTableRecord
  2
16_MISC
 70
0
 62
7
  6
CONTINUOUS
370
-3
390
F
  0
LAYER
  5
20A
100
AcDbSymbolTableRecord
100
AcDbLayerTableRecord
  2
17_NO_PRINT
 70
0
 62
7
  6
CONTINUOUS
370
-3
390
F
  0
LAYER
  5
20B
100
AcDbSymbolTableRecord
100
AcDbLayerTableRecord
  2
18_DATUM_CAMS_JOINTS
 70
0
 62
7
  6
CONTINUOUS
370
-3
390
F
  0
LAYER
  5
20C
100
AcDbSymbolTableRecord
100
AcDbLayerTableRecord
  2
19_DATUM_FUNCTIONAL
 70
0
 62
7
  6
CONTINUOUS
370
-3
390
F
  0
LAYER
  5
20D
100
AcDbSymbolTableRecord
100
AcDbLayerTableRecord
  2
20_DATUM_KINEMATIC_SCHEME
 70
0
 62
7
  6
CONTINUOUS
370
-3
390
F
  0
ENDTAB
  0
TABLE
  2
STYLE
  5
3
100
AcDbSymbolTable
 70
1
  0
STYLE
  5
11
100
AcDbSymbolTableRecord
100
AcDbTextStyleTableRecord
  2
STANDARD
 70
0
 40
0.0
 41
1.0
 50
0.0
 71
0
 42
0.2
  3
ARIAL.TTF
  4

  0
STYLE
  5
20E
100
AcDbSymbolTableRecord
100
AcDbTextStyleTableRecord
  2
TEXTSTYLE_1
 70
0
 40
0.0
 41
0.8
 50
0.0
 71
0
 42
0.2
  3
gdt
  4

  0
ENDTAB
  0
TABLE
  2
VIEW
  5
6
100
AcDbSymbolTable
 70
0
  0
ENDTAB
  0
TABLE
  2
UCS
  5
7
100
AcDbSymbolTable
 70
0
  0
ENDTAB
  0
TABLE
  2
APPID
  5
9
100
AcDbSymbolTable
 70
1
  0
APPID
  5
20F
100
AcDbSymbolTableRecord
100
AcDbRegAppTableRecord
  2
ACAD
 70
0
  0
ENDTAB
  0
TABLE
  2
BLOCK_RECORD
  5
1
100
AcDbSymbolTable
 70
0
  0
BLOCK_RECORD
  5
210
100
AcDbSymbolTableRecord
100
AcDbBlockTableRecord
  2
*Model_Space
  0
BLOCK_RECORD
  5
211
100
AcDbSymbolTableRecord
100
AcDbBlockTableRecord
  2
*Paper_Space
  0
BLOCK_RECORD
  5
212
100
AcDbSymbolTableRecord
100
AcDbBlockTableRecord
  2
_FILLED
  0
ENDTAB
  0
TABLE
  2
DIMSTYLE
  5
A
100
AcDbSymbolTable
 70
1
100
AcDbDimStyleTable
 71
0
  0
DIMSTYLE
105
213
100
AcDbSymbolTableRecord
100
AcDbDimStyleTableRecord
  2
STANDARD
 70
0
  3

  4

 40
1.0
 41
0.6110882945
 42
1.0
 43
0.38
 44
1.0
 45
0.0
 46
0.0
 47
0.01
 48
0.01
140
0.8555236123
141
0.09
142
0.0
143
25.4
144
1.0
145
0.0
146
1.0
147
0.625
 71
1
 72
0
 73
0
 74
0
 75
0
 76
0
 77
1
 78
8
 79
2
170
0
171
1
172
0
173
0
174
0
175
0
176
0
177
0
178
0
270
2
179
2
271
2
272
2
273
2
274
2
275
0
280
0
281
0
282
0
283
1
284
8
285
0
286
0
287
3
288
0
340
11
278
46
341
212
342
212
343
212
344
212
  0
ENDTAB
  0
ENDSEC
  0
SECTION
  2
BLOCKS
  0
BLOCK
  5
20
100
AcDbEntity
  8
0
100
AcDbBlockBegin
  2
*Model_Space
 70
0
 10
0.0
 20
0.0
 30
0.0
  3
*Model_Space
  1

  0
ENDBLK
  5
21
100
AcDbEntity
  8
0
100
AcDbBlockEnd
  0
BLOCK
  5
1C
100
AcDbEntity
  8
0
100
AcDbBlockBegin
  2
*Paper_Space
 70
0
 10
0.0
 20
0.0
 30
0.0
  3
*Paper_Space
  1

  0
ENDBLK
  5
1D
100
AcDbEntity
  8
0
100
AcDbBlockEnd
  0
BLOCK
  5
214
100
AcDbEntity
  8
0
100
AcDbBlockBegin
  2
_FILLED
 70
64
 10
0.0
 20
0.0
  3
_FILLED
  1

  0
SOLID
  5
215
100
AcDbEntity
  8
0
  6
BYBLOCK
 62
0
100
AcDbTrace
 10
0.0
 20
0.0
 11
-1.0
 21
0.25
 12
-1.0
 22
-0.25
 13
-1.0
 23
-0.25
  0
ENDBLK
  5
216
100
AcDbEntity
  8
0
  6
BYBLOCK
 62
0
100
AcDbBlockEnd
  0
ENDSEC
  0
SECTION
  2
ENTITIES
  0
LINE
  5
217
100
AcDbEntity
  8
0
100
AcDbLine
 62
7
  6
BYLAYER
 10
12.6704590882
 20
12.1207223129
 11
14.104308258
 21
11.6549875767
  0
LINE
  5
218
100
AcDbEntity
  8
0
100
AcDbLine
 62
7
  6
BYLAYER
 10
18.7987639859
 20
10.1301611544
 11
19.4585237476
 21
9.9158617392
  0
LINE
  5
219
100
AcDbEntity
  8
0
100
AcDbLine
 62
7
  6
BYLAYER
 10
12.6058633352
 20
12.1495475212
 11
12.6704590882
 21
12.1207223129
  0
LINE
  5
21A
100
AcDbEntity
  8
0
100
AcDbLine
 62
7
  6
BYLAYER
 10
18.7342780535
 20
10.1591768522
 11
18.7987639859
 21
10.1301611544
  0
LINE
  5
21B
100
AcDbEntity
  8
0
100
AcDbLine
 62
7
  6
BYLAYER
 10
12.6058041633
 20
12.1494448943
 11
8.2570793536
 21
14.6601255346
  0
LINE
  5
21C
100
AcDbEntity
  8
0
100
AcDbLine
 62
7
  6
BYLAYER
 10
12.4039624873
 20
12.5107674187
 11
8.0552376777
 21
15.021448059
  0
LINE
  5
21D
100
AcDbEntity
  8
0
100
AcDbLine
 62
7
  6
BYLAYER
 10
18.7341090611
 20
10.1588837358
 11
15.0790560777
 21
12.2690818205
  0
LINE
  5
21E
100
AcDbEntity
  8
0
100
AcDbLine
 62
7
  6
BYLAYER
 10
19.1300818123
 20
12.2036536877
 11
18.9810293604
 21
12.2520680578
  0
LINE
  5
21F
100
AcDbEntity
  8
0
100
AcDbLine
 62
7
  6
BYLAYER
 10
15.7548099343
 20
13.2999903112
 11
15.6057574825
 21
13.3484046813
  0
LINE
  5
220
100
AcDbEntity
  8
0
100
AcDbLine
 62
7
  6
BYLAYER
 10
15.7657018549
 20
13.2949355823
 11
15.7548099343
 21
13.2999903112
  0
LINE
  5
221
100
AcDbEntity
  8
0
100
AcDbLine
 62
7
  6
BYLAYER
 10
18.5488347776
 20
10.8306311209
 11
15.3970947613
 21
12.6502479026
  0
LINE
  5
222
100
AcDbEntity
  8
0
100
AcDbLine
 62
7
  6
BYLAYER
 10
15.6220555309
 20
13.3766343679
 11
15.7658012716
 21
13.2951074724
  0
LINE
  5
223
100
AcDbEntity
  8
0
100
AcDbLine
 62
7
  6
BYLAYER
 10
15.8174123538
 20
13.7834216543
 11
18.7905269538
 21
12.0669319718
  0
LINE
  5
224
100
AcDbEntity
  8
0
100
AcDbLine
 62
7
  6
BYLAYER
 10
18.9810293604
 20
12.2520680577
 11
15.9295124084
 21
14.0138223352
  0
LINE
  5
225
100
AcDbEntity
  8
0
100
AcDbLine
 62
7
  6
BYLAYER
 10
15.9438094687
 20
14.0432072667
 11
19.1300818123
 21
12.2036536877
  0
LINE
  5
226
100
AcDbEntity
  8
0
100
AcDbLine
 62
7
  6
BYLAYER
 10
16.0715676355
 20
14.3057902662
 11
19.5958919653
 21
13.1610392726
  0
LINE
  5
227
100
AcDbEntity
  8
0
100
AcDbLine
 62
7
  6
BYLAYER
 10
7.483412499
 20
20.0689722169
 11
11.8321373087
 21
17.5582915766
  0
LINE
  5
228
100
AcDbEntity
  8
0
100
AcDbLine
 62
7
  6
BYLAYER
 10
12.0225446927
 20
18.0817304719
 11
7.673819883
 21
20.5924111122
  0
LINE
  5
229
100
AcDbEntity
  8
0
100
AcDbLine
 62
7
  6
BYLAYER
 10
9.5526664241
 20
22.7825877647
 11
13.9013912337
 21
20.2719071244
  0
LINE
  5
22A
100
AcDbEntity
  8
0
100
AcDbLine
 62
7
  6
BYLAYER
 10
14.1362353778
 20
20.4904009961
 11
9.7875105681
 21
23.0010816364
  0
LINE
  5
22B
100
AcDbEntity
  8
0
100
AcDbLine
 62
7
  6
BYLAYER
 10
6.6277941617
 20
28.3318608847
 11
6.5268601026
 21
28.5124992066
  0
LINE
  5
22C
100
AcDbEntity
  8
0
100
AcDbLine
 62
7
  6
BYLAYER
 10
8.0552376777
 20
15.021448059
 11
7.483412499
 21
20.0689722169
  0
LINE
  5
22D
100
AcDbEntity
  8
0
100
AcDbLine
 62
7
  6
BYLAYER
 10
6.5268601026
 20
28.5124992066
 11
5.9550349239
 21
33.5600233646
  0
LINE
  5
22E
100
AcDbEntity
  8
0
100
AcDbLine
 62
7
  6
BYLAYER
 10
10.8755849122
 20
26.0018185663
 11
10.9765189714
 21
25.8211802444
  0
LINE
  5
22F
100
AcDbEntity
  8
0
100
AcDbLine
 62
7
  6
BYLAYER
 10
6.0996626887
 20
34.2457194412
 11
7.2199084357
 21
36.5481749004
  0
LINE
  5
230
100
AcDbEntity
  8
0
100
AcDbLine
 62
7
  6
BYLAYER
 10
10.8876192202
 20
44.0864679406
 11
11.4030800389
 21
45.1459011758
  0
LINE
  5
231
100
AcDbEntity
  8
0
100
AcDbLine
 62
7
  6
BYLAYER
 10
28.1073791606
 20
59.2091667125
 11
32.890042966
 21
62.6485133335
  0
LINE
  5
232
100
AcDbEntity
  8
0
100
AcDbLine
 62
7
  6
BYLAYER
 10
11.8741111861
 20
45.7255767613
 11
12.2043150347
 21
45.9630355368
  0
LINE
  5
233
100
AcDbEntity
  8
0
100
AcDbLine
 62
7
  6
BYLAYER
 10
11.9117491731
 20
24.5286807246
 11
12.3713704944
 21
24.2633242341
  0
LINE
  5
234
100
AcDbEntity
  8
0
100
AcDbLine
 62
7
  6
BYLAYER
 10
15.8008526614
 20
22.2833565747
 11
16.2604739827
 21
22.0180000843
  0
LINE
  5
235
100
AcDbEntity
  8
0
100
AcDbLine
 62
7
  6
BYLAYER
 10
6.6277809405
 20
28.3318379444
 11
10.9765057502
 21
25.8211573041
  0
LINE
  5
236
100
AcDbEntity
  8
0
100
AcDbLine
 62
7
  6
BYLAYER
 10
10.8755849122
 20
26.0018185663
 11
6.5268601026
 21
28.5124992066
  0
LINE
  5
237
100
AcDbEntity
  8
0
100
AcDbLine
 62
7
  6
BYLAYER
 10
12.7223856181
 20
26.3000437821
 11
15.5294036782
 21
24.6794478123
  0
LINE
  5
238
100
AcDbEntity
  8
0
100
AcDbLine
 62
7
  6
BYLAYER
 10
10.3037597335
 20
31.0493427243
 11
10.8755849122
 21
26.0018185663
  0
LINE
  5
239
100
AcDbEntity
  8
0
100
AcDbLine
 62
7
  6
BYLAYER
 10
11.8321373087
 20
17.5582915766
 11
12.4039624873
 21
12.5107674187
  0
LINE
  5
23A
100
AcDbEntity
  8
0
100
AcDbLine
 62
7
  6
BYLAYER
 10
11.9117491731
 20
24.5286807246
 11
11.7454674235
 21
25.9964565053
  0
LINE
  5
23B
100
AcDbEntity
  8
0
100
AcDbLine
 62
7
  6
BYLAYER
 10
9.5708802892
 20
37.1694097652
 11
11.9423533854
 21
42.043528851
  0
LINE
  5
23C
100
AcDbEntity
  8
0
100
AcDbLine
 62
7
  6
BYLAYER
 10
16.2060289875
 20
47.1543792627
 11
17.8660084083
 21
48.3481166535
  0
LINE
  5
23D
100
AcDbEntity
  8
0
100
AcDbLine
 62
7
  6
BYLAYER
 10
19.2448723724
 20
47.5520471822
 11
17.5848929515
 21
46.3583097914
  0
LINE
  5
23E
100
AcDbEntity
  8
0
100
AcDbLine
 62
7
  6
BYLAYER
 10
15.3829074016
 20
25.9725764167
 11
13.8437877712
 21
26.861167447
  0
LINE
  5
23F
100
AcDbEntity
  8
0
100
AcDbLine
 62
7
  6
BYLAYER
 10
12.1604184244
 20
26.1254067542
 11
12.3713704944
 21
24.2633242341
  0
LINE
  5
240
100
AcDbEntity
  8
0
100
AcDbLine
 62
7
  6
BYLAYER
 10
15.7518048485
 20
42.6352205355
 11
15.2363440298
 21
41.5757873003
  0
LINE
  5
241
100
AcDbEntity
  8
0
100
AcDbLine
 62
7
  6
BYLAYER
 10
11.5686332454
 20
34.0374942601
 11
10.4483874983
 21
31.7350388009
  0
LINE
  5
242
100
AcDbEntity
  8
0
100
AcDbLine
 62
7
  6
BYLAYER
 10
37.2387677757
 20
60.1378326932
 11
32.4561039702
 21
56.6984860722
  0
LINE
  5
243
100
AcDbEntity
  8
0
100
AcDbLine
 62
7
  6
BYLAYER
 10
16.5530398443
 20
43.4523548965
 11
16.2228359958
 21
43.214896121
  0
LINE
  5
244
100
AcDbEntity
  8
0
100
AcDbLine
 62
7
  6
BYLAYER
 10
10.9765189714
 20
25.8211802444
 11
11.1469696316
 21
25.810467222
  0
LINE
  5
245
100
AcDbEntity
  8
0
100
AcDbLine
 62
7
  6
BYLAYER
 10
5.9550349239
 20
33.5600233645
 11
10.3037597335
 21
31.0493427242
  0
LINE
  5
246
100
AcDbEntity
  8
0
100
AcDbLine
 62
7
  6
BYLAYER
 10
10.4483874983
 20
31.7350388009
 11
6.0996626887
 21
34.2457194412
  0
LINE
  5
247
100
AcDbEntity
  8
0
100
AcDbLine
 62
7
  6
BYLAYER
 10
15.8008526614
 20
22.2833565747
 11
15.5294036782
 21
24.6794478123
  0
LINE
  5
248
100
AcDbEntity
  8
0
100
AcDbLine
 62
7
  6
BYLAYER
 10
15.3829074016
 20
25.9725764167
 11
15.1738795843
 21
27.8176734798
  0
LINE
  5
249
100
AcDbEntity
  8
0
100
AcDbLine
 62
7
  6
BYLAYER
 10
15.5710797398
 20
28.1033111638
 11
16.2604739827
 21
22.0180000843
  0
LINE
  5
24A
100
AcDbEntity
  8
0
100
AcDbLine
 62
7
  6
BYLAYER
 10
13.1986540918
 20
34.5960044171
 11
13.31510663
 21
34.8353508134
  0
LINE
  5
24B
100
AcDbEntity
  8
0
100
AcDbLine
 62
7
  6
BYLAYER
 10
15.8357054956
 20
40.0159700066
 11
15.9521580338
 21
40.2553164028
  0
LINE
  5
24C
100
AcDbEntity
  8
0
100
AcDbLine
 62
7
  6
BYLAYER
 10
16.5483678414
 20
40.0616589225
 11
13.7948638993
 21
34.4023469368
  0
LINE
  5
24D
100
AcDbEntity
  8
0
100
AcDbLine
 62
7
  6
BYLAYER
 10
19.847644072
 20
45.0519393769
 11
21.5076234929
 21
46.2456767677
  0
LINE
  5
24E
100
AcDbEntity
  8
0
100
AcDbLine
 62
7
  6
BYLAYER
 10
22.214733218
 20
45.8374360132
 11
20.5547537971
 21
44.6436986224
  0
LINE
  5
24F
100
AcDbEntity
  8
0
100
AcDbLine
 62
7
  6
BYLAYER
 10
7.2199084357
 20
36.5481749004
 11
11.5686332454
 21
34.0374942601
  0
LINE
  5
250
100
AcDbEntity
  8
0
100
AcDbLine
 62
7
  6
BYLAYER
 10
11.2863924519
 20
42.430542571
 11
10.8220992871
 21
43.159149719
  0
LINE
  5
251
100
AcDbEntity
  8
0
100
AcDbLine
 62
7
  6
BYLAYER
 10
37.9191389016
 20
55.2799841508
 11
38.6911554133
 21
55.8351627059
  0
LINE
  5
252
100
AcDbEntity
  8
0
100
AcDbLine
 62
7
  6
BYLAYER
 10
40.2579880968
 20
54.7819350354
 11
40.8280841398
 21
55.1919069629
  0
LINE
  5
253
100
AcDbEntity
  8
0
100
AcDbLine
 62
7
  6
BYLAYER
 10
38.3108908757
 20
27.8099976892
 11
38.1870634268
 21
27.8312535807
  0
LINE
  5
254
100
AcDbEntity
  8
0
100
AcDbLine
 62
7
  6
BYLAYER
 10
13.3052808485
 20
35.0131720855
 11
13.2943889279
 21
35.0182268144
  0
LINE
  5
255
100
AcDbEntity
  8
0
100
AcDbLine
 62
7
  6
BYLAYER
 10
12.3002136141
 20
34.7484665174
 11
7.9514888044
 21
37.2591471577
  0
LINE
  5
256
100
AcDbEntity
  8
0
100
AcDbLine
 62
7
  6
BYLAYER
 10
13.7948638993
 20
34.4023469368
 11
13.2558423329
 21
34.713544143
  0
LINE
  5
257
100
AcDbEntity
  8
0
100
AcDbLine
 62
7
  6
BYLAYER
 10
8.9013006377
 20
37.5284327592
 11
13.2500254473
 21
35.0177521189
  0
LINE
  5
258
100
AcDbEntity
  8
0
100
AcDbLine
 62
7
  6
BYLAYER
 10
8.9566554555
 20
37.5240246158
 11
13.3053802651
 21
35.0133439755
  0
LINE
  5
259
100
AcDbEntity
  8
0
100
AcDbLine
 62
7
  6
BYLAYER
 10
15.1708240967
 20
40.6484690787
 11
15.6351172615
 21
39.9198619307
  0
LINE
  5
25A
100
AcDbEntity
  8
0
100
AcDbLine
 62
7
  6
BYLAYER
 10
24.7345619806
 20
48.9876426519
 11
26.4810668871
 21
54.6959337732
  0
LINE
  5
25B
100
AcDbEntity
  8
0
100
AcDbLine
 62
7
  6
BYLAYER
 10
13.7948638993
 20
34.4023469368
 11
13.1986540918
 21
34.5960044171
  0
LINE
  5
25C
100
AcDbEntity
  8
0
100
AcDbLine
 62
7
  6
BYLAYER
 10
8.9456641183
 20
37.5289074547
 11
8.9565560388
 21
37.5238527258
  0
LINE
  5
25D
100
AcDbEntity
  8
0
100
AcDbLine
 62
7
  6
BYLAYER
 10
18.7905269538
 20
12.0669319717
 11
18.5488347776
 21
10.8306311209
  0
LINE
  5
25E
100
AcDbEntity
  8
0
100
AcDbLine
 62
7
  6
BYLAYER
 10
7.673819883
 20
20.5924111122
 11
9.5526664242
 21
22.7825877648
  0
LINE
  5
25F
100
AcDbEntity
  8
0
100
AcDbLine
 62
7
  6
BYLAYER
 10
11.3072572054
 20
42.4101935065
 11
15.6315219692
 21
39.9136345608
  0
LINE
  5
260
100
AcDbEntity
  8
0
100
AcDbLine
 62
7
  6
BYLAYER
 10
15.6351172615
 20
39.9198619307
 11
11.2863924519
 21
42.430542571
  0
LINE
  5
261
100
AcDbEntity
  8
0
100
AcDbLine
 62
7
  6
BYLAYER
 10
40.05076847
 20
25.9093105828
 11
42.4490338701
 21
24.5247027325
  0
LINE
  5
262
100
AcDbEntity
  8
0
100
AcDbLine
 62
7
  6
BYLAYER
 10
15.6559820654
 20
39.8995129534
 11
15.6669733523
 21
39.8946300273
  0
LINE
  5
263
100
AcDbEntity
  8
0
100
AcDbLine
 62
7
  6
BYLAYER
 10
10.8220992871
 20
43.159149719
 11
15.1708240968
 21
40.6484690787
  0
LINE
  5
264
100
AcDbEntity
  8
0
100
AcDbLine
 62
7
  6
BYLAYER
 10
42.4261483056
 20
24.943510173
 11
40.4405440993
 21
26.0898733618
  0
LINE
  5
265
100
AcDbEntity
  8
0
100
AcDbLine
 62
7
  6
BYLAYER
 10
38.1261046851
 20
27.9166816326
 11
38.3108908757
 21
27.8099976892
  0
LINE
  5
266
100
AcDbEntity
  8
0
100
AcDbLine
 62
7
  6
BYLAYER
 10
15.2363440298
 20
41.5757873003
 11
10.8876192202
 21
44.0864679406
  0
LINE
  5
267
100
AcDbEntity
  8
0
100
AcDbLine
 62
7
  6
BYLAYER
 10
42.415336234
 20
27.1696418108
 11
43.2693630864
 21
26.6765803322
  0
LINE
  5
268
100
AcDbEntity
  8
0
100
AcDbLine
 62
7
  6
BYLAYER
 10
11.4030800389
 20
45.1459011758
 11
15.7518048485
 21
42.6352205355
  0
LINE
  5
269
100
AcDbEntity
  8
0
100
AcDbLine
 62
7
  6
BYLAYER
 10
15.6057574825
 20
13.3484046813
 11
16.0715676355
 21
14.3057902662
  0
LINE
  5
26A
100
AcDbEntity
  8
0
100
AcDbLine
 62
7
  6
BYLAYER
 10
13.9013912338
 20
20.2719071245
 11
12.0225446927
 21
18.0817304719
  0
LINE
  5
26B
100
AcDbEntity
  8
0
100
AcDbLine
 62
7
  6
BYLAYER
 10
13.4468411349
 20
26.5757120757
 11
15.5710797398
 21
28.1033111638
  0
LINE
  5
26C
100
AcDbEntity
  8
0
100
AcDbLine
 62
7
  6
BYLAYER
 10
9.7875105681
 20
23.0010816364
 11
11.9117491731
 21
24.5286807246
  0
LINE
  5
26D
100
AcDbEntity
  8
0
100
AcDbLine
 62
7
  6
BYLAYER
 10
12.3713704944
 20
24.2633242341
 11
14.098662463
 21
25.505467951
  0
LINE
  5
26E
100
AcDbEntity
  8
0
100
AcDbLine
 62
7
  6
BYLAYER
 10
13.2500254473
 20
35.0177521189
 11
12.3002136141
 21
34.7484665174
  0
LINE
  5
26F
100
AcDbEntity
  8
0
100
AcDbLine
 62
7
  6
BYLAYER
 10
45.4933604564
 20
31.4747033575
 11
45.1671426255
 21
31.5674658822
  0
LINE
  5
270
100
AcDbEntity
  8
0
100
AcDbLine
 62
7
  6
BYLAYER
 10
40.8184178159
 20
34.0781465225
 11
41.1446356468
 21
33.9853839978
  0
LINE
  5
271
100
AcDbEntity
  8
0
100
AcDbLine
 62
7
  6
BYLAYER
 10
15.9521580338
 20
40.2553164028
 11
16.5483678414
 21
40.0616589225
  0
LINE
  5
272
100
AcDbEntity
  8
0
100
AcDbLine
 62
7
  6
BYLAYER
 10
16.2228359958
 20
43.214896121
 11
11.8741111862
 21
45.7255767613
  0
LINE
  5
273
100
AcDbEntity
  8
0
100
AcDbLine
 62
7
  6
BYLAYER
 10
41.1199363879
 20
29.0363596764
 11
40.4610547854
 21
29.4167565412
  0
LINE
  5
274
100
AcDbEntity
  8
0
100
AcDbLine
 62
7
  6
BYLAYER
 10
12.2043150347
 20
45.9630355368
 11
16.5530398444
 21
43.4523548965
  0
LINE
  5
275
100
AcDbEntity
  8
0
100
AcDbLine
 62
7
  6
BYLAYER
 10
16.9711792682
 20
43.6042788762
 11
16.2640695431
 21
44.0125196308
  0
LINE
  5
276
100
AcDbEntity
  8
0
100
AcDbLine
 62
7
  6
BYLAYER
 10
14.0013184226
 20
45.3188900452
 11
12.6224544586
 21
46.1149595165
  0
LINE
  5
277
100
AcDbEntity
  8
0
100
AcDbLine
 62
7
  6
BYLAYER
 10
16.3383238944
 20
44.0098000437
 11
14.0982493145
 21
45.3030784476
  0
LINE
  5
278
100
AcDbEntity
  8
0
100
AcDbLine
 62
7
  6
BYLAYER
 10
40.769844766
 20
30.0214315035
 11
41.7238484777
 21
29.4706496641
  0
LINE
  5
279
100
AcDbEntity
  8
0
100
AcDbLine
 62
7
  6
BYLAYER
 10
13.2790530204
 20
46.0909114045
 11
14.6579169844
 21
45.2948419332
  0
LINE
  5
27A
100
AcDbEntity
  8
0
100
AcDbLine
 62
7
  6
BYLAYER
 10
16.9206681049
 20
43.9884715188
 11
17.62777783
 21
43.5802307642
  0
LINE
  5
27B
100
AcDbEntity
  8
0
100
AcDbLine
 62
7
  6
BYLAYER
 10
41.844944006
 20
29.7365991286
 11
40.7406792789
 21
30.3741322432
  0
LINE
  5
27C
100
AcDbEntity
  8
0
100
AcDbLine
 62
7
  6
BYLAYER
 10
40.7009250392
 20
30.7250445373
 11
41.7682785611
 21
30.1088216349
  0
LINE
  5
27D
100
AcDbEntity
  8
0
100
AcDbLine
 62
7
  6
BYLAYER
 10
19.5958919653
 20
13.1610392726
 11
19.1300818123
 21
12.2036536877
  0
LINE
  5
27E
100
AcDbEntity
  8
0
100
AcDbLine
 62
7
  6
BYLAYER
 10
41.6020252178
 20
56.0460129567
 11
42.536694535
 21
57.5574252271
  0
LINE
  5
27F
100
AcDbEntity
  8
0
100
AcDbLine
 62
7
  6
BYLAYER
 10
41.8591002074
 20
30.3082837333
 11
40.6703909948
 21
30.9945697913
  0
LINE
  5
280
100
AcDbEntity
  8
0
100
AcDbLine
 62
7
  6
BYLAYER
 10
40.6270704041
 20
31.3769624112
 11
42.1347590349
 21
30.5065176664
  0
LINE
  5
281
100
AcDbEntity
  8
0
100
AcDbLine
 62
7
  6
BYLAYER
 10
20.5547537971
 20
44.6436986224
 11
19.8476440719
 21
45.0519393769
  0
LINE
  5
282
100
AcDbEntity
  8
0
100
AcDbLine
 62
7
  6
BYLAYER
 10
17.5848929515
 20
46.3583097914
 11
16.2060289874
 21
47.1543792627
  0
LINE
  5
283
100
AcDbEntity
  8
0
100
AcDbLine
 62
7
  6
BYLAYER
 10
16.2604739827
 20
22.0180000843
 11
14.1362353777
 21
20.4904009961
  0
LINE
  5
284
100
AcDbEntity
  8
0
100
AcDbLine
 62
7
  6
BYLAYER
 10
11.1469696316
 20
25.810467222
 11
13.2016031008
 21
26.4489654947
  0
LINE
  5
285
100
AcDbEntity
  8
0
100
AcDbLine
 62
7
  6
BYLAYER
 10
7.9514888044
 20
37.2591471577
 11
8.9013006377
 21
37.5284327592
  0
LINE
  5
286
100
AcDbEntity
  8
0
100
AcDbLine
 62
7
  6
BYLAYER
 10
17.62777783
 20
43.5802307642
 11
16.9711792682
 21
43.6042788762
  0
LINE
  5
287
100
AcDbEntity
  8
0
100
AcDbLine
 62
7
  6
BYLAYER
 10
14.0982493145
 20
45.3030784476
 11
17.8787887862
 21
44.1552849997
  0
LINE
  5
288
100
AcDbEntity
  8
0
100
AcDbLine
 62
7
  6
BYLAYER
 10
40.5481854296
 20
34.0821877825
 11
44.8969102392
 21
31.5715071422
  0
LINE
  5
289
100
AcDbEntity
  8
0
100
AcDbLine
 62
7
  6
BYLAYER
 10
40.8184178159
 20
34.0781465225
 11
45.1671426255
 21
31.5674658822
  0
LINE
  5
28A
100
AcDbEntity
  8
0
100
AcDbLine
 62
7
  6
BYLAYER
 10
41.1446723225
 20
33.9854474402
 11
45.4933971321
 21
31.4747667999
  0
LINE
  5
28B
100
AcDbEntity
  8
0
100
AcDbLine
 62
7
  6
BYLAYER
 10
17.8660084083
 20
48.3481166535
 11
19.2448723723
 21
47.5520471822
  0
LINE
  5
28C
100
AcDbEntity
  8
0
100
AcDbLine
 62
7
  6
BYLAYER
 10
21.5076234928
 20
46.2456767677
 11
22.2147332179
 21
45.8374360132
  0
LINE
  5
28D
100
AcDbEntity
  8
0
100
AcDbLine
 62
7
  6
BYLAYER
 10
20.6972090071
 20
10.7144625097
 11
21.2498440984
 21
11.6081041888
  0
LINE
  5
28E
100
AcDbEntity
  8
0
100
AcDbLine
 62
7
  6
BYLAYER
 10
14.8746209111
 20
12.0240683818
 11
15.7377486442
 21
13.0585180679
  0
LINE
  5
28F
100
AcDbEntity
  8
0
100
AcDbLine
 62
7
  6
BYLAYER
 10
16.264069543
 20
44.0125196308
 11
16.9206681049
 21
43.9884715188
  0
LINE
  5
290
100
AcDbEntity
  8
0
100
AcDbLine
 62
7
  6
BYLAYER
 10
14.6579169844
 20
45.2948419332
 11
14.0013184225
 21
45.3188900452
  0
LINE
  5
291
100
AcDbEntity
  8
0
100
AcDbLine
 62
7
  6
BYLAYER
 10
12.6224544586
 20
46.1149595165
 11
13.2790530204
 21
46.0909114045
  0
LINE
  5
292
100
AcDbEntity
  8
0
100
AcDbLine
 62
7
  6
BYLAYER
 10
37.0689366811
 20
22.585845974
 11
36.9698592692
 21
23.4604063267
  0
LINE
  5
293
100
AcDbEntity
  8
0
100
AcDbLine
 62
7
  6
BYLAYER
 10
42.1347590349
 20
30.5065176665
 11
41.8591002074
 21
30.3082837333
  0
LINE
  5
294
100
AcDbEntity
  8
0
100
AcDbLine
 62
7
  6
BYLAYER
 10
41.7238484777
 20
29.4706496641
 11
41.1199363878
 21
29.0363596763
  0
LINE
  5
295
100
AcDbEntity
  8
0
100
AcDbLine
 62
7
  6
BYLAYER
 10
41.7682785611
 20
30.1088216349
 11
41.844944006
 21
29.7365991286
  0
LINE
  5
296
100
AcDbEntity
  8
0
100
AcDbLine
 62
7
  6
BYLAYER
 10
40.7760556193
 20
30.0618638442
 11
37.9191389016
 21
55.2799841508
  0
LINE
  5
297
100
AcDbEntity
  8
0
100
AcDbLine
 62
7
  6
BYLAYER
 10
23.9586378713
 20
14.597475167
 11
25.6186172922
 21
15.7912125578
  0
LINE
  5
298
100
AcDbEntity
  8
0
100
AcDbLine
 62
7
  6
BYLAYER
 10
19.9800346195
 20
10.0499507373
 11
20.3102384681
 21
10.2874095128
  0
LINE
  5
299
100
AcDbEntity
  8
0
100
AcDbLine
 62
7
  6
BYLAYER
 10
26.4810668871
 20
54.6959337732
 11
28.7438180076
 21
53.3895633587
  0
LINE
  5
29A
100
AcDbEntity
  8
0
100
AcDbLine
 62
7
  6
BYLAYER
 10
43.2693630864
 20
26.6765803322
 11
42.4261483056
 21
24.943510173
  0
LINE
  5
29B
100
AcDbEntity
  8
0
100
AcDbLine
 62
7
  6
BYLAYER
 10
35.0880763524
 20
19.9274028822
 11
36.145448313
 21
20.6877884806
  0
LINE
  5
29C
100
AcDbEntity
  8
0
100
AcDbLine
 62
7
  6
BYLAYER
 10
42.6835001888
 20
24.5668492992
 11
45.2501791161
 21
26.4126195342
  0
LINE
  5
29D
100
AcDbEntity
  8
0
100
AcDbLine
 62
7
  6
BYLAYER
 10
26.6947762982
 20
57.7110908423
 11
31.0435011078
 21
55.200410202
  0
LINE
  5
29E
100
AcDbEntity
  8
0
100
AcDbLine
 62
7
  6
BYLAYER
 10
38.6911554133
 20
55.8351627059
 11
39.0115422327
 21
55.104466218
  0
LINE
  5
29F
100
AcDbEntity
  8
0
100
AcDbLine
 62
7
  6
BYLAYER
 10
46.1736674842
 20
28.3106770276
 11
45.8970804841
 21
30.7521217512
  0
LINE
  5
2A0
100
AcDbEntity
  8
0
100
AcDbLine
 62
7
  6
BYLAYER
 10
42.7653829081
 20
58.3957438925
 11
42.7537733974
 21
58.4982215164
  0
LINE
  5
2A1
100
AcDbEntity
  8
0
100
AcDbLine
 62
7
  6
BYLAYER
 10
39.1216815676
 20
54.999282065
 11
39.9972326608
 21
54.7148905363
  0
LINE
  5
2A2
100
AcDbEntity
  8
0
100
AcDbLine
 62
7
  6
BYLAYER
 10
39.0893565121
 20
55.0136475266
 11
39.1216815676
 21
54.999282065
  0
LINE
  5
2A3
100
AcDbEntity
  8
0
100
AcDbLine
 62
7
  6
BYLAYER
 10
32.4561039702
 20
56.6984860722
 11
28.1073791605
 21
59.2091667125
  0
LINE
  5
2A4
100
AcDbEntity
  8
0
100
AcDbLine
 62
7
  6
BYLAYER
 10
38.2348188258
 20
55.5069983681
 11
39.0893541051
 21
55.0136433558
  0
LINE
  5
2A5
100
AcDbEntity
  8
0
100
AcDbLine
 62
7
  6
BYLAYER
 10
39.0115422327
 20
55.104466218
 11
38.2702221509
 21
55.5324578843
  0
LINE
  5
2A6
100
AcDbEntity
  8
0
100
AcDbLine
 62
7
  6
BYLAYER
 10
42.4872767967
 20
58.8882666222
 11
38.0210340836
 21
60.3389661904
  0
LINE
  5
2A7
100
AcDbEntity
  8
0
100
AcDbLine
 62
7
  6
BYLAYER
 10
32.890042966
 20
62.6485133335
 11
37.2387677756
 21
60.1378326932
  0
LINE
  5
2A8
100
AcDbEntity
  8
0
100
AcDbLine
 62
7
  6
BYLAYER
 10
38.0210340836
 20
60.3389661904
 11
33.672309274
 21
62.8496468307
  0
LINE
  5
2A9
100
AcDbEntity
  8
0
100
AcDbLine
 62
7
  6
BYLAYER
 10
33.672309274
 20
62.8496468307
 11
38.138551987
 21
61.3989472625
  0
LINE
  5
2AA
100
AcDbEntity
  8
0
100
AcDbLine
 62
7
  6
BYLAYER
 10
42.5518725496
 20
58.8594414139
 11
42.4872767967
 21
58.8882666222
  0
LINE
  5
2AB
100
AcDbEntity
  8
0
100
AcDbLine
 62
7
  6
BYLAYER
 10
38.138551987
 20
61.3989472625
 11
38.2031477399
 21
61.3701220542
  0
LINE
  5
2AC
100
AcDbEntity
  8
0
100
AcDbLine
 62
7
  6
BYLAYER
 10
38.138551987
 20
61.3989472625
 11
42.4872767966
 21
58.8882666222
  0
LINE
  5
2AD
100
AcDbEntity
  8
0
100
AcDbLine
 62
7
  6
BYLAYER
 10
42.4910028775
 20
58.8947205295
 11
38.2032069118
 21
61.3702246811
  0
ARC
  5
2AE
100
AcDbEntity
  8
0
100
AcDbCircle
 62
7
  6
BYLAYER
 10
40.6216867844
 20
29.9600845894
 40
4.1227584435
100
AcDbArc
 50
87.2649040485
 51
91.0215346355
  0
ARC
  5
2AF
100
AcDbEntity
  8
0
100
AcDbCircle
 62
7
  6
BYLAYER
 10
44.9710922033
 20
27.4949151632
 40
4.0772668697
100
AcDbArc
 50
87.2439393533
 51
91.0424993307
  0
ARC
  5
2B0
100
AcDbEntity
  8
0
100
AcDbCircle
 62
7
  6
BYLAYER
 10
40.6078024562
 20
30.8225966259
 40
3.2601363005
100
AcDbArc
 50
91.0478072386
 51
94.7670610171
  0
ARC
  5
2B1
100
AcDbEntity
  8
0
100
AcDbCircle
 62
7
  6
BYLAYER
 10
43.2136327596
 20
26.7975499144
 40
0.7242133703
100
AcDbArc
 50
120.0061262462
 51
121.5800634947
  0
SPLINE
  5
2B2
100
AcDbEntity
  8
0
100
AcDbSpline
 62
7
  6
BYLAYER
 70
0
 71
3
 72
14
 73
10
 74
0
 42
0.0000001
 43
0.0000001
 44
0.0000000001
 40
0.0
 40
0.0
 40
0.0
 40
0.0
 40
0.1004352007
 40
0.2040477245
 40
0.3135739182
 40
0.4311154501
 40
0.6948709939
 40
0.8425255831
 40
1.0
 40
1.0
 40
1.0
 40
1.0
 10
9.0318807932
 20
17.6662222996
 30
0.0
 10
9.0630373233
 20
17.6886312018
 30
0.0
 10
9.1313565418
 20
17.7275801382
 30
0.0
 10
9.2460684579
 20
17.7646459655
 30
0.0
 10
9.3720513384
 20
17.7807950714
 30
0.0
 10
9.5601492979
 20
17.7740718534
 30
0.0
 10
9.7582745514
 20
17.7234056715
 30
0.0
 10
9.958851081
 20
17.6394173525
 30
0.0
 10
10.062174557
 20
17.5849535276
 30
0.0
 10
10.1142870736
 20
17.5548670328
 30
0.0
  0
SPLINE
  5
2B3
100
AcDbEntity
  8
0
100
AcDbSpline
 62
7
  6
BYLAYER
 70
0
 71
3
 72
14
 73
10
 74
0
 42
0.0000001
 43
0.0000001
 44
0.0000000001
 40
0.0
 40
0.0
 40
0.0
 40
0.0
 40
0.2977436146
 40
0.4328756729
 40
0.5590717434
 40
0.6772737247
 40
0.7888631937
 40
0.8956918195
 40
1.0
 40
1.0
 40
1.0
 40
1.0
 10
11.8396797855
 20
15.012499442
 30
0.0
 10
11.8504145797
 20
14.9177429762
 30
0.0
 10
11.8560792129
 20
14.7782197573
 30
0.0
 10
11.8358373698
 20
14.6000106554
 30
0.0
 10
11.8082227592
 20
14.4813074763
 30
0.0
 10
11.767922931
 20
14.3742523758
 30
0.0
 10
11.7150497818
 20
14.2797693681
 30
0.0
 10
11.650068228
 20
14.1987553345
 30
0.0
 10
11.5986838148
 20
14.1541161867
 30
0.0
 10
11.5715579381
 20
14.1346149267
 30
0.0
  0
SPLINE
  5
2B4
100
AcDbEntity
  8
0
100
AcDbSpline
 62
7
  6
BYLAYER
 70
0
 71
3
 72
15
 73
11
 74
0
 42
0.0000001
 43
0.0000001
 44
0.0000000001
 40
0.0
 40
0.0
 40
0.0
 40
0.0
 40
0.1157892007
 40
0.2412316661
 40
0.3730954795
 40
0.5077568191
 40
0.6413530907
 40
0.7700964185
 40
0.8905867893
 40
1.0
 40
1.0
 40
1.0
 40
1.0
 10
10.1142870736
 20
17.5548670328
 30
0.0
 10
10.2200439003
 20
17.4938096818
 30
0.0
 10
10.4307497388
 20
17.3496099255
 30
0.0
 10
10.7270223434
 20
17.089535652
 30
0.0
 10
11.007557759
 20
16.7849067107
 30
0.0
 10
11.2617784274
 20
16.4472534238
 30
0.0
 10
11.4801068496
 20
16.0891889086
 30
0.0
 10
11.6544466217
 20
15.724138287
 30
0.0
 10
11.7782165479
 20
15.365844273
 30
0.0
 10
11.8266902772
 20
15.1271583615
 30
0.0
 10
11.8396797855
 20
15.012499442
 30
0.0
  0
SPLINE
  5
2B5
100
AcDbEntity
  8
0
100
AcDbSpline
 62
7
  6
BYLAYER
 70
0
 71
3
 72
14
 73
10
 74
0
 42
0.0000001
 43
0.0000001
 44
0.0000000001
 40
0.0
 40
0.0
 40
0.0
 40
0.0
 40
0.1004352007
 40
0.2040477245
 40
0.3135739182
 40
0.4311154501
 40
0.6948709939
 40
0.8425255831
 40
1.0
 40
1.0
 40
1.0
 40
1.0
 10
7.4592001766
 20
31.5483381999
 30
0.0
 10
7.4903567067
 20
31.5707471021
 30
0.0
 10
7.5586759252
 20
31.6096960385
 30
0.0
 10
7.6733878414
 20
31.6467618658
 30
0.0
 10
7.7993707218
 20
31.6629109717
 30
0.0
 10
7.9874686813
 20
31.6561877536
 30
0.0
 10
8.1855939348
 20
31.6055215718
 30
0.0
 10
8.3861704645
 20
31.5215332528
 30
0.0
 10
8.4894939405
 20
31.4670694279
 30
0.0
 10
8.541606457
 20
31.4369829331
 30
0.0
  0
SPLINE
  5
2B6
100
AcDbEntity
  8
0
100
AcDbSpline
 62
7
  6
BYLAYER
 70
0
 71
3
 72
11
 73
7
 74
0
 42
0.0000001
 43
0.0000001
 44
0.0000000001
 40
0.0
 40
0.0
 40
0.0
 40
0.0
 40
0.2111894136
 40
0.4417415436
 40
0.7040102327
 40
1.0
 40
1.0
 40
1.0
 40
1.0
 10
42.4490434951
 20
24.5247195508
 30
0.0
 10
42.4643322433
 20
24.5159047793
 30
0.0
 10
42.5004027093
 20
24.5039516056
 30
0.0
 10
42.5601549119
 20
24.5067672008
 30
0.0
 10
42.6231626416
 20
24.5282000708
 30
0.0
 10
42.6634193235
 20
24.5524085902
 30
0.0
 10
42.6835001888
 20
24.5668492992
 30
0.0
  0
SPLINE
  5
2B7
100
AcDbEntity
  8
0
100
AcDbSpline
 62
7
  6
BYLAYER
 70
0
 71
3
 72
17
 73
13
 74
0
 42
0.0000001
 43
0.0000001
 44
0.0000000001
 40
0.0
 40
0.0
 40
0.0
 40
0.0
 40
0.0428139511
 40
0.0872129785
 40
0.1345487636
 40
0.1856875198
 40
0.300574205
 40
0.4315691762
 40
0.5740502404
 40
0.7212052479
 40
0.8656085857
 40
1.0
 40
1.0
 40
1.0
 40
1.0
 10
38.1870271143
 20
27.8311906947
 30
0.0
 10
38.1753465868
 20
27.8379376699
 30
0.0
 10
38.1531613114
 20
27.854678022
 30
0.0
 10
38.1260180039
 20
27.8876808107
 30
0.0
 10
38.1052186535
 20
27.9279320895
 30
0.0
 10
38.0854873895
 20
27.9925057255
 30
0.0
 10
38.0798842325
 20
28.0871772189
 30
0.0
 10
38.0998799787
 20
28.2086009377
 30
0.0
 10
38.1446765397
 20
28.3340136858
 30
0.0
 10
38.210969987
 20
28.4542842568
 30
0.0
 10
38.2938976084
 20
28.5604920003
 30
0.0
 10
38.3595601238
 20
28.6198180061
 30
0.0
 10
38.3939362045
 20
28.6445388023
 30
0.0
  0
SPLINE
  5
2B8
100
AcDbEntity
  8
0
100
AcDbSpline
 62
7
  6
BYLAYER
 70
0
 71
3
 72
9
 73
5
 74
0
 42
0.0000001
 43
0.0000001
 44
0.0000000001
 40
0.0
 40
0.0
 40
0.0
 40
0.0
 40
0.2446548046
 40
1.0
 40
1.0
 40
1.0
 40
1.0
 10
11.3072572751
 20
42.4101936273
 30
0.0
 10
11.3051872069
 20
42.4113884868
 30
0.0
 10
11.2970331023
 20
42.4168019152
 30
0.0
 10
11.2903581059
 20
42.4243193395
 30
0.0
 10
11.2863924519
 20
42.430542571
 30
0.0
  0
SPLINE
  5
2B9
100
AcDbEntity
  8
0
100
AcDbSpline
 62
7
  6
BYLAYER
 70
0
 71
3
 72
11
 73
7
 74
0
 42
0.0000001
 43
0.0000001
 44
0.0000000001
 40
0.0
 40
0.0
 40
0.0
 40
0.0
 40
0.2849344134
 40
0.5446379071
 40
0.781092745
 40
1.0
 40
1.0
 40
1.0
 40
1.0
 10
33.0193043865
 20
62.7322711317
 30
0.0
 10
33.0753769203
 20
62.764644431
 30
0.0
 10
33.1870290652
 20
62.8193341989
 30
0.0
 10
33.3582878675
 20
62.8697137315
 30
0.0
 10
33.5215728135
 20
62.8827151937
 30
0.0
 10
33.6249991674
 20
62.8650138306
 30
0.0
 10
33.672309274
 20
62.8496468307
 30
0.0
  0
SPLINE
  5
2BA
100
AcDbEntity
  8
0
100
AcDbSpline
 62
7
  6
BYLAYER
 70
0
 71
3
 72
9
 73
5
 74
0
 42
0.0000001
 43
0.0000001
 44
0.0000000001
 40
0.0
 40
0.0
 40
0.0
 40
0.0
 40
0.2553530868
 40
1.0
 40
1.0
 40
1.0
 40
1.0
 10
32.890042966
 20
62.6485133335
 30
0.0
 10
32.9006892757
 20
62.656169391
 30
0.0
 10
32.9427309222
 20
62.6856612775
 30
0.0
 10
32.9861872199
 20
62.7131510408
 30
0.0
 10
33.0193043865
 20
62.7322711317
 30
0.0
  0
SPLINE
  5
2BB
100
AcDbEntity
  8
0
100
AcDbSpline
 62
7
  6
BYLAYER
 70
0
 71
3
 72
11
 73
7
 74
0
 42
0.0000001
 43
0.0000001
 44
0.0000000001
 40
0.0
 40
0.0
 40
0.0
 40
0.0
 40
0.26176284
 40
0.5176437828
 40
0.7645996302
 40
1.0
 40
1.0
 40
1.0
 40
1.0
 10
26.6947762982
 20
57.7110908423
 30
0.0
 10
26.7952468999
 20
57.8610865683
 30
0.0
 10
27.0057736101
 20
58.1499826186
 30
0.0
 10
27.3505771062
 20
58.5497832932
 30
0.0
 10
27.7158821287
 20
58.9053889904
 30
0.0
 10
27.9755692116
 20
59.1143785105
 30
0.0
 10
28.1073791606
 20
59.2091667125
 30
0.0
  0
SPLINE
  5
2BC
100
AcDbEntity
  8
0
100
AcDbSpline
 62
7
  6
BYLAYER
 70
0
 71
3
 72
13
 73
9
 74
0
 42
0.0000001
 43
0.0000001
 44
0.0000000001
 40
0.0
 40
0.0
 40
0.0
 40
0.0
 40
0.1161295146
 40
0.2354713342
 40
0.3576750636
 40
0.4824285219
 40
0.7382356641
 40
1.0
 40
1.0
 40
1.0
 40
1.0
 10
17.8660084083
 20
48.3481166535
 30
0.0
 10
18.2724740326
 20
48.6404173939
 30
0.0
 10
19.0808538374
 20
49.2553532451
 30
0.0
 10
20.2605172266
 20
50.2492842731
 30
0.0
 10
21.4188788707
 20
51.3234678754
 30
0.0
 10
22.9401149126
 20
52.8683385511
 30
0.0
 10
24.7511347684
 20
54.9678437989
 30
0.0
 10
26.0667444825
 20
56.7734823624
 30
0.0
 10
26.6947762982
 20
57.7110908423
 30
0.0
  0
SPLINE
  5
2BD
100
AcDbEntity
  8
0
100
AcDbSpline
 62
7
  6
BYLAYER
 70
0
 71
3
 72
11
 73
7
 74
0
 42
0.0000001
 43
0.0000001
 44
0.0000000001
 40
0.0
 40
0.0
 40
0.0
 40
0.0
 40
0.2191063086
 40
0.45793446
 40
0.7183424564
 40
1.0
 40
1.0
 40
1.0
 40
1.0
 10
13.2790530204
 20
46.0909114045
 30
0.0
 10
13.5101254314
 20
46.0824483107
 30
0.0
 10
13.9960415658
 20
46.1216885783
 30
0.0
 10
14.7296089213
 20
46.3265406545
 30
0.0
 10
15.4807247797
 20
46.6726447459
 30
0.0
 10
15.9647096251
 20
46.9808397945
 30
0.0
 10
16.2060289875
 20
47.1543792627
 30
0.0
  0
SPLINE
  5
2BE
100
AcDbEntity
  8
0
100
AcDbSpline
 62
7
  6
BYLAYER
 70
0
 71
3
 72
10
 73
6
 74
0
 42
0.0000001
 43
0.0000001
 44
0.0000000001
 40
0.0
 40
0.0
 40
0.0
 40
0.0
 40
0.2821974354
 40
0.543212686
 40
1.0
 40
1.0
 40
1.0
 40
1.0
 10
12.2043150347
 20
45.9630355368
 30
0.0
 10
12.2387824735
 20
45.9878220311
 30
0.0
 10
12.3080273677
 20
46.0318570717
 30
0.0
 10
12.4446210144
 20
46.0949718145
 30
0.0
 10
12.5537804471
 20
46.117474722
 30
0.0
 10
12.6224544586
 20
46.1149595165
 30
0.0
  0
SPLINE
  5
2BF
100
AcDbEntity
  8
0
100
AcDbSpline
 62
7
  6
BYLAYER
 70
0
 71
3
 72
9
 73
5
 74
0
 42
0.0000001
 43
0.0000001
 44
0.0000000001
 40
0.0
 40
0.0
 40
0.0
 40
0.0
 40
0.2545083462
 40
1.0
 40
1.0
 40
1.0
 40
1.0
 10
11.7892215659
 20
45.6583984827
 30
0.0
 10
11.7961679367
 20
45.6644088249
 30
0.0
 10
11.8237116687
 20
45.687732536
 30
0.0
 10
11.8522669214
 20
45.7098679427
 30
0.0
 10
11.8741111861
 20
45.7255767613
 30
0.0
  0
SPLINE
  5
2C0
100
AcDbEntity
  8
0
100
AcDbSpline
 62
7
  6
BYLAYER
 70
0
 71
3
 72
9
 73
5
 74
0
 42
0.0000001
 43
0.0000001
 44
0.0000000001
 40
0.0
 40
0.0
 40
0.0
 40
0.0
 40
0.5115676443
 40
1.0
 40
1.0
 40
1.0
 40
1.0
 10
11.4030800389
 20
45.1459011758
 30
0.0
 10
11.4511893019
 20
45.2447807614
 30
0.0
 10
11.5638345908
 20
45.4294763484
 30
0.0
 10
11.7098267145
 20
45.5897021464
 30
0.0
 10
11.7892215659
 20
45.6583984827
 30
0.0
  0
SPLINE
  5
2C1
100
AcDbEntity
  8
0
100
AcDbSpline
 62
7
  6
BYLAYER
 70
0
 71
3
 72
13
 73
9
 74
0
 42
0.0000001
 43
0.0000001
 44
0.0000000001
 40
0.0
 40
0.0
 40
0.0
 40
0.0
 40
0.2010212197
 40
0.3151189793
 40
0.4381550344
 40
0.5695387282
 40
0.7081661445
 40
1.0
 40
1.0
 40
1.0
 40
1.0
 10
10.8220992871
 20
43.159149719
 30
0.0
 10
10.7873733599
 20
43.2136445096
 30
0.0
 10
10.7526508514
 20
43.3119817864
 30
0.0
 10
10.7363526748
 20
43.4519520329
 30
0.0
 10
10.7381117418
 20
43.5707833206
 30
0.0
 10
10.754503768
 20
43.6962934176
 30
0.0
 10
10.7959604437
 20
43.8723069791
 30
0.0
 10
10.8465763934
 20
44.0021120921
 30
0.0
 10
10.8876192202
 20
44.0864679406
 30
0.0
  0
SPLINE
  5
2C2
100
AcDbEntity
  8
0
100
AcDbSpline
 62
7
  6
BYLAYER
 70
0
 71
3
 72
9
 73
5
 74
0
 42
0.0000001
 43
0.0000001
 44
0.0000000001
 40
0.0
 40
0.0
 40
0.0
 40
0.0
 40
0.5257153909
 40
1.0
 40
1.0
 40
1.0
 40
1.0
 10
8.9013006377
 20
37.5284327592
 30
0.0
 10
8.9088630755
 20
37.5305768214
 30
0.0
 10
8.9237890568
 20
37.533109565
 30
0.0
 10
8.9389194854
 20
37.531098208
 30
0.0
 10
8.9456641183
 20
37.5289074547
 30
0.0
  0
SPLINE
  5
2C3
100
AcDbEntity
  8
0
100
AcDbSpline
 62
7
  6
BYLAYER
 70
0
 71
3
 72
9
 73
5
 74
0
 42
0.0000001
 43
0.0000001
 44
0.0000000001
 40
0.0
 40
0.0
 40
0.0
 40
0.0
 40
0.530721307
 40
1.0
 40
1.0
 40
1.0
 40
1.0
 10
7.6060499627
 20
37.0606722073
 30
0.0
 10
7.6596569395
 20
37.1070556042
 30
0.0
 10
7.7679677757
 20
37.1865447704
 30
0.0
 10
7.8911843392
 20
37.2420499563
 30
0.0
 10
7.9514888044
 20
37.2591471577
 30
0.0
  0
SPLINE
  5
2C4
100
AcDbEntity
  8
0
100
AcDbSpline
 62
7
  6
BYLAYER
 70
0
 71
3
 72
9
 73
5
 74
0
 42
0.0000001
 43
0.0000001
 44
0.0000000001
 40
0.0
 40
0.0
 40
0.0
 40
0.0
 40
0.5115676443
 40
1.0
 40
1.0
 40
1.0
 40
1.0
 10
7.2199084357
 20
36.5481749004
 30
0.0
 10
7.2680176987
 20
36.647054486
 30
0.0
 10
7.3806629877
 20
36.8317500729
 30
0.0
 10
7.5266551114
 20
36.991975871
 30
0.0
 10
7.6060499627
 20
37.0606722073
 30
0.0
  0
SPLINE
  5
2C5
100
AcDbEntity
  8
0
100
AcDbSpline
 62
7
  6
BYLAYER
 70
0
 71
3
 72
11
 73
7
 74
0
 42
0.0000001
 43
0.0000001
 44
0.0000000001
 40
0.0
 40
0.0
 40
0.0
 40
0.0
 40
0.2229513399
 40
0.4670518272
 40
0.7280624794
 40
1.0
 40
1.0
 40
1.0
 40
1.0
 10
5.9550349239
 20
33.5600233646
 30
0.0
 10
5.9491028384
 20
33.6123861245
 30
0.0
 10
5.9477528765
 20
33.7234416675
 30
0.0
 10
5.9723929762
 20
33.8942957875
 30
0.0
 10
6.0227705314
 20
34.07141938
 30
0.0
 10
6.0715413328
 20
34.1879212576
 30
0.0
 10
6.0996626887
 20
34.2457194412
 30
0.0
  0
SPLINE
  5
2C6
100
AcDbEntity
  8
0
100
AcDbSpline
 62
7
  6
BYLAYER
 70
0
 71
3
 72
11
 73
7
 74
0
 42
0.0000001
 43
0.0000001
 44
0.0000000001
 40
0.0
 40
0.0
 40
0.0
 40
0.0
 40
0.2247686308
 40
0.4609562607
 40
0.7178782841
 40
1.0
 40
1.0
 40
1.0
 40
1.0
 10
8.2570950926
 20
14.6601529456
 30
0.0
 10
8.2292917011
 20
14.6762137935
 30
0.0
 10
8.1768276601
 20
14.7177364116
 30
0.0
 10
8.1163562015
 20
14.8019217551
 30
0.0
 10
8.0744281851
 20
14.9053329494
 30
0.0
 10
8.0597743927
 20
14.9814022909
 30
0.0
 10
8.0552376777
 20
15.021448059
 30
0.0
  0
SPLINE
  5
2C7
100
AcDbEntity
  8
0
100
AcDbSpline
 62
7
  6
BYLAYER
 70
0
 71
3
 72
9
 73
5
 74
0
 42
0.0000001
 43
0.0000001
 44
0.0000000001
 40
0.0
 40
0.0
 40
0.0
 40
0.0
 40
0.2602649435
 40
1.0
 40
1.0
 40
1.0
 40
1.0
 10
9.5526664242
 20
22.7825877648
 30
0.0
 10
9.5708085198
 20
22.8037360563
 30
0.0
 10
9.6426528999
 20
22.8830986413
 30
0.0
 10
9.7232142926
 20
22.9548443957
 30
0.0
 10
9.7875105681
 20
23.0010816364
 30
0.0
  0
SPLINE
  5
2C8
100
AcDbEntity
  8
0
100
AcDbSpline
 62
7
  6
BYLAYER
 70
0
 71
3
 72
11
 73
7
 74
0
 42
0.0000001
 43
0.0000001
 44
0.0000000001
 40
0.0
 40
0.0
 40
0.0
 40
0.0
 40
0.2211409702
 40
0.4705722258
 40
0.7355122378
 40
1.0
 40
1.0
 40
1.0
 40
1.0
 10
7.483412499
 20
20.0689722169
 30
0.0
 10
7.4786810512
 20
20.1107368999
 30
0.0
 10
7.4826979643
 20
20.2012751832
 30
0.0
 10
7.5190088071
 20
20.3370747406
 30
0.0
 10
7.5827051796
 20
20.4715273394
 30
0.0
 10
7.641088573
 20
20.5542561329
 30
0.0
 10
7.673819883
 20
20.5924111122
 30
0.0
  0
SPLINE
  5
2C9
100
AcDbEntity
  8
0
100
AcDbSpline
 62
7
  6
BYLAYER
 70
0
 71
3
 72
9
 73
5
 74
0
 42
0.0000001
 43
0.0000001
 44
0.0000000001
 40
0.0
 40
0.0
 40
0.0
 40
0.0
 40
0.2446435573
 40
1.0
 40
1.0
 40
1.0
 40
1.0
 10
19.8938603392
 20
9.9941122052
 30
0.0
 10
19.9011138489
 20
9.998299996
 30
0.0
 10
19.9305342474
 20
10.0158126692
 30
0.0
 10
19.9590393452
 20
10.0348524514
 30
0.0
 10
19.9800346195
 20
10.0499507373
 30
0.0
  0
SPLINE
  5
2CA
100
AcDbEntity
  8
0
100
AcDbSpline
 62
7
  6
BYLAYER
 70
0
 71
3
 72
11
 73
7
 74
0
 42
0.0000001
 43
0.0000001
 44
0.0000000001
 40
0.0
 40
0.0
 40
0.0
 40
0.0
 40
0.218907255
 40
0.4553620929
 40
0.7150655866
 40
1.0
 40
1.0
 40
1.0
 40
1.0
 10
19.4585237476
 20
9.9158617392
 30
0.0
 10
19.4900638186
 20
9.9056170726
 30
0.0
 10
19.5590147212
 20
9.8938161638
 30
0.0
 10
19.6678713519
 20
9.9024838054
 30
0.0
 10
19.7820438868
 20
9.9360701604
 30
0.0
 10
19.85647865
 20
9.9725300057
 30
0.0
 10
19.8938603392
 20
9.9941122052
 30
0.0
  0
SPLINE
  5
2CB
100
AcDbEntity
  8
0
100
AcDbSpline
 62
7
  6
BYLAYER
 70
0
 71
3
 72
9
 73
5
 74
0
 42
0.0000001
 43
0.0000001
 44
0.0000000001
 40
0.0
 40
0.0
 40
0.0
 40
0.0
 40
0.533314969
 40
1.0
 40
1.0
 40
1.0
 40
1.0
 10
15.7755276365
 20
13.1171143102
 30
0.0
 10
15.7848801115
 20
13.1363365722
 30
0.0
 10
15.7985940432
 20
13.1743721016
 30
0.0
 10
15.8022174699
 20
13.2150936674
 30
0.0
 10
15.8001117683
 20
13.233680782
 30
0.0
  0
SPLINE
  5
2CC
100
AcDbEntity
  8
0
100
AcDbSpline
 62
7
  6
BYLAYER
 70
0
 71
3
 72
10
 73
6
 74
0
 42
0.0000001
 43
0.0000001
 44
0.0000000001
 40
0.0
 40
0.0
 40
0.0
 40
0.0
 40
0.5375040074
 40
0.7746012536
 40
1.0
 40
1.0
 40
1.0
 40
1.0
 10
15.8001117683
 20
13.233680782
 30
0.0
 10
15.7986463336
 20
13.2466162338
 30
0.0
 10
15.7937309246
 20
13.2654412888
 30
0.0
 10
15.7794366413
 20
13.2852864991
 30
0.0
 10
15.7705158611
 20
13.2923553127
 30
0.0
 10
15.765792719
 20
13.2950927634
 30
0.0
  0
SPLINE
  5
2CD
100
AcDbEntity
  8
0
100
AcDbSpline
 62
7
  6
BYLAYER
 70
0
 71
3
 72
9
 73
5
 74
0
 42
0.0000001
 43
0.0000001
 44
0.0000000001
 40
0.0
 40
0.0
 40
0.0
 40
0.0
 40
0.247127058
 40
1.0
 40
1.0
 40
1.0
 40
1.0
 10
15.7377486442
 20
13.0585180679
 30
0.0
 10
15.7414331052
 20
13.0629338563
 30
0.0
 10
15.7557684759
 20
13.0812743148
 30
0.0
 10
15.7678622662
 20
13.1013595763
 30
0.0
 10
15.7755276365
 20
13.1171143102
 30
0.0
  0
SPLINE
  5
2CE
100
AcDbEntity
  8
0
100
AcDbSpline
 62
7
  6
BYLAYER
 70
0
 71
3
 72
9
 73
5
 74
0
 42
0.0000001
 43
0.0000001
 44
0.0000000001
 40
0.0
 40
0.0
 40
0.0
 40
0.0
 40
0.4780898037
 40
1.0
 40
1.0
 40
1.0
 40
1.0
 10
14.5396448497
 20
11.7332380427
 30
0.0
 10
14.6010997783
 20
11.7687188505
 30
0.0
 10
14.721511644
 20
11.8572902606
 30
0.0
 10
14.824991463
 20
11.9645880001
 30
0.0
 10
14.8746209111
 20
12.0240683818
 30
0.0
  0
SPLINE
  5
2CF
100
AcDbEntity
  8
0
100
AcDbSpline
 62
7
  6
BYLAYER
 70
0
 71
3
 72
11
 73
7
 74
0
 42
0.0000001
 43
0.0000001
 44
0.0000000001
 40
0.0
 40
0.0
 40
0.0
 40
0.0
 40
0.218907255
 40
0.4553620929
 40
0.7150655866
 40
1.0
 40
1.0
 40
1.0
 40
1.0
 10
14.104308258
 20
11.6549875767
 30
0.0
 10
14.135848329
 20
11.6447429102
 30
0.0
 10
14.2047992316
 20
11.6329420014
 30
0.0
 10
14.3136558623
 20
11.6416096429
 30
0.0
 10
14.4278283972
 20
11.6751959979
 30
0.0
 10
14.5022631605
 20
11.7116558432
 30
0.0
 10
14.5396448497
 20
11.7332380427
 30
0.0
  0
SPLINE
  5
2D0
100
AcDbEntity
  8
0
100
AcDbSpline
 62
7
  6
BYLAYER
 70
0
 71
3
 72
9
 73
5
 74
0
 42
0.0000001
 43
0.0000001
 44
0.0000000001
 40
0.0
 40
0.0
 40
0.0
 40
0.0
 40
0.2331722077
 40
1.0
 40
1.0
 40
1.0
 40
1.0
 10
13.2016031008
 20
26.4489654947
 30
0.0
 10
13.2221441213
 20
26.455348826
 30
0.0
 10
13.3088749308
 20
26.4871019427
 30
0.0
 10
13.3894099062
 20
26.5344116811
 30
0.0
 10
13.4468411349
 20
26.5757120757
 30
0.0
  0
SPLINE
  5
2D1
100
AcDbEntity
  8
0
100
AcDbSpline
 62
7
  6
BYLAYER
 70
0
 71
3
 72
13
 73
9
 74
0
 42
0.0000001
 43
0.0000001
 44
0.0000000001
 40
0.0
 40
0.0
 40
0.0
 40
0.0
 40
0.3073326064
 40
0.5811078002
 40
0.7008407662
 40
0.8088761794
 40
0.9072629508
 40
1.0
 40
1.0
 40
1.0
 40
1.0
 10
13.31510663
 20
34.8353508134
 30
0.0
 10
13.3237637147
 20
34.8531438305
 30
0.0
 10
13.3367955187
 20
34.8885302346
 30
0.0
 10
13.3422744805
 20
34.9339858439
 30
0.0
 10
13.3379896449
 20
34.9661629289
 30
0.0
 10
13.3310412107
 20
34.9861708441
 30
0.0
 10
13.3202560995
 20
35.002414033
 30
0.0
 10
13.310537556
 20
35.0103352339
 30
0.0
 10
13.3053717126
 20
35.0133292666
 30
0.0
  0
SPLINE
  5
2D2
100
AcDbEntity
  8
0
100
AcDbSpline
 62
7
  6
BYLAYER
 70
0
 71
3
 72
12
 73
8
 74
0
 42
0.0000001
 43
0.0000001
 44
0.0000000001
 40
0.0
 40
0.0
 40
0.0
 40
0.0
 40
0.1885840642
 40
0.3003245414
 40
0.4242003888
 40
0.7018973266
 40
1.0
 40
1.0
 40
1.0
 40
1.0
 10
15.6669733523
 20
39.8946300273
 30
0.0
 10
15.6802530616
 20
39.8903165876
 30
0.0
 10
15.7039884877
 20
39.891366697
 30
0.0
 10
15.7332130299
 20
39.9028877022
 30
0.0
 10
15.7657778746
 20
39.9229006234
 30
0.0
 10
15.8030337749
 20
39.9597824993
 30
0.0
 10
15.8260490973
 20
39.9961230873
 30
0.0
 10
15.8357054956
 20
40.0159700066
 30
0.0
  0
SPLINE
  5
2D3
100
AcDbEntity
  8
0
100
AcDbSpline
 62
7
  6
BYLAYER
 70
0
 71
3
 72
11
 73
7
 74
0
 42
0.0000001
 43
0.0000001
 44
0.0000000001
 40
0.0
 40
0.0
 40
0.0
 40
0.0
 40
0.2821217159
 40
0.5390437393
 40
0.7752313692
 40
1.0
 40
1.0
 40
1.0
 40
1.0
 10
42.7537733974
 20
58.4982215164
 30
0.0
 10
42.7492366825
 20
58.5382672845
 30
0.0
 10
42.73458289
 20
58.614336626
 30
0.0
 10
42.6926548736
 20
58.7177478203
 30
0.0
 10
42.632183415
 20
58.8019331638
 30
0.0
 10
42.579719374
 20
58.8434557819
 30
0.0
 10
42.5519159825
 20
58.8595166298
 30
0.0
  0
SPLINE
  5
2D4
100
AcDbEntity
  8
0
100
AcDbSpline
 62
7
  6
BYLAYER
 70
0
 71
3
 72
11
 73
7
 74
0
 42
0.0000001
 43
0.0000001
 44
0.0000000001
 40
0.0
 40
0.0
 40
0.0
 40
0.0
 40
0.2707215632
 40
0.5334402946
 40
0.7788588205
 40
1.0
 40
1.0
 40
1.0
 40
1.0
 10
42.536694535
 20
57.5574252271
 30
0.0
 10
42.5786035062
 20
57.6251943644
 30
0.0
 10
42.6521155244
 20
57.7645860749
 30
0.0
 10
42.7300549302
 20
57.98101923
 30
0.0
 10
42.7712810691
 20
58.1925598674
 30
0.0
 10
42.7727097316
 20
58.3310697228
 30
0.0
 10
42.7653829081
 20
58.3957438925
 30
0.0
  0
SPLINE
  5
2D5
100
AcDbEntity
  8
0
100
AcDbSpline
 62
7
  6
BYLAYER
 70
0
 71
3
 72
10
 73
6
 74
0
 42
0.0000001
 43
0.0000001
 44
0.0000000001
 40
0.0
 40
0.0
 40
0.0
 40
0.0
 40
0.2348386501
 40
0.4821841457
 40
1.0
 40
1.0
 40
1.0
 40
1.0
 10
40.8280841398
 20
55.1919069629
 30
0.0
 10
40.9017265404
 20
55.2448652623
 30
0.0
 10
41.046455302
 20
55.3628476203
 30
0.0
 10
41.3192278417
 20
55.6369232408
 30
0.0
 10
41.4968287998
 20
55.875904498
 30
0.0
 10
41.6020252178
 20
56.0460129567
 30
0.0
  0
SPLINE
  5
2D6
100
AcDbEntity
  8
0
100
AcDbSpline
 62
7
  6
BYLAYER
 70
0
 71
3
 72
11
 73
7
 74
0
 42
0.0000001
 43
0.0000001
 44
0.0000000001
 40
0.0
 40
0.0
 40
0.0
 40
0.0
 40
0.2127249694
 40
0.446997135
 40
0.7091784494
 40
1.0
 40
1.0
 40
1.0
 40
1.0
 10
39.9972326608
 20
54.7148905363
 30
0.0
 10
40.0160061369
 20
54.7087926425
 30
0.0
 10
40.0578621589
 20
54.7028384637
 30
0.0
 10
40.1236377416
 20
54.7124340335
 30
0.0
 10
40.1921589262
 20
54.7391425845
 30
0.0
 10
40.2360792502
 20
54.7661797741
 30
0.0
 10
40.2579880968
 20
54.7819350354
 30
0.0
  0
SPLINE
  5
2D7
100
AcDbEntity
  8
0
100
AcDbSpline
 62
7
  6
BYLAYER
 70
0
 71
3
 72
13
 73
9
 74
0
 42
0.0000001
 43
0.0000001
 44
0.0000000001
 40
0.0
 40
0.0
 40
0.0
 40
0.0
 40
0.1205448896
 40
0.2488566583
 40
0.5152990511
 40
0.7733649709
 40
0.8918782841
 40
1.0
 40
1.0
 40
1.0
 40
1.0
 10
40.4682261633
 20
29.4291780131
 30
0.0
 10
40.4920649744
 20
29.4463211654
 30
0.0
 10
40.5385421171
 20
29.4856106638
 30
0.0
 10
40.6233877347
 20
29.5784632363
 30
0.0
 10
40.7091001488
 20
29.7140462937
 30
0.0
 10
40.762770298
 20
29.8629632846
 30
0.0
 10
40.7796833762
 20
29.9801549692
 30
0.0
 10
40.7790203
 20
30.035694487
 30
0.0
 10
40.7760556193
 20
30.0618638442
 30
0.0
  0
SPLINE
  5
2D8
100
AcDbEntity
  8
0
100
AcDbSpline
 62
7
  6
BYLAYER
 70
0
 71
3
 72
9
 73
5
 74
0
 42
0.0000001
 43
0.0000001
 44
0.0000000001
 40
0.0
 40
0.0
 40
0.0
 40
0.0
 40
0.2448424176
 40
1.0
 40
1.0
 40
1.0
 40
1.0
 10
40.426642638
 20
29.4021305463
 30
0.0
 10
40.4301420953
 20
29.4041681323
 30
0.0
 10
40.4443278761
 20
29.4126729964
 30
0.0
 10
40.4580862954
 20
29.4218861519
 30
0.0
 10
40.4682261633
 20
29.4291780131
 30
0.0
  0
SPLINE
  5
2D9
100
AcDbEntity
  8
0
100
AcDbSpline
 62
7
  6
BYLAYER
 70
0
 71
3
 72
10
 73
6
 74
0
 42
0.0000001
 43
0.0000001
 44
0.0000000001
 40
0.0
 40
0.0
 40
0.0
 40
0.0
 40
0.473727991
 40
0.730341641
 40
1.0
 40
1.0
 40
1.0
 40
1.0
 10
38.5631558135
 20
28.7184160304
 30
0.0
 10
38.8753520311
 20
28.7609921878
 30
0.0
 10
39.3495063384
 20
28.8873661303
 30
0.0
 10
39.9620370048
 20
29.1473516179
 30
0.0
 10
40.2716468841
 20
29.3118830706
 30
0.0
 10
40.426642638
 20
29.4021305463
 30
0.0
  0
SPLINE
  5
2DA
100
AcDbEntity
  8
0
100
AcDbSpline
 62
7
  6
BYLAYER
 70
0
 71
3
 72
9
 73
5
 74
0
 42
0.0000001
 43
0.0000001
 44
0.0000000001
 40
0.0
 40
0.0
 40
0.0
 40
0.0
 40
0.5332613712
 40
1.0
 40
1.0
 40
1.0
 40
1.0
 10
38.3939362045
 20
28.6445388023
 30
0.0
 10
38.4207760106
 20
28.6638400537
 30
0.0
 10
38.474406512
 20
28.6958055182
 30
0.0
 10
38.5344859912
 20
28.7145061468
 30
0.0
 10
38.5631558135
 20
28.7184160304
 30
0.0
  0
SPLINE
  5
2DB
100
AcDbEntity
  8
0
100
AcDbSpline
 62
7
  6
BYLAYER
 70
0
 71
3
 72
11
 73
7
 74
0
 42
0.0000001
 43
0.0000001
 44
0.0000000001
 40
0.0
 40
0.0
 40
0.0
 40
0.0
 40
0.2822370362
 40
0.5391586532
 40
0.7753682675
 40
1.0
 40
1.0
 40
1.0
 40
1.0
 10
45.8970804841
 20
30.7521217512
 30
0.0
 10
45.8880032794
 20
30.8322466068
 30
0.0
 10
45.8587395856
 20
30.9844321722
 30
0.0
 10
45.7747625062
 20
31.1912589882
 30
0.0
 10
45.6538174293
 20
31.3595658603
 30
0.0
 10
45.5489727756
 20
31.4426685385
 30
0.0
 10
45.4933955231
 20
31.4747640907
 30
0.0
  0
SPLINE
  5
2DC
100
AcDbEntity
  8
0
100
AcDbSpline
 62
7
  6
BYLAYER
 70
0
 71
3
 72
15
 73
11
 74
0
 42
0.0000001
 43
0.0000001
 44
0.0000000001
 40
0.0
 40
0.0
 40
0.0
 40
0.0
 40
0.1204884058
 40
0.2486180509
 40
0.381279497
 40
0.5152653982
 40
0.6471248372
 40
0.7735808577
 40
0.8919310119
 40
1.0
 40
1.0
 40
1.0
 40
1.0
 10
45.2501791161
 20
26.4126195342
 30
0.0
 10
45.32172769
 20
26.4640721045
 30
0.0
 10
45.4611760969
 20
26.5818899767
 30
0.0
 10
45.6497039047
 20
26.7882589673
 30
0.0
 10
45.8184110286
 20
27.0233930048
 30
0.0
 10
45.9610030976
 20
27.2783110138
 30
0.0
 10
46.0720816086
 20
27.5435672087
 30
0.0
 10
46.1476089788
 20
27.8092945624
 30
0.0
 10
46.1846046765
 20
28.0655324247
 30
0.0
 10
46.1825653533
 20
28.2321351744
 30
0.0
 10
46.1736674842
 20
28.3106770276
 30
0.0
  0
SPLINE
  5
2DD
100
AcDbEntity
  8
0
100
AcDbSpline
 62
7
  6
BYLAYER
 70
0
 71
3
 72
11
 73
7
 74
0
 42
0.0000001
 43
0.0000001
 44
0.0000000001
 40
0.0
 40
0.0
 40
0.0
 40
0.0
 40
0.2895250574
 40
0.5491364967
 40
0.7822783396
 40
1.0
 40
1.0
 40
1.0
 40
1.0
 10
42.8514590157
 20
27.4246983696
 30
0.0
 10
42.8843468429
 20
27.4436860522
 30
0.0
 10
42.9498333965
 20
27.4747915022
 30
0.0
 10
43.0504423172
 20
27.4991546551
 30
0.0
 10
43.1448898484
 20
27.4967707005
 30
0.0
 10
43.2017042175
 20
27.4760937601
 30
0.0
 10
43.2264342704
 20
27.4618125741
 30
0.0
  0
SPLINE
  5
2DE
100
AcDbEntity
  8
0
100
AcDbSpline
 62
7
  6
BYLAYER
 70
0
 71
3
 72
9
 73
5
 74
0
 42
0.0000001
 43
0.0000001
 44
0.0000000001
 40
0.0
 40
0.0
 40
0.0
 40
0.0
 40
0.4897731797
 40
1.0
 40
1.0
 40
1.0
 40
1.0
 10
39.2812811851
 20
25.5528471406
 30
0.0
 10
39.8826857221
 20
25.8130617698
 30
0.0
 10
41.0899613847
 20
26.3930160337
 30
0.0
 10
42.2527743217
 20
27.0570796336
 30
0.0
 10
42.834369815
 20
27.4145139527
 30
0.0
  0
SPLINE
  5
2DF
100
AcDbEntity
  8
0
100
AcDbSpline
 62
7
  6
BYLAYER
 70
0
 71
3
 72
9
 73
5
 74
0
 42
0.0000001
 43
0.0000001
 44
0.0000000001
 40
0.0
 40
0.0
 40
0.0
 40
0.0
 40
0.5154201601
 40
1.0
 40
1.0
 40
1.0
 40
1.0
 10
37.9757051912
 20
24.8009334354
 30
0.0
 10
38.1861572338
 20
24.9522753551
 30
0.0
 10
38.6083123977
 20
25.2272893714
 30
0.0
 10
39.0576116904
 20
25.4560702275
 30
0.0
 10
39.2812811851
 20
25.5528471406
 30
0.0
  0
SPLINE
  5
2E0
100
AcDbEntity
  8
0
100
AcDbSpline
 62
7
  6
BYLAYER
 70
0
 71
3
 72
9
 73
5
 74
0
 42
0.0000001
 43
0.0000001
 44
0.0000000001
 40
0.0
 40
0.0
 40
0.0
 40
0.0
 40
0.2544915772
 40
1.0
 40
1.0
 40
1.0
 40
1.0
 10
37.341641202
 20
24.2993522459
 30
0.0
 10
37.3935303827
 20
24.3442170698
 30
0.0
 10
37.5992864317
 20
24.5183375016
 30
0.0
 10
37.812564949
 20
24.6836147478
 30
0.0
 10
37.9757051912
 20
24.8009334354
 30
0.0
  0
SPLINE
  5
2E1
100
AcDbEntity
  8
0
100
AcDbSpline
 62
7
  6
BYLAYER
 70
0
 71
3
 72
12
 73
8
 74
0
 42
0.0000001
 43
0.0000001
 44
0.0000000001
 40
0.0
 40
0.0
 40
0.0
 40
0.0
 40
0.1073126313
 40
0.2242767905
 40
0.4789265516
 40
0.7450680802
 40
1.0
 40
1.0
 40
1.0
 40
1.0
 10
36.9698592692
 20
23.4604063267
 30
0.0
 10
36.9660438455
 20
23.494085227
 30
0.0
 10
36.9646220554
 20
23.5652853004
 30
0.0
 10
36.9836376428
 20
23.7157343883
 30
0.0
 10
37.0471191907
 20
23.9090175504
 30
0.0
 10
37.1700303376
 20
24.1225776567
 30
0.0
 10
37.2807321568
 20
24.2466885972
 30
0.0
 10
37.341641202
 20
24.2993522459
 30
0.0
  0
SPLINE
  5
2E2
100
AcDbEntity
  8
0
100
AcDbSpline
 62
7
  6
BYLAYER
 70
0
 71
3
 72
15
 73
11
 74
0
 42
0.0000001
 43
0.0000001
 44
0.0000000001
 40
0.0
 40
0.0
 40
0.0
 40
0.0
 40
0.1204884058
 40
0.2486180509
 40
0.381279497
 40
0.5152653982
 40
0.6471248372
 40
0.7735808577
 40
0.8919310119
 40
1.0
 40
1.0
 40
1.0
 40
1.0
 10
36.145448313
 20
20.6877884806
 30
0.0
 10
36.2169968869
 20
20.739241051
 30
0.0
 10
36.3564452938
 20
20.8570589231
 30
0.0
 10
36.5449731015
 20
21.0634279137
 30
0.0
 10
36.7136802254
 20
21.2985619512
 30
0.0
 10
36.8562722944
 20
21.5534799602
 30
0.0
 10
36.9673508054
 20
21.8187361551
 30
0.0
 10
37.0428781756
 20
22.0844635088
 30
0.0
 10
37.0798738734
 20
22.3407013711
 30
0.0
 10
37.0778345502
 20
22.5073041208
 30
0.0
 10
37.0689366811
 20
22.585845974
 30
0.0
  0
SPLINE
  5
2E3
100
AcDbEntity
  8
0
100
AcDbSpline
 62
7
  6
BYLAYER
 70
0
 71
3
 72
9
 73
5
 74
0
 42
0.0000001
 43
0.0000001
 44
0.0000000001
 40
0.0
 40
0.0
 40
0.0
 40
0.0
 40
0.2446435573
 40
1.0
 40
1.0
 40
1.0
 40
1.0
 10
34.8295535112
 20
19.7598872856
 30
0.0
 10
34.8513140405
 20
19.772450658
 30
0.0
 10
34.939575236
 20
19.8249886776
 30
0.0
 10
35.0250905293
 20
19.8821080242
 30
0.0
 10
35.0880763524
 20
19.9274028822
 30
0.0
  0
SPLINE
  5
2E4
100
AcDbEntity
  8
0
100
AcDbSpline
 62
7
  6
BYLAYER
 70
0
 71
3
 72
9
 73
5
 74
0
 42
0.0000001
 43
0.0000001
 44
0.0000000001
 40
0.0
 40
0.0
 40
0.0
 40
0.0
 40
0.4742710711
 40
1.0
 40
1.0
 40
1.0
 40
1.0
 10
34.0734914637
 20
19.4842396716
 30
0.0
 10
34.2001229292
 20
19.5015711379
 30
0.0
 10
34.462928698
 20
19.5712910396
 30
0.0
 10
34.7068553211
 20
19.6890478754
 30
0.0
 10
34.8295535112
 20
19.7598872856
 30
0.0
  0
SPLINE
  5
2E5
100
AcDbEntity
  8
0
100
AcDbSpline
 62
7
  6
BYLAYER
 70
0
 71
3
 72
12
 73
8
 74
0
 42
0.0000001
 43
0.0000001
 44
0.0000000001
 40
0.0
 40
0.0
 40
0.0
 40
0.0
 40
0.2745484163
 40
0.5329227264
 40
0.6558844898
 40
0.7746861033
 40
1.0
 40
1.0
 40
1.0
 40
1.0
 10
25.6186172922
 20
15.7912125578
 30
0.0
 10
26.3104442473
 20
16.2887245714
 30
0.0
 10
27.6983497697
 20
17.1940664035
 30
0.0
 10
29.5142975284
 20
18.1241343556
 30
0.0
 10
30.9554470185
 20
18.7038269678
 30
0.0
 10
32.3327688601
 20
19.1579283691
 30
0.0
 10
33.3806242169
 20
19.3894101181
 30
0.0
 10
34.0734914637
 20
19.4842396716
 30
0.0
  0
SPLINE
  5
2E6
100
AcDbEntity
  8
0
100
AcDbSpline
 62
7
  6
BYLAYER
 70
0
 71
3
 72
11
 73
7
 74
0
 42
0.0000001
 43
0.0000001
 44
0.0000000001
 40
0.0
 40
0.0
 40
0.0
 40
0.0
 40
0.2617392715
 40
0.5180713125
 40
0.7652500396
 40
1.0
 40
1.0
 40
1.0
 40
1.0
 10
21.2498440984
 20
11.6081041888
 30
0.0
 10
21.436050519
 20
11.9092103273
 30
0.0
 10
21.8309374267
 20
12.4894065783
 30
0.0
 10
22.4888699995
 20
13.2903450107
 30
0.0
 10
23.1943201472
 20
13.9992611591
 30
0.0
 10
23.7008490721
 20
14.4120920685
 30
0.0
 10
23.9586378713
 20
14.597475167
 30
0.0
  0
SPLINE
  5
2E7
100
AcDbEntity
  8
0
100
AcDbSpline
 62
7
  6
BYLAYER
 70
0
 71
3
 72
9
 73
5
 74
0
 42
0.0000001
 43
0.0000001
 44
0.0000000001
 40
0.0
 40
0.0
 40
0.0
 40
0.0
 40
0.4818404919
 40
1.0
 40
1.0
 40
1.0
 40
1.0
 10
20.3102384681
 20
10.2874095128
 30
0.0
 10
20.3857378735
 20
10.3417032361
 30
0.0
 10
20.5288381384
 20
10.4736421922
 30
0.0
 10
20.6446107981
 20
10.6294082804
 30
0.0
 10
20.6972090071
 20
10.7144625097
 30
0.0
  0
SPLINE
  5
2E8
100
AcDbEntity
  8
0
100
AcDbSpline
 62
7
  6
BYLAYER
 70
0
 71
3
 72
14
 73
10
 74
0
 42
0.0000001
 43
0.0000001
 44
0.0000000001
 40
0.0
 40
0.0
 40
0.0
 40
0.0
 40
0.2977436146
 40
0.4328756729
 40
0.5590717434
 40
0.6772737247
 40
0.7888631937
 40
0.8956918195
 40
1.0
 40
1.0
 40
1.0
 40
1.0
 10
10.266999169
 20
28.8946153423
 30
0.0
 10
10.2777339631
 20
28.7998588764
 30
0.0
 10
10.2833985964
 20
28.6603356576
 30
0.0
 10
10.2631567532
 20
28.4821265557
 30
0.0
 10
10.2355421426
 20
28.3634233766
 30
0.0
 10
10.1952423144
 20
28.256368276
 30
0.0
 10
10.1423691652
 20
28.1618852684
 30
0.0
 10
10.0773876114
 20
28.0808712348
 30
0.0
 10
10.0260031983
 20
28.036232087
 30
0.0
 10
9.9988773215
 20
28.016730827
 30
0.0
  0
SPLINE
  5
2E9
100
AcDbEntity
  8
0
100
AcDbSpline
 62
7
  6
BYLAYER
 70
0
 71
3
 72
15
 73
11
 74
0
 42
0.0000001
 43
0.0000001
 44
0.0000000001
 40
0.0
 40
0.0
 40
0.0
 40
0.0
 40
0.1157892007
 40
0.2412316661
 40
0.3730954795
 40
0.5077568191
 40
0.6413530907
 40
0.7700964185
 40
0.8905867893
 40
1.0
 40
1.0
 40
1.0
 40
1.0
 10
8.541606457
 20
31.4369829331
 30
0.0
 10
8.6473632837
 20
31.3759255821
 30
0.0
 10
8.8580691223
 20
31.2317258258
 30
0.0
 10
9.1543417269
 20
30.9716515523
 30
0.0
 10
9.4348771424
 20
30.667022611
 30
0.0
 10
9.6890978108
 20
30.3293693241
 30
0.0
 10
9.907426233
 20
29.9713048089
 30
0.0
 10
10.0817660051
 20
29.6062541873
 30
0.0
 10
10.2055359313
 20
29.2479601733
 30
0.0
 10
10.2540096606
 20
29.0092742617
 30
0.0
 10
10.266999169
 20
28.8946153423
 30
0.0
  0
SPLINE
  5
2EA
100
AcDbEntity
  8
0
100
AcDbSpline
 62
7
  6
BYLAYER
 70
0
 71
3
 72
11
 73
7
 74
0
 42
0.0000001
 43
0.0000001
 44
0.0000000001
 40
0.0
 40
0.0
 40
0.0
 40
0.0
 40
0.2191063086
 40
0.45793446
 40
0.7183424564
 40
1.0
 40
1.0
 40
1.0
 40
1.0
 10
16.9206681049
 20
43.9884715188
 30
0.0
 10
17.1517405159
 20
43.980008425
 30
0.0
 10
17.6376566504
 20
44.0192486926
 30
0.0
 10
18.3712240058
 20
44.2241007687
 30
0.0
 10
19.1223398642
 20
44.5702048602
 30
0.0
 10
19.6063247096
 20
44.8783999087
 30
0.0
 10
19.847644072
 20
45.0519393769
 30
0.0
  0
SPLINE
  5
2EB
100
AcDbEntity
  8
0
100
AcDbSpline
 62
7
  6
BYLAYER
 70
0
 71
3
 72
11
 73
7
 74
0
 42
0.0000001
 43
0.0000001
 44
0.0000000001
 40
0.0
 40
0.0
 40
0.0
 40
0.0
 40
0.2371168641
 40
0.4839122917
 40
0.7388076413
 40
1.0
 40
1.0
 40
1.0
 40
1.0
 10
21.5076234929
 20
46.2456767677
 30
0.0
 10
22.1622694231
 20
46.7164508718
 30
0.0
 10
23.457343268
 20
47.7351782948
 30
0.0
 10
25.3080269614
 20
49.4375555408
 30
0.0
 10
27.0879195517
 20
51.3277597184
 30
0.0
 10
28.2026152005
 20
52.6852728671
 30
0.0
 10
28.7438180076
 20
53.3895633587
 30
0.0
  0
SPLINE
  5
2EC
100
AcDbEntity
  8
0
100
AcDbSpline
 62
7
  6
BYLAYER
 70
0
 71
3
 72
9
 73
5
 74
0
 42
0.0000001
 43
0.0000001
 44
0.0000000001
 40
0.0
 40
0.0
 40
0.0
 40
0.0
 40
0.2594406687
 40
1.0
 40
1.0
 40
1.0
 40
1.0
 10
15.6351172615
 20
39.9198619307
 30
0.0
 10
15.636479052
 20
39.9177248966
 30
0.0
 10
15.6421518909
 20
39.9097705347
 30
0.0
 10
15.64971748
 20
39.9031289657
 30
0.0
 10
15.6559820848
 20
39.899512987
 30
0.0
  0
SPLINE
  5
2ED
100
AcDbEntity
  8
0
100
AcDbSpline
 62
7
  6
BYLAYER
 70
0
 71
3
 72
13
 73
9
 74
0
 42
0.0000001
 43
0.0000001
 44
0.0000000001
 40
0.0
 40
0.0
 40
0.0
 40
0.0
 40
0.2918338555
 40
0.4304612718
 40
0.5618449656
 40
0.6848810207
 40
0.7989787803
 40
1.0
 40
1.0
 40
1.0
 40
1.0
 10
15.2363440298
 20
41.5757873003
 30
0.0
 10
15.1953012031
 20
41.4914314518
 30
0.0
 10
15.1446852533
 20
41.3616263388
 30
0.0
 10
15.1032285777
 20
41.1856127774
 30
0.0
 10
15.0868365515
 20
41.0601026803
 30
0.0
 10
15.0850774845
 20
40.9412713926
 30
0.0
 10
15.101375661
 20
40.8013011461
 30
0.0
 10
15.1360981695
 20
40.7029638693
 30
0.0
 10
15.1708240967
 20
40.6484690787
 30
0.0
  0
SPLINE
  5
2EE
100
AcDbEntity
  8
0
100
AcDbSpline
 62
7
  6
BYLAYER
 70
0
 71
3
 72
9
 73
5
 74
0
 42
0.0000001
 43
0.0000001
 44
0.0000000001
 40
0.0
 40
0.0
 40
0.0
 40
0.0
 40
0.4884323557
 40
1.0
 40
1.0
 40
1.0
 40
1.0
 10
16.1379463755
 20
43.1477178424
 30
0.0
 10
16.0585515242
 20
43.0790215061
 30
0.0
 10
15.9125594005
 20
42.9187957081
 30
0.0
 10
15.7999141116
 20
42.7341001211
 30
0.0
 10
15.7518048485
 20
42.6352205355
 30
0.0
  0
SPLINE
  5
2EF
100
AcDbEntity
  8
0
100
AcDbSpline
 62
7
  6
BYLAYER
 70
0
 71
3
 72
9
 73
5
 74
0
 42
0.0000001
 43
0.0000001
 44
0.0000000001
 40
0.0
 40
0.0
 40
0.0
 40
0.0
 40
0.2454438196
 40
1.0
 40
1.0
 40
1.0
 40
1.0
 10
16.2228359958
 20
43.214896121
 30
0.0
 10
16.2156440115
 20
43.209724165
 30
0.0
 10
16.1865929876
 20
43.1883047366
 30
0.0
 10
16.1585407926
 20
43.1655371465
 30
0.0
 10
16.1379463755
 20
43.1477178424
 30
0.0
  0
SPLINE
  5
2F0
100
AcDbEntity
  8
0
100
AcDbSpline
 62
7
  6
BYLAYER
 70
0
 71
3
 72
10
 73
6
 74
0
 42
0.0000001
 43
0.0000001
 44
0.0000000001
 40
0.0
 40
0.0
 40
0.0
 40
0.0
 40
0.456787314
 40
0.7178025646
 40
1.0
 40
1.0
 40
1.0
 40
1.0
 10
16.9711792682
 20
43.6042788762
 30
0.0
 10
16.9025052568
 20
43.6067940817
 30
0.0
 10
16.7933458241
 20
43.5842911742
 30
0.0
 10
16.6567521773
 20
43.5211764314
 30
0.0
 10
16.5875072831
 20
43.4771413908
 30
0.0
 10
16.5530398443
 20
43.4523548965
 30
0.0
  0
SPLINE
  5
2F1
100
AcDbEntity
  8
0
100
AcDbSpline
 62
7
  6
BYLAYER
 70
0
 71
3
 72
11
 73
7
 74
0
 42
0.0000001
 43
0.0000001
 44
0.0000000001
 40
0.0
 40
0.0
 40
0.0
 40
0.0
 40
0.2816575436
 40
0.54206554
 40
0.7808936914
 40
1.0
 40
1.0
 40
1.0
 40
1.0
 10
20.5547537971
 20
44.6436986224
 30
0.0
 10
20.3134344347
 20
44.4701591542
 30
0.0
 10
19.8294495894
 20
44.1619641056
 30
0.0
 10
19.078333731
 20
43.8158600142
 30
0.0
 10
18.3447663755
 20
43.611007938
 30
0.0
 10
17.8588502411
 20
43.5717676704
 30
0.0
 10
17.62777783
 20
43.5802307642
 30
0.0
  0
SPLINE
  5
2F2
100
AcDbEntity
  8
0
100
AcDbSpline
 62
7
  6
BYLAYER
 70
0
 71
3
 72
13
 73
9
 74
0
 42
0.0000001
 43
0.0000001
 44
0.0000000001
 40
0.0
 40
0.0
 40
0.0
 40
0.0
 40
0.2617643359
 40
0.5175714781
 40
0.6423249364
 40
0.7645286658
 40
0.8838704854
 40
1.0
 40
1.0
 40
1.0
 40
1.0
 10
31.0435011079
 20
55.200410202
 30
0.0
 10
30.4154692922
 20
54.2628017221
 30
0.0
 10
29.099859578
 20
52.4571631586
 30
0.0
 10
27.2888397222
 20
50.3576579108
 30
0.0
 10
25.7676036804
 20
48.8127872351
 30
0.0
 10
24.6092420363
 20
47.7386036328
 30
0.0
 10
23.4295786471
 20
46.7446726048
 30
0.0
 10
22.6211988423
 20
46.1297367536
 30
0.0
 10
22.214733218
 20
45.8374360132
 30
0.0
  0
SPLINE
  5
2F3
100
AcDbEntity
  8
0
100
AcDbSpline
 62
7
  6
BYLAYER
 70
0
 71
3
 72
11
 73
7
 74
0
 42
0.0000001
 43
0.0000001
 44
0.0000000001
 40
0.0
 40
0.0
 40
0.0
 40
0.0
 40
0.2354003698
 40
0.4823562172
 40
0.73823716
 40
1.0
 40
1.0
 40
1.0
 40
1.0
 10
32.4561039702
 20
56.6984860722
 30
0.0
 10
32.3242940212
 20
56.6036978702
 30
0.0
 10
32.0646069384
 20
56.3947083501
 30
0.0
 10
31.6993019158
 20
56.0391026529
 30
0.0
 10
31.3544984197
 20
55.6393019783
 30
0.0
 10
31.1439717096
 20
55.3504059281
 30
0.0
 10
31.0435011079
 20
55.200410202
 30
0.0
  0
SPLINE
  5
2F4
100
AcDbEntity
  8
0
100
AcDbSpline
 62
7
  6
BYLAYER
 70
0
 71
3
 72
9
 73
5
 74
0
 42
0.0000001
 43
0.0000001
 44
0.0000000001
 40
0.0
 40
0.0
 40
0.0
 40
0.0
 40
0.2446435573
 40
1.0
 40
1.0
 40
1.0
 40
1.0
 10
37.3680291962
 20
60.2215904914
 30
0.0
 10
37.3571489315
 20
60.2153088052
 30
0.0
 10
37.3130183339
 20
60.1890397955
 30
0.0
 10
37.2702606872
 20
60.1604801222
 30
0.0
 10
37.2387677757
 20
60.1378326932
 30
0.0
  0
SPLINE
  5
2F5
100
AcDbEntity
  8
0
100
AcDbSpline
 62
7
  6
BYLAYER
 70
0
 71
3
 72
11
 73
7
 74
0
 42
0.0000001
 43
0.0000001
 44
0.0000000001
 40
0.0
 40
0.0
 40
0.0
 40
0.0
 40
0.218907255
 40
0.4553620929
 40
0.7150655866
 40
1.0
 40
1.0
 40
1.0
 40
1.0
 10
38.0210340836
 20
60.3389661904
 30
0.0
 10
37.973723977
 20
60.3543331903
 30
0.0
 10
37.8702976232
 20
60.3720345534
 30
0.0
 10
37.7070126771
 20
60.3590330912
 30
0.0
 10
37.5357538748
 20
60.3086535586
 30
0.0
 10
37.42410173
 20
60.2539637907
 30
0.0
 10
37.3680291962
 20
60.2215904914
 30
0.0
  0
SPLINE
  5
2F6
100
AcDbEntity
  8
0
100
AcDbSpline
 62
7
  6
BYLAYER
 70
0
 71
3
 72
15
 73
11
 74
0
 42
0.0000001
 43
0.0000001
 44
0.0000000001
 40
0.0
 40
0.0
 40
0.0
 40
0.0
 40
0.1003898664
 40
0.2039445232
 40
0.3134272391
 40
0.4309167052
 40
0.5578352007
 40
0.6949831092
 40
0.8425601161
 40
1.0
 40
1.0
 40
1.0
 40
1.0
 10
9.9988773215
 20
28.016730827
 30
0.0
 10
9.9677152511
 20
27.9943278779
 30
0.0
 10
9.8993902054
 20
27.9554022961
 30
0.0
 10
9.7846913365
 20
27.9182803426
 30
0.0
 10
9.6587046954
 20
27.9021944215
 30
0.0
 10
9.5229891299
 20
27.9069852623
 30
0.0
 10
9.37895044
 20
27.9324496882
 30
0.0
 10
9.228024184
 20
27.9781449165
 30
0.0
 10
9.0718821042
 20
28.0435477724
 30
0.0
 10
8.9685905821
 20
28.0980007511
 30
0.0
 10
8.9164645765
 20
28.1280950336
 30
0.0
  0
SPLINE
  5
2F7
100
AcDbEntity
  8
0
100
AcDbSpline
 62
7
  6
BYLAYER
 70
0
 71
3
 72
9
 73
5
 74
0
 42
0.0000001
 43
0.0000001
 44
0.0000000001
 40
0.0
 40
0.0
 40
0.0
 40
0.0
 40
0.517747626
 40
1.0
 40
1.0
 40
1.0
 40
1.0
 10
39.0115422327
 20
55.104466218
 30
0.0
 10
39.0199382368
 20
55.0853177065
 30
0.0
 10
39.0409700981
 20
55.050073038
 30
0.0
 10
39.072488495
 20
55.0233811015
 30
0.0
 10
39.0893555235
 20
55.0136458141
 30
0.0
  0
SPLINE
  5
2F8
100
AcDbEntity
  8
0
100
AcDbSpline
 62
7
  6
BYLAYER
 70
0
 71
3
 72
11
 73
7
 74
0
 42
0.0000001
 43
0.0000001
 44
0.0000000001
 40
0.0
 40
0.0
 40
0.0
 40
0.0
 40
0.2745707005
 40
0.5330182941
 40
0.7746993845
 40
1.0
 40
1.0
 40
1.0
 40
1.0
 10
41.1199363878
 20
29.0363596763
 30
0.0
 10
40.8901083695
 20
28.8710839534
 30
0.0
 10
40.4289332506
 20
28.5703275338
 30
0.0
 10
39.716552091
 20
28.2055084959
 30
0.0
 10
39.0132462804
 20
27.9455688793
 30
0.0
 10
38.5410473339
 20
27.8413855698
 30
0.0
 10
38.3108908757
 20
27.8099976892
 30
0.0
  0
SPLINE
  5
2F9
100
AcDbEntity
  8
0
100
AcDbSpline
 62
7
  6
BYLAYER
 70
0
 71
3
 72
11
 73
7
 74
0
 42
0.0000001
 43
0.0000001
 44
0.0000000001
 40
0.0
 40
0.0
 40
0.0
 40
0.0
 40
0.220295488
 40
0.4780928167
 40
0.7479661309
 40
1.0
 40
1.0
 40
1.0
 40
1.0
 10
41.844944006
 20
29.7365991286
 30
0.0
 10
41.8494589438
 20
29.7146784123
 30
0.0
 10
41.8478127036
 20
29.6648561206
 30
0.0
 10
41.8240538303
 20
29.5920128059
 30
0.0
 10
41.782608843
 20
29.5237353982
 30
0.0
 10
41.744636653
 20
29.4855990194
 30
0.0
 10
41.7238484777
 20
29.4706496641
 30
0.0
  0
SPLINE
  5
2FA
100
AcDbEntity
  8
0
100
AcDbSpline
 62
7
  6
BYLAYER
 70
0
 71
3
 72
11
 73
7
 74
0
 42
0.0000001
 43
0.0000001
 44
0.0000000001
 40
0.0
 40
0.0
 40
0.0
 40
0.0
 40
0.2520338691
 40
0.5219071833
 40
0.779704512
 40
1.0
 40
1.0
 40
1.0
 40
1.0
 10
41.8591002074
 20
30.3082837333
 30
0.0
 10
41.8435090759
 20
30.2970717168
 30
0.0
 10
41.8150299333
 20
30.2684694327
 30
0.0
 10
41.7839461929
 20
30.217261377
 30
0.0
 10
41.7661270379
 20
30.1626288909
 30
0.0
 10
41.7648923578
 20
30.1252621722
 30
0.0
 10
41.7682785611
 20
30.1088216349
 30
0.0
  0
SPLINE
  5
2FB
100
AcDbEntity
  8
0
100
AcDbSpline
 62
7
  6
BYLAYER
 70
0
 71
3
 72
11
 73
7
 74
0
 42
0.0000001
 43
0.0000001
 44
0.0000000001
 40
0.0
 40
0.0
 40
0.0
 40
0.0
 40
0.2208810942
 40
0.4606001486
 40
0.7204551125
 40
1.0
 40
1.0
 40
1.0
 40
1.0
 10
44.8969102392
 20
31.5715071422
 30
0.0
 10
44.6759286788
 20
31.5676075069
 30
0.0
 10
44.2152727401
 20
31.5104287861
 30
0.0
 10
43.5233778
 20
31.2981739628
 30
0.0
 10
42.8173675825
 20
30.9619872383
 30
0.0
 10
42.3618517151
 20
30.6698263317
 30
0.0
 10
42.1347590349
 20
30.5065176665
 30
0.0
  0
SPLINE
  5
2FC
100
AcDbEntity
  8
0
100
AcDbSpline
 62
7
  6
BYLAYER
 70
0
 71
3
 72
15
 73
11
 74
0
 42
0.0000001
 43
0.0000001
 44
0.0000000001
 40
0.0
 40
0.0
 40
0.0
 40
0.0
 40
0.092523569
 40
0.1906861586
 40
0.2985954944
 40
0.4183149861
 40
0.549955138
 40
0.6923971771
 40
0.8435751562
 40
1.0
 40
1.0
 40
1.0
 40
1.0
 10
43.2264342704
 20
27.4618125741
 30
0.0
 10
43.2492199405
 20
27.4486542361
 30
0.0
 10
43.2920710125
 20
27.4137497959
 30
0.0
 10
43.3395419346
 20
27.3420973098
 30
0.0
 10
43.3703077533
 20
27.2538708195
 30
0.0
 10
43.3838988006
 20
27.1520448926
 30
0.0
 10
43.3803580467
 20
27.0396943286
 30
0.0
 10
43.359849669
 20
26.9201645094
 30
0.0
 10
43.322995329
 20
26.7973209254
 30
0.0
 10
43.2888254235
 20
26.7165815234
 30
0.0
 10
43.2693630864
 20
26.6765803322
 30
0.0
  0
SPLINE
  5
2FD
100
AcDbEntity
  8
0
100
AcDbSpline
 62
7
  6
BYLAYER
 70
0
 71
3
 72
22
 73
18
 74
0
 42
0.0000001
 43
0.0000001
 44
0.0000000001
 40
0.0
 40
0.0
 40
0.0
 40
0.0
 40
0.0642750353
 40
0.1328997868
 40
0.2048762929
 40
0.2792219684
 40
0.4304434414
 40
0.5050799329
 40
0.5775253574
 40
0.6467339833
 40
0.7118029871
 40
0.7720113349
 40
0.8269198701
 40
0.8764423168
 40
0.9209886882
 40
0.9616015622
 40
1.0
 40
1.0
 40
1.0
 40
1.0
 10
10.4891451931
 20
14.2459791333
 30
0.0
 10
10.4126173038
 20
14.2901615313
 30
0.0
 10
10.2594382159
 20
14.3904360549
 30
0.0
 10
10.0387759376
 20
14.5660127671
 30
0.0
 10
9.8234212471
 20
14.7688715808
 30
0.0
 10
9.5478968629
 20
15.0716145822
 30
0.0
 10
9.303953353
 20
15.4066886711
 30
0.0
 10
9.0997590312
 20
15.7626738219
 30
0.0
 10
8.9717116245
 20
16.0314124368
 30
0.0
 10
8.8707424488
 20
16.2974461237
 30
0.0
 10
8.7988372846
 20
16.5554160202
 30
0.0
 10
8.7575366381
 20
16.8002045997
 30
0.0
 10
8.7476343129
 20
17.0270304797
 30
0.0
 10
8.7696259321
 20
17.2316147306
 30
0.0
 10
8.8237235252
 20
17.4101099768
 30
0.0
 10
8.909774492
 20
17.5585889184
 30
0.0
 10
8.989023764
 20
17.6353979757
 30
0.0
 10
9.0318807932
 20
17.6662222996
 30
0.0
  0
SPLINE
  5
2FE
100
AcDbEntity
  8
0
100
AcDbSpline
 62
7
  6
BYLAYER
 70
0
 71
3
 72
13
 73
9
 74
0
 42
0.0000001
 43
0.0000001
 44
0.0000000001
 40
0.0
 40
0.0
 40
0.0
 40
0.0
 40
0.3074836821
 40
0.5812205878
 40
0.7010605258
 40
0.8091039182
 40
0.9073750814
 40
1.0
 40
1.0
 40
1.0
 40
1.0
 10
42.4261483056
 20
24.943510173
 30
0.0
 10
42.4057681025
 20
24.90162248
 30
0.0
 10
42.3750832722
 20
24.8183443499
 30
0.0
 10
42.362221935
 20
24.7113498204
 30
0.0
 10
42.3723221385
 20
24.6356249029
 30
0.0
 10
42.3887122378
 20
24.5885608822
 30
0.0
 10
42.4140494188
 20
24.5503637341
 30
0.0
 10
42.4368869738
 20
24.5317284279
 30
0.0
 10
42.4490434951
 20
24.5247195508
 30
0.0
  0
SPLINE
  5
2FF
100
AcDbEntity
  8
0
100
AcDbSpline
 62
7
  6
BYLAYER
 70
0
 71
3
 72
15
 73
11
 74
0
 42
0.0000001
 43
0.0000001
 44
0.0000000001
 40
0.0
 40
0.0
 40
0.0
 40
0.0
 40
0.1003898664
 40
0.2039445232
 40
0.3134272391
 40
0.4309167052
 40
0.5578352007
 40
0.6949831092
 40
0.8425601161
 40
1.0
 40
1.0
 40
1.0
 40
1.0
 10
11.5715579381
 20
14.1346149267
 30
0.0
 10
11.5403958677
 20
14.1122119776
 30
0.0
 10
11.472070822
 20
14.0732863958
 30
0.0
 10
11.3573719531
 20
14.0361644423
 30
0.0
 10
11.2313853119
 20
14.0200785212
 30
0.0
 10
11.0956697464
 20
14.024869362
 30
0.0
 10
10.9516310566
 20
14.0503337879
 30
0.0
 10
10.8007048005
 20
14.0960290162
 30
0.0
 10
10.6445627208
 20
14.1614318721
 30
0.0
 10
10.5412711987
 20
14.2158848508
 30
0.0
 10
10.4891451931
 20
14.2459791333
 30
0.0
  0
SPLINE
  5
300
100
AcDbEntity
  8
0
100
AcDbSpline
 62
7
  6
BYLAYER
 70
0
 71
3
 72
13
 73
9
 74
0
 42
0.0000001
 43
0.0000001
 44
0.0000000001
 40
0.0
 40
0.0
 40
0.0
 40
0.0
 40
0.300862949
 40
0.5652018717
 40
0.6836616595
 40
0.7941501635
 40
0.8986894131
 40
1.0
 40
1.0
 40
1.0
 40
1.0
 10
18.5488347776
 20
10.8306311209
 30
0.0
 10
18.5345929513
 20
10.7577815057
 30
0.0
 10
18.5192562501
 20
10.6182605436
 30
0.0
 10
18.5381539742
 20
10.448515345
 30
0.0
 10
18.579006794
 20
10.3333315598
 30
0.0
 10
18.6197698969
 20
10.2613025855
 30
0.0
 10
18.671236455
 20
10.2018988203
 30
0.0
 10
18.7124862225
 20
10.1714229004
 30
0.0
 10
18.7341280861
 20
10.1589171719
 30
0.0
  0
SPLINE
  5
301
100
AcDbEntity
  8
0
100
AcDbSpline
 62
7
  6
BYLAYER
 70
0
 71
3
 72
9
 73
5
 74
0
 42
0.0000001
 43
0.0000001
 44
0.0000000001
 40
0.0
 40
0.0
 40
0.0
 40
0.0
 40
0.2579046092
 40
1.0
 40
1.0
 40
1.0
 40
1.0
 10
18.8122972171
 20
12.1307280785
 30
0.0
 10
18.809758008
 20
12.1255092094
 30
0.0
 10
18.8005254556
 20
12.1049870301
 30
0.0
 10
18.7937310651
 20
12.0833216025
 30
0.0
 10
18.7905269538
 20
12.0669319717
 30
0.0
  0
SPLINE
  5
302
100
AcDbEntity
  8
0
100
AcDbSpline
 62
7
  6
BYLAYER
 70
0
 71
3
 72
12
 73
8
 74
0
 42
0.0000001
 43
0.0000001
 44
0.0000000001
 40
0.0
 40
0.0
 40
0.0
 40
0.0
 40
0.1885840642
 40
0.3003245414
 40
0.4242003888
 40
0.7018973266
 40
1.0
 40
1.0
 40
1.0
 40
1.0
 10
18.9810293604
 20
12.2520680578
 30
0.0
 10
18.9677496511
 20
12.2563814974
 30
0.0
 10
18.944014225
 20
12.2553313881
 30
0.0
 10
18.9147896828
 20
12.2438103829
 30
0.0
 10
18.8822248381
 20
12.2237974617
 30
0.0
 10
18.8449689378
 20
12.1869155858
 30
0.0
 10
18.8219536154
 20
12.1505749978
 30
0.0
 10
18.8122972171
 20
12.1307280785
 30
0.0
  0
SPLINE
  5
303
100
AcDbEntity
  8
0
100
AcDbSpline
 62
7
  6
BYLAYER
 70
0
 71
3
 72
11
 73
7
 74
0
 42
0.0000001
 43
0.0000001
 44
0.0000000001
 40
0.0
 40
0.0
 40
0.0
 40
0.0
 40
0.2821217159
 40
0.5390437393
 40
0.7752313692
 40
1.0
 40
1.0
 40
1.0
 40
1.0
 10
12.4039624873
 20
12.5107674187
 30
0.0
 10
12.4084992023
 20
12.4707216506
 30
0.0
 10
12.4231529948
 20
12.3946523091
 30
0.0
 10
12.4650810111
 20
12.2912411148
 30
0.0
 10
12.5255524697
 20
12.2070557713
 30
0.0
 10
12.5780165108
 20
12.1655331532
 30
0.0
 10
12.6058199022
 20
12.1494723053
 30
0.0
  0
SPLINE
  5
304
100
AcDbEntity
  8
0
100
AcDbSpline
 62
7
  6
BYLAYER
 70
0
 71
3
 72
11
 73
7
 74
0
 42
0.0000001
 43
0.0000001
 44
0.0000000001
 40
0.0
 40
0.0
 40
0.0
 40
0.0
 40
0.2644877622
 40
0.5294277742
 40
0.7788590298
 40
1.0
 40
1.0
 40
1.0
 40
1.0
 10
12.0225446927
 20
18.0817304719
 30
0.0
 10
11.9898133827
 20
18.0435754926
 30
0.0
 10
11.9314299893
 20
17.9608466991
 30
0.0
 10
11.8677336168
 20
17.8263941003
 30
0.0
 10
11.831422774
 20
17.6905945429
 30
0.0
 10
11.8274058608
 20
17.6000562596
 30
0.0
 10
11.8321373087
 20
17.5582915766
 30
0.0
  0
SPLINE
  5
305
100
AcDbEntity
  8
0
100
AcDbSpline
 62
7
  6
BYLAYER
 70
0
 71
3
 72
9
 73
5
 74
0
 42
0.0000001
 43
0.0000001
 44
0.0000000001
 40
0.0
 40
0.0
 40
0.0
 40
0.0
 40
0.2391176254
 40
1.0
 40
1.0
 40
1.0
 40
1.0
 10
14.1362353777
 20
20.4904009961
 30
0.0
 10
14.1154502068
 20
20.4754538013
 30
0.0
 10
14.0306815765
 20
20.4099637354
 30
0.0
 10
13.9544334543
 20
20.3337385889
 30
0.0
 10
13.9013912338
 20
20.2719071245
 30
0.0
  0
SPLINE
  5
306
100
AcDbEntity
  8
0
100
AcDbSpline
 62
7
  6
BYLAYER
 70
0
 71
3
 72
22
 73
18
 74
0
 42
0.0000001
 43
0.0000001
 44
0.0000000001
 40
0.0
 40
0.0
 40
0.0
 40
0.0
 40
0.0642750353
 40
0.1328997868
 40
0.2048762929
 40
0.2792219684
 40
0.4304434414
 40
0.5050799329
 40
0.5775253574
 40
0.6467339833
 40
0.7118029871
 40
0.7720113349
 40
0.8269198701
 40
0.8764423168
 40
0.9209886882
 40
0.9616015622
 40
1.0
 40
1.0
 40
1.0
 40
1.0
 10
8.9164645765
 20
28.1280950336
 30
0.0
 10
8.8399366872
 20
28.1722774316
 30
0.0
 10
8.6867575994
 20
28.2725519551
 30
0.0
 10
8.466095321
 20
28.4481286673
 30
0.0
 10
8.2507406305
 20
28.6509874811
 30
0.0
 10
7.9752162463
 20
28.9537304825
 30
0.0
 10
7.7312727365
 20
29.2888045714
 30
0.0
 10
7.5270784146
 20
29.6447897221
 30
0.0
 10
7.399031008
 20
29.913528337
 30
0.0
 10
7.2980618322
 20
30.179562024
 30
0.0
 10
7.226156668
 20
30.4375319205
 30
0.0
 10
7.1848560215
 20
30.6823205
 30
0.0
 10
7.1749536963
 20
30.90914638
 30
0.0
 10
7.1969453156
 20
31.1137306308
 30
0.0
 10
7.2510429086
 20
31.292225877
 30
0.0
 10
7.3370938755
 20
31.4407048186
 30
0.0
 10
7.4163431474
 20
31.517513876
 30
0.0
 10
7.4592001766
 20
31.5483381999
 30
0.0
  0
SPLINE
  5
307
100
AcDbEntity
  8
0
100
AcDbSpline
 62
7
  6
BYLAYER
 70
0
 71
3
 72
11
 73
7
 74
0
 42
0.0000001
 43
0.0000001
 44
0.0000000001
 40
0.0
 40
0.0
 40
0.0
 40
0.0
 40
0.2611923587
 40
0.5160877083
 40
0.7628831359
 40
1.0
 40
1.0
 40
1.0
 40
1.0
 10
26.4810668871
 20
54.6959337732
 30
0.0
 10
25.93986408
 20
53.9916432815
 30
0.0
 10
24.8251684312
 20
52.6341301328
 30
0.0
 10
23.045275841
 20
50.7439259552
 30
0.0
 10
21.1945921476
 20
49.0415487092
 30
0.0
 10
19.8995183026
 20
48.0228212863
 30
0.0
 10
19.2448723724
 20
47.5520471822
 30
0.0
  0
SPLINE
  5
308
100
AcDbEntity
  8
0
100
AcDbSpline
 62
7
  6
BYLAYER
 70
0
 71
3
 72
9
 73
5
 74
0
 42
0.0000001
 43
0.0000001
 44
0.0000000001
 40
0.0
 40
0.0
 40
0.0
 40
0.0
 40
0.2563881985
 40
1.0
 40
1.0
 40
1.0
 40
1.0
 10
14.0013184225
 20
45.3188900452
 30
0.0
 10
14.0097192269
 20
45.3185823633
 30
0.0
 10
14.0424381027
 20
45.3164100258
 30
0.0
 10
14.0749193649
 20
45.310161554
 30
0.0
 10
14.0982493145
 20
45.3030784476
 30
0.0
  0
SPLINE
  5
309
100
AcDbEntity
  8
0
100
AcDbSpline
 62
7
  6
BYLAYER
 70
0
 71
3
 72
11
 73
7
 74
0
 42
0.0000001
 43
0.0000001
 44
0.0000000001
 40
0.0
 40
0.0
 40
0.0
 40
0.0
 40
0.2816575436
 40
0.54206554
 40
0.7808936914
 40
1.0
 40
1.0
 40
1.0
 40
1.0
 10
17.5848929515
 20
46.3583097914
 30
0.0
 10
17.3435735891
 20
46.1847703232
 30
0.0
 10
16.8595887438
 20
45.8765752746
 30
0.0
 10
16.1084728854
 20
45.5304711832
 30
0.0
 10
15.3749055299
 20
45.325619107
 30
0.0
 10
14.8889893954
 20
45.2863788394
 30
0.0
 10
14.6579169844
 20
45.2948419332
 30
0.0
  0
SPLINE
  5
30A
100
AcDbEntity
  8
0
100
AcDbSpline
 62
7
  6
BYLAYER
 70
0
 71
3
 72
11
 73
7
 74
0
 42
0.0000001
 43
0.0000001
 44
0.0000000001
 40
0.0
 40
0.0
 40
0.0
 40
0.0
 40
0.2719375206
 40
0.5329481728
 40
0.7770486601
 40
1.0
 40
1.0
 40
1.0
 40
1.0
 10
10.4483874983
 20
31.7350388009
 30
0.0
 10
10.4202661424
 20
31.6772406173
 30
0.0
 10
10.371495341
 20
31.5607387397
 30
0.0
 10
10.3211177858
 20
31.3836151472
 30
0.0
 10
10.2964776862
 20
31.2127610271
 30
0.0
 10
10.2978276481
 20
31.1017054842
 30
0.0
 10
10.3037597335
 20
31.0493427243
 30
0.0
  0
SPLINE
  5
30B
100
AcDbEntity
  8
0
100
AcDbSpline
 62
7
  6
BYLAYER
 70
0
 71
3
 72
9
 73
5
 74
0
 42
0.0000001
 43
0.0000001
 44
0.0000000001
 40
0.0
 40
0.0
 40
0.0
 40
0.0
 40
0.4884323557
 40
1.0
 40
1.0
 40
1.0
 40
1.0
 10
11.9547747723
 20
34.549991567
 30
0.0
 10
11.875379921
 20
34.4812952307
 30
0.0
 10
11.7293877973
 20
34.3210694327
 30
0.0
 10
11.6167425084
 20
34.1363738457
 30
0.0
 10
11.5686332454
 20
34.0374942601
 30
0.0
  0
SPLINE
  5
30C
100
AcDbEntity
  8
0
100
AcDbSpline
 62
7
  6
BYLAYER
 70
0
 71
3
 72
9
 73
5
 74
0
 42
0.0000001
 43
0.0000001
 44
0.0000000001
 40
0.0
 40
0.0
 40
0.0
 40
0.0
 40
0.469278693
 40
1.0
 40
1.0
 40
1.0
 40
1.0
 10
12.3002136141
 20
34.7484665174
 30
0.0
 10
12.2399091489
 20
34.731369316
 30
0.0
 10
12.1166925854
 20
34.6758641301
 30
0.0
 10
12.0083817492
 20
34.5963749639
 30
0.0
 10
11.9547747723
 20
34.549991567
 30
0.0
  0
SPLINE
  5
30D
100
AcDbEntity
  8
0
100
AcDbSpline
 62
7
  6
BYLAYER
 70
0
 71
3
 72
9
 73
5
 74
0
 42
0.0000001
 43
0.0000001
 44
0.0000000001
 40
0.0
 40
0.0
 40
0.0
 40
0.0
 40
0.2402149776
 40
1.0
 40
1.0
 40
1.0
 40
1.0
 10
13.2943889279
 20
35.0182268144
 30
0.0
 10
13.2921909346
 20
35.0189407541
 30
0.0
 10
13.2828676891
 20
35.0213783623
 30
0.0
 10
13.273039373
 20
35.0216285752
 30
0.0
 10
13.2657708481
 20
35.0208541793
 30
0.0
  0
SPLINE
  5
30E
100
AcDbEntity
  8
0
100
AcDbSpline
 62
7
  6
BYLAYER
 70
0
 71
3
 72
9
 73
5
 74
0
 42
0.0000001
 43
0.0000001
 44
0.0000000001
 40
0.0
 40
0.0
 40
0.0
 40
0.0
 40
0.2428671496
 40
1.0
 40
1.0
 40
1.0
 40
1.0
 10
13.2657708481
 20
35.0208541793
 30
0.0
 10
13.2644780847
 20
35.020716447
 30
0.0
 10
13.259168642
 20
35.0200257286
 30
0.0
 10
13.2539247319
 20
35.0188576233
 30
0.0
 10
13.2500254473
 20
35.0177521189
 30
0.0
  0
ENDSEC
  0
SECTION
  2
OBJECTS
  0
DICTIONARY
  5
C
100
AcDbDictionary
280
0
281
1
  3
ACAD_GROUP
350
D
  3
ACAD_MLINESTYLE
350
17
  3
ACAD_LAYOUT
350
1A
  3
ACAD_PLOTSETTINGS
350
19
  3
ACAD_PLOTSTYLENAME
350
E
  0
DICTIONARY
  5
D
102
{ACAD_REACTORS
330
C
102
}
100
AcDbDictionary
280
0
281
1
  0
ACDBDICTIONARYWDFLT
  5
E
102
{ACAD_REACTORS
330
C
102
}
100
AcDbDictionary
281
1
  3
Normal
350
F
100
AcDbDictionaryWithDefault
340
F
  0
DICTIONARY
  5
17
102
{ACAD_REACTORS
330
C
102
}
100
AcDbDictionary
280
0
281
1
  3
Standard
350
18
  0
DICTIONARY
  5
19
102
{ACAD_REACTORS
330
C
102
}
100
AcDbDictionary
281
1
  0
DICTIONARY
  5
1A
102
{ACAD_REACTORS
330
C
102
}
100
AcDbDictionary
281
1
  3
Model
350
30F
  3
Layout1
350
310
  0
ACDBPLACEHOLDER
  5
F
102
{ACAD_REACTORS
330
E
102
}
  0
MLINESTYLE
  5
18
102
{ACAD_REACTORS
330
17
102
}
100
AcDbMlineStyle
  2
STANDARD
 70
0
  3

 62
256
 51
90.0
 52
90.0
 71
2
 49
0.5
 62
256
  6
BYLAYER
 49
-0.5
 62
256
  6
BYLAYER
  0
LAYOUT
  5
30F
102
{ACAD_REACTORS
330
1A
102
}
100
AcDbPlotSettings
  1

  2
none_device
  4

  6

 40
0.0
 41
0.0
 42
0.0
 43
0.0
 44
210.0
 45
297.0
 46
0.0
 47
0.0
 48
0.0
 49
0.0
140
0.0
141
0.0
142
1.0
143
1.0
 70
1024
 72
1
 73
0
 74
0
  7

 75
0
147
1.0
148
0.0
149
0.0
100
AcDbLayout
  1
Model
 70
0
 71
0
 10
0.0
 20
0.0
 11
210.0
 21
297.0
 12
0.0
 22
0.0
 32
0.0
 14
0.0
 24
0.0
 34
0.0
 15
0.0
 25
0.0
 35
0.0
146
0.0
 13
0.0
 23
0.0
 33
0.0
 16
1.0
 26
0.0
 36
0.0
 17
0.0
 27
1.0
 37
0.0
 76
0
330
210
345
0
346
0
  0
LAYOUT
  5
310
102
{ACAD_REACTORS
330
1A
102
}
100
AcDbPlotSettings
  1

  2
none_device
  4

  6

 40
0.0
 41
0.0
 42
0.0
 43
0.0
 44
210.0
 45
297.0
 46
0.0
 47
0.0
 48
0.0
 49
0.0
140
0.0
141
0.0
142
1.0
143
1.0
 70
0
 72
1
 73
0
 74
0
  7

 75
0
147
1.0
148
0.0
149
0.0
100
AcDbLayout
  1
Layout1
 70
0
 71
1
 10
0.0
 20
0.0
 11
210.0
 21
297.0
 12
0.0
 22
0.0
 32
0.0
 14
0.0
 24
0.0
 34
0.0
 15
0.0
 25
0.0
 35
0.0
146
0.0
 13
0.0
 23
0.0
 33
0.0
 16
1.0
 26
0.0
 36
0.0
 17
0.0
 27
1.0
 37
0.0
 76
0
330
211
345
0
346
0
  0
ENDSEC
  0
EOF
