999
DXF file: C:\Users\sesa63760\Dev\_Creo\CAD\MCADPD0004087_3D-CAD\drw0001_4.dxf
999
Pro/ENGINEER 2019471 by Parametric Technology Corporation
  0
SECTION
  2
HEADER
  9
$ACADVER
  1
AC1024
  9
$DWGCODEPAGE
  3
ANSI_1252
  9
$EXTMAX
 10
55.4021900035
 20
78.3545258621
 30
0.0
  9
$EXTMIN
 10
0.0
 20
0.0
 30
0.0
  9
$LIMMIN
 10
0.0
 20
0.0
  9
$LIMMAX
 10
55.4021900035
 20
78.3545258621
  9
$VIEWCTR
 10
27.7010950017
 20
39.177262931
  9
$VIEWSIZE
 40
78.3545258621
  9
$CLAYER
  8
0
  9
$LTSCALE
 40
5.1075542784
  9
$CELTYPE
  6
BYLAYER
  9
$DIMSCALE
 40
1.0
  9
$DIMASZ
 40
0.659549881
  9
$DIMEXO
 40
1.0
  9
$DIMDLI
 40
3.5288556833
  9
$DIMEXE
 40
1.0
  9
$DIMCEN
 40
0.8357816092
  9
$DIMLFAC
 40
1.0
  9
$DIMBLK
  1
_FILLED
  9
$DIMALT
 70
0
  9
$DIMALTF
 40
0.0393700787
  9
$DIMTXT
 40
0.9233698334
  9
$DIMTOL
 70
1
  9
$DIMLIM
 70
0
  9
$DIMTFAC
 40
1.0
  9
$DIMTP
 40
0.01
  9
$DIMTM
 40
0.01
  9
$DIMGAP
 40
0.625
  9
$DIMDSEP
 70
46
  9
$AUNITS
 70
0
  9
$PDMODE
 70
3
  9
$PDSIZE
 40
0.3125
  9
$HANDSEED
  5
282
  9
$TILEMODE
 70
1
  9
$MEASUREMENT
 70
1
  9
$INSUNITS
 70
4
  0
ENDSEC
  0
SECTION
  2
CLASSES
  0
CLASS
  1
ACDBDICTIONARYWDFLT
  2
AcDbDictionaryWithDefault
  3
AutoCAD 2000
 90
0
 91
1
280
0
281
0
  0
CLASS
  1
ACDBPLACEHOLDER
  2
AcDbPlaceHolder
  3
AutoCAD 2000
 90
0
 91
1
280
0
281
0
  0
CLASS
  1
LAYOUT
  2
AcDbLayout
  3
AutoCAD 2000
 90
0
 91
0
280
0
281
0
  0
ENDSEC
  0
SECTION
  2
TABLES
  0
TABLE
  2
VPORT
  5
8
100
AcDbSymbolTable
 70
2
  0
VPORT
  5
1F4
100
AcDbSymbolTableRecord
100
AcDbViewportTableRecord
  2
*ACTIVE
 70
0
 10
0.0
 20
0.0
 11
1.0
 21
1.0
 12
27.7010950017
 22
39.177262931
 13
0.0
 23
0.0
 14
1.0
 24
1.0
 15
0.0
 25
0.0
 16
0.0
 26
0.0
 36
1.0
 17
0.0
 27
0.0
 37
0.0
 40
78.3545258621
 41
0.7070707071
 42
50.0
 43
0.0
 44
0.0
 50
0.0
 51
0.0
 71
0
 72
100
 73
1
 74
1
 75
0
 76
0
 77
0
 78
0
  0
ENDTAB
  0
TABLE
  2
LTYPE
  5
5
100
AcDbSymbolTable
 70
6
  0
LTYPE
  5
14
100
AcDbSymbolTableRecord
100
AcDbLinetypeTableRecord
  2
BYBLOCK
 70
0
  3

 72
65
 73
0
 40
0.0
  0
LTYPE
  5
15
100
AcDbSymbolTableRecord
100
AcDbLinetypeTableRecord
  2
BYLAYER
 70
0
  3

 72
65
 73
0
 40
0.0
  0
LTYPE
  5
16
100
AcDbSymbolTableRecord
100
AcDbLinetypeTableRecord
  2
CONTINUOUS
 70
64
  3
Solid line
 72
65
 73
0
 40
0.0
  0
LTYPE
  5
1F5
100
AcDbSymbolTableRecord
100
AcDbLinetypeTableRecord
  2
CENTER
 70
64
  3
____ _ ____ _ ____ _ ____ _ ____ _ ____ _ ____
 72
65
 73
4
 40
0.6
 49
0.375
 74
0
 49
-0.075
 74
0
 49
0.075
 74
0
 49
-0.075
 74
0
  0
LTYPE
  5
1F6
100
AcDbSymbolTableRecord
100
AcDbLinetypeTableRecord
  2
HIDDEN
 70
64
  3
- - - - - - - - - - - - - - - - - - - -
 72
65
 73
2
 40
0.2
 49
0.1
 74
0
 49
-0.1
 74
0
  0
LTYPE
  5
1F7
100
AcDbSymbolTableRecord
100
AcDbLinetypeTableRecord
  2
PHANTOM
 70
64
  3
_____ _ _ _____ _ _ _____ _ _ _____
 72
65
 73
6
 40
0.8
 49
0.45
 74
0
 49
-0.05
 74
0
 49
0.1
 74
0
 49
-0.05
 74
0
 49
0.1
 74
0
 49
-0.05
 74
0
  0
LTYPE
  5
1F8
100
AcDbSymbolTableRecord
100
AcDbLinetypeTableRecord
  2
DOT
 70
64
  3
. . . . . . . . . . . . . . . . . . . .
 72
65
 73
2
 40
0.2
 49
0.1
 74
0
 49
-0.1
 74
0
  0
LTYPE
  5
1F9
100
AcDbSymbolTableRecord
100
AcDbLinetypeTableRecord
  2
DASHED
 70
64
  3
- - - - - - - - - - - - - - - - - - - -
 72
65
 73
2
 40
0.2
 49
0.1
 74
0
 49
-0.1
 74
0
  0
ENDTAB
  0
TABLE
  2
LAYER
  5
2
100
AcDbSymbolTable
 70
36
  0
LAYER
  5
10
100
AcDbSymbolTableRecord
100
AcDbLayerTableRecord
  2
0
 70
0
 62
7
  6
CONTINUOUS
370
-3
390
F
  0
LAYER
  5
1FA
100
AcDbSymbolTableRecord
100
AcDbLayerTableRecord
  2
DEFAULT_1
 70
0
 62
7
  6
CENTER
370
-3
390
F
  0
LAYER
  5
1FB
100
AcDbSymbolTableRecord
100
AcDbLayerTableRecord
  2
DEFAULT_2
 70
0
 62
7
  6
HIDDEN
370
-3
390
F
  0
LAYER
  5
1FC
100
AcDbSymbolTableRecord
100
AcDbLayerTableRecord
  2
DEFAULT_3
 70
0
 62
7
  6
PHANTOM
370
-3
390
F
  0
LAYER
  5
1FD
100
AcDbSymbolTableRecord
100
AcDbLayerTableRecord
  2
00_COMPONENTS
 70
0
 62
7
  6
CONTINUOUS
370
-3
390
F
  0
LAYER
  5
1FE
100
AcDbSymbolTableRecord
100
AcDbLayerTableRecord
  2
01_1_DEFAULT_DATUMS
 70
0
 62
7
  6
CONTINUOUS
370
-3
390
F
  0
LAYER
  5
1FF
100
AcDbSymbolTableRecord
100
AcDbLayerTableRecord
  2
01_PLANES
 70
0
 62
7
  6
CONTINUOUS
370
-3
390
F
  0
LAYER
  5
200
100
AcDbSymbolTableRecord
100
AcDbLayerTableRecord
  2
02_COORD_SYS
 70
0
 62
7
  6
CONTINUOUS
370
-3
390
F
  0
LAYER
  5
201
100
AcDbSymbolTableRecord
100
AcDbLayerTableRecord
  2
03_AXES
 70
0
 62
7
  6
CONTINUOUS
370
-3
390
F
  0
LAYER
  5
202
100
AcDbSymbolTableRecord
100
AcDbLayerTableRecord
  2
04_POINTS
 70
0
 62
7
  6
CONTINUOUS
370
-3
390
F
  0
LAYER
  5
203
100
AcDbSymbolTableRecord
100
AcDbLayerTableRecord
  2
05_CURVES
 70
0
 62
7
  6
CONTINUOUS
370
-3
390
F
  0
LAYER
  5
204
100
AcDbSymbolTableRecord
100
AcDbLayerTableRecord
  2
06_SURFS
 70
0
 62
7
  6
CONTINUOUS
370
-3
390
F
  0
LAYER
  5
205
100
AcDbSymbolTableRecord
100
AcDbLayerTableRecord
  2
07_COSMETICS
 70
0
 62
7
  6
CONTINUOUS
370
-3
390
F
  0
LAYER
  5
206
100
AcDbSymbolTableRecord
100
AcDbLayerTableRecord
  2
10_NOTES
 70
0
 62
7
  6
CONTINUOUS
370
-3
390
F
  0
LAYER
  5
207
100
AcDbSymbolTableRecord
100
AcDbLayerTableRecord
  2
11_NOTES_PUB
 70
0
 62
7
  6
CONTINUOUS
370
-3
390
F
  0
LAYER
  5
208
100
AcDbSymbolTableRecord
100
AcDbLayerTableRecord
  2
13_REF_GTOL
 70
0
 62
7
  6
CONTINUOUS
370
-3
390
F
  0
LAYER
  5
209
100
AcDbSymbolTableRecord
100
AcDbLayerTableRecord
  2
16_MISC
 70
0
 62
7
  6
CONTINUOUS
370
-3
390
F
  0
LAYER
  5
20A
100
AcDbSymbolTableRecord
100
AcDbLayerTableRecord
  2
17_NO_PRINT
 70
0
 62
7
  6
CONTINUOUS
370
-3
390
F
  0
LAYER
  5
20B
100
AcDbSymbolTableRecord
100
AcDbLayerTableRecord
  2
18_DATUM_CAMS_JOINTS
 70
0
 62
7
  6
CONTINUOUS
370
-3
390
F
  0
LAYER
  5
20C
100
AcDbSymbolTableRecord
100
AcDbLayerTableRecord
  2
19_DATUM_FUNCTIONAL
 70
0
 62
7
  6
CONTINUOUS
370
-3
390
F
  0
LAYER
  5
20D
100
AcDbSymbolTableRecord
100
AcDbLayerTableRecord
  2
20_DATUM_KINEMATIC_SCHEME
 70
0
 62
7
  6
CONTINUOUS
370
-3
390
F
  0
ENDTAB
  0
TABLE
  2
STYLE
  5
3
100
AcDbSymbolTable
 70
1
  0
STYLE
  5
11
100
AcDbSymbolTableRecord
100
AcDbTextStyleTableRecord
  2
STANDARD
 70
0
 40
0.0
 41
1.0
 50
0.0
 71
0
 42
0.2
  3
ARIAL.TTF
  4

  0
STYLE
  5
20E
100
AcDbSymbolTableRecord
100
AcDbTextStyleTableRecord
  2
TEXTSTYLE_1
 70
0
 40
0.0
 41
0.8
 50
0.0
 71
0
 42
0.2
  3
gdt
  4

  0
ENDTAB
  0
TABLE
  2
VIEW
  5
6
100
AcDbSymbolTable
 70
0
  0
ENDTAB
  0
TABLE
  2
UCS
  5
7
100
AcDbSymbolTable
 70
0
  0
ENDTAB
  0
TABLE
  2
APPID
  5
9
100
AcDbSymbolTable
 70
1
  0
APPID
  5
20F
100
AcDbSymbolTableRecord
100
AcDbRegAppTableRecord
  2
ACAD
 70
0
  0
ENDTAB
  0
TABLE
  2
BLOCK_RECORD
  5
1
100
AcDbSymbolTable
 70
0
  0
BLOCK_RECORD
  5
210
100
AcDbSymbolTableRecord
100
AcDbBlockTableRecord
  2
*Model_Space
  0
BLOCK_RECORD
  5
211
100
AcDbSymbolTableRecord
100
AcDbBlockTableRecord
  2
*Paper_Space
  0
BLOCK_RECORD
  5
212
100
AcDbSymbolTableRecord
100
AcDbBlockTableRecord
  2
_FILLED
  0
ENDTAB
  0
TABLE
  2
DIMSTYLE
  5
A
100
AcDbSymbolTable
 70
1
100
AcDbDimStyleTable
 71
0
  0
DIMSTYLE
105
213
100
AcDbSymbolTableRecord
100
AcDbDimStyleTableRecord
  2
STANDARD
 70
0
  3

  4

 40
1.0
 41
0.659549881
 42
1.0
 43
0.38
 44
1.0
 45
0.0
 46
0.0
 47
0.01
 48
0.01
140
0.9233698334
141
0.09
142
0.0
143
25.4
144
1.0
145
0.0
146
1.0
147
0.625
 71
1
 72
0
 73
0
 74
0
 75
0
 76
0
 77
1
 78
8
 79
2
170
0
171
1
172
0
173
0
174
0
175
0
176
0
177
0
178
0
270
2
179
2
271
2
272
2
273
2
274
2
275
0
280
0
281
0
282
0
283
1
284
8
285
0
286
0
287
3
288
0
340
11
278
46
341
212
342
212
343
212
344
212
  0
ENDTAB
  0
ENDSEC
  0
SECTION
  2
BLOCKS
  0
BLOCK
  5
20
100
AcDbEntity
  8
0
100
AcDbBlockBegin
  2
*Model_Space
 70
0
 10
0.0
 20
0.0
 30
0.0
  3
*Model_Space
  1

  0
ENDBLK
  5
21
100
AcDbEntity
  8
0
100
AcDbBlockEnd
  0
BLOCK
  5
1C
100
AcDbEntity
  8
0
100
AcDbBlockBegin
  2
*Paper_Space
 70
0
 10
0.0
 20
0.0
 30
0.0
  3
*Paper_Space
  1

  0
ENDBLK
  5
1D
100
AcDbEntity
  8
0
100
AcDbBlockEnd
  0
BLOCK
  5
214
100
AcDbEntity
  8
0
100
AcDbBlockBegin
  2
_FILLED
 70
64
 10
0.0
 20
0.0
  3
_FILLED
  1

  0
SOLID
  5
215
100
AcDbEntity
  8
0
  6
BYBLOCK
 62
0
100
AcDbTrace
 10
0.0
 20
0.0
 11
-1.0
 21
0.25
 12
-1.0
 22
-0.25
 13
-1.0
 23
-0.25
  0
ENDBLK
  5
216
100
AcDbEntity
  8
0
  6
BYBLOCK
 62
0
100
AcDbBlockEnd
  0
ENDSEC
  0
SECTION
  2
ENTITIES
  0
LINE
  5
217
100
AcDbEntity
  8
0
100
AcDbLine
 62
7
  6
BYLAYER
 10
6.1703837948
 20
22.8875
 11
6.1703837948
 21
40.5875
  0
LINE
  5
218
100
AcDbEntity
  8
0
100
AcDbLine
 62
7
  6
BYLAYER
 10
7.6703837948
 20
40.5875
 11
7.6703837948
 21
53.0875
  0
LINE
  5
219
100
AcDbEntity
  8
0
100
AcDbLine
 62
7
  6
BYLAYER
 10
7.1105761737
 20
42.9374999999
 11
7.6703837948
 21
43.9071152423
  0
LINE
  5
21A
100
AcDbEntity
  8
0
100
AcDbLine
 62
7
  6
BYLAYER
 10
9.6703837948
 20
22.8875
 11
9.6703837948
 21
23.1875
  0
LINE
  5
21B
100
AcDbEntity
  8
0
100
AcDbLine
 62
7
  6
BYLAYER
 10
12.5203837948
 20
53.0875
 11
12.5203837948
 21
50.5375
  0
LINE
  5
21C
100
AcDbEntity
  8
0
100
AcDbLine
 62
7
  6
BYLAYER
 10
13.2203837949
 20
45.5375
 11
13.2203837949
 21
50.3375
  0
LINE
  5
21D
100
AcDbEntity
  8
0
100
AcDbLine
 62
7
  6
BYLAYER
 10
13.2304170017
 20
50.3375
 11
13.2308925092
 21
52.7819879383
  0
LINE
  5
21E
100
AcDbEntity
  8
0
100
AcDbLine
 62
7
  6
BYLAYER
 10
13.2538119549
 20
45.5375
 11
13.2538119549
 21
50.3375
  0
LINE
  5
21F
100
AcDbEntity
  8
0
100
AcDbLine
 62
7
  6
BYLAYER
 10
13.2933015692
 20
45.5375
 11
13.2933015692
 21
53.4375
  0
LINE
  5
220
100
AcDbEntity
  8
0
100
AcDbLine
 62
7
  6
BYLAYER
 10
50.6703837948
 20
22.8875
 11
47.1703837948
 21
22.8875
  0
LINE
  5
221
100
AcDbEntity
  8
0
100
AcDbLine
 62
7
  6
BYLAYER
 10
39.5703837948
 20
22.8875
 11
38.5703837948
 21
22.8875
  0
LINE
  5
222
100
AcDbEntity
  8
0
100
AcDbLine
 62
7
  6
BYLAYER
 10
30.9703837948
 20
22.8875
 11
25.8703837948
 21
22.8875
  0
LINE
  5
223
100
AcDbEntity
  8
0
100
AcDbLine
 62
7
  6
BYLAYER
 10
18.2703837948
 20
22.8875
 11
17.2703837948
 21
22.8875
  0
LINE
  5
224
100
AcDbEntity
  8
0
100
AcDbLine
 62
7
  6
BYLAYER
 10
9.6703837948
 20
22.8875
 11
6.1703837948
 21
22.8875
  0
LINE
  5
225
100
AcDbEntity
  8
0
100
AcDbLine
 62
7
  6
BYLAYER
 10
47.1703837948
 20
23.1875
 11
39.5703837948
 21
23.1875
  0
LINE
  5
226
100
AcDbEntity
  8
0
100
AcDbLine
 62
7
  6
BYLAYER
 10
38.5703837948
 20
23.1875
 11
30.9703837948
 21
23.1875
  0
LINE
  5
227
100
AcDbEntity
  8
0
100
AcDbLine
 62
7
  6
BYLAYER
 10
25.8703837948
 20
23.1875
 11
18.2703837948
 21
23.1875
  0
LINE
  5
228
100
AcDbEntity
  8
0
100
AcDbLine
 62
7
  6
BYLAYER
 10
17.2703837948
 20
23.1875
 11
9.6703837948
 21
23.1875
  0
LINE
  5
229
100
AcDbEntity
  8
0
100
AcDbLine
 62
7
  6
BYLAYER
 10
14.2203837948
 20
45.5375
 11
14.2203837948
 21
50.3375
  0
LINE
  5
22A
100
AcDbEntity
  8
0
100
AcDbLine
 62
7
  6
BYLAYER
 10
14.2299414943
 20
50.3375
 11
14.2299414943
 21
52.7364903152
  0
LINE
  5
22B
100
AcDbEntity
  8
0
100
AcDbLine
 62
7
  6
BYLAYER
 10
14.2507867821
 20
45.5375
 11
14.2507867821
 21
50.3375
  0
LINE
  5
22C
100
AcDbEntity
  8
0
100
AcDbLine
 62
7
  6
BYLAYER
 10
14.2867026756
 20
45.5375
 11
14.2867026756
 21
53.4375
  0
LINE
  5
22D
100
AcDbEntity
  8
0
100
AcDbLine
 62
7
  6
BYLAYER
 10
14.2900021224
 20
45.5375
 11
14.2900021224
 21
53.4375
  0
LINE
  5
22E
100
AcDbEntity
  8
0
100
AcDbLine
 62
7
  6
BYLAYER
 10
17.2703837948
 20
22.8875
 11
17.2703837948
 21
23.1875
  0
LINE
  5
22F
100
AcDbEntity
  8
0
100
AcDbLine
 62
7
  6
BYLAYER
 10
17.5703837948
 20
54.0875
 11
17.5703837948
 21
50.5375
  0
LINE
  5
230
100
AcDbEntity
  8
0
100
AcDbLine
 62
7
  6
BYLAYER
 10
18.2703837948
 20
22.8875
 11
18.2703837948
 21
23.1875
  0
LINE
  5
231
100
AcDbEntity
  8
0
100
AcDbLine
 62
7
  6
BYLAYER
 10
19.0703837948
 20
50.5375
 11
19.0703837948
 21
54.0875
  0
LINE
  5
232
100
AcDbEntity
  8
0
100
AcDbLine
 62
7
  6
BYLAYER
 10
21.3290757972
 20
50.5375
 11
21.3290757972
 21
53.4375
  0
LINE
  5
233
100
AcDbEntity
  8
0
100
AcDbLine
 62
7
  6
BYLAYER
 10
21.338142527
 20
50.5375
 11
21.338142527
 21
53.4375
  0
LINE
  5
234
100
AcDbEntity
  8
0
100
AcDbLine
 62
7
  6
BYLAYER
 10
50.6703837948
 20
30.9875
 11
6.1703837948
 21
30.9875
  0
LINE
  5
235
100
AcDbEntity
  8
0
100
AcDbLine
 62
7
  6
BYLAYER
 10
7.6703837948
 20
42.2678847577
 11
7.2203837948
 21
42.5276923789
  0
LINE
  5
236
100
AcDbEntity
  8
0
100
AcDbLine
 62
7
  6
BYLAYER
 10
21.5190789551
 20
50.5375
 11
21.5190789551
 21
52.59966672
  0
LINE
  5
237
100
AcDbEntity
  8
0
100
AcDbLine
 62
7
  6
BYLAYER
 10
22.5190140377
 20
50.5375
 11
22.5190140377
 21
52.6055981595
  0
LINE
  5
238
100
AcDbEntity
  8
0
100
AcDbLine
 62
7
  6
BYLAYER
 10
6.1703837948
 20
31.9875
 11
50.6703837948
 21
31.9875
  0
LINE
  5
239
100
AcDbEntity
  8
0
100
AcDbLine
 62
7
  6
BYLAYER
 10
25.8703837948
 20
22.8875
 11
25.8703837948
 21
23.1875
  0
LINE
  5
23A
100
AcDbEntity
  8
0
100
AcDbLine
 62
7
  6
BYLAYER
 10
50.6703837948
 20
37.7375
 11
6.1703837948
 21
37.7375
  0
LINE
  5
23B
100
AcDbEntity
  8
0
100
AcDbLine
 62
7
  6
BYLAYER
 10
50.6703837948
 20
40.5875
 11
49.1703837948
 21
40.5875
  0
LINE
  5
23C
100
AcDbEntity
  8
0
100
AcDbLine
 62
7
  6
BYLAYER
 10
6.1703837948
 20
40.5875
 11
7.6703837948
 21
40.5875
  0
LINE
  5
23D
100
AcDbEntity
  8
0
100
AcDbLine
 62
7
  6
BYLAYER
 10
30.9703837948
 20
22.8875
 11
30.9703837948
 21
23.1875
  0
LINE
  5
23E
100
AcDbEntity
  8
0
100
AcDbLine
 62
7
  6
BYLAYER
 10
34.3203837949
 20
45.5375
 11
34.3203837949
 21
50.3375
  0
LINE
  5
23F
100
AcDbEntity
  8
0
100
AcDbLine
 62
7
  6
BYLAYER
 10
34.3304170017
 20
50.3375
 11
34.3308925092
 21
52.7819879383
  0
LINE
  5
240
100
AcDbEntity
  8
0
100
AcDbLine
 62
7
  6
BYLAYER
 10
34.3538119549
 20
45.5375
 11
34.3538119549
 21
50.3375
  0
LINE
  5
241
100
AcDbEntity
  8
0
100
AcDbLine
 62
7
  6
BYLAYER
 10
34.3933015692
 20
45.5375
 11
34.3933015692
 21
53.4375
  0
LINE
  5
242
100
AcDbEntity
  8
0
100
AcDbLine
 62
7
  6
BYLAYER
 10
35.3203837948
 20
45.5375
 11
35.3203837948
 21
50.3375
  0
LINE
  5
243
100
AcDbEntity
  8
0
100
AcDbLine
 62
7
  6
BYLAYER
 10
35.3299414943
 20
50.3375
 11
35.3299414943
 21
52.7364903152
  0
LINE
  5
244
100
AcDbEntity
  8
0
100
AcDbLine
 62
7
  6
BYLAYER
 10
35.3507867821
 20
45.5375
 11
35.3507867821
 21
50.3375
  0
LINE
  5
245
100
AcDbEntity
  8
0
100
AcDbLine
 62
7
  6
BYLAYER
 10
35.3867026756
 20
45.5375
 11
35.3867026756
 21
53.4375
  0
LINE
  5
246
100
AcDbEntity
  8
0
100
AcDbLine
 62
7
  6
BYLAYER
 10
35.3900021224
 20
45.5375
 11
35.3900021224
 21
53.4375
  0
LINE
  5
247
100
AcDbEntity
  8
0
100
AcDbLine
 62
7
  6
BYLAYER
 10
49.6203837948
 20
42.5276923788
 11
49.1703837948
 21
42.2678847577
  0
LINE
  5
248
100
AcDbEntity
  8
0
100
AcDbLine
 62
7
  6
BYLAYER
 10
35.3900021224
 20
45.5375
 11
34.3203837949
 21
45.5375
  0
LINE
  5
249
100
AcDbEntity
  8
0
100
AcDbLine
 62
7
  6
BYLAYER
 10
14.2900021224
 20
45.5375
 11
13.2203837949
 21
45.5375
  0
LINE
  5
24A
100
AcDbEntity
  8
0
100
AcDbLine
 62
7
  6
BYLAYER
 10
37.7703837948
 20
54.0875
 11
37.7703837948
 21
50.5375
  0
LINE
  5
24B
100
AcDbEntity
  8
0
100
AcDbLine
 62
7
  6
BYLAYER
 10
38.5703837948
 20
22.8875
 11
38.5703837948
 21
23.1875
  0
LINE
  5
24C
100
AcDbEntity
  8
0
100
AcDbLine
 62
7
  6
BYLAYER
 10
39.2703837948
 20
50.5375
 11
39.2703837948
 21
54.0875
  0
LINE
  5
24D
100
AcDbEntity
  8
0
100
AcDbLine
 62
7
  6
BYLAYER
 10
39.5703837948
 20
22.8875
 11
39.5703837948
 21
23.1875
  0
LINE
  5
24E
100
AcDbEntity
  8
0
100
AcDbLine
 62
7
  6
BYLAYER
 10
40.9499171977
 20
54.0729656548
 11
41.027794785
 21
54.9875
  0
LINE
  5
24F
100
AcDbEntity
  8
0
100
AcDbLine
 62
7
  6
BYLAYER
 10
49.1703837948
 20
48.4875
 11
7.6703837948
 21
48.4875
  0
LINE
  5
250
100
AcDbEntity
  8
0
100
AcDbLine
 62
7
  6
BYLAYER
 10
49.1703837948
 20
48.7875
 11
7.6703837948
 21
48.7875
  0
LINE
  5
251
100
AcDbEntity
  8
0
100
AcDbLine
 62
7
  6
BYLAYER
 10
40.9481138528
 20
54.0302532737
 11
40.9481139999
 21
54.0302328688
  0
LINE
  5
252
100
AcDbEntity
  8
0
100
AcDbLine
 62
7
  6
BYLAYER
 10
40.9481012708
 20
50.5375
 11
40.9481012708
 21
54.0302328226
  0
LINE
  5
253
100
AcDbEntity
  8
0
100
AcDbLine
 62
7
  6
BYLAYER
 10
41.94628512
 20
53.9875
 11
42.0314403282
 21
54.9875
  0
LINE
  5
254
100
AcDbEntity
  8
0
100
AcDbLine
 62
7
  6
BYLAYER
 10
35.3522993685
 20
50.3375
 11
34.3203837949
 21
50.3375
  0
LINE
  5
255
100
AcDbEntity
  8
0
100
AcDbLine
 62
7
  6
BYLAYER
 10
14.2522993685
 20
50.3375
 11
13.2203837949
 21
50.3375
  0
LINE
  5
256
100
AcDbEntity
  8
0
100
AcDbLine
 62
7
  6
BYLAYER
 10
12.5203837948
 20
50.5375
 11
17.5703837948
 21
50.5375
  0
LINE
  5
257
100
AcDbEntity
  8
0
100
AcDbLine
 62
7
  6
BYLAYER
 10
19.0703837948
 20
50.5375
 11
37.7703837948
 21
50.5375
  0
LINE
  5
258
100
AcDbEntity
  8
0
100
AcDbLine
 62
7
  6
BYLAYER
 10
39.2703837948
 20
50.5375
 11
43.5203837948
 21
50.5375
  0
LINE
  5
259
100
AcDbEntity
  8
0
100
AcDbLine
 62
7
  6
BYLAYER
 10
41.94628512
 20
53.9875
 11
41.94628512
 21
50.5375
  0
LINE
  5
25A
100
AcDbEntity
  8
0
100
AcDbLine
 62
7
  6
BYLAYER
 10
42.0314403282
 20
50.5375
 11
42.0314403282
 21
54.9875
  0
LINE
  5
25B
100
AcDbEntity
  8
0
100
AcDbLine
 62
7
  6
BYLAYER
 10
13.2762762822
 20
53.4375
 11
14.2900021224
 21
53.4375
  0
LINE
  5
25C
100
AcDbEntity
  8
0
100
AcDbLine
 62
7
  6
BYLAYER
 10
21.3290757972
 20
53.4375
 11
22.4436467553
 21
53.4375
  0
LINE
  5
25D
100
AcDbEntity
  8
0
100
AcDbLine
 62
7
  6
BYLAYER
 10
34.3762762822
 20
53.4375
 11
35.3900021224
 21
53.4375
  0
LINE
  5
25E
100
AcDbEntity
  8
0
100
AcDbLine
 62
7
  6
BYLAYER
 10
49.0364091986
 20
53.5875
 11
43.6543583911
 21
53.5875
  0
LINE
  5
25F
100
AcDbEntity
  8
0
100
AcDbLine
 62
7
  6
BYLAYER
 10
39.2703837948
 20
53.5875
 11
37.7703837948
 21
53.5875
  0
LINE
  5
260
100
AcDbEntity
  8
0
100
AcDbLine
 62
7
  6
BYLAYER
 10
19.0703837948
 20
53.5875
 11
17.5703837948
 21
53.5875
  0
LINE
  5
261
100
AcDbEntity
  8
0
100
AcDbLine
 62
7
  6
BYLAYER
 10
12.3864091986
 20
53.5875
 11
7.8043583911
 21
53.5875
  0
LINE
  5
262
100
AcDbEntity
  8
0
100
AcDbLine
 62
7
  6
BYLAYER
 10
43.5203837948
 20
50.5375
 11
43.5203837948
 21
53.0875
  0
LINE
  5
263
100
AcDbEntity
  8
0
100
AcDbLine
 62
7
  6
BYLAYER
 10
48.1703837948
 20
54.0875
 11
44.5203837948
 21
54.0875
  0
LINE
  5
264
100
AcDbEntity
  8
0
100
AcDbLine
 62
7
  6
BYLAYER
 10
39.2703837948
 20
54.0875
 11
37.7703837948
 21
54.0875
  0
LINE
  5
265
100
AcDbEntity
  8
0
100
AcDbLine
 62
7
  6
BYLAYER
 10
19.0703837948
 20
54.0875
 11
17.5703837948
 21
54.0875
  0
LINE
  5
266
100
AcDbEntity
  8
0
100
AcDbLine
 62
7
  6
BYLAYER
 10
11.5203837948
 20
54.0875
 11
8.6703837948
 21
54.0875
  0
LINE
  5
267
100
AcDbEntity
  8
0
100
AcDbLine
 62
7
  6
BYLAYER
 10
42.0314403282
 20
54.9875
 11
41.027794785
 21
54.9875
  0
LINE
  5
268
100
AcDbEntity
  8
0
100
AcDbLine
 62
7
  6
BYLAYER
 10
47.1703837948
 20
22.8875
 11
47.1703837948
 21
23.1875
  0
LINE
  5
269
100
AcDbEntity
  8
0
100
AcDbLine
 62
7
  6
BYLAYER
 10
49.1703837948
 20
40.5875
 11
49.1703837948
 21
53.0875
  0
LINE
  5
26A
100
AcDbEntity
  8
0
100
AcDbLine
 62
7
  6
BYLAYER
 10
49.1703837948
 20
43.9071152423
 11
49.730191416
 21
42.9375
  0
LINE
  5
26B
100
AcDbEntity
  8
0
100
AcDbLine
 62
7
  6
BYLAYER
 10
50.6703837948
 20
22.8875
 11
50.6703837948
 21
40.5875
  0
ARC
  5
26C
100
AcDbEntity
  8
0
100
AcDbCircle
 62
7
  6
BYLAYER
 10
25.2447667456
 20
52.2795494526
 40
12.024375971
100
AcDbArc
 50
174.47383747
 51
177.6051520104
  0
ARC
  5
26D
100
AcDbEntity
  8
0
100
AcDbCircle
 62
7
  6
BYLAYER
 10
46.3447667301
 20
52.2795494536
 40
12.0243759554
100
AcDbArc
 50
174.4738374677
 51
177.6051520117
  0
ARC
  5
26E
100
AcDbEntity
  8
0
100
AcDbCircle
 62
7
  6
BYLAYER
 10
8.6703837948
 20
53.0875
 40
1.0
100
AcDbArc
 50
90.0
 51
180.0
  0
ARC
  5
26F
100
AcDbEntity
  8
0
100
AcDbCircle
 62
7
  6
BYLAYER
 10
11.5203837948
 20
53.0875
 40
1.0
100
AcDbArc
 50
0.0
 51
90.0
  0
ARC
  5
270
100
AcDbEntity
  8
0
100
AcDbCircle
 62
7
  6
BYLAYER
 10
44.5203837948
 20
53.0875
 40
1.0
100
AcDbArc
 50
90.0
 51
180.0
  0
ARC
  5
271
100
AcDbEntity
  8
0
100
AcDbCircle
 62
7
  6
BYLAYER
 10
48.1703837948
 20
53.0875
 40
1.0
100
AcDbArc
 50
0.0
 51
90.0
  0
ARC
  5
272
100
AcDbEntity
  8
0
100
AcDbCircle
 62
7
  6
BYLAYER
 10
34.8594516327
 20
52.7596540955
 40
0.5290300821
100
AcDbArc
 50
177.5793852489
 51
180.0455945425
  0
ARC
  5
273
100
AcDbEntity
  8
0
100
AcDbCircle
 62
7
  6
BYLAYER
 10
13.75945161
 20
52.7596540959
 40
0.5290300595
100
AcDbArc
 50
177.5793852033
 51
180.0455945959
  0
ARC
  5
274
100
AcDbEntity
  8
0
100
AcDbCircle
 62
7
  6
BYLAYER
 10
41.4517590829
 20
54.0303833005
 40
0.5036452468
100
AcDbArc
 50
175.1499485774
 51
180.0147921248
  0
ARC
  5
275
100
AcDbEntity
  8
0
100
AcDbCircle
 62
7
  6
BYLAYER
 10
7.3703837948
 20
42.7875
 40
0.3
100
AcDbArc
 50
150.0000000155
 51
239.999999999
  0
ARC
  5
276
100
AcDbEntity
  8
0
100
AcDbCircle
 62
7
  6
BYLAYER
 10
49.4703837948
 20
42.7875
 40
0.3
100
AcDbArc
 50
299.9999999952
 51
29.99999999
  0
ARC
  5
277
100
AcDbEntity
  8
0
100
AcDbCircle
 62
7
  6
BYLAYER
 10
22.2479833481
 20
52.6056291759
 40
0.271030007
100
AcDbArc
 50
359.9934431714
 51
1.2474487839
  0
SPLINE
  5
278
100
AcDbEntity
  8
0
100
AcDbSpline
 62
7
  6
BYLAYER
 70
0
 71
3
 72
19
 73
15
 74
0
 42
0.0000001
 43
0.0000001
 44
0.0000000001
 40
0.0
 40
0.0
 40
0.0
 40
0.0
 40
0.0480787017
 40
0.098080708
 40
0.1516486006
 40
0.2102077568
 40
0.345306269
 40
0.5015004267
 40
0.6570787816
 40
0.7910209254
 40
0.8490742709
 40
0.902253857
 40
0.9520100828
 40
1.0
 40
1.0
 40
1.0
 40
1.0
 10
21.5190789551
 20
52.59966672
 30
0.0
 10
21.5195561798
 20
52.5778663549
 30
0.0
 10
21.5259883494
 20
52.5333410452
 30
0.0
 10
21.5517567272
 20
52.4689503562
 30
0.0
 10
21.5937799923
 20
52.4079123534
 30
0.0
 10
21.6753247393
 20
52.3299712953
 30
0.0
 10
21.8200528863
 20
52.2564656502
 30
0.0
 10
22.0238134741
 20
52.2265978815
 30
0.0
 10
22.2266173926
 20
52.2592527499
 30
0.0
 10
22.3692797637
 20
52.3345458941
 30
0.0
 10
22.4487548875
 20
52.4132891465
 30
0.0
 10
22.4892932837
 20
52.4747097865
 30
0.0
 10
22.5135841452
 20
52.5393267061
 30
0.0
 10
22.5190133533
 20
52.5838328392
 30
0.0
 10
22.5190133533
 20
52.6055981597
 30
0.0
  0
SPLINE
  5
279
100
AcDbEntity
  8
0
100
AcDbSpline
 62
7
  6
BYLAYER
 70
0
 71
3
 72
19
 73
15
 74
0
 42
0.0000001
 43
0.0000001
 44
0.0000000001
 40
0.0
 40
0.0
 40
0.0
 40
0.0
 40
0.1079123562
 40
0.2217888932
 40
0.2834030152
 40
0.3492481117
 40
0.419832659
 40
0.4942901715
 40
0.5697225974
 40
0.6425634579
 40
0.7108781941
 40
0.774593506
 40
0.8911385613
 40
1.0
 40
1.0
 40
1.0
 40
1.0
 10
40.9481138532
 20
54.0302328688
 30
0.0
 10
40.9481158221
 20
53.9753432704
 30
0.0
 10
40.9667929252
 20
53.8617199285
 30
0.0
 10
41.0377930748
 20
53.7327363244
 30
0.0
 10
41.1237198901
 20
53.6441988935
 30
0.0
 10
41.2070797523
 20
53.5864002376
 30
0.0
 10
41.3067638766
 20
53.5445753792
 30
0.0
 10
41.4181663328
 20
53.5248877095
 30
0.0
 10
41.5323071547
 20
53.5311970303
 30
0.0
 10
41.6389808713
 20
53.5621887894
 30
0.0
 10
41.7311603265
 20
53.6124497099
 30
0.0
 10
41.828355063
 20
53.6943929227
 30
0.0
 10
41.912685047
 20
53.8188879085
 30
0.0
 10
41.9415868798
 20
53.9323273295
 30
0.0
 10
41.94628512
 20
53.9875
 30
0.0
  0
SPLINE
  5
27A
100
AcDbEntity
  8
0
100
AcDbSpline
 62
7
  6
BYLAYER
 70
0
 71
3
 72
26
 73
22
 74
0
 42
0.0000001
 43
0.0000001
 44
0.0000000001
 40
0.0
 40
0.0
 40
0.0
 40
0.0
 40
0.0664749919
 40
0.1305769139
 40
0.1917387536
 40
0.2487715205
 40
0.3014872166
 40
0.3504001535
 40
0.3961366353
 40
0.4397310818
 40
0.4818432115
 40
0.5234091622
 40
0.5652783463
 40
0.608336614
 40
0.6534754628
 40
0.7016273685
 40
0.7534962866
 40
0.8096852724
 40
0.8701171359
 40
0.9337515943
 40
1.0
 40
1.0
 40
1.0
 40
1.0
 10
13.2304215689
 20
52.7592331065
 30
0.0
 10
13.2304215686
 20
52.7242116043
 30
0.0
 10
13.2370910233
 20
52.6552293032
 30
0.0
 10
13.2658775389
 20
52.5578096265
 30
0.0
 10
13.3098368445
 20
52.471808875
 30
0.0
 10
13.3646702944
 20
52.3998169359
 30
0.0
 10
13.4260680788
 20
52.3425406077
 30
0.0
 10
13.490810572
 20
52.2991271073
 30
0.0
 10
13.5569766533
 20
52.2680591806
 30
0.0
 10
13.6234835222
 20
52.2479386539
 30
0.0
 10
13.6899634393
 20
52.2376799469
 30
0.0
 10
13.7563066656
 20
52.2366807238
 30
0.0
 10
13.8226574617
 20
52.2448599523
 30
0.0
 10
13.8890576894
 20
52.2626845328
 30
0.0
 10
13.9552875843
 20
52.2911549155
 30
0.0
 10
14.0204980695
 20
52.3316800188
 30
0.0
 10
14.0829581239
 20
52.3858224618
 30
0.0
 10
14.1396871939
 20
52.4546658574
 30
0.0
 10
14.1865040073
 20
52.5378973139
 30
0.0
 10
14.2190034007
 20
52.6333400087
 30
0.0
 10
14.2284829905
 20
52.7016186746
 30
0.0
 10
14.2299414943
 20
52.7364903152
 30
0.0
  0
SPLINE
  5
27B
100
AcDbEntity
  8
0
100
AcDbSpline
 62
7
  6
BYLAYER
 70
0
 71
3
 72
26
 73
22
 74
0
 42
0.0000001
 43
0.0000001
 44
0.0000000001
 40
0.0
 40
0.0
 40
0.0
 40
0.0
 40
0.0664749919
 40
0.1305769139
 40
0.1917387536
 40
0.2487715205
 40
0.3014872166
 40
0.3504001535
 40
0.3961366353
 40
0.4397310818
 40
0.4818432115
 40
0.5234091622
 40
0.5652783463
 40
0.608336614
 40
0.6534754628
 40
0.7016273686
 40
0.7534962866
 40
0.8096852724
 40
0.8701171359
 40
0.9337515943
 40
1.0
 40
1.0
 40
1.0
 40
1.0
 10
34.3304215689
 20
52.7592331066
 30
0.0
 10
34.3304215686
 20
52.7242116043
 30
0.0
 10
34.3370910233
 20
52.6552293032
 30
0.0
 10
34.3658775389
 20
52.5578096265
 30
0.0
 10
34.4098368445
 20
52.471808875
 30
0.0
 10
34.4646702944
 20
52.3998169359
 30
0.0
 10
34.5260680788
 20
52.3425406077
 30
0.0
 10
34.590810572
 20
52.2991271073
 30
0.0
 10
34.6569766533
 20
52.2680591806
 30
0.0
 10
34.7234835222
 20
52.2479386539
 30
0.0
 10
34.7899634393
 20
52.2376799469
 30
0.0
 10
34.8563066656
 20
52.2366807238
 30
0.0
 10
34.9226574617
 20
52.2448599523
 30
0.0
 10
34.9890576894
 20
52.2626845328
 30
0.0
 10
35.0552875843
 20
52.2911549155
 30
0.0
 10
35.1204980695
 20
52.3316800188
 30
0.0
 10
35.1829581239
 20
52.3858224618
 30
0.0
 10
35.2396871939
 20
52.4546658574
 30
0.0
 10
35.2865040073
 20
52.5378973139
 30
0.0
 10
35.3190034007
 20
52.6333400087
 30
0.0
 10
35.3284829905
 20
52.7016186746
 30
0.0
 10
35.3299414943
 20
52.7364903151
 30
0.0
  0
ELLIPSE
  5
27C
100
AcDbEntity
  8
0
100
AcDbEllipse
 62
7
  6
BYLAYER
 10
11.4703837948
 20
52.4804447853
 30
0.0
 11
11.05
 21
-0.0
 31
0.0
 40
0.736196319
 41
0.0161144415
 42
0.117920152
  0
ELLIPSE
  5
27D
100
AcDbEntity
  8
0
100
AcDbEllipse
 62
7
  6
BYLAYER
 10
11.4703837948
 20
52.4804447853
 30
0.0
 11
10.05
 21
0.0
 31
0.0
 40
0.736196319
 41
0.0161144415
 42
0.1297167059
  0
ELLIPSE
  5
27E
100
AcDbEntity
  8
0
100
AcDbEllipse
 62
7
  6
BYLAYER
 10
24.2703837948
 20
52.2792391304
 30
0.0
 11
-0.0
 21
10.4869565218
 31
0.0
 40
0.9583333333
 41
1.4601227706
 42
1.5271806038
  0
ELLIPSE
  5
27F
100
AcDbEntity
  8
0
100
AcDbEllipse
 62
7
  6
BYLAYER
 10
45.3703837948
 20
52.2792391304
 30
0.0
 11
0.0
 21
10.4869565218
 31
0.0
 40
0.9583333333
 41
1.4601227706
 42
1.5271806038
  0
ENDSEC
  0
SECTION
  2
OBJECTS
  0
DICTIONARY
  5
C
100
AcDbDictionary
280
0
281
1
  3
ACAD_GROUP
350
D
  3
ACAD_MLINESTYLE
350
17
  3
ACAD_LAYOUT
350
1A
  3
ACAD_PLOTSETTINGS
350
19
  3
ACAD_PLOTSTYLENAME
350
E
  0
DICTIONARY
  5
D
102
{ACAD_REACTORS
330
C
102
}
100
AcDbDictionary
280
0
281
1
  0
ACDBDICTIONARYWDFLT
  5
E
102
{ACAD_REACTORS
330
C
102
}
100
AcDbDictionary
281
1
  3
Normal
350
F
100
AcDbDictionaryWithDefault
340
F
  0
DICTIONARY
  5
17
102
{ACAD_REACTORS
330
C
102
}
100
AcDbDictionary
280
0
281
1
  3
Standard
350
18
  0
DICTIONARY
  5
19
102
{ACAD_REACTORS
330
C
102
}
100
AcDbDictionary
281
1
  0
DICTIONARY
  5
1A
102
{ACAD_REACTORS
330
C
102
}
100
AcDbDictionary
281
1
  3
Model
350
280
  3
Layout1
350
281
  0
ACDBPLACEHOLDER
  5
F
102
{ACAD_REACTORS
330
E
102
}
  0
MLINESTYLE
  5
18
102
{ACAD_REACTORS
330
17
102
}
100
AcDbMlineStyle
  2
STANDARD
 70
0
  3

 62
256
 51
90.0
 52
90.0
 71
2
 49
0.5
 62
256
  6
BYLAYER
 49
-0.5
 62
256
  6
BYLAYER
  0
LAYOUT
  5
280
102
{ACAD_REACTORS
330
1A
102
}
100
AcDbPlotSettings
  1

  2
none_device
  4

  6

 40
0.0
 41
0.0
 42
0.0
 43
0.0
 44
210.0
 45
297.0
 46
0.0
 47
0.0
 48
0.0
 49
0.0
140
0.0
141
0.0
142
1.0
143
1.0
 70
1024
 72
1
 73
0
 74
0
  7

 75
0
147
1.0
148
0.0
149
0.0
100
AcDbLayout
  1
Model
 70
0
 71
0
 10
0.0
 20
0.0
 11
210.0
 21
297.0
 12
0.0
 22
0.0
 32
0.0
 14
0.0
 24
0.0
 34
0.0
 15
0.0
 25
0.0
 35
0.0
146
0.0
 13
0.0
 23
0.0
 33
0.0
 16
1.0
 26
0.0
 36
0.0
 17
0.0
 27
1.0
 37
0.0
 76
0
330
210
345
0
346
0
  0
LAYOUT
  5
281
102
{ACAD_REACTORS
330
1A
102
}
100
AcDbPlotSettings
  1

  2
none_device
  4

  6

 40
0.0
 41
0.0
 42
0.0
 43
0.0
 44
210.0
 45
297.0
 46
0.0
 47
0.0
 48
0.0
 49
0.0
140
0.0
141
0.0
142
1.0
143
1.0
 70
0
 72
1
 73
0
 74
0
  7

 75
0
147
1.0
148
0.0
149
0.0
100
AcDbLayout
  1
Layout1
 70
0
 71
1
 10
0.0
 20
0.0
 11
210.0
 21
297.0
 12
0.0
 22
0.0
 32
0.0
 14
0.0
 24
0.0
 34
0.0
 15
0.0
 25
0.0
 35
0.0
146
0.0
 13
0.0
 23
0.0
 33
0.0
 16
1.0
 26
0.0
 36
0.0
 17
0.0
 27
1.0
 37
0.0
 76
0
330
211
345
0
346
0
  0
ENDSEC
  0
EOF
