999
DXF file: C:\Users\sesa63760\Dev\_Creo\CAD\MCADID0004042_3D-CAD\drw0001_5.dxf
999
Pro/ENGINEER 2019471 by Parametric Technology Corporation
  0
SECTION
  2
HEADER
  9
$ACADVER
  1
AC1024
  9
$DWGCODEPAGE
  3
ANSI_1252
  9
$EXTMAX
 10
92.5037961312
 20
130.8267973856
 30
0.0
  9
$EXTMIN
 10
0.0
 20
0.0
 30
0.0
  9
$LIMMIN
 10
0.0
 20
0.0
  9
$LIMMAX
 10
92.5037961312
 20
130.8267973856
  9
$VIEWCTR
 10
46.2518980656
 20
65.4133986928
  9
$VIEWSIZE
 40
130.8267973856
  9
$CLAYER
  8
0
  9
$LTSCALE
 40
8.5279690148
  9
$CELTYPE
  6
BYLAYER
  9
$DIMSCALE
 40
1.0
  9
$DIMASZ
 40
1.1012356682
  9
$DIMEXO
 40
1.0
  9
$DIMDLI
 40
5.8920513193
  9
$DIMEXE
 40
1.0
  9
$DIMCEN
 40
1.3954858388
  9
$DIMLFAC
 40
1.0
  9
$DIMBLK
  1
_FILLED
  9
$DIMALT
 70
0
  9
$DIMALTF
 40
0.0393700787
  9
$DIMTXT
 40
1.5417299355
  9
$DIMTOL
 70
1
  9
$DIMLIM
 70
0
  9
$DIMTFAC
 40
1.0
  9
$DIMTP
 40
0.01
  9
$DIMTM
 40
0.01
  9
$DIMGAP
 40
0.625
  9
$DIMDSEP
 70
46
  9
$AUNITS
 70
0
  9
$PDMODE
 70
3
  9
$PDSIZE
 40
0.3125
  9
$HANDSEED
  5
3B2
  9
$TILEMODE
 70
1
  9
$MEASUREMENT
 70
1
  9
$INSUNITS
 70
4
  0
ENDSEC
  0
SECTION
  2
CLASSES
  0
CLASS
  1
ACDBDICTIONARYWDFLT
  2
AcDbDictionaryWithDefault
  3
AutoCAD 2000
 90
0
 91
1
280
0
281
0
  0
CLASS
  1
ACDBPLACEHOLDER
  2
AcDbPlaceHolder
  3
AutoCAD 2000
 90
0
 91
1
280
0
281
0
  0
CLASS
  1
LAYOUT
  2
AcDbLayout
  3
AutoCAD 2000
 90
0
 91
0
280
0
281
0
  0
ENDSEC
  0
SECTION
  2
TABLES
  0
TABLE
  2
VPORT
  5
8
100
AcDbSymbolTable
 70
2
  0
VPORT
  5
1F4
100
AcDbSymbolTableRecord
100
AcDbViewportTableRecord
  2
*ACTIVE
 70
0
 10
0.0
 20
0.0
 11
1.0
 21
1.0
 12
46.2518980656
 22
65.4133986928
 13
0.0
 23
0.0
 14
1.0
 24
1.0
 15
0.0
 25
0.0
 16
0.0
 26
0.0
 36
1.0
 17
0.0
 27
0.0
 37
0.0
 40
130.8267973856
 41
0.7070707071
 42
50.0
 43
0.0
 44
0.0
 50
0.0
 51
0.0
 71
0
 72
100
 73
1
 74
1
 75
0
 76
0
 77
0
 78
0
  0
ENDTAB
  0
TABLE
  2
LTYPE
  5
5
100
AcDbSymbolTable
 70
6
  0
LTYPE
  5
14
100
AcDbSymbolTableRecord
100
AcDbLinetypeTableRecord
  2
BYBLOCK
 70
0
  3

 72
65
 73
0
 40
0.0
  0
LTYPE
  5
15
100
AcDbSymbolTableRecord
100
AcDbLinetypeTableRecord
  2
BYLAYER
 70
0
  3

 72
65
 73
0
 40
0.0
  0
LTYPE
  5
16
100
AcDbSymbolTableRecord
100
AcDbLinetypeTableRecord
  2
CONTINUOUS
 70
64
  3
Solid line
 72
65
 73
0
 40
0.0
  0
LTYPE
  5
1F5
100
AcDbSymbolTableRecord
100
AcDbLinetypeTableRecord
  2
CENTER
 70
64
  3
____ _ ____ _ ____ _ ____ _ ____ _ ____ _ ____
 72
65
 73
4
 40
0.6
 49
0.375
 74
0
 49
-0.075
 74
0
 49
0.075
 74
0
 49
-0.075
 74
0
  0
LTYPE
  5
1F6
100
AcDbSymbolTableRecord
100
AcDbLinetypeTableRecord
  2
HIDDEN
 70
64
  3
- - - - - - - - - - - - - - - - - - - -
 72
65
 73
2
 40
0.2
 49
0.1
 74
0
 49
-0.1
 74
0
  0
LTYPE
  5
1F7
100
AcDbSymbolTableRecord
100
AcDbLinetypeTableRecord
  2
PHANTOM
 70
64
  3
_____ _ _ _____ _ _ _____ _ _ _____
 72
65
 73
6
 40
0.8
 49
0.45
 74
0
 49
-0.05
 74
0
 49
0.1
 74
0
 49
-0.05
 74
0
 49
0.1
 74
0
 49
-0.05
 74
0
  0
LTYPE
  5
1F8
100
AcDbSymbolTableRecord
100
AcDbLinetypeTableRecord
  2
DOT
 70
64
  3
. . . . . . . . . . . . . . . . . . . .
 72
65
 73
2
 40
0.2
 49
0.1
 74
0
 49
-0.1
 74
0
  0
LTYPE
  5
1F9
100
AcDbSymbolTableRecord
100
AcDbLinetypeTableRecord
  2
DASHED
 70
64
  3
- - - - - - - - - - - - - - - - - - - -
 72
65
 73
2
 40
0.2
 49
0.1
 74
0
 49
-0.1
 74
0
  0
ENDTAB
  0
TABLE
  2
LAYER
  5
2
100
AcDbSymbolTable
 70
36
  0
LAYER
  5
10
100
AcDbSymbolTableRecord
100
AcDbLayerTableRecord
  2
0
 70
0
 62
7
  6
CONTINUOUS
370
-3
390
F
  0
LAYER
  5
1FA
100
AcDbSymbolTableRecord
100
AcDbLayerTableRecord
  2
DEFAULT_1
 70
0
 62
7
  6
CENTER
370
-3
390
F
  0
LAYER
  5
1FB
100
AcDbSymbolTableRecord
100
AcDbLayerTableRecord
  2
DEFAULT_2
 70
0
 62
7
  6
HIDDEN
370
-3
390
F
  0
LAYER
  5
1FC
100
AcDbSymbolTableRecord
100
AcDbLayerTableRecord
  2
DEFAULT_3
 70
0
 62
7
  6
PHANTOM
370
-3
390
F
  0
LAYER
  5
1FD
100
AcDbSymbolTableRecord
100
AcDbLayerTableRecord
  2
00_COMPONENTS
 70
0
 62
7
  6
CONTINUOUS
370
-3
390
F
  0
LAYER
  5
1FE
100
AcDbSymbolTableRecord
100
AcDbLayerTableRecord
  2
01_1_DEFAULT_DATUMS
 70
0
 62
7
  6
CONTINUOUS
370
-3
390
F
  0
LAYER
  5
1FF
100
AcDbSymbolTableRecord
100
AcDbLayerTableRecord
  2
01_PLANES
 70
0
 62
7
  6
CONTINUOUS
370
-3
390
F
  0
LAYER
  5
200
100
AcDbSymbolTableRecord
100
AcDbLayerTableRecord
  2
02_COORD_SYS
 70
0
 62
7
  6
CONTINUOUS
370
-3
390
F
  0
LAYER
  5
201
100
AcDbSymbolTableRecord
100
AcDbLayerTableRecord
  2
03_AXES
 70
0
 62
7
  6
CONTINUOUS
370
-3
390
F
  0
LAYER
  5
202
100
AcDbSymbolTableRecord
100
AcDbLayerTableRecord
  2
04_POINTS
 70
0
 62
7
  6
CONTINUOUS
370
-3
390
F
  0
LAYER
  5
203
100
AcDbSymbolTableRecord
100
AcDbLayerTableRecord
  2
05_CURVES
 70
0
 62
7
  6
CONTINUOUS
370
-3
390
F
  0
LAYER
  5
204
100
AcDbSymbolTableRecord
100
AcDbLayerTableRecord
  2
06_SURFS
 70
0
 62
7
  6
CONTINUOUS
370
-3
390
F
  0
LAYER
  5
205
100
AcDbSymbolTableRecord
100
AcDbLayerTableRecord
  2
07_COSMETICS
 70
0
 62
7
  6
CONTINUOUS
370
-3
390
F
  0
LAYER
  5
206
100
AcDbSymbolTableRecord
100
AcDbLayerTableRecord
  2
10_NOTES
 70
0
 62
7
  6
CONTINUOUS
370
-3
390
F
  0
LAYER
  5
207
100
AcDbSymbolTableRecord
100
AcDbLayerTableRecord
  2
11_NOTES_PUB
 70
0
 62
7
  6
CONTINUOUS
370
-3
390
F
  0
LAYER
  5
208
100
AcDbSymbolTableRecord
100
AcDbLayerTableRecord
  2
13_REF_GTOL
 70
0
 62
7
  6
CONTINUOUS
370
-3
390
F
  0
LAYER
  5
209
100
AcDbSymbolTableRecord
100
AcDbLayerTableRecord
  2
16_MISC
 70
0
 62
7
  6
CONTINUOUS
370
-3
390
F
  0
LAYER
  5
20A
100
AcDbSymbolTableRecord
100
AcDbLayerTableRecord
  2
17_NO_PRINT
 70
0
 62
7
  6
CONTINUOUS
370
-3
390
F
  0
LAYER
  5
20B
100
AcDbSymbolTableRecord
100
AcDbLayerTableRecord
  2
18_DATUM_CAMS_JOINTS
 70
0
 62
7
  6
CONTINUOUS
370
-3
390
F
  0
LAYER
  5
20C
100
AcDbSymbolTableRecord
100
AcDbLayerTableRecord
  2
19_DATUM_FUNCTIONAL
 70
0
 62
7
  6
CONTINUOUS
370
-3
390
F
  0
LAYER
  5
20D
100
AcDbSymbolTableRecord
100
AcDbLayerTableRecord
  2
20_DATUM_KINEMATIC_SCHEME
 70
0
 62
7
  6
CONTINUOUS
370
-3
390
F
  0
ENDTAB
  0
TABLE
  2
STYLE
  5
3
100
AcDbSymbolTable
 70
1
  0
STYLE
  5
11
100
AcDbSymbolTableRecord
100
AcDbTextStyleTableRecord
  2
STANDARD
 70
0
 40
0.0
 41
1.0
 50
0.0
 71
0
 42
0.2
  3
ARIAL.TTF
  4

  0
STYLE
  5
20E
100
AcDbSymbolTableRecord
100
AcDbTextStyleTableRecord
  2
TEXTSTYLE_1
 70
0
 40
0.0
 41
0.8
 50
0.0
 71
0
 42
0.2
  3
gdt
  4

  0
ENDTAB
  0
TABLE
  2
VIEW
  5
6
100
AcDbSymbolTable
 70
0
  0
ENDTAB
  0
TABLE
  2
UCS
  5
7
100
AcDbSymbolTable
 70
0
  0
ENDTAB
  0
TABLE
  2
APPID
  5
9
100
AcDbSymbolTable
 70
1
  0
APPID
  5
20F
100
AcDbSymbolTableRecord
100
AcDbRegAppTableRecord
  2
ACAD
 70
0
  0
ENDTAB
  0
TABLE
  2
BLOCK_RECORD
  5
1
100
AcDbSymbolTable
 70
0
  0
BLOCK_RECORD
  5
210
100
AcDbSymbolTableRecord
100
AcDbBlockTableRecord
  2
*Model_Space
  0
BLOCK_RECORD
  5
211
100
AcDbSymbolTableRecord
100
AcDbBlockTableRecord
  2
*Paper_Space
  0
BLOCK_RECORD
  5
212
100
AcDbSymbolTableRecord
100
AcDbBlockTableRecord
  2
_FILLED
  0
ENDTAB
  0
TABLE
  2
DIMSTYLE
  5
A
100
AcDbSymbolTable
 70
1
100
AcDbDimStyleTable
 71
0
  0
DIMSTYLE
105
213
100
AcDbSymbolTableRecord
100
AcDbDimStyleTableRecord
  2
STANDARD
 70
0
  3

  4

 40
1.0
 41
1.1012356682
 42
1.0
 43
0.38
 44
1.0
 45
0.0
 46
0.0
 47
0.01
 48
0.01
140
1.5417299355
141
0.09
142
0.0
143
25.4
144
1.0
145
0.0
146
1.0
147
0.625
 71
1
 72
0
 73
0
 74
0
 75
0
 76
0
 77
1
 78
8
 79
2
170
0
171
1
172
0
173
0
174
0
175
0
176
0
177
0
178
0
270
2
179
2
271
2
272
2
273
2
274
2
275
0
280
0
281
0
282
0
283
1
284
8
285
0
286
0
287
3
288
0
340
11
278
46
341
212
342
212
343
212
344
212
  0
ENDTAB
  0
ENDSEC
  0
SECTION
  2
BLOCKS
  0
BLOCK
  5
20
100
AcDbEntity
  8
0
100
AcDbBlockBegin
  2
*Model_Space
 70
0
 10
0.0
 20
0.0
 30
0.0
  3
*Model_Space
  1

  0
ENDBLK
  5
21
100
AcDbEntity
  8
0
100
AcDbBlockEnd
  0
BLOCK
  5
1C
100
AcDbEntity
  8
0
100
AcDbBlockBegin
  2
*Paper_Space
 70
0
 10
0.0
 20
0.0
 30
0.0
  3
*Paper_Space
  1

  0
ENDBLK
  5
1D
100
AcDbEntity
  8
0
100
AcDbBlockEnd
  0
BLOCK
  5
214
100
AcDbEntity
  8
0
100
AcDbBlockBegin
  2
_FILLED
 70
64
 10
0.0
 20
0.0
  3
_FILLED
  1

  0
SOLID
  5
215
100
AcDbEntity
  8
0
  6
BYBLOCK
 62
0
100
AcDbTrace
 10
0.0
 20
0.0
 11
-1.0
 21
0.25
 12
-1.0
 22
-0.25
 13
-1.0
 23
-0.25
  0
ENDBLK
  5
216
100
AcDbEntity
  8
0
  6
BYBLOCK
 62
0
100
AcDbBlockEnd
  0
ENDSEC
  0
SECTION
  2
ENTITIES
  0
LINE
  5
217
100
AcDbEntity
  8
0
100
AcDbLine
 62
7
  6
BYLAYER
 10
10.8506562517
 20
79.7735294118
 11
10.7829438173
 21
79.6235294118
  0
LINE
  5
218
100
AcDbEntity
  8
0
100
AcDbLine
 62
7
  6
BYLAYER
 10
10.8506562517
 20
51.3735294118
 11
10.7829438173
 21
51.5235294118
  0
LINE
  5
219
100
AcDbEntity
  8
0
100
AcDbLine
 62
7
  6
BYLAYER
 10
10.7829438173
 20
51.5235359852
 11
10.7829438173
 21
79.6235845028
  0
LINE
  5
21A
100
AcDbEntity
  8
0
100
AcDbLine
 62
7
  6
BYLAYER
 10
10.9829438173
 20
51.3735294118
 11
10.9829438173
 21
79.7735294118
  0
LINE
  5
21B
100
AcDbEntity
  8
0
100
AcDbLine
 62
7
  6
BYLAYER
 10
11.1829438173
 20
51.0733512671
 11
11.1829438173
 21
80.0734919428
  0
LINE
  5
21C
100
AcDbEntity
  8
0
100
AcDbLine
 62
7
  6
BYLAYER
 10
11.6829438173
 20
50.5735294118
 11
11.6829438173
 21
80.5735294118
  0
LINE
  5
21D
100
AcDbEntity
  8
0
100
AcDbLine
 62
7
  6
BYLAYER
 10
15.7829438173
 20
83.5735294118
 11
16.4509258873
 21
86.0664724359
  0
LINE
  5
21E
100
AcDbEntity
  8
0
100
AcDbLine
 62
7
  6
BYLAYER
 10
11.1829438173
 20
80.0735294118
 11
11.6829438173
 21
80.5735294118
  0
LINE
  5
21F
100
AcDbEntity
  8
0
100
AcDbLine
 62
7
  6
BYLAYER
 10
11.1829438173
 20
51.0735294118
 11
11.6829438173
 21
50.5735294118
  0
LINE
  5
220
100
AcDbEntity
  8
0
100
AcDbLine
 62
7
  6
BYLAYER
 10
15.7829438173
 20
47.5735294118
 11
16.4509258873
 21
45.0805863876
  0
LINE
  5
221
100
AcDbEntity
  8
0
100
AcDbLine
 62
7
  6
BYLAYER
 10
15.7829438173
 20
47.5735354842
 11
15.7829438173
 21
83.5735233393
  0
LINE
  5
222
100
AcDbEntity
  8
0
100
AcDbLine
 62
7
  6
BYLAYER
 10
19.7829438173
 20
83.5735233393
 11
19.7829438173
 21
47.5735354842
  0
LINE
  5
223
100
AcDbEntity
  8
0
100
AcDbLine
 62
7
  6
BYLAYER
 10
20.4829438173
 20
81.683207534
 11
20.4829438173
 21
81.3600997471
  0
LINE
  5
224
100
AcDbEntity
  8
0
100
AcDbLine
 62
7
  6
BYLAYER
 10
20.4829438173
 20
81.3516412362
 11
20.4829438173
 21
81.1016706353
  0
LINE
  5
225
100
AcDbEntity
  8
0
100
AcDbLine
 62
7
  6
BYLAYER
 10
20.4829438173
 20
81.0048740407
 11
20.4829438173
 21
80.7250629926
  0
LINE
  5
226
100
AcDbEntity
  8
0
100
AcDbLine
 62
7
  6
BYLAYER
 10
20.4829438173
 20
80.5406649948
 11
20.4829438173
 21
80.2331430306
  0
LINE
  5
227
100
AcDbEntity
  8
0
100
AcDbLine
 62
7
  6
BYLAYER
 10
20.4829438173
 20
79.9625470097
 11
20.4829438173
 21
79.6296545573
  0
LINE
  5
228
100
AcDbEntity
  8
0
100
AcDbLine
 62
7
  6
BYLAYER
 10
20.4829438173
 20
79.2749199124
 11
20.4829438173
 21
78.9191904843
  0
LINE
  5
229
100
AcDbEntity
  8
0
100
AcDbLine
 62
7
  6
BYLAYER
 10
20.4829438173
 20
78.4830169602
 11
20.4829438173
 21
78.1071578722
  0
LINE
  5
22A
100
AcDbEntity
  8
0
100
AcDbLine
 62
7
  6
BYLAYER
 10
20.4829438173
 20
77.5928650129
 11
20.4829438173
 21
77.1997367796
  0
LINE
  5
22B
100
AcDbEntity
  8
0
100
AcDbLine
 62
7
  6
BYLAYER
 10
20.4829438173
 20
76.6112386641
 11
20.4829438173
 21
76.2038332287
  0
LINE
  5
22C
100
AcDbEntity
  8
0
100
AcDbLine
 62
7
  6
BYLAYER
 10
20.4829438173
 20
75.5456086832
 11
20.4829438173
 21
75.1270266471
  0
LINE
  5
22D
100
AcDbEntity
  8
0
100
AcDbLine
 62
7
  6
BYLAYER
 10
20.4829438173
 20
74.4040851577
 11
20.4829438173
 21
73.9775121829
  0
LINE
  5
22E
100
AcDbEntity
  8
0
100
AcDbLine
 62
7
  6
BYLAYER
 10
20.4829438173
 20
73.195355771
 11
20.4829438173
 21
72.7640383354
  0
LINE
  5
22F
100
AcDbEntity
  8
0
100
AcDbLine
 62
7
  6
BYLAYER
 10
20.4829438173
 20
71.9286196835
 11
20.4829438173
 21
71.4958403732
  0
LINE
  5
230
100
AcDbEntity
  8
0
100
AcDbLine
 62
7
  6
BYLAYER
 10
20.4829438173
 20
70.6135175217
 11
20.4829438173
 21
70.1825700486
  0
LINE
  5
231
100
AcDbEntity
  8
0
100
AcDbLine
 62
7
  6
BYLAYER
 10
20.4829438173
 20
69.2600580071
 11
20.4829438173
 21
68.8342221418
  0
LINE
  5
232
100
AcDbEntity
  8
0
100
AcDbLine
 62
7
  6
BYLAYER
 10
20.4829438173
 20
67.878541784
 11
20.4829438173
 21
67.4610583944
  0
LINE
  5
233
100
AcDbEntity
  8
0
100
AcDbLine
 62
7
  6
BYLAYER
 10
20.4829438173
 20
66.4794830249
 11
20.4829438173
 21
66.0735294118
  0
LINE
  5
234
100
AcDbEntity
  8
0
100
AcDbLine
 62
7
  6
BYLAYER
 10
20.4829438173
 20
65.0735294118
 11
20.4829438173
 21
64.6675757986
  0
LINE
  5
235
100
AcDbEntity
  8
0
100
AcDbLine
 62
7
  6
BYLAYER
 10
20.4829438173
 20
63.6860004291
 11
20.4829438173
 21
63.2685170395
  0
LINE
  5
236
100
AcDbEntity
  8
0
100
AcDbLine
 62
7
  6
BYLAYER
 10
20.4829438173
 20
62.3128366817
 11
20.4829438173
 21
61.8870008164
  0
LINE
  5
237
100
AcDbEntity
  8
0
100
AcDbLine
 62
7
  6
BYLAYER
 10
20.4829438173
 20
60.9644887749
 11
20.4829438173
 21
60.5335413019
  0
LINE
  5
238
100
AcDbEntity
  8
0
100
AcDbLine
 62
7
  6
BYLAYER
 10
20.4829438173
 20
59.6512184503
 11
20.4829438173
 21
59.2184391401
  0
LINE
  5
239
100
AcDbEntity
  8
0
100
AcDbLine
 62
7
  6
BYLAYER
 10
20.4829438173
 20
58.3830204881
 11
20.4829438173
 21
57.9517030525
  0
LINE
  5
23A
100
AcDbEntity
  8
0
100
AcDbLine
 62
7
  6
BYLAYER
 10
20.4829438173
 20
57.1695466406
 11
20.4829438173
 21
56.7429736658
  0
LINE
  5
23B
100
AcDbEntity
  8
0
100
AcDbLine
 62
7
  6
BYLAYER
 10
20.4829438173
 20
56.0200321764
 11
20.4829438173
 21
55.6014501403
  0
LINE
  5
23C
100
AcDbEntity
  8
0
100
AcDbLine
 62
7
  6
BYLAYER
 10
20.4829438173
 20
54.9432255948
 11
20.4829438173
 21
54.5358201594
  0
LINE
  5
23D
100
AcDbEntity
  8
0
100
AcDbLine
 62
7
  6
BYLAYER
 10
20.4829438173
 20
53.9473220439
 11
20.4829438173
 21
53.5541938106
  0
LINE
  5
23E
100
AcDbEntity
  8
0
100
AcDbLine
 62
7
  6
BYLAYER
 10
20.4829438173
 20
53.0399009513
 11
20.4829438173
 21
52.6640418633
  0
LINE
  5
23F
100
AcDbEntity
  8
0
100
AcDbLine
 62
7
  6
BYLAYER
 10
20.4829438173
 20
52.2278683392
 11
20.4829438173
 21
51.8721389111
  0
LINE
  5
240
100
AcDbEntity
  8
0
100
AcDbLine
 62
7
  6
BYLAYER
 10
20.4829438173
 20
51.5174042662
 11
20.4829438173
 21
51.1845118138
  0
LINE
  5
241
100
AcDbEntity
  8
0
100
AcDbLine
 62
7
  6
BYLAYER
 10
20.4829438173
 20
50.9139157929
 11
20.4829438173
 21
50.6063938287
  0
LINE
  5
242
100
AcDbEntity
  8
0
100
AcDbLine
 62
7
  6
BYLAYER
 10
20.4829438173
 20
50.4219958309
 11
20.4829438173
 21
50.1421847829
  0
LINE
  5
243
100
AcDbEntity
  8
0
100
AcDbLine
 62
7
  6
BYLAYER
 10
20.4829438173
 20
50.0453881882
 11
20.4829438173
 21
49.7954175873
  0
LINE
  5
244
100
AcDbEntity
  8
0
100
AcDbLine
 62
7
  6
BYLAYER
 10
20.4829438173
 20
49.7869590764
 11
20.4829438173
 21
49.4638512895
  0
LINE
  5
245
100
AcDbEntity
  8
0
100
AcDbLine
 62
7
  6
BYLAYER
 10
25.7829438173
 20
83.5735294118
 11
26.4509258873
 21
86.0664724359
  0
LINE
  5
246
100
AcDbEntity
  8
0
100
AcDbLine
 62
7
  6
BYLAYER
 10
25.7829438173
 20
47.5735294118
 11
26.4509258873
 21
45.0805863876
  0
LINE
  5
247
100
AcDbEntity
  8
0
100
AcDbLine
 62
7
  6
BYLAYER
 10
25.0829438173
 20
49.4638512895
 11
25.0829438173
 21
49.7869590764
  0
LINE
  5
248
100
AcDbEntity
  8
0
100
AcDbLine
 62
7
  6
BYLAYER
 10
25.0829438173
 20
49.7954175873
 11
25.0829438173
 21
50.0453881882
  0
LINE
  5
249
100
AcDbEntity
  8
0
100
AcDbLine
 62
7
  6
BYLAYER
 10
25.0829438173
 20
50.1421847829
 11
25.0829438173
 21
50.4219958309
  0
LINE
  5
24A
100
AcDbEntity
  8
0
100
AcDbLine
 62
7
  6
BYLAYER
 10
25.0829438173
 20
50.6063938287
 11
25.0829438173
 21
50.9139157929
  0
LINE
  5
24B
100
AcDbEntity
  8
0
100
AcDbLine
 62
7
  6
BYLAYER
 10
25.0829438173
 20
51.1845118138
 11
25.0829438173
 21
51.5174042662
  0
LINE
  5
24C
100
AcDbEntity
  8
0
100
AcDbLine
 62
7
  6
BYLAYER
 10
25.0829438173
 20
51.8721389111
 11
25.0829438173
 21
52.2278683392
  0
LINE
  5
24D
100
AcDbEntity
  8
0
100
AcDbLine
 62
7
  6
BYLAYER
 10
25.0829438173
 20
52.6640418633
 11
25.0829438173
 21
53.0399009513
  0
LINE
  5
24E
100
AcDbEntity
  8
0
100
AcDbLine
 62
7
  6
BYLAYER
 10
25.0829438173
 20
53.5541938106
 11
25.0829438173
 21
53.9473220439
  0
LINE
  5
24F
100
AcDbEntity
  8
0
100
AcDbLine
 62
7
  6
BYLAYER
 10
25.0829438173
 20
54.5358201594
 11
25.0829438173
 21
54.9432255948
  0
LINE
  5
250
100
AcDbEntity
  8
0
100
AcDbLine
 62
7
  6
BYLAYER
 10
25.0829438173
 20
55.6014501403
 11
25.0829438173
 21
56.0200321764
  0
LINE
  5
251
100
AcDbEntity
  8
0
100
AcDbLine
 62
7
  6
BYLAYER
 10
25.0829438173
 20
56.7429736658
 11
25.0829438173
 21
57.1695466406
  0
LINE
  5
252
100
AcDbEntity
  8
0
100
AcDbLine
 62
7
  6
BYLAYER
 10
25.0829438173
 20
57.9517030525
 11
25.0829438173
 21
58.3830204881
  0
LINE
  5
253
100
AcDbEntity
  8
0
100
AcDbLine
 62
7
  6
BYLAYER
 10
25.0829438173
 20
59.2184391401
 11
25.0829438173
 21
59.6512184503
  0
LINE
  5
254
100
AcDbEntity
  8
0
100
AcDbLine
 62
7
  6
BYLAYER
 10
25.0829438173
 20
60.5335413019
 11
25.0829438173
 21
60.9644887749
  0
LINE
  5
255
100
AcDbEntity
  8
0
100
AcDbLine
 62
7
  6
BYLAYER
 10
25.0829438173
 20
61.8870008164
 11
25.0829438173
 21
62.3128366817
  0
LINE
  5
256
100
AcDbEntity
  8
0
100
AcDbLine
 62
7
  6
BYLAYER
 10
25.0829438173
 20
63.2685170395
 11
25.0829438173
 21
63.6860004291
  0
LINE
  5
257
100
AcDbEntity
  8
0
100
AcDbLine
 62
7
  6
BYLAYER
 10
25.0829438173
 20
64.6675757986
 11
25.0829438173
 21
65.0735294118
  0
LINE
  5
258
100
AcDbEntity
  8
0
100
AcDbLine
 62
7
  6
BYLAYER
 10
25.0829438173
 20
66.0735294118
 11
25.0829438173
 21
66.4794830249
  0
LINE
  5
259
100
AcDbEntity
  8
0
100
AcDbLine
 62
7
  6
BYLAYER
 10
25.0829438173
 20
67.4610583944
 11
25.0829438173
 21
67.878541784
  0
LINE
  5
25A
100
AcDbEntity
  8
0
100
AcDbLine
 62
7
  6
BYLAYER
 10
25.0829438173
 20
68.8342221418
 11
25.0829438173
 21
69.2600580071
  0
LINE
  5
25B
100
AcDbEntity
  8
0
100
AcDbLine
 62
7
  6
BYLAYER
 10
25.0829438173
 20
70.1825700486
 11
25.0829438173
 21
70.6135175217
  0
LINE
  5
25C
100
AcDbEntity
  8
0
100
AcDbLine
 62
7
  6
BYLAYER
 10
25.0829438173
 20
71.4958403732
 11
25.0829438173
 21
71.9286196835
  0
LINE
  5
25D
100
AcDbEntity
  8
0
100
AcDbLine
 62
7
  6
BYLAYER
 10
25.0829438173
 20
72.7640383354
 11
25.0829438173
 21
73.195355771
  0
LINE
  5
25E
100
AcDbEntity
  8
0
100
AcDbLine
 62
7
  6
BYLAYER
 10
25.0829438173
 20
73.9775121829
 11
25.0829438173
 21
74.4040851577
  0
LINE
  5
25F
100
AcDbEntity
  8
0
100
AcDbLine
 62
7
  6
BYLAYER
 10
25.0829438173
 20
75.1270266471
 11
25.0829438173
 21
75.5456086832
  0
LINE
  5
260
100
AcDbEntity
  8
0
100
AcDbLine
 62
7
  6
BYLAYER
 10
25.0829438173
 20
76.2038332287
 11
25.0829438173
 21
76.6112386641
  0
LINE
  5
261
100
AcDbEntity
  8
0
100
AcDbLine
 62
7
  6
BYLAYER
 10
25.0829438173
 20
77.1997367796
 11
25.0829438173
 21
77.5928650129
  0
LINE
  5
262
100
AcDbEntity
  8
0
100
AcDbLine
 62
7
  6
BYLAYER
 10
25.0829438173
 20
78.1071578722
 11
25.0829438173
 21
78.4830169602
  0
LINE
  5
263
100
AcDbEntity
  8
0
100
AcDbLine
 62
7
  6
BYLAYER
 10
25.0829438173
 20
78.9191904843
 11
25.0829438173
 21
79.2749199124
  0
LINE
  5
264
100
AcDbEntity
  8
0
100
AcDbLine
 62
7
  6
BYLAYER
 10
25.0829438173
 20
79.6296545573
 11
25.0829438173
 21
79.9625470097
  0
LINE
  5
265
100
AcDbEntity
  8
0
100
AcDbLine
 62
7
  6
BYLAYER
 10
25.0829438173
 20
80.2331430306
 11
25.0829438173
 21
80.5406649948
  0
LINE
  5
266
100
AcDbEntity
  8
0
100
AcDbLine
 62
7
  6
BYLAYER
 10
25.0829438173
 20
80.7250629926
 11
25.0829438173
 21
81.0048740407
  0
LINE
  5
267
100
AcDbEntity
  8
0
100
AcDbLine
 62
7
  6
BYLAYER
 10
25.0829438173
 20
81.1016706353
 11
25.0829438173
 21
81.3516412362
  0
LINE
  5
268
100
AcDbEntity
  8
0
100
AcDbLine
 62
7
  6
BYLAYER
 10
25.0829438173
 20
81.3600997471
 11
25.0829438173
 21
81.683207534
  0
LINE
  5
269
100
AcDbEntity
  8
0
100
AcDbLine
 62
7
  6
BYLAYER
 10
19.7829438173
 20
47.5735294118
 11
19.1149617472
 21
45.0805863876
  0
LINE
  5
26A
100
AcDbEntity
  8
0
100
AcDbLine
 62
7
  6
BYLAYER
 10
19.7829438173
 20
83.5735294118
 11
19.1149617472
 21
86.0664724359
  0
LINE
  5
26B
100
AcDbEntity
  8
0
100
AcDbLine
 62
7
  6
BYLAYER
 10
25.7829438173
 20
47.5735354842
 11
25.7829438173
 21
83.5735233393
  0
LINE
  5
26C
100
AcDbEntity
  8
0
100
AcDbLine
 62
7
  6
BYLAYER
 10
20.4829438173
 20
66.0735294118
 11
19.9829438173
 21
65.5735294118
  0
LINE
  5
26D
100
AcDbEntity
  8
0
100
AcDbLine
 62
7
  6
BYLAYER
 10
19.1025740308
 20
45.038919721
 11
16.4633135796
 21
45.038919721
  0
LINE
  5
26E
100
AcDbEntity
  8
0
100
AcDbLine
 62
7
  6
BYLAYER
 10
26.4633135749
 20
45.038919721
 11
29.1025740596
 21
45.038919721
  0
LINE
  5
26F
100
AcDbEntity
  8
0
100
AcDbLine
 62
7
  6
BYLAYER
 10
19.1281832352
 20
45.138919721
 11
16.4377043994
 21
45.138919721
  0
LINE
  5
270
100
AcDbEntity
  8
0
100
AcDbLine
 62
7
  6
BYLAYER
 10
26.4377044076
 20
45.1389197209
 11
29.1281832364
 21
45.1389197209
  0
LINE
  5
271
100
AcDbEntity
  8
0
100
AcDbLine
 62
7
  6
BYLAYER
 10
25.5829438173
 20
49.3221192502
 11
25.7829438173
 21
49.2685294118
  0
LINE
  5
272
100
AcDbEntity
  8
0
100
AcDbLine
 62
7
  6
BYLAYER
 10
20.4829438173
 20
65.0735294118
 11
19.9829438173
 21
65.5735294118
  0
LINE
  5
273
100
AcDbEntity
  8
0
100
AcDbLine
 62
7
  6
BYLAYER
 10
29.7829438173
 20
83.5735233393
 11
29.7829438173
 21
47.5735354842
  0
LINE
  5
274
100
AcDbEntity
  8
0
100
AcDbLine
 62
7
  6
BYLAYER
 10
25.0829438173
 20
65.0735294118
 11
25.5829438173
 21
65.5735294118
  0
LINE
  5
275
100
AcDbEntity
  8
0
100
AcDbLine
 62
7
  6
BYLAYER
 10
11.6829438173
 20
50.5735294118
 11
15.7829438173
 21
50.5735294118
  0
LINE
  5
276
100
AcDbEntity
  8
0
100
AcDbLine
 62
7
  6
BYLAYER
 10
20.4297793185
 20
50.5735294118
 11
25.1361066746
 21
50.5735294118
  0
LINE
  5
277
100
AcDbEntity
  8
0
100
AcDbLine
 62
7
  6
BYLAYER
 10
29.7829438173
 20
50.5735294118
 11
61.5329438173
 21
50.5735294118
  0
LINE
  5
278
100
AcDbEntity
  8
0
100
AcDbLine
 62
7
  6
BYLAYER
 10
62.2829438173
 20
51.3235294118
 11
65.9829438173
 21
51.3235294118
  0
LINE
  5
279
100
AcDbEntity
  8
0
100
AcDbLine
 62
7
  6
BYLAYER
 10
66.0829438173
 20
51.3235294118
 11
68.8829438173
 21
51.3235294118
  0
LINE
  5
27A
100
AcDbEntity
  8
0
100
AcDbLine
 62
7
  6
BYLAYER
 10
10.8506274389
 20
51.3735294118
 11
11.1829438173
 21
51.3735294118
  0
LINE
  5
27B
100
AcDbEntity
  8
0
100
AcDbLine
 62
7
  6
BYLAYER
 10
65.9829438173
 20
51.3735294118
 11
66.0829438173
 21
51.3735294118
  0
LINE
  5
27C
100
AcDbEntity
  8
0
100
AcDbLine
 62
7
  6
BYLAYER
 10
25.0829438173
 20
66.0735294118
 11
25.5829438173
 21
65.5735294118
  0
LINE
  5
27D
100
AcDbEntity
  8
0
100
AcDbLine
 62
7
  6
BYLAYER
 10
29.7829438173
 20
47.5735294118
 11
29.1149617472
 21
45.0805863876
  0
LINE
  5
27E
100
AcDbEntity
  8
0
100
AcDbLine
 62
7
  6
BYLAYER
 10
29.7829438173
 20
83.5735294118
 11
29.1149617472
 21
86.0664724359
  0
LINE
  5
27F
100
AcDbEntity
  8
0
100
AcDbLine
 62
7
  6
BYLAYER
 10
19.9829438173
 20
49.3221192502
 11
19.7829438173
 21
49.2685294118
  0
LINE
  5
280
100
AcDbEntity
  8
0
100
AcDbLine
 62
7
  6
BYLAYER
 10
72.1176734528
 20
59.3586341256
 11
69.2482141818
 21
58.8526710361
  0
LINE
  5
281
100
AcDbEntity
  8
0
100
AcDbLine
 62
7
  6
BYLAYER
 10
19.1281832454
 20
54.8312245664
 11
16.4377043319
 21
54.8312245664
  0
LINE
  5
282
100
AcDbEntity
  8
0
100
AcDbLine
 62
7
  6
BYLAYER
 10
26.4377043395
 20
54.8312245664
 11
29.128183295
 21
54.8312245664
  0
LINE
  5
283
100
AcDbEntity
  8
0
100
AcDbLine
 62
7
  6
BYLAYER
 10
19.1025740398
 20
55.6812245663
 11
16.4633135947
 21
55.6812245663
  0
LINE
  5
284
100
AcDbEntity
  8
0
100
AcDbLine
 62
7
  6
BYLAYER
 10
26.4633136077
 20
55.6812245663
 11
29.1025740378
 21
55.6812245663
  0
LINE
  5
285
100
AcDbEntity
  8
0
100
AcDbLine
 62
7
  6
BYLAYER
 10
74.0934110085
 20
60.5311052808
 11
72.4724766261
 21
60.4461557095
  0
LINE
  5
286
100
AcDbEntity
  8
0
100
AcDbLine
 62
7
  6
BYLAYER
 10
84.2829438173
 20
60.9362226769
 11
74.2829438173
 21
60.9362226769
  0
LINE
  5
287
100
AcDbEntity
  8
0
100
AcDbLine
 62
7
  6
BYLAYER
 10
84.2829438173
 20
62.9362226769
 11
74.2829438173
 21
62.9362226769
  0
LINE
  5
288
100
AcDbEntity
  8
0
100
AcDbLine
 62
7
  6
BYLAYER
 10
74.0934110085
 20
63.3413401509
 11
72.4724766261
 21
63.4262897223
  0
LINE
  5
289
100
AcDbEntity
  8
0
100
AcDbLine
 62
7
  6
BYLAYER
 10
19.9829438173
 20
81.8249395733
 11
19.7829438173
 21
81.8785294118
  0
LINE
  5
28A
100
AcDbEntity
  8
0
100
AcDbLine
 62
7
  6
BYLAYER
 10
19.1025740267
 20
75.4658342572
 11
16.4633135968
 21
75.4658342572
  0
LINE
  5
28B
100
AcDbEntity
  8
0
100
AcDbLine
 62
7
  6
BYLAYER
 10
26.4633135947
 20
75.4658342572
 11
29.1025740399
 21
75.4658342572
  0
LINE
  5
28C
100
AcDbEntity
  8
0
100
AcDbLine
 62
7
  6
BYLAYER
 10
19.1281832352
 20
76.3158342571
 11
16.4377043994
 21
76.3158342571
  0
LINE
  5
28D
100
AcDbEntity
  8
0
100
AcDbLine
 62
7
  6
BYLAYER
 10
26.4377044076
 20
76.3158342571
 11
29.1281832364
 21
76.3158342571
  0
LINE
  5
28E
100
AcDbEntity
  8
0
100
AcDbLine
 62
7
  6
BYLAYER
 10
72.1176734528
 20
71.7884246979
 11
69.2482141818
 21
72.2943877874
  0
LINE
  5
28F
100
AcDbEntity
  8
0
100
AcDbLine
 62
7
  6
BYLAYER
 10
61.5329438173
 20
80.5735294118
 11
61.5329438173
 21
50.5735294118
  0
LINE
  5
290
100
AcDbEntity
  8
0
100
AcDbLine
 62
7
  6
BYLAYER
 10
10.8506274389
 20
79.7735294118
 11
11.1829438173
 21
79.7735294118
  0
LINE
  5
291
100
AcDbEntity
  8
0
100
AcDbLine
 62
7
  6
BYLAYER
 10
65.9829438173
 20
79.7735294118
 11
66.0829438173
 21
79.7735294118
  0
LINE
  5
292
100
AcDbEntity
  8
0
100
AcDbLine
 62
7
  6
BYLAYER
 10
62.2829438173
 20
79.8235294118
 11
65.9829438173
 21
79.8235294118
  0
LINE
  5
293
100
AcDbEntity
  8
0
100
AcDbLine
 62
7
  6
BYLAYER
 10
66.0829438173
 20
79.8235294118
 11
68.8829438173
 21
79.8235294118
  0
LINE
  5
294
100
AcDbEntity
  8
0
100
AcDbLine
 62
7
  6
BYLAYER
 10
62.2829438173
 20
51.3235294118
 11
62.2829438173
 21
79.8235294118
  0
LINE
  5
295
100
AcDbEntity
  8
0
100
AcDbLine
 62
7
  6
BYLAYER
 10
11.6829438173
 20
80.5735294118
 11
15.7829438173
 21
80.5735294118
  0
LINE
  5
296
100
AcDbEntity
  8
0
100
AcDbLine
 62
7
  6
BYLAYER
 10
20.42978096
 20
80.5735294118
 11
25.136108316
 21
80.5735294118
  0
LINE
  5
297
100
AcDbEntity
  8
0
100
AcDbLine
 62
7
  6
BYLAYER
 10
29.7829438173
 20
80.5735294118
 11
61.5329438173
 21
80.5735294118
  0
LINE
  5
298
100
AcDbEntity
  8
0
100
AcDbLine
 62
7
  6
BYLAYER
 10
65.9829438173
 20
79.8236592117
 11
65.9829438173
 21
51.3233996118
  0
LINE
  5
299
100
AcDbEntity
  8
0
100
AcDbLine
 62
7
  6
BYLAYER
 10
66.0829438173
 20
51.3233549092
 11
66.0829438173
 21
79.8234918386
  0
LINE
  5
29A
100
AcDbEntity
  8
0
100
AcDbLine
 62
7
  6
BYLAYER
 10
68.8829438173
 20
79.8235294118
 11
68.8829438173
 21
51.3235294118
  0
LINE
  5
29B
100
AcDbEntity
  8
0
100
AcDbLine
 62
7
  6
BYLAYER
 10
69.0829438173
 20
79.6235388649
 11
69.0829438173
 21
51.5235199586
  0
LINE
  5
29C
100
AcDbEntity
  8
0
100
AcDbLine
 62
7
  6
BYLAYER
 10
69.2482141818
 20
58.8526710361
 11
69.2482141818
 21
72.2943877874
  0
LINE
  5
29D
100
AcDbEntity
  8
0
100
AcDbLine
 62
7
  6
BYLAYER
 10
62.2829438173
 20
51.3235294118
 11
61.5329438173
 21
50.5735294118
  0
LINE
  5
29E
100
AcDbEntity
  8
0
100
AcDbLine
 62
7
  6
BYLAYER
 10
25.5829438173
 20
81.8249395733
 11
25.7829438173
 21
81.8785294118
  0
LINE
  5
29F
100
AcDbEntity
  8
0
100
AcDbLine
 62
7
  6
BYLAYER
 10
19.1281832454
 20
86.0081391026
 11
16.4377043319
 21
86.0081391026
  0
LINE
  5
2A0
100
AcDbEntity
  8
0
100
AcDbLine
 62
7
  6
BYLAYER
 10
26.4377043395
 20
86.0081391026
 11
29.128183295
 21
86.0081391026
  0
LINE
  5
2A1
100
AcDbEntity
  8
0
100
AcDbLine
 62
7
  6
BYLAYER
 10
19.102574029
 20
86.1081391026
 11
16.4633136055
 21
86.1081391026
  0
LINE
  5
2A2
100
AcDbEntity
  8
0
100
AcDbLine
 62
7
  6
BYLAYER
 10
26.4633136108
 20
86.1081391026
 11
29.1025740282
 21
86.1081391026
  0
LINE
  5
2A3
100
AcDbEntity
  8
0
100
AcDbLine
 62
7
  6
BYLAYER
 10
62.2829438173
 20
79.8235294118
 11
61.5329438173
 21
80.5735294118
  0
LINE
  5
2A4
100
AcDbEntity
  8
0
100
AcDbLine
 62
7
  6
BYLAYER
 10
72.1176734528
 20
71.7884246979
 11
72.1176734528
 21
59.3586341256
  0
LINE
  5
2A5
100
AcDbEntity
  8
0
100
AcDbLine
 62
7
  6
BYLAYER
 10
72.2829438173
 20
71.5913118107
 11
72.2829438173
 21
59.5558193302
  0
LINE
  5
2A6
100
AcDbEntity
  8
0
100
AcDbLine
 62
7
  6
BYLAYER
 10
72.4724766261
 20
60.4461557095
 11
72.4724766261
 21
63.4262897223
  0
LINE
  5
2A7
100
AcDbEntity
  8
0
100
AcDbLine
 62
7
  6
BYLAYER
 10
74.0934110085
 20
63.3413401509
 11
74.0934110085
 21
60.5311052808
  0
LINE
  5
2A8
100
AcDbEntity
  8
0
100
AcDbLine
 62
7
  6
BYLAYER
 10
74.2829438173
 20
63.1414613318
 11
74.2829438173
 21
60.7309840999
  0
LINE
  5
2A9
100
AcDbEntity
  8
0
100
AcDbLine
 62
7
  6
BYLAYER
 10
84.2829438173
 20
62.9362107259
 11
84.2829438173
 21
60.9362346279
  0
ARC
  5
2AA
100
AcDbEntity
  8
0
100
AcDbCircle
 62
7
  6
BYLAYER
 10
-32.0508846841
 20
77.4323952364
 40
51.1912463367
100
AcDbArc
 50
357.7983857604
 51
358.7501905129
  0
ARC
  5
2AB
100
AcDbEntity
  8
0
100
AcDbCircle
 62
7
  6
BYLAYER
 10
77.6167723187
 20
77.432395234
 40
51.1912463367
100
AcDbArc
 50
181.2498094844
 51
182.2016142369
  0
ARC
  5
2AC
100
AcDbEntity
  8
0
100
AcDbCircle
 62
7
  6
BYLAYER
 10
-22.0508798252
 20
77.4323950876
 40
51.1912414757
100
AcDbArc
 50
357.7983857179
 51
358.7501905608
  0
ARC
  5
2AD
100
AcDbEntity
  8
0
100
AcDbCircle
 62
7
  6
BYLAYER
 10
67.6167674594
 20
77.43239509
 40
51.1912414754
100
AcDbArc
 50
181.2498094419
 51
182.2016142848
  0
ARC
  5
2AE
100
AcDbEntity
  8
0
100
AcDbCircle
 62
7
  6
BYLAYER
 10
-32.0508673096
 20
53.7146605057
 40
51.1912290934
100
AcDbArc
 50
1.2498133579
 51
2.201618433
  0
ARC
  5
2AF
100
AcDbEntity
  8
0
100
AcDbCircle
 62
7
  6
BYLAYER
 10
77.6167549441
 20
53.7146605099
 40
51.1912290933
100
AcDbArc
 50
177.7983815717
 51
178.7501866468
  0
ARC
  5
2B0
100
AcDbEntity
  8
0
100
AcDbCircle
 62
7
  6
BYLAYER
 10
67.6167405149
 20
53.7146609404
 40
51.1912146582
100
AcDbArc
 50
177.7983814328
 51
178.7501867763
  0
ARC
  5
2B1
100
AcDbEntity
  8
0
100
AcDbCircle
 62
7
  6
BYLAYER
 10
-22.05085288
 20
53.7146609446
 40
51.1912146577
100
AcDbArc
 50
1.2498132189
 51
2.2016185625
  0
ARC
  5
2B2
100
AcDbEntity
  8
0
100
AcDbCircle
 62
7
  6
BYLAYER
 10
18.3354917596
 20
85.8574054428
 40
0.8070208028
100
AcDbArc
 50
15.014306724
 51
18.1008453867
  0
ARC
  5
2B3
100
AcDbEntity
  8
0
100
AcDbCircle
 62
7
  6
BYLAYER
 10
17.2303957973
 20
85.8574054663
 40
0.8070207217
100
AcDbArc
 50
161.8991544946
 51
164.9856934667
  0
ARC
  5
2B4
100
AcDbEntity
  8
0
100
AcDbCircle
 62
7
  6
BYLAYER
 10
18.3355037814
 20
45.2896491015
 40
0.8070080756
100
AcDbArc
 50
341.8991788939
 51
344.985765474
  0
ARC
  5
2B5
100
AcDbEntity
  8
0
100
AcDbCircle
 62
7
  6
BYLAYER
 10
17.2303837175
 20
45.2896490608
 40
0.8070079341
100
AcDbArc
 50
195.0142342325
 51
198.1008213538
  0
ARC
  5
2B6
100
AcDbEntity
  8
0
100
AcDbCircle
 62
7
  6
BYLAYER
 10
27.2292883976
 20
85.8577246
 40
0.8058689752
100
AcDbArc
 50
161.8962594869
 51
164.9872216701
  0
ARC
  5
2B7
100
AcDbEntity
  8
0
100
AcDbCircle
 62
7
  6
BYLAYER
 10
28.3365993143
 20
85.8577246235
 40
0.8058688944
100
AcDbArc
 50
15.0127781393
 51
18.1037406318
  0
ARC
  5
2B8
100
AcDbEntity
  8
0
100
AcDbCircle
 62
7
  6
BYLAYER
 10
27.2292764134
 20
45.2893299561
 40
0.8058562873
100
AcDbArc
 50
195.0127061284
 51
198.1037162164
  0
ARC
  5
2B9
100
AcDbEntity
  8
0
100
AcDbCircle
 62
7
  6
BYLAYER
 10
28.3366113565
 20
45.2893299156
 40
0.8058561461
100
AcDbArc
 50
341.8962835358
 51
344.9872941652
  0
ARC
  5
2BA
100
AcDbEntity
  8
0
100
AcDbCircle
 62
7
  6
BYLAYER
 10
27.1916785018
 20
85.8679197812
 40
0.7669018813
100
AcDbArc
 50
164.9950618846
 51
169.4648517368
  0
ARC
  5
2BB
100
AcDbEntity
  8
0
100
AcDbCircle
 62
7
  6
BYLAYER
 10
28.3742110033
 20
45.2791379407
 40
0.766899782
100
AcDbArc
 50
344.9951050524
 51
349.4649062809
  0
ARC
  5
2BC
100
AcDbEntity
  8
0
100
AcDbCircle
 62
7
  6
BYLAYER
 10
18.3762480469
 20
85.8683750409
 40
0.7648141018
100
AcDbArc
 50
10.5295451768
 51
15.0115516805
  0
ARC
  5
2BD
100
AcDbEntity
  8
0
100
AcDbCircle
 62
7
  6
BYLAYER
 10
17.1896377128
 20
45.2786826809
 40
0.7648119983
100
AcDbArc
 50
190.5294905163
 51
195.0115084837
  0
ARC
  5
2BE
100
AcDbEntity
  8
0
100
AcDbCircle
 62
7
  6
BYLAYER
 10
27.183345537
 20
45.2772497499
 40
0.7583639647
100
AcDbArc
 50
190.5099256443
 51
195.0300629886
  0
ARC
  5
2BF
100
AcDbEntity
  8
0
100
AcDbCircle
 62
7
  6
BYLAYER
 10
28.3825503262
 20
85.8698102678
 40
0.7583557152
100
AcDbArc
 50
10.5099495072
 51
15.0301369245
  0
ARC
  5
2C0
100
AcDbEntity
  8
0
100
AcDbCircle
 62
7
  6
BYLAYER
 10
18.3838033236
 20
45.2769706793
 40
0.7570729951
100
AcDbArc
 50
344.9655714693
 51
349.4934295645
  0
ARC
  5
2C1
100
AcDbEntity
  8
0
100
AcDbCircle
 62
7
  6
BYLAYER
 10
17.1820760993
 20
85.8700893349
 40
0.7570647628
100
AcDbArc
 50
164.9654974271
 51
169.4934056624
  0
ARC
  5
2C2
100
AcDbEntity
  8
0
100
AcDbCircle
 62
7
  6
BYLAYER
 10
74.0829438173
 20
63.141614244
 40
0.2
100
AcDbArc
 50
0.0
 51
87.0
  0
ARC
  5
2C3
100
AcDbEntity
  8
0
100
AcDbCircle
 62
7
  6
BYLAYER
 10
74.0829438173
 20
60.7308311878
 40
0.2
100
AcDbArc
 50
273.0
 51
360.0
  0
ARC
  5
2C4
100
AcDbEntity
  8
0
100
AcDbCircle
 62
7
  6
BYLAYER
 10
72.4829438173
 20
63.6260156292
 40
0.2
100
AcDbArc
 50
180.0
 51
267.0
  0
ARC
  5
2C5
100
AcDbEntity
  8
0
100
AcDbCircle
 62
7
  6
BYLAYER
 10
72.4829438173
 20
60.2464298025
 40
0.2
100
AcDbArc
 50
93.0
 51
180.0
  0
ARC
  5
2C6
100
AcDbEntity
  8
0
100
AcDbCircle
 62
7
  6
BYLAYER
 10
72.0829438173
 20
59.5555956763
 40
0.2
100
AcDbArc
 50
280.0
 51
360.0
  0
ARC
  5
2C7
100
AcDbEntity
  8
0
100
AcDbCircle
 62
7
  6
BYLAYER
 10
72.0829438173
 20
71.5914631473
 40
0.2
100
AcDbArc
 50
0.0
 51
80.0
  0
ARC
  5
2C8
100
AcDbEntity
  8
0
100
AcDbCircle
 62
7
  6
BYLAYER
 10
69.2829438173
 20
58.6557094855
 40
0.2
100
AcDbArc
 50
100.0
 51
180.0
  0
ARC
  5
2C9
100
AcDbEntity
  8
0
100
AcDbCircle
 62
7
  6
BYLAYER
 10
69.2829438173
 20
72.491349338
 40
0.2
100
AcDbArc
 50
180.0
 51
260.0
  0
ARC
  5
2CA
100
AcDbEntity
  8
0
100
AcDbCircle
 62
7
  6
BYLAYER
 10
68.8829438173
 20
51.5235294118
 40
0.2
100
AcDbArc
 50
270.0
 51
360.0
  0
ARC
  5
2CB
100
AcDbEntity
  8
0
100
AcDbCircle
 62
7
  6
BYLAYER
 10
68.8829438173
 20
79.6235294118
 40
0.2
100
AcDbArc
 50
0.0
 51
90.0
  0
SPLINE
  5
2CC
100
AcDbEntity
  8
0
100
AcDbSpline
 62
7
  6
BYLAYER
 70
0
 71
3
 72
10
 73
6
 74
0
 42
0.0000001
 43
0.0000001
 44
0.0000000001
 40
0.0
 40
0.0
 40
0.0
 40
0.0
 40
0.2480246942
 40
0.4969703782
 40
1.0
 40
1.0
 40
1.0
 40
1.0
 10
19.7829437913
 20
49.9850696469
 30
0.0
 10
19.7829437485
 20
49.5798487849
 30
0.0
 10
19.7533442928
 20
48.7675797339
 30
0.0
 10
19.5790602231
 20
47.142100379
 30
0.0
 10
19.3305593618
 20
45.9354589281
 30
0.0
 10
19.1281832269
 20
45.1389197209
 30
0.0
  0
SPLINE
  5
2CD
100
AcDbEntity
  8
0
100
AcDbSpline
 62
7
  6
BYLAYER
 70
0
 71
3
 72
10
 73
6
 74
0
 42
0.0000001
 43
0.0000001
 44
0.0000000001
 40
0.0
 40
0.0
 40
0.0
 40
0.0
 40
0.5030297696
 40
0.7519753487
 40
1.0
 40
1.0
 40
1.0
 40
1.0
 10
16.4377043982
 20
45.1389197209
 30
0.0
 10
16.2353281834
 20
45.9354592465
 30
0.0
 10
15.9868172035
 20
47.1420992728
 30
0.0
 10
15.8125454165
 20
48.7675802242
 30
0.0
 10
15.782943903
 20
49.579848882
 30
0.0
 10
15.7829438457
 20
49.9850697166
 30
0.0
  0
SPLINE
  5
2CE
100
AcDbEntity
  8
0
100
AcDbSpline
 62
7
  6
BYLAYER
 70
0
 71
3
 72
10
 73
6
 74
0
 42
0.0000001
 43
0.0000001
 44
0.0000000001
 40
0.0
 40
0.0
 40
0.0
 40
0.0
 40
0.2480247415
 40
0.4969703333
 40
1.0
 40
1.0
 40
1.0
 40
1.0
 10
15.7829438457
 20
49.9850697166
 30
0.0
 10
15.7829437859
 20
50.3902910343
 30
0.0
 10
15.8125535884
 20
51.2025602345
 30
0.0
 10
15.9868193427
 20
52.8280427978
 30
0.0
 10
16.2353280004
 20
54.0346845417
 30
0.0
 10
16.4377043319
 20
54.8312245664
 30
0.0
  0
SPLINE
  5
2CF
100
AcDbEntity
  8
0
100
AcDbSpline
 62
7
  6
BYLAYER
 70
0
 71
3
 72
10
 73
6
 74
0
 42
0.0000001
 43
0.0000001
 44
0.0000000001
 40
0.0
 40
0.0
 40
0.0
 40
0.0
 40
0.4999744321
 40
0.7499873565
 40
1.0
 40
1.0
 40
1.0
 40
1.0
 10
16.4633135968
 20
55.6812245663
 30
0.0
 10
16.2516761871
 20
57.3211552276
 30
0.0
 10
15.9939686975
 20
59.7899697029
 30
0.0
 10
15.8136440025
 20
63.0928063241
 30
0.0
 10
15.7829438173
 20
64.7466800895
 30
0.0
 10
15.7829438173
 20
65.5735294118
 30
0.0
  0
SPLINE
  5
2D0
100
AcDbEntity
  8
0
100
AcDbSpline
 62
7
  6
BYLAYER
 70
0
 71
3
 72
10
 73
6
 74
0
 42
0.0000001
 43
0.0000001
 44
0.0000000001
 40
0.0
 40
0.0
 40
0.0
 40
0.0
 40
0.5030296258
 40
0.7519752992
 40
1.0
 40
1.0
 40
1.0
 40
1.0
 10
19.1281832454
 20
54.8312245664
 30
0.0
 10
19.3305595781
 20
54.0346845556
 30
0.0
 10
19.5790612876
 20
52.8280419167
 30
0.0
 10
19.7533428814
 20
51.20256071
 30
0.0
 10
19.782943869
 20
50.3902909244
 30
0.0
 10
19.7829437913
 20
49.9850696469
 30
0.0
  0
SPLINE
  5
2D1
100
AcDbEntity
  8
0
100
AcDbSpline
 62
7
  6
BYLAYER
 70
0
 71
3
 72
10
 73
6
 74
0
 42
0.0000001
 43
0.0000001
 44
0.0000000001
 40
0.0
 40
0.0
 40
0.0
 40
0.0
 40
0.2500126433
 40
0.5000255624
 40
1.0
 40
1.0
 40
1.0
 40
1.0
 10
19.7829438173
 20
65.5735294118
 30
0.0
 10
19.7829438173
 20
64.7466801038
 30
0.0
 10
19.7522374309
 20
63.0928065315
 30
0.0
 10
19.5719213698
 20
59.7899695986
 30
0.0
 10
19.314211436
 20
57.321155219
 30
0.0
 10
19.1025740267
 20
55.6812245663
 30
0.0
  0
SPLINE
  5
2D2
100
AcDbEntity
  8
0
100
AcDbSpline
 62
7
  6
BYLAYER
 70
0
 71
3
 72
10
 73
6
 74
0
 42
0.0000001
 43
0.0000001
 44
0.0000000001
 40
0.0
 40
0.0
 40
0.0
 40
0.0
 40
0.4999744402
 40
0.7499873586
 40
1.0
 40
1.0
 40
1.0
 40
1.0
 10
19.1025740267
 20
75.4658342572
 30
0.0
 10
19.3142114371
 20
73.8259035958
 30
0.0
 10
19.5719213731
 20
71.3570892102
 30
0.0
 10
19.7522374263
 20
68.054252277
 30
0.0
 10
19.7829438173
 20
66.4003787137
 30
0.0
 10
19.7829438173
 20
65.5735294118
 30
0.0
  0
SPLINE
  5
2D3
100
AcDbEntity
  8
0
100
AcDbSpline
 62
7
  6
BYLAYER
 70
0
 71
3
 72
10
 73
6
 74
0
 42
0.0000001
 43
0.0000001
 44
0.0000000001
 40
0.0
 40
0.0
 40
0.0
 40
0.0
 40
0.2480246942
 40
0.4969703782
 40
1.0
 40
1.0
 40
1.0
 40
1.0
 10
19.7829437913
 20
81.1619841831
 30
0.0
 10
19.7829437485
 20
80.7567633212
 30
0.0
 10
19.7533442928
 20
79.9444942701
 30
0.0
 10
19.5790602231
 20
78.3190149152
 30
0.0
 10
19.3305593618
 20
77.1123734642
 30
0.0
 10
19.1281832269
 20
76.3158342571
 30
0.0
  0
SPLINE
  5
2D4
100
AcDbEntity
  8
0
100
AcDbSpline
 62
7
  6
BYLAYER
 70
0
 71
3
 72
10
 73
6
 74
0
 42
0.0000001
 43
0.0000001
 44
0.0000000001
 40
0.0
 40
0.0
 40
0.0
 40
0.0
 40
0.5030296258
 40
0.7519752992
 40
1.0
 40
1.0
 40
1.0
 40
1.0
 10
19.1281832454
 20
86.0081391026
 30
0.0
 10
19.3305595781
 20
85.2115990918
 30
0.0
 10
19.5790612876
 20
84.0049564529
 30
0.0
 10
19.7533428814
 20
82.3794752462
 30
0.0
 10
19.782943869
 20
81.5672054606
 30
0.0
 10
19.7829437913
 20
81.1619841831
 30
0.0
  0
SPLINE
  5
2D5
100
AcDbEntity
  8
0
100
AcDbSpline
 62
7
  6
BYLAYER
 70
0
 71
3
 72
10
 73
6
 74
0
 42
0.0000001
 43
0.0000001
 44
0.0000000001
 40
0.0
 40
0.0
 40
0.0
 40
0.0
 40
0.2500126454
 40
0.5000255705
 40
1.0
 40
1.0
 40
1.0
 40
1.0
 10
15.7829438173
 20
65.5735294118
 30
0.0
 10
15.7829438173
 20
66.40037874
 30
0.0
 10
15.8136439985
 20
68.0542525142
 30
0.0
 10
15.9939687
 20
71.3570891352
 30
0.0
 10
16.2516761882
 20
73.8259036045
 30
0.0
 10
16.4633135968
 20
75.4658342572
 30
0.0
  0
SPLINE
  5
2D6
100
AcDbEntity
  8
0
100
AcDbSpline
 62
7
  6
BYLAYER
 70
0
 71
3
 72
10
 73
6
 74
0
 42
0.0000001
 43
0.0000001
 44
0.0000000001
 40
0.0
 40
0.0
 40
0.0
 40
0.0
 40
0.5030297696
 40
0.7519753487
 40
1.0
 40
1.0
 40
1.0
 40
1.0
 10
16.4377043982
 20
76.3158342571
 30
0.0
 10
16.2353281834
 20
77.1123737827
 30
0.0
 10
15.9868172035
 20
78.3190138089
 30
0.0
 10
15.8125454164
 20
79.9444947604
 30
0.0
 10
15.782943903
 20
80.7567634182
 30
0.0
 10
15.7829438457
 20
81.1619842528
 30
0.0
  0
SPLINE
  5
2D7
100
AcDbEntity
  8
0
100
AcDbSpline
 62
7
  6
BYLAYER
 70
0
 71
3
 72
10
 73
6
 74
0
 42
0.0000001
 43
0.0000001
 44
0.0000000001
 40
0.0
 40
0.0
 40
0.0
 40
0.0
 40
0.2480247415
 40
0.4969703333
 40
1.0
 40
1.0
 40
1.0
 40
1.0
 10
15.7829438457
 20
81.1619842528
 30
0.0
 10
15.7829437859
 20
81.5672055705
 30
0.0
 10
15.8125535884
 20
82.3794747707
 30
0.0
 10
15.9868193427
 20
84.004957334
 30
0.0
 10
16.2353280004
 20
85.2115990778
 30
0.0
 10
16.4377043319
 20
86.0081391026
 30
0.0
  0
SPLINE
  5
2D8
100
AcDbEntity
  8
0
100
AcDbSpline
 62
7
  6
BYLAYER
 70
0
 71
3
 72
10
 73
6
 74
0
 42
0.0000001
 43
0.0000001
 44
0.0000000001
 40
0.0
 40
0.0
 40
0.0
 40
0.0
 40
0.2480247023
 40
0.4969703765
 40
1.0
 40
1.0
 40
1.0
 40
1.0
 10
25.7829438433
 20
49.9850696469
 30
0.0
 10
25.7829437656
 20
50.3902909269
 30
0.0
 10
25.8125447493
 20
51.2025607166
 30
0.0
 10
25.9868263496
 20
52.8280419228
 30
0.0
 10
26.2353280574
 20
54.0346845593
 30
0.0
 10
26.4377043891
 20
54.8312245664
 30
0.0
  0
SPLINE
  5
2D9
100
AcDbEntity
  8
0
100
AcDbSpline
 62
7
  6
BYLAYER
 70
0
 71
3
 72
10
 73
6
 74
0
 42
0.0000001
 43
0.0000001
 44
0.0000000001
 40
0.0
 40
0.0
 40
0.0
 40
0.0
 40
0.4999744402
 40
0.7499873586
 40
1.0
 40
1.0
 40
1.0
 40
1.0
 10
26.4633136077
 20
55.6812245663
 30
0.0
 10
26.2516761973
 20
57.3211552277
 30
0.0
 10
25.9939662614
 20
59.7899696133
 30
0.0
 10
25.8136502082
 20
63.0928065465
 30
0.0
 10
25.7829438173
 20
64.7466801098
 30
0.0
 10
25.7829438173
 20
65.5735294118
 30
0.0
  0
SPLINE
  5
2DA
100
AcDbEntity
  8
0
100
AcDbSpline
 62
7
  6
BYLAYER
 70
0
 71
3
 72
10
 73
6
 74
0
 42
0.0000001
 43
0.0000001
 44
0.0000000001
 40
0.0
 40
0.0
 40
0.0
 40
0.0
 40
0.2500126433
 40
0.5000255624
 40
1.0
 40
1.0
 40
1.0
 40
1.0
 10
25.7829438173
 20
65.5735294118
 30
0.0
 10
25.7829438173
 20
66.4003787198
 30
0.0
 10
25.8136502036
 20
68.054252292
 30
0.0
 10
25.9939662647
 20
71.3570892249
 30
0.0
 10
26.2516761984
 20
73.8259036045
 30
0.0
 10
26.4633136077
 20
75.4658342572
 30
0.0
  0
SPLINE
  5
2DB
100
AcDbEntity
  8
0
100
AcDbSpline
 62
7
  6
BYLAYER
 70
0
 71
3
 72
10
 73
6
 74
0
 42
0.0000001
 43
0.0000001
 44
0.0000000001
 40
0.0
 40
0.0
 40
0.0
 40
0.0
 40
0.5030296241
 40
0.7519753073
 40
1.0
 40
1.0
 40
1.0
 40
1.0
 10
26.4377044076
 20
76.3158342571
 30
0.0
 10
26.2353282718
 20
77.1123734678
 30
0.0
 10
25.9868274093
 20
78.3190149213
 30
0.0
 10
25.8125433452
 20
79.9444942766
 30
0.0
 10
25.782943886
 20
80.7567633237
 30
0.0
 10
25.7829438433
 20
81.1619841831
 30
0.0
  0
SPLINE
  5
2DC
100
AcDbEntity
  8
0
100
AcDbSpline
 62
7
  6
BYLAYER
 70
0
 71
3
 72
10
 73
6
 74
0
 42
0.0000001
 43
0.0000001
 44
0.0000000001
 40
0.0
 40
0.0
 40
0.0
 40
0.0
 40
0.2480247023
 40
0.4969703765
 40
1.0
 40
1.0
 40
1.0
 40
1.0
 10
25.7829438433
 20
81.1619841831
 30
0.0
 10
25.7829437656
 20
81.5672054632
 30
0.0
 10
25.8125447493
 20
82.3794752528
 30
0.0
 10
25.9868263496
 20
84.004956459
 30
0.0
 10
26.2353280574
 20
85.2115990955
 30
0.0
 10
26.4377043891
 20
86.0081391026
 30
0.0
  0
SPLINE
  5
2DD
100
AcDbEntity
  8
0
100
AcDbSpline
 62
7
  6
BYLAYER
 70
0
 71
3
 72
10
 73
6
 74
0
 42
0.0000001
 43
0.0000001
 44
0.0000000001
 40
0.0
 40
0.0
 40
0.0
 40
0.0
 40
0.503029669
 40
0.75197526
 40
1.0
 40
1.0
 40
1.0
 40
1.0
 10
29.1281833026
 20
86.0081391026
 30
0.0
 10
29.330559635
 20
85.2115990742
 30
0.0
 10
29.5790682934
 20
84.0049573278
 30
0.0
 10
29.7533340426
 20
82.3794747641
 30
0.0
 10
29.7829438486
 20
81.5672055679
 30
0.0
 10
29.7829437888
 20
81.1619842528
 30
0.0
  0
SPLINE
  5
2DE
100
AcDbEntity
  8
0
100
AcDbSpline
 62
7
  6
BYLAYER
 70
0
 71
3
 72
10
 73
6
 74
0
 42
0.0000001
 43
0.0000001
 44
0.0000000001
 40
0.0
 40
0.0
 40
0.0
 40
0.0
 40
0.4999744321
 40
0.7499873565
 40
1.0
 40
1.0
 40
1.0
 40
1.0
 10
29.1025740378
 20
75.4658342572
 30
0.0
 10
29.3142114474
 20
73.825903596
 30
0.0
 10
29.571918937
 20
71.3570891206
 30
0.0
 10
29.752243632
 20
68.0542524994
 30
0.0
 10
29.7829438173
 20
66.400378734
 30
0.0
 10
29.7829438173
 20
65.5735294118
 30
0.0
  0
SPLINE
  5
2DF
100
AcDbEntity
  8
0
100
AcDbSpline
 62
7
  6
BYLAYER
 70
0
 71
3
 72
10
 73
6
 74
0
 42
0.0000001
 43
0.0000001
 44
0.0000000001
 40
0.0
 40
0.0
 40
0.0
 40
0.0
 40
0.2480246533
 40
0.4969702332
 40
1.0
 40
1.0
 40
1.0
 40
1.0
 10
29.7829437888
 20
81.1619842528
 30
0.0
 10
29.7829437315
 20
80.756763415
 30
0.0
 10
29.7533422164
 20
79.9444947526
 30
0.0
 10
29.5790704302
 20
78.3190138012
 30
0.0
 10
29.3305594499
 20
77.1123737782
 30
0.0
 10
29.1281832364
 20
76.3158342571
 30
0.0
  0
SPLINE
  5
2E0
100
AcDbEntity
  8
0
100
AcDbSpline
 62
7
  6
BYLAYER
 70
0
 71
3
 72
10
 73
6
 74
0
 42
0.0000001
 43
0.0000001
 44
0.0000000001
 40
0.0
 40
0.0
 40
0.0
 40
0.0
 40
0.5030296241
 40
0.7519753073
 40
1.0
 40
1.0
 40
1.0
 40
1.0
 10
26.4377044076
 20
45.1389197209
 30
0.0
 10
26.2353282718
 20
45.9354589317
 30
0.0
 10
25.9868274093
 20
47.1421003851
 30
0.0
 10
25.8125433452
 20
48.7675797404
 30
0.0
 10
25.782943886
 20
49.5798487875
 30
0.0
 10
25.7829438433
 20
49.9850696469
 30
0.0
  0
SPLINE
  5
2E1
100
AcDbEntity
  8
0
100
AcDbSpline
 62
7
  6
BYLAYER
 70
0
 71
3
 72
10
 73
6
 74
0
 42
0.0000001
 43
0.0000001
 44
0.0000000001
 40
0.0
 40
0.0
 40
0.0
 40
0.0
 40
0.2480246533
 40
0.4969702332
 40
1.0
 40
1.0
 40
1.0
 40
1.0
 10
29.7829437888
 20
49.9850697166
 30
0.0
 10
29.7829437315
 20
49.5798488788
 30
0.0
 10
29.7533422164
 20
48.7675802164
 30
0.0
 10
29.5790704302
 20
47.142099265
 30
0.0
 10
29.3305594499
 20
45.935459242
 30
0.0
 10
29.1281832364
 20
45.1389197209
 30
0.0
  0
SPLINE
  5
2E2
100
AcDbEntity
  8
0
100
AcDbSpline
 62
7
  6
BYLAYER
 70
0
 71
3
 72
10
 73
6
 74
0
 42
0.0000001
 43
0.0000001
 44
0.0000000001
 40
0.0
 40
0.0
 40
0.0
 40
0.0
 40
0.503029669
 40
0.75197526
 40
1.0
 40
1.0
 40
1.0
 40
1.0
 10
29.1281833026
 20
54.8312245664
 30
0.0
 10
29.330559635
 20
54.034684538
 30
0.0
 10
29.5790682934
 20
52.8280427916
 30
0.0
 10
29.7533340426
 20
51.2025602279
 30
0.0
 10
29.7829438486
 20
50.3902910317
 30
0.0
 10
29.7829437888
 20
49.9850697166
 30
0.0
  0
SPLINE
  5
2E3
100
AcDbEntity
  8
0
100
AcDbSpline
 62
7
  6
BYLAYER
 70
0
 71
3
 72
10
 73
6
 74
0
 42
0.0000001
 43
0.0000001
 44
0.0000000001
 40
0.0
 40
0.0
 40
0.0
 40
0.0
 40
0.2500126454
 40
0.5000255705
 40
1.0
 40
1.0
 40
1.0
 40
1.0
 10
29.7829438173
 20
65.5735294118
 30
0.0
 10
29.7829438173
 20
64.7466800835
 30
0.0
 10
29.752243636
 20
63.0928063093
 30
0.0
 10
29.5719189345
 20
59.7899696884
 30
0.0
 10
29.3142114463
 20
57.321155219
 30
0.0
 10
29.1025740378
 20
55.6812245663
 30
0.0
  0
ELLIPSE
  5
2E4
100
AcDbEntity
  8
0
100
AcDbEllipse
 62
7
  6
BYLAYER
 10
26.5983189018
 20
64.4247815837
 30
0.0
 11
15.791979517
 21
-10.9958379272
 31
0.0
 40
0.818317629
 41
-1.3965536952
 42
-1.3960435217
  0
ELLIPSE
  5
2E5
100
AcDbEntity
  8
0
100
AcDbEllipse
 62
7
  6
BYLAYER
 10
26.5983189018
 20
63.8613443494
 30
0.0
 11
15.6563003942
 21
-12.3580633753
 31
0.0
 40
0.7470541823
 41
4.8970060586
 42
4.9020265797
  0
ELLIPSE
  5
2E6
100
AcDbEntity
  8
0
100
AcDbEllipse
 62
7
  6
BYLAYER
 10
26.5983189019
 20
63.3109378772
 30
0.0
 11
15.7703479229
 21
-13.3023954138
 31
0.0
 40
0.6792721423
 41
4.881095312
 42
4.8895407588
  0
ELLIPSE
  5
2E7
100
AcDbEntity
  8
0
100
AcDbEllipse
 62
7
  6
BYLAYER
 10
26.5983189019
 20
62.7777510927
 30
0.0
 11
15.9844133441
 21
-14.0585338956
 31
0.0
 40
0.6154007239
 41
-1.4290229293
 42
-1.4178485365
  0
ELLIPSE
  5
2E8
100
AcDbEntity
  8
0
100
AcDbEllipse
 62
7
  6
BYLAYER
 10
26.5983189018
 20
62.2658418695
 30
0.0
 11
16.2385436118
 21
-14.7051040421
 31
0.0
 40
0.5552272381
 41
-1.4615012695
 42
-1.4480705033
  0
ELLIPSE
  5
2E9
100
AcDbEntity
  8
0
100
AcDbEllipse
 62
7
  6
BYLAYER
 10
26.5983189019
 20
61.7791061456
 30
0.0
 11
16.5043969512
 21
-15.274965845
 31
0.0
 40
0.4983942514
 41
-1.4971206964
 42
-1.4817673503
  0
ELLIPSE
  5
2EA
100
AcDbEntity
  8
0
100
AcDbEllipse
 62
7
  6
BYLAYER
 10
26.5983189019
 20
61.321248274
 30
0.0
 11
16.766803626
 21
-15.7835371161
 31
0.0
 40
0.4445239339
 41
-1.5346729672
 42
-1.5176380826
  0
ELLIPSE
  5
2EB
100
AcDbEntity
  8
0
100
AcDbEllipse
 62
7
  6
BYLAYER
 10
26.5983189018
 20
60.8957528293
 30
0.0
 11
17.0168501026
 21
-16.2384907108
 31
0.0
 40
0.3932536107
 41
-1.5734880867
 42
-1.5549485398
  0
ELLIPSE
  5
2EC
100
AcDbEntity
  8
0
100
AcDbEllipse
 62
7
  6
BYLAYER
 10
26.5983189019
 20
60.5058580891
 30
0.0
 11
17.2489119491
 21
-16.6436838349
 31
0.0
 40
0.3442450777
 41
-1.6131670271
 42
-1.5932525833
  0
ELLIPSE
  5
2ED
100
AcDbEntity
  8
0
100
AcDbEllipse
 62
7
  6
BYLAYER
 10
26.5983189019
 20
60.1545313875
 30
0.0
 11
17.4592414022
 21
-17.0009614673
 31
0.0
 40
0.2971852239
 41
-1.6534575031
 42
-1.6322627734
  0
ELLIPSE
  5
2EE
100
AcDbEntity
  8
0
100
AcDbEllipse
 62
7
  6
BYLAYER
 10
26.5983189018
 20
59.8444465329
 30
0.0
 11
17.6452378715
 21
-17.311068251
 31
0.0
 40
0.2517837063
 41
-1.6940323896
 42
-1.6717847557
  0
ELLIPSE
  5
2EF
100
AcDbEntity
  8
0
100
AcDbEllipse
 62
7
  6
BYLAYER
 10
26.5983189019
 20
59.5779634584
 30
0.0
 11
17.8050458869
 21
-17.5741469284
 31
0.0
 40
0.2077697388
 41
-1.735034466
 42
-1.7116814851
  0
ELLIPSE
  5
2F0
100
AcDbEntity
  8
0
100
AcDbEllipse
 62
7
  6
BYLAYER
 10
26.5983189019
 20
59.357110261
 30
0.0
 11
17.9373217495
 21
-17.7900285404
 31
0.0
 40
0.1648887629
 41
-1.7763537932
 42
-1.7518524984
  0
ELLIPSE
  5
2F1
100
AcDbEntity
  8
0
100
AcDbEllipse
 62
7
  6
BYLAYER
 10
26.5983189018
 20
59.183567767
 30
0.0
 11
18.0410926156
 21
-17.9584099181
 31
0.0
 40
0.1228992729
 41
-1.8179059513
 42
-1.7922212391
  0
ELLIPSE
  5
2F2
100
AcDbEntity
  8
0
100
AcDbEllipse
 62
7
  6
BYLAYER
 10
26.5983189018
 20
59.0586567394
 30
0.0
 11
18.1156691418
 21
-18.0789658936
 31
0.0
 40
0.0815698667
 41
-1.8596229162
 42
-1.8327268879
  0
ELLIPSE
  5
2F3
100
AcDbEntity
  8
0
100
AcDbEllipse
 62
7
  6
BYLAYER
 10
26.5983189019
 20
58.9833278266
 30
0.0
 11
18.1605909673
 21
-18.1514209571
 31
0.0
 40
0.0406765142
 41
-1.9014465147
 42
-1.8733187897
  0
ELLIPSE
  5
2F4
100
AcDbEntity
  8
0
100
AcDbEllipse
 62
7
  6
BYLAYER
 10
15.2915658015
 20
65.1646488763
 30
0.0
 11
14.9543464083
 21
10.0427045149
 31
0.0
 40
0.9066977799
 41
-1.8464703263
 42
-1.8167011824
  0
ELLIPSE
  5
2F5
100
AcDbEntity
  8
0
100
AcDbEllipse
 62
7
  6
BYLAYER
 10
15.2915658015
 20
64.7588801686
 30
0.0
 11
14.4741311195
 21
11.8601695234
 31
0.0
 40
0.8306103506
 41
-1.8971234584
 42
-1.8673543145
  0
ELLIPSE
  5
2F6
100
AcDbEntity
  8
0
100
AcDbEllipse
 62
7
  6
BYLAYER
 10
15.2915658015
 20
64.3593114335
 30
0.0
 11
14.5700382847
 21
12.8060309747
 31
0.0
 40
0.7581403628
 41
-1.8873170525
 42
-1.8575479087
  0
ELLIPSE
  5
2F7
100
AcDbEntity
  8
0
100
AcDbEllipse
 62
7
  6
BYLAYER
 10
15.2915658015
 20
63.9689836304
 30
0.0
 11
14.8194770471
 21
13.5094930283
 31
0.0
 40
0.6901509118
 41
-1.8611064818
 42
-1.8313373379
  0
ELLIPSE
  5
2F8
100
AcDbEntity
  8
0
100
AcDbEllipse
 62
7
  6
BYLAYER
 10
26.5983189018
 20
66.7222772398
 30
0.0
 11
15.791979517
 21
10.9958379272
 31
0.0
 40
0.818317629
 41
1.3960435217
 42
1.3965536961
  0
ELLIPSE
  5
2F9
100
AcDbEntity
  8
0
100
AcDbEllipse
 62
7
  6
BYLAYER
 10
15.2915658015
 20
63.5908673896
 30
0.0
 11
15.1182070608
 21
14.1001405585
 31
0.0
 40
0.6263036642
 41
-1.8281998094
 42
-1.7984306655
  0
ELLIPSE
  5
2FA
100
AcDbEntity
  8
0
100
AcDbEllipse
 62
7
  6
BYLAYER
 10
26.5983189018
 20
67.2857144741
 30
0.0
 11
15.6563003942
 21
12.3580633753
 31
0.0
 40
0.7470541823
 41
1.3811587275
 42
1.3861792519
  0
ELLIPSE
  5
2FB
100
AcDbEntity
  8
0
100
AcDbEllipse
 62
7
  6
BYLAYER
 10
15.2915658015
 20
63.2278404039
 30
0.0
 11
15.4285527016
 21
14.6201143459
 31
0.0
 40
0.5661264515
 41
-1.7919226086
 42
-1.7621534647
  0
ELLIPSE
  5
2FC
100
AcDbEntity
  8
0
100
AcDbEllipse
 62
7
  6
BYLAYER
 10
26.5983189019
 20
67.8361209463
 30
0.0
 11
15.7703479229
 21
13.3023954138
 31
0.0
 40
0.6792721423
 41
1.3936445484
 42
1.4020899947
  0
ELLIPSE
  5
2FD
100
AcDbEntity
  8
0
100
AcDbEllipse
 62
7
  6
BYLAYER
 10
15.2915658015
 20
62.8826655279
 30
0.0
 11
15.7334287619
 21
15.0865489373
 31
0.0
 40
0.5091621171
 41
-1.7537182443
 42
-1.7239491005
  0
ELLIPSE
  5
2FE
100
AcDbEntity
  8
0
100
AcDbEllipse
 62
7
  6
BYLAYER
 10
26.5983189019
 20
68.3693077308
 30
0.0
 11
15.9844133441
 21
14.0585338956
 31
0.0
 40
0.6154007239
 41
1.4178485365
 42
1.4290229277
  0
ELLIPSE
  5
2FF
100
AcDbEntity
  8
0
100
AcDbEllipse
 62
7
  6
BYLAYER
 10
15.2915658015
 20
62.5579697509
 30
0.0
 11
16.023819938
 21
15.507275323
 31
0.0
 40
0.4549951859
 41
-1.7143141628
 42
-1.6845450189
  0
ELLIPSE
  5
300
100
AcDbEntity
  8
0
100
AcDbEllipse
 62
7
  6
BYLAYER
 10
26.5983189018
 20
68.8812169541
 30
0.0
 11
16.2385436118
 21
14.7051040421
 31
0.0
 40
0.5552272381
 41
1.4480705033
 42
1.4615012691
  0
ELLIPSE
  5
301
100
AcDbEntity
  8
0
100
AcDbEllipse
 62
7
  6
BYLAYER
 10
15.2915658015
 20
62.2562242037
 30
0.0
 11
16.2944188981
 21
15.8860502942
 31
0.0
 40
0.4032531911
 41
-1.674117191
 42
-1.6443480471
  0
ELLIPSE
  5
302
100
AcDbEntity
  8
0
100
AcDbEllipse
 62
7
  6
BYLAYER
 10
26.5983189019
 20
69.3679526779
 30
0.0
 11
16.5043969512
 21
15.274965845
 31
0.0
 40
0.4983942514
 41
1.4817673503
 42
1.4971206958
  0
ELLIPSE
  5
303
100
AcDbEntity
  8
0
100
AcDbEllipse
 62
7
  6
BYLAYER
 10
15.2915658015
 20
61.9797253522
 30
0.0
 11
16.5418339295
 21
16.2246471729
 31
0.0
 40
0.3536019736
 41
-1.6333731597
 42
-1.6036040158
  0
ELLIPSE
  5
304
100
AcDbEntity
  8
0
100
AcDbEllipse
 62
7
  6
BYLAYER
 10
26.5983189019
 20
69.8258105496
 30
0.0
 11
16.766803626
 21
15.7835371161
 31
0.0
 40
0.4445239339
 41
1.5176380826
 42
1.5346729655
  0
ELLIPSE
  5
305
100
AcDbEntity
  8
0
100
AcDbEllipse
 62
7
  6
BYLAYER
 10
15.2915658015
 20
61.7305775196
 30
0.0
 11
16.7637596114
 21
16.523808647
 31
0.0
 40
0.3057398728
 41
-1.5922399181
 42
-1.5624707743
  0
ELLIPSE
  5
306
100
AcDbEntity
  8
0
100
AcDbEllipse
 62
7
  6
BYLAYER
 10
26.5983189018
 20
70.2513059942
 30
0.0
 11
17.0168501026
 21
16.2384907108
 31
0.0
 40
0.3932536107
 41
1.5549485398
 42
1.5734880833
  0
ELLIPSE
  5
307
100
AcDbEntity
  8
0
100
AcDbEllipse
 62
7
  6
BYLAYER
 10
15.2915658015
 20
61.5106768714
 30
0.0
 11
16.9585571531
 21
16.7837266909
 31
0.0
 40
0.2593921815
 41
-1.5508240306
 42
-1.5210548867
  0
ELLIPSE
  5
308
100
AcDbEntity
  8
0
100
AcDbEllipse
 62
7
  6
BYLAYER
 10
26.5983189019
 20
70.6412007345
 30
0.0
 11
17.2489119491
 21
16.6436838349
 31
0.0
 40
0.3442450777
 41
1.5932525833
 42
1.6131670491
  0
ELLIPSE
  5
309
100
AcDbEntity
  8
0
100
AcDbEllipse
 62
7
  6
BYLAYER
 10
15.2915658015
 20
61.3216969842
 30
0.0
 11
17.1250267564
 21
17.0043043001
 31
0.0
 40
0.2143062114
 41
-1.5092006484
 42
-1.4794315045
  0
ELLIPSE
  5
30A
100
AcDbEntity
  8
0
100
AcDbEllipse
 62
7
  6
BYLAYER
 10
26.5983189019
 20
70.992527436
 30
0.0
 11
17.4592414022
 21
17.0009614673
 31
0.0
 40
0.2971852239
 41
1.6322627734
 42
1.653457536
  0
ELLIPSE
  5
30B
100
AcDbEntity
  8
0
100
AcDbEllipse
 62
7
  6
BYLAYER
 10
15.2915658015
 20
61.1650761091
 30
0.0
 11
17.2622772411
 21
17.185307668
 31
0.0
 40
0.1702469903
 41
-1.4674249603
 42
-1.4376558164
  0
ELLIPSE
  5
30C
100
AcDbEntity
  8
0
100
AcDbEllipse
 62
7
  6
BYLAYER
 10
26.5983189018
 20
71.3026122906
 30
0.0
 11
17.6452378715
 21
17.311068251
 31
0.0
 40
0.2517837063
 41
1.6717847557
 42
1.694032417
  0
ELLIPSE
  5
30D
100
AcDbEntity
  8
0
100
AcDbEllipse
 62
7
  6
BYLAYER
 10
26.5983189019
 20
71.5690953651
 30
0.0
 11
17.8050458869
 21
17.5741469284
 31
0.0
 40
0.2077697388
 41
1.7116814851
 42
1.735034489
  0
ELLIPSE
  5
30E
100
AcDbEntity
  8
0
100
AcDbEllipse
 62
7
  6
BYLAYER
 10
26.5983189019
 20
71.7899485625
 30
0.0
 11
17.9373217495
 21
17.7900285404
 31
0.0
 40
0.1648887629
 41
1.7518524984
 42
1.7763538123
  0
ELLIPSE
  5
30F
100
AcDbEntity
  8
0
100
AcDbEllipse
 62
7
  6
BYLAYER
 10
26.5983189018
 20
71.9634910566
 30
0.0
 11
18.0410926156
 21
17.9584099181
 31
0.0
 40
0.1228992729
 41
1.7922212391
 42
1.8179059663
  0
ELLIPSE
  5
310
100
AcDbEntity
  8
0
100
AcDbEllipse
 62
7
  6
BYLAYER
 10
26.5983189018
 20
72.0884020842
 30
0.0
 11
18.1156691418
 21
18.0789658936
 31
0.0
 40
0.0815698667
 41
1.8327268879
 42
1.8596229267
  0
ELLIPSE
  5
311
100
AcDbEntity
  8
0
100
AcDbEllipse
 62
7
  6
BYLAYER
 10
26.5983189019
 20
72.1637309969
 30
0.0
 11
18.1605909673
 21
18.1514209571
 31
0.0
 40
0.0406765142
 41
1.8733187897
 42
1.9014465202
  0
ELLIPSE
  5
312
100
AcDbEntity
  8
0
100
AcDbEllipse
 62
7
  6
BYLAYER
 10
15.2915658015
 20
60.9000035057
 30
0.0
 11
17.4929960222
 21
17.4882083164
 31
0.0
 40
0.0420701413
 41
-1.3415664268
 42
-1.3117972829
  0
ELLIPSE
  5
313
100
AcDbEntity
  8
0
100
AcDbEllipse
 62
7
  6
BYLAYER
 10
15.2915658015
 20
60.9534239696
 30
0.0
 11
17.4466624083
 21
17.4274961419
 31
0.0
 40
0.0843354388
 41
-1.3835769222
 42
-1.3538077783
  0
ELLIPSE
  5
314
100
AcDbEntity
  8
0
100
AcDbEllipse
 62
7
  6
BYLAYER
 10
15.2915658015
 20
61.0420062255
 30
0.0
 11
17.3696482286
 21
17.326459176
 31
0.0
 40
0.1269935126
 41
-1.425539161
 42
-1.3957700171
  0
ELLIPSE
  5
315
100
AcDbEntity
  8
0
100
AcDbEllipse
 62
7
  6
BYLAYER
 10
15.2915658015
 20
65.5735294118
 30
0.0
 11
17.5084611122
 21
-0.0
 31
0.0
 40
0.963433044
 41
-1.2995325731
 42
-1.2697634292
  0
ELLIPSE
  5
316
100
AcDbEntity
  8
0
100
AcDbEllipse
 62
7
  6
BYLAYER
 10
15.2915658015
 20
70.2470553178
 30
0.0
 11
17.4929960222
 21
-17.4882083164
 31
0.0
 40
0.0420701413
 41
1.3117972829
 42
1.3415664268
  0
ELLIPSE
  5
317
100
AcDbEntity
  8
0
100
AcDbEllipse
 62
7
  6
BYLAYER
 10
15.2915658015
 20
70.193634854
 30
0.0
 11
17.4466624083
 21
-17.4274961419
 31
0.0
 40
0.0843354388
 41
1.3538077783
 42
1.3835769222
  0
ELLIPSE
  5
318
100
AcDbEntity
  8
0
100
AcDbEllipse
 62
7
  6
BYLAYER
 10
15.2915658015
 20
70.105052598
 30
0.0
 11
17.3696482286
 21
-17.326459176
 31
0.0
 40
0.1269935126
 41
1.3957700171
 42
1.425539161
  0
ELLIPSE
  5
319
100
AcDbEntity
  8
0
100
AcDbEllipse
 62
7
  6
BYLAYER
 10
15.2915658015
 20
69.9819827145
 30
0.0
 11
17.2622772411
 21
-17.185307668
 31
0.0
 40
0.1702469903
 41
1.4376558164
 42
1.4674249603
  0
ELLIPSE
  5
31A
100
AcDbEntity
  8
0
100
AcDbEllipse
 62
7
  6
BYLAYER
 10
15.2915658015
 20
69.8253618393
 30
0.0
 11
17.1250267564
 21
-17.0043043001
 31
0.0
 40
0.2143062114
 41
1.4794315045
 42
1.5092006484
  0
ELLIPSE
  5
31B
100
AcDbEntity
  8
0
100
AcDbEllipse
 62
7
  6
BYLAYER
 10
15.2915658015
 20
69.6363819521
 30
0.0
 11
16.9585571531
 21
-16.7837266909
 31
0.0
 40
0.2593921815
 41
1.5210548867
 42
1.5508240306
  0
ELLIPSE
  5
31C
100
AcDbEntity
  8
0
100
AcDbEllipse
 62
7
  6
BYLAYER
 10
15.2915658015
 20
69.4164813039
 30
0.0
 11
16.7637596114
 21
-16.523808647
 31
0.0
 40
0.3057398728
 41
1.5624707743
 42
1.5922399181
  0
ELLIPSE
  5
31D
100
AcDbEntity
  8
0
100
AcDbEllipse
 62
7
  6
BYLAYER
 10
15.2915658015
 20
69.1673334713
 30
0.0
 11
16.5418339295
 21
-16.2246471729
 31
0.0
 40
0.3536019736
 41
1.6036040158
 42
1.6333731597
  0
ELLIPSE
  5
31E
100
AcDbEntity
  8
0
100
AcDbEllipse
 62
7
  6
BYLAYER
 10
15.2915658015
 20
68.8908346198
 30
0.0
 11
16.2944188981
 21
-15.8860502942
 31
0.0
 40
0.4032531911
 41
1.6443480471
 42
1.674117191
  0
ELLIPSE
  5
31F
100
AcDbEntity
  8
0
100
AcDbEllipse
 62
7
  6
BYLAYER
 10
15.2915658015
 20
68.5890890726
 30
0.0
 11
16.023819938
 21
-15.507275323
 31
0.0
 40
0.4549951859
 41
1.6845450189
 42
1.7143141628
  0
ELLIPSE
  5
320
100
AcDbEntity
  8
0
100
AcDbEllipse
 62
7
  6
BYLAYER
 10
15.2915658015
 20
68.2643932956
 30
0.0
 11
15.7334287619
 21
-15.0865489373
 31
0.0
 40
0.5091621171
 41
1.7239491005
 42
1.7537182443
  0
ELLIPSE
  5
321
100
AcDbEntity
  8
0
100
AcDbEllipse
 62
7
  6
BYLAYER
 10
15.2915658015
 20
67.9192184196
 30
0.0
 11
15.4285527016
 21
-14.6201143459
 31
0.0
 40
0.5661264515
 41
1.7621534647
 42
1.7919226086
  0
ELLIPSE
  5
322
100
AcDbEntity
  8
0
100
AcDbEllipse
 62
7
  6
BYLAYER
 10
15.2915658015
 20
67.5561914339
 30
0.0
 11
15.1182070608
 21
-14.1001405585
 31
0.0
 40
0.6263036642
 41
1.7984306655
 42
1.8281998094
  0
ELLIPSE
  5
323
100
AcDbEntity
  8
0
100
AcDbEllipse
 62
7
  6
BYLAYER
 10
15.2915658015
 20
67.1780751931
 30
0.0
 11
14.8194770471
 21
-13.5094930283
 31
0.0
 40
0.6901509118
 41
1.8313373379
 42
1.8611064818
  0
ELLIPSE
  5
324
100
AcDbEntity
  8
0
100
AcDbEllipse
 62
7
  6
BYLAYER
 10
15.2915658015
 20
66.78774739
 30
0.0
 11
14.5700382847
 21
-12.8060309747
 31
0.0
 40
0.7581403628
 41
1.8575479087
 42
1.8873170525
  0
ELLIPSE
  5
325
100
AcDbEntity
  8
0
100
AcDbEllipse
 62
7
  6
BYLAYER
 10
15.2915658015
 20
66.3881786549
 30
0.0
 11
14.4741311195
 21
-11.8601695234
 31
0.0
 40
0.8306103506
 41
1.8673543145
 42
1.8971234584
  0
ELLIPSE
  5
326
100
AcDbEntity
  8
0
100
AcDbEllipse
 62
7
  6
BYLAYER
 10
15.2915658015
 20
65.5735294118
 30
0.0
 11
17.5084611122
 21
0.0
 31
0.0
 40
0.963433044
 41
7.5529487364
 42
7.5827178802
  0
ELLIPSE
  5
327
100
AcDbEntity
  8
0
100
AcDbEllipse
 62
7
  6
BYLAYER
 10
15.2915658015
 20
65.9824099472
 30
0.0
 11
14.9543464083
 21
-10.0427045149
 31
0.0
 40
0.9066977799
 41
1.8167011824
 42
1.8464703263
  0
ELLIPSE
  5
328
100
AcDbEntity
  8
0
100
AcDbEllipse
 62
7
  6
BYLAYER
 10
15.2915658015
 20
61.0420062255
 30
0.0
 11
17.3696482286
 21
17.326459176
 31
0.0
 40
0.1269935126
 41
1.1437568412
 42
1.1735259851
  0
ELLIPSE
  5
329
100
AcDbEntity
  8
0
100
AcDbEllipse
 62
7
  6
BYLAYER
 10
15.2915658015
 20
63.5908673896
 30
0.0
 11
15.1182070608
 21
14.1001405585
 31
0.0
 40
0.6263036642
 41
0.7410961929
 42
0.7708653368
  0
ELLIPSE
  5
32A
100
AcDbEntity
  8
0
100
AcDbEllipse
 62
7
  6
BYLAYER
 10
15.2915658015
 20
60.9534239696
 30
0.0
 11
17.4466624083
 21
17.4274961419
 31
0.0
 40
0.0843354388
 41
1.18571908
 42
1.2154882239
  0
ELLIPSE
  5
32B
100
AcDbEntity
  8
0
100
AcDbEllipse
 62
7
  6
BYLAYER
 10
15.2915658015
 20
63.2278404039
 30
0.0
 11
15.4285527016
 21
14.6201143459
 31
0.0
 40
0.5661264515
 41
0.7773733936
 42
0.8071425375
  0
ELLIPSE
  5
32C
100
AcDbEntity
  8
0
100
AcDbEllipse
 62
7
  6
BYLAYER
 10
15.2915658015
 20
60.9000035057
 30
0.0
 11
17.4929960222
 21
17.4882083164
 31
0.0
 40
0.0420701413
 41
1.2277295755
 42
1.2574987193
  0
ELLIPSE
  5
32D
100
AcDbEntity
  8
0
100
AcDbEllipse
 62
7
  6
BYLAYER
 10
15.2915658015
 20
62.8826655279
 30
0.0
 11
15.7334287619
 21
15.0865489373
 31
0.0
 40
0.5091621171
 41
0.8155777579
 42
0.8453469018
  0
ELLIPSE
  5
32E
100
AcDbEntity
  8
0
100
AcDbEllipse
 62
7
  6
BYLAYER
 10
15.2915658015
 20
62.5579697509
 30
0.0
 11
16.023819938
 21
15.507275323
 31
0.0
 40
0.4549951859
 41
0.8549818395
 42
0.8847509834
  0
ELLIPSE
  5
32F
100
AcDbEntity
  8
0
100
AcDbEllipse
 62
7
  6
BYLAYER
 10
15.2915658015
 20
65.1646488763
 30
0.0
 11
14.9543464083
 21
10.0427045149
 31
0.0
 40
0.9066977799
 41
0.722825676
 42
0.7525948199
  0
ELLIPSE
  5
330
100
AcDbEntity
  8
0
100
AcDbEllipse
 62
7
  6
BYLAYER
 10
15.2915658015
 20
70.2470553178
 30
0.0
 11
17.4929960222
 21
-17.4882083164
 31
0.0
 40
0.0420701413
 41
-1.2574987193
 42
-1.2277295755
  0
ELLIPSE
  5
331
100
AcDbEntity
  8
0
100
AcDbEllipse
 62
7
  6
BYLAYER
 10
15.2915658015
 20
70.193634854
 30
0.0
 11
17.4466624083
 21
-17.4274961419
 31
0.0
 40
0.0843354388
 41
-1.2154882239
 42
-1.18571908
  0
ELLIPSE
  5
332
100
AcDbEntity
  8
0
100
AcDbEllipse
 62
7
  6
BYLAYER
 10
15.2915658015
 20
70.105052598
 30
0.0
 11
17.3696482286
 21
-17.326459176
 31
0.0
 40
0.1269935126
 41
-1.1735259851
 42
-1.1437568412
  0
ELLIPSE
  5
333
100
AcDbEntity
  8
0
100
AcDbEllipse
 62
7
  6
BYLAYER
 10
15.2915658015
 20
69.9819827145
 30
0.0
 11
17.2622772411
 21
-17.185307668
 31
0.0
 40
0.1702469903
 41
-1.1316401859
 42
-1.101871042
  0
ELLIPSE
  5
334
100
AcDbEntity
  8
0
100
AcDbEllipse
 62
7
  6
BYLAYER
 10
15.2915658015
 20
69.8253618393
 30
0.0
 11
17.1250267564
 21
-17.0043043001
 31
0.0
 40
0.2143062114
 41
-1.0898644977
 42
-1.0600953539
  0
ELLIPSE
  5
335
100
AcDbEntity
  8
0
100
AcDbEllipse
 62
7
  6
BYLAYER
 10
15.2915658015
 20
69.6363819521
 30
0.0
 11
16.9585571531
 21
-16.7837266909
 31
0.0
 40
0.2593921815
 41
-1.0482411156
 42
-1.0184719717
  0
ELLIPSE
  5
336
100
AcDbEntity
  8
0
100
AcDbEllipse
 62
7
  6
BYLAYER
 10
15.2915658015
 20
69.4164813039
 30
0.0
 11
16.7637596114
 21
-16.523808647
 31
0.0
 40
0.3057398728
 41
-1.006825228
 42
-0.9770560841
  0
ELLIPSE
  5
337
100
AcDbEntity
  8
0
100
AcDbEllipse
 62
7
  6
BYLAYER
 10
15.2915658015
 20
69.1673334713
 30
0.0
 11
16.5418339295
 21
-16.2246471729
 31
0.0
 40
0.3536019736
 41
-0.9656919865
 42
-0.9359228426
  0
ELLIPSE
  5
338
100
AcDbEntity
  8
0
100
AcDbEllipse
 62
7
  6
BYLAYER
 10
15.2915658015
 20
68.8908346198
 30
0.0
 11
16.2944188981
 21
-15.8860502942
 31
0.0
 40
0.4032531911
 41
-0.9249479552
 42
-0.8951788113
  0
ELLIPSE
  5
339
100
AcDbEntity
  8
0
100
AcDbEllipse
 62
7
  6
BYLAYER
 10
15.2915658015
 20
68.5890890726
 30
0.0
 11
16.023819938
 21
-15.507275323
 31
0.0
 40
0.4549951859
 41
-0.8847509834
 42
-0.8549818395
  0
ELLIPSE
  5
33A
100
AcDbEntity
  8
0
100
AcDbEllipse
 62
7
  6
BYLAYER
 10
15.2915658015
 20
68.2643932956
 30
0.0
 11
15.7334287619
 21
-15.0865489373
 31
0.0
 40
0.5091621171
 41
-0.8453469018
 42
-0.8155777579
  0
ELLIPSE
  5
33B
100
AcDbEntity
  8
0
100
AcDbEllipse
 62
7
  6
BYLAYER
 10
15.2915658015
 20
67.9192184196
 30
0.0
 11
15.4285527016
 21
-14.6201143459
 31
0.0
 40
0.5661264515
 41
-0.8071425375
 42
-0.7773733936
  0
ELLIPSE
  5
33C
100
AcDbEntity
  8
0
100
AcDbEllipse
 62
7
  6
BYLAYER
 10
15.2915658015
 20
67.5561914339
 30
0.0
 11
15.1182070608
 21
-14.1001405585
 31
0.0
 40
0.6263036642
 41
-0.7708653368
 42
-0.7410961929
  0
ELLIPSE
  5
33D
100
AcDbEntity
  8
0
100
AcDbEllipse
 62
7
  6
BYLAYER
 10
15.2915658015
 20
67.1780751931
 30
0.0
 11
14.8194770471
 21
-13.5094930283
 31
0.0
 40
0.6901509118
 41
-0.7379586644
 42
-0.7081895205
  0
ELLIPSE
  5
33E
100
AcDbEntity
  8
0
100
AcDbEllipse
 62
7
  6
BYLAYER
 10
15.2915658015
 20
66.78774739
 30
0.0
 11
14.5700382847
 21
-12.8060309747
 31
0.0
 40
0.7581403628
 41
-0.7117480936
 42
-0.6819789497
  0
ELLIPSE
  5
33F
100
AcDbEntity
  8
0
100
AcDbEllipse
 62
7
  6
BYLAYER
 10
15.2915658015
 20
66.3881786549
 30
0.0
 11
14.4741311195
 21
-11.8601695234
 31
0.0
 40
0.8306103506
 41
-0.7019416878
 42
-0.6721725439
  0
ELLIPSE
  5
340
100
AcDbEntity
  8
0
100
AcDbEllipse
 62
7
  6
BYLAYER
 10
15.2915658015
 20
65.9824099472
 30
0.0
 11
14.9543464083
 21
-10.0427045149
 31
0.0
 40
0.9066977799
 41
-0.7525948199
 42
-0.722825676
  0
ELLIPSE
  5
341
100
AcDbEntity
  8
0
100
AcDbEllipse
 62
7
  6
BYLAYER
 10
15.2915658015
 20
62.2562242037
 30
0.0
 11
16.2944188981
 21
15.8860502942
 31
0.0
 40
0.4032531911
 41
0.8951788113
 42
0.9249479552
  0
ELLIPSE
  5
342
100
AcDbEntity
  8
0
100
AcDbEllipse
 62
7
  6
BYLAYER
 10
15.2915658015
 20
64.7588801686
 30
0.0
 11
14.4741311195
 21
11.8601695234
 31
0.0
 40
0.8306103506
 41
0.6721725439
 42
0.7019416878
  0
ELLIPSE
  5
343
100
AcDbEntity
  8
0
100
AcDbEllipse
 62
7
  6
BYLAYER
 10
15.2915658015
 20
61.9797253522
 30
0.0
 11
16.5418339295
 21
16.2246471729
 31
0.0
 40
0.3536019736
 41
0.9359228426
 42
0.9656919865
  0
ELLIPSE
  5
344
100
AcDbEntity
  8
0
100
AcDbEllipse
 62
7
  6
BYLAYER
 10
15.2915658015
 20
64.3593114335
 30
0.0
 11
14.5700382847
 21
12.8060309747
 31
0.0
 40
0.7581403628
 41
0.6819789497
 42
0.7117480936
  0
ELLIPSE
  5
345
100
AcDbEntity
  8
0
100
AcDbEllipse
 62
7
  6
BYLAYER
 10
15.2915658015
 20
61.7305775196
 30
0.0
 11
16.7637596114
 21
16.523808647
 31
0.0
 40
0.3057398728
 41
0.9770560841
 42
1.006825228
  0
ELLIPSE
  5
346
100
AcDbEntity
  8
0
100
AcDbEllipse
 62
7
  6
BYLAYER
 10
15.2915658015
 20
61.5106768714
 30
0.0
 11
16.9585571531
 21
16.7837266909
 31
0.0
 40
0.2593921815
 41
1.0184719717
 42
1.0482411156
  0
ELLIPSE
  5
347
100
AcDbEntity
  8
0
100
AcDbEllipse
 62
7
  6
BYLAYER
 10
15.2915658015
 20
61.3216969842
 30
0.0
 11
17.1250267564
 21
17.0043043001
 31
0.0
 40
0.2143062114
 41
1.0600953539
 42
1.0898644977
  0
ELLIPSE
  5
348
100
AcDbEntity
  8
0
100
AcDbEllipse
 62
7
  6
BYLAYER
 10
15.2915658015
 20
63.9689836304
 30
0.0
 11
14.8194770471
 21
13.5094930283
 31
0.0
 40
0.6901509118
 41
0.7081895205
 42
0.7379586644
  0
ELLIPSE
  5
349
100
AcDbEntity
  8
0
100
AcDbEllipse
 62
7
  6
BYLAYER
 10
15.2915658015
 20
61.1650761091
 30
0.0
 11
17.2622772411
 21
17.185307668
 31
0.0
 40
0.1702469903
 41
1.101871042
 42
1.1316401859
  0
ELLIPSE
  5
34A
100
AcDbEntity
  8
0
100
AcDbEllipse
 62
7
  6
BYLAYER
 10
18.9675687327
 20
66.7222772398
 30
0.0
 11
15.791979517
 21
-10.9958379272
 31
0.0
 40
0.818317629
 41
1.7450389583
 42
1.7455491319
  0
ELLIPSE
  5
34B
100
AcDbEntity
  8
0
100
AcDbEllipse
 62
7
  6
BYLAYER
 10
18.9675687327
 20
67.2857144741
 30
0.0
 11
15.6563003942
 21
-12.3580633753
 31
0.0
 40
0.7470541823
 41
8.0385987122
 42
8.0436192332
  0
ELLIPSE
  5
34C
100
AcDbEntity
  8
0
100
AcDbEllipse
 62
7
  6
BYLAYER
 10
18.9675687327
 20
67.8361209463
 30
0.0
 11
15.7703479229
 21
-13.3023954138
 31
0.0
 40
0.6792721423
 41
8.0226879656
 42
8.0311334124
  0
ELLIPSE
  5
34D
100
AcDbEntity
  8
0
100
AcDbEllipse
 62
7
  6
BYLAYER
 10
18.9675687327
 20
68.3693077308
 30
0.0
 11
15.9844133441
 21
-14.0585338956
 31
0.0
 40
0.6154007239
 41
1.7125697243
 42
1.7237441171
  0
ELLIPSE
  5
34E
100
AcDbEntity
  8
0
100
AcDbEllipse
 62
7
  6
BYLAYER
 10
18.9675687327
 20
68.8812169541
 30
0.0
 11
16.2385436118
 21
-14.7051040421
 31
0.0
 40
0.5552272381
 41
1.6800913841
 42
1.6935221503
  0
ELLIPSE
  5
34F
100
AcDbEntity
  8
0
100
AcDbEllipse
 62
7
  6
BYLAYER
 10
18.9675687327
 20
69.3679526779
 30
0.0
 11
16.5043969512
 21
-15.274965845
 31
0.0
 40
0.4983942514
 41
1.6444719572
 42
1.6598253033
  0
ELLIPSE
  5
350
100
AcDbEntity
  8
0
100
AcDbEllipse
 62
7
  6
BYLAYER
 10
18.9675687327
 20
69.8258105496
 30
0.0
 11
16.766803626
 21
-15.7835371161
 31
0.0
 40
0.4445239339
 41
1.6069196864
 42
1.623954571
  0
ELLIPSE
  5
351
100
AcDbEntity
  8
0
100
AcDbEllipse
 62
7
  6
BYLAYER
 10
18.9675687327
 20
70.2513059942
 30
0.0
 11
17.0168501026
 21
-16.2384907108
 31
0.0
 40
0.3932536107
 41
1.5681045669
 42
1.5866441138
  0
ELLIPSE
  5
352
100
AcDbEntity
  8
0
100
AcDbEllipse
 62
7
  6
BYLAYER
 10
18.9675687327
 20
70.6412007345
 30
0.0
 11
17.2489119491
 21
-16.6436838349
 31
0.0
 40
0.3442450777
 41
1.5284256265
 42
1.5483400703
  0
ELLIPSE
  5
353
100
AcDbEntity
  8
0
100
AcDbEllipse
 62
7
  6
BYLAYER
 10
18.9675687327
 20
70.992527436
 30
0.0
 11
17.4592414022
 21
-17.0009614673
 31
0.0
 40
0.2971852239
 41
1.4881351505
 42
1.5093298802
  0
ELLIPSE
  5
354
100
AcDbEntity
  8
0
100
AcDbEllipse
 62
7
  6
BYLAYER
 10
18.9675687327
 20
71.3026122906
 30
0.0
 11
17.6452378715
 21
-17.311068251
 31
0.0
 40
0.2517837063
 41
1.447560264
 42
1.4698078979
  0
ELLIPSE
  5
355
100
AcDbEntity
  8
0
100
AcDbEllipse
 62
7
  6
BYLAYER
 10
18.9675687327
 20
71.5690953651
 30
0.0
 11
17.8050458869
 21
-17.5741469284
 31
0.0
 40
0.2077697388
 41
1.4065581876
 42
1.4299111685
  0
ELLIPSE
  5
356
100
AcDbEntity
  8
0
100
AcDbEllipse
 62
7
  6
BYLAYER
 10
18.9675687327
 20
71.7899485625
 30
0.0
 11
17.9373217495
 21
-17.7900285404
 31
0.0
 40
0.1648887629
 41
1.3652388603
 42
1.3897401552
  0
ELLIPSE
  5
357
100
AcDbEntity
  8
0
100
AcDbEllipse
 62
7
  6
BYLAYER
 10
18.9675687327
 20
71.9634910566
 30
0.0
 11
18.0410926156
 21
-17.9584099181
 31
0.0
 40
0.1228992729
 41
1.3236867023
 42
1.3493714145
  0
ELLIPSE
  5
358
100
AcDbEntity
  8
0
100
AcDbEllipse
 62
7
  6
BYLAYER
 10
18.9675687327
 20
72.0884020842
 30
0.0
 11
18.1156691418
 21
-18.0789658936
 31
0.0
 40
0.0815698667
 41
1.2819697374
 42
1.3088657657
  0
ELLIPSE
  5
359
100
AcDbEntity
  8
0
100
AcDbEllipse
 62
7
  6
BYLAYER
 10
18.9675687327
 20
72.1637309969
 30
0.0
 11
18.1605909673
 21
-18.1514209571
 31
0.0
 40
0.0406765142
 41
1.2401461389
 42
1.2682738639
  0
ELLIPSE
  5
35A
100
AcDbEntity
  8
0
100
AcDbEllipse
 62
7
  6
BYLAYER
 10
30.274321833
 20
65.1646488763
 30
0.0
 11
14.9543464083
 21
-10.0427045149
 31
0.0
 40
0.9066977799
 41
-1.3248914712
 42
-1.2951223273
  0
ELLIPSE
  5
35B
100
AcDbEntity
  8
0
100
AcDbEllipse
 62
7
  6
BYLAYER
 10
30.274321833
 20
64.7588801686
 30
0.0
 11
14.4741311195
 21
-11.8601695234
 31
0.0
 40
0.8306103506
 41
-1.2742383391
 42
-1.2444691952
  0
ELLIPSE
  5
35C
100
AcDbEntity
  8
0
100
AcDbEllipse
 62
7
  6
BYLAYER
 10
30.274321833
 20
64.3593114335
 30
0.0
 11
14.5700382847
 21
-12.8060309747
 31
0.0
 40
0.7581403628
 41
-1.2840447449
 42
-1.2542756011
  0
ELLIPSE
  5
35D
100
AcDbEntity
  8
0
100
AcDbEllipse
 62
7
  6
BYLAYER
 10
30.274321833
 20
63.9689836304
 30
0.0
 11
14.8194770471
 21
-13.5094930283
 31
0.0
 40
0.6901509118
 41
-1.3102553157
 42
-1.2804861718
  0
ELLIPSE
  5
35E
100
AcDbEntity
  8
0
100
AcDbEllipse
 62
7
  6
BYLAYER
 10
30.274321833
 20
63.5908673896
 30
0.0
 11
15.1182070608
 21
-14.1001405585
 31
0.0
 40
0.6263036642
 41
-1.3431619881
 42
-1.3133928442
  0
ELLIPSE
  5
35F
100
AcDbEntity
  8
0
100
AcDbEllipse
 62
7
  6
BYLAYER
 10
30.274321833
 20
63.2278404039
 30
0.0
 11
15.4285527016
 21
-14.6201143459
 31
0.0
 40
0.5661264515
 41
-1.3794391888
 42
-1.349670045
  0
ELLIPSE
  5
360
100
AcDbEntity
  8
0
100
AcDbEllipse
 62
7
  6
BYLAYER
 10
30.274321833
 20
62.8826655279
 30
0.0
 11
15.7334287619
 21
-15.0865489373
 31
0.0
 40
0.5091621171
 41
-1.4176435531
 42
-1.3878744092
  0
ELLIPSE
  5
361
100
AcDbEntity
  8
0
100
AcDbEllipse
 62
7
  6
BYLAYER
 10
30.274321833
 20
62.5579697509
 30
0.0
 11
16.023819938
 21
-15.507275323
 31
0.0
 40
0.4549951859
 41
-1.4570476347
 42
-1.4272784908
  0
ELLIPSE
  5
362
100
AcDbEntity
  8
0
100
AcDbEllipse
 62
7
  6
BYLAYER
 10
30.274321833
 20
62.2562242037
 30
0.0
 11
16.2944188981
 21
-15.8860502942
 31
0.0
 40
0.4032531911
 41
-1.4972446065
 42
-1.4674754626
  0
ELLIPSE
  5
363
100
AcDbEntity
  8
0
100
AcDbEllipse
 62
7
  6
BYLAYER
 10
30.274321833
 20
61.9797253522
 30
0.0
 11
16.5418339295
 21
-16.2246471729
 31
0.0
 40
0.3536019736
 41
-1.5379886378
 42
-1.5082194939
  0
ELLIPSE
  5
364
100
AcDbEntity
  8
0
100
AcDbEllipse
 62
7
  6
BYLAYER
 10
30.274321833
 20
61.7305775196
 30
0.0
 11
16.7637596114
 21
-16.523808647
 31
0.0
 40
0.3057398728
 41
-1.5791218793
 42
-1.5493527354
  0
ELLIPSE
  5
365
100
AcDbEntity
  8
0
100
AcDbEllipse
 62
7
  6
BYLAYER
 10
30.274321833
 20
61.5106768714
 30
0.0
 11
16.9585571531
 21
-16.7837266909
 31
0.0
 40
0.2593921815
 41
-1.6205377669
 42
-1.590768623
  0
ELLIPSE
  5
366
100
AcDbEntity
  8
0
100
AcDbEllipse
 62
7
  6
BYLAYER
 10
30.274321833
 20
61.3216969842
 30
0.0
 11
17.1250267564
 21
-17.0043043001
 31
0.0
 40
0.2143062114
 41
-1.6621611491
 42
-1.6323920052
  0
ELLIPSE
  5
367
100
AcDbEntity
  8
0
100
AcDbEllipse
 62
7
  6
BYLAYER
 10
30.274321833
 20
61.1650761091
 30
0.0
 11
17.2622772411
 21
-17.185307668
 31
0.0
 40
0.1702469903
 41
-1.7039368372
 42
-1.6741676933
  0
ELLIPSE
  5
368
100
AcDbEntity
  8
0
100
AcDbEllipse
 62
7
  6
BYLAYER
 10
30.274321833
 20
61.0420062255
 30
0.0
 11
17.3696482286
 21
-17.326459176
 31
0.0
 40
0.1269935126
 41
-1.7458226364
 42
-1.7160534926
  0
ELLIPSE
  5
369
100
AcDbEntity
  8
0
100
AcDbEllipse
 62
7
  6
BYLAYER
 10
30.274321833
 20
60.9534239696
 30
0.0
 11
17.4466624083
 21
-17.4274961419
 31
0.0
 40
0.0843354388
 41
-1.7877848753
 42
-1.7580157314
  0
ELLIPSE
  5
36A
100
AcDbEntity
  8
0
100
AcDbEllipse
 62
7
  6
BYLAYER
 10
30.274321833
 20
60.9000035057
 30
0.0
 11
17.4929960222
 21
-17.4882083164
 31
0.0
 40
0.0420701413
 41
-1.8297953707
 42
-1.8000262268
  0
ELLIPSE
  5
36B
100
AcDbEntity
  8
0
100
AcDbEllipse
 62
7
  6
BYLAYER
 10
30.274321833
 20
65.5735294118
 30
0.0
 11
17.5084611122
 21
0.0
 31
0.0
 40
0.963433044
 41
4.4113560828
 42
4.4411252267
  0
ELLIPSE
  5
36C
100
AcDbEntity
  8
0
100
AcDbEllipse
 62
7
  6
BYLAYER
 10
18.9675687327
 20
64.4247815837
 30
0.0
 11
15.791979517
 21
10.9958379272
 31
0.0
 40
0.818317629
 41
-1.7455491319
 42
-1.7450389575
  0
ELLIPSE
  5
36D
100
AcDbEntity
  8
0
100
AcDbEllipse
 62
7
  6
BYLAYER
 10
30.274321833
 20
65.5735294118
 30
0.0
 11
17.5084611122
 21
-0.0
 31
0.0
 40
0.963433044
 41
1.8420600805
 42
1.8718292244
  0
ELLIPSE
  5
36E
100
AcDbEntity
  8
0
100
AcDbEllipse
 62
7
  6
BYLAYER
 10
18.9675687327
 20
63.8613443494
 30
0.0
 11
15.6563003942
 21
12.3580633753
 31
0.0
 40
0.7470541823
 41
-1.7604339261
 42
-1.7554134017
  0
ELLIPSE
  5
36F
100
AcDbEntity
  8
0
100
AcDbEllipse
 62
7
  6
BYLAYER
 10
30.274321833
 20
65.9824099472
 30
0.0
 11
14.9543464083
 21
10.0427045149
 31
0.0
 40
0.9066977799
 41
1.2951223273
 42
1.3248914712
  0
ELLIPSE
  5
370
100
AcDbEntity
  8
0
100
AcDbEllipse
 62
7
  6
BYLAYER
 10
18.9675687327
 20
63.3109378772
 30
0.0
 11
15.7703479229
 21
13.3023954138
 31
0.0
 40
0.6792721423
 41
-1.7479481052
 42
-1.7395026589
  0
ELLIPSE
  5
371
100
AcDbEntity
  8
0
100
AcDbEllipse
 62
7
  6
BYLAYER
 10
30.274321833
 20
66.3881786549
 30
0.0
 11
14.4741311195
 21
11.8601695234
 31
0.0
 40
0.8306103506
 41
1.2444691952
 42
1.2742383391
  0
ELLIPSE
  5
372
100
AcDbEntity
  8
0
100
AcDbEllipse
 62
7
  6
BYLAYER
 10
18.9675687327
 20
62.7777510927
 30
0.0
 11
15.9844133441
 21
14.0585338956
 31
0.0
 40
0.6154007239
 41
-1.7237441171
 42
-1.7125697259
  0
ELLIPSE
  5
373
100
AcDbEntity
  8
0
100
AcDbEllipse
 62
7
  6
BYLAYER
 10
30.274321833
 20
66.78774739
 30
0.0
 11
14.5700382847
 21
12.8060309747
 31
0.0
 40
0.7581403628
 41
1.2542756011
 42
1.2840447449
  0
ELLIPSE
  5
374
100
AcDbEntity
  8
0
100
AcDbEllipse
 62
7
  6
BYLAYER
 10
18.9675687327
 20
62.2658418695
 30
0.0
 11
16.2385436118
 21
14.7051040421
 31
0.0
 40
0.5552272381
 41
-1.6935221503
 42
-1.6800913845
  0
ELLIPSE
  5
375
100
AcDbEntity
  8
0
100
AcDbEllipse
 62
7
  6
BYLAYER
 10
30.274321833
 20
67.1780751931
 30
0.0
 11
14.8194770471
 21
13.5094930283
 31
0.0
 40
0.6901509118
 41
1.2804861718
 42
1.3102553157
  0
ELLIPSE
  5
376
100
AcDbEntity
  8
0
100
AcDbEllipse
 62
7
  6
BYLAYER
 10
18.9675687327
 20
61.7791061456
 30
0.0
 11
16.5043969512
 21
15.274965845
 31
0.0
 40
0.4983942514
 41
-1.6598253033
 42
-1.6444719578
  0
ELLIPSE
  5
377
100
AcDbEntity
  8
0
100
AcDbEllipse
 62
7
  6
BYLAYER
 10
30.274321833
 20
67.5561914339
 30
0.0
 11
15.1182070608
 21
14.1001405585
 31
0.0
 40
0.6263036642
 41
1.3133928442
 42
1.3431619881
  0
ELLIPSE
  5
378
100
AcDbEntity
  8
0
100
AcDbEllipse
 62
7
  6
BYLAYER
 10
18.9675687327
 20
61.321248274
 30
0.0
 11
16.766803626
 21
15.7835371161
 31
0.0
 40
0.4445239339
 41
-1.623954571
 42
-1.6069196881
  0
ELLIPSE
  5
379
100
AcDbEntity
  8
0
100
AcDbEllipse
 62
7
  6
BYLAYER
 10
30.274321833
 20
67.9192184196
 30
0.0
 11
15.4285527016
 21
14.6201143459
 31
0.0
 40
0.5661264515
 41
1.349670045
 42
1.3794391888
  0
ELLIPSE
  5
37A
100
AcDbEntity
  8
0
100
AcDbEllipse
 62
7
  6
BYLAYER
 10
18.9675687327
 20
60.8957528293
 30
0.0
 11
17.0168501026
 21
16.2384907108
 31
0.0
 40
0.3932536107
 41
-1.5866441138
 42
-1.5681045703
  0
ELLIPSE
  5
37B
100
AcDbEntity
  8
0
100
AcDbEllipse
 62
7
  6
BYLAYER
 10
30.274321833
 20
68.2643932956
 30
0.0
 11
15.7334287619
 21
15.0865489373
 31
0.0
 40
0.5091621171
 41
1.3878744092
 42
1.4176435531
  0
ELLIPSE
  5
37C
100
AcDbEntity
  8
0
100
AcDbEllipse
 62
7
  6
BYLAYER
 10
18.9675687327
 20
60.5058580891
 30
0.0
 11
17.2489119491
 21
16.6436838349
 31
0.0
 40
0.3442450777
 41
-1.5483400703
 42
-1.5284256044
  0
ELLIPSE
  5
37D
100
AcDbEntity
  8
0
100
AcDbEllipse
 62
7
  6
BYLAYER
 10
30.274321833
 20
68.5890890726
 30
0.0
 11
16.023819938
 21
15.507275323
 31
0.0
 40
0.4549951859
 41
1.4272784908
 42
1.4570476347
  0
ELLIPSE
  5
37E
100
AcDbEntity
  8
0
100
AcDbEllipse
 62
7
  6
BYLAYER
 10
18.9675687327
 20
60.1545313875
 30
0.0
 11
17.4592414022
 21
17.0009614673
 31
0.0
 40
0.2971852239
 41
-1.5093298802
 42
-1.4881351175
  0
ELLIPSE
  5
37F
100
AcDbEntity
  8
0
100
AcDbEllipse
 62
7
  6
BYLAYER
 10
30.274321833
 20
68.8908346198
 30
0.0
 11
16.2944188981
 21
15.8860502942
 31
0.0
 40
0.4032531911
 41
1.4674754626
 42
1.4972446065
  0
ELLIPSE
  5
380
100
AcDbEntity
  8
0
100
AcDbEllipse
 62
7
  6
BYLAYER
 10
18.9675687327
 20
59.8444465329
 30
0.0
 11
17.6452378715
 21
17.311068251
 31
0.0
 40
0.2517837063
 41
-1.4698078979
 42
-1.4475602366
  0
ELLIPSE
  5
381
100
AcDbEntity
  8
0
100
AcDbEllipse
 62
7
  6
BYLAYER
 10
30.274321833
 20
69.1673334713
 30
0.0
 11
16.5418339295
 21
16.2246471729
 31
0.0
 40
0.3536019736
 41
1.5082194939
 42
1.5379886378
  0
ELLIPSE
  5
382
100
AcDbEntity
  8
0
100
AcDbEllipse
 62
7
  6
BYLAYER
 10
18.9675687327
 20
59.5779634584
 30
0.0
 11
17.8050458869
 21
17.5741469284
 31
0.0
 40
0.2077697388
 41
-1.4299111685
 42
-1.4065581646
  0
ELLIPSE
  5
383
100
AcDbEntity
  8
0
100
AcDbEllipse
 62
7
  6
BYLAYER
 10
30.274321833
 20
69.4164813039
 30
0.0
 11
16.7637596114
 21
16.523808647
 31
0.0
 40
0.3057398728
 41
1.5493527354
 42
1.5791218793
  0
ELLIPSE
  5
384
100
AcDbEntity
  8
0
100
AcDbEllipse
 62
7
  6
BYLAYER
 10
18.9675687327
 20
59.357110261
 30
0.0
 11
17.9373217495
 21
17.7900285404
 31
0.0
 40
0.1648887629
 41
-1.3897401552
 42
-1.3652388413
  0
ELLIPSE
  5
385
100
AcDbEntity
  8
0
100
AcDbEllipse
 62
7
  6
BYLAYER
 10
30.274321833
 20
69.6363819521
 30
0.0
 11
16.9585571531
 21
16.7837266909
 31
0.0
 40
0.2593921815
 41
1.590768623
 42
1.6205377669
  0
ELLIPSE
  5
386
100
AcDbEntity
  8
0
100
AcDbEllipse
 62
7
  6
BYLAYER
 10
18.9675687327
 20
59.183567767
 30
0.0
 11
18.0410926156
 21
17.9584099181
 31
0.0
 40
0.1228992729
 41
-1.3493714145
 42
-1.3236866873
  0
ELLIPSE
  5
387
100
AcDbEntity
  8
0
100
AcDbEllipse
 62
7
  6
BYLAYER
 10
30.274321833
 20
69.8253618393
 30
0.0
 11
17.1250267564
 21
17.0043043001
 31
0.0
 40
0.2143062114
 41
1.6323920052
 42
1.6621611491
  0
ELLIPSE
  5
388
100
AcDbEntity
  8
0
100
AcDbEllipse
 62
7
  6
BYLAYER
 10
18.9675687327
 20
59.0586567394
 30
0.0
 11
18.1156691418
 21
18.0789658936
 31
0.0
 40
0.0815698667
 41
-1.3088657657
 42
-1.2819697269
  0
ELLIPSE
  5
389
100
AcDbEntity
  8
0
100
AcDbEllipse
 62
7
  6
BYLAYER
 10
30.274321833
 20
69.9819827145
 30
0.0
 11
17.2622772411
 21
17.185307668
 31
0.0
 40
0.1702469903
 41
1.6741676933
 42
1.7039368372
  0
ELLIPSE
  5
38A
100
AcDbEntity
  8
0
100
AcDbEllipse
 62
7
  6
BYLAYER
 10
18.9675687327
 20
58.9833278266
 30
0.0
 11
18.1605909673
 21
18.1514209571
 31
0.0
 40
0.0406765142
 41
-1.2682738639
 42
-1.2401461334
  0
ELLIPSE
  5
38B
100
AcDbEntity
  8
0
100
AcDbEllipse
 62
7
  6
BYLAYER
 10
30.274321833
 20
70.105052598
 30
0.0
 11
17.3696482286
 21
17.326459176
 31
0.0
 40
0.1269935126
 41
1.7160534926
 42
1.7458226364
  0
ELLIPSE
  5
38C
100
AcDbEntity
  8
0
100
AcDbEllipse
 62
7
  6
BYLAYER
 10
30.274321833
 20
70.193634854
 30
0.0
 11
17.4466624083
 21
17.4274961419
 31
0.0
 40
0.0843354388
 41
1.7580157314
 42
1.7877848753
  0
ELLIPSE
  5
38D
100
AcDbEntity
  8
0
100
AcDbEllipse
 62
7
  6
BYLAYER
 10
30.274321833
 20
70.2470553178
 30
0.0
 11
17.4929960222
 21
17.4882083164
 31
0.0
 40
0.0420701413
 41
1.8000262268
 42
1.8297953707
  0
ELLIPSE
  5
38E
100
AcDbEntity
  8
0
100
AcDbEllipse
 62
7
  6
BYLAYER
 10
30.274321833
 20
66.78774739
 30
0.0
 11
14.5700382847
 21
12.8060309747
 31
0.0
 40
0.7581403628
 41
-2.4596137039
 42
-2.42984456
  0
ELLIPSE
  5
38F
100
AcDbEntity
  8
0
100
AcDbEllipse
 62
7
  6
BYLAYER
 10
30.274321833
 20
67.1780751931
 30
0.0
 11
14.8194770471
 21
13.5094930283
 31
0.0
 40
0.6901509118
 41
-2.4334031331
 42
-2.4036339892
  0
ELLIPSE
  5
390
100
AcDbEntity
  8
0
100
AcDbEllipse
 62
7
  6
BYLAYER
 10
30.274321833
 20
67.5561914339
 30
0.0
 11
15.1182070608
 21
14.1001405585
 31
0.0
 40
0.6263036642
 41
-2.4004964607
 42
-2.3707273168
  0
ELLIPSE
  5
391
100
AcDbEntity
  8
0
100
AcDbEllipse
 62
7
  6
BYLAYER
 10
30.274321833
 20
67.9192184196
 30
0.0
 11
15.4285527016
 21
14.6201143459
 31
0.0
 40
0.5661264515
 41
-2.36421926
 42
-2.3344501161
  0
ELLIPSE
  5
392
100
AcDbEntity
  8
0
100
AcDbEllipse
 62
7
  6
BYLAYER
 10
30.274321833
 20
68.2643932956
 30
0.0
 11
15.7334287619
 21
15.0865489373
 31
0.0
 40
0.5091621171
 41
-2.3260148957
 42
-2.2962457518
  0
ELLIPSE
  5
393
100
AcDbEntity
  8
0
100
AcDbEllipse
 62
7
  6
BYLAYER
 10
30.274321833
 20
68.5890890726
 30
0.0
 11
16.023819938
 21
15.507275323
 31
0.0
 40
0.4549951859
 41
-2.2866108141
 42
-2.2568416702
  0
ELLIPSE
  5
394
100
AcDbEntity
  8
0
100
AcDbEllipse
 62
7
  6
BYLAYER
 10
30.274321833
 20
68.8908346198
 30
0.0
 11
16.2944188981
 21
15.8860502942
 31
0.0
 40
0.4032531911
 41
-2.2464138423
 42
-2.2166446984
  0
ELLIPSE
  5
395
100
AcDbEntity
  8
0
100
AcDbEllipse
 62
7
  6
BYLAYER
 10
30.274321833
 20
69.1673334713
 30
0.0
 11
16.5418339295
 21
16.2246471729
 31
0.0
 40
0.3536019736
 41
-2.205669811
 42
-2.1759006671
  0
ELLIPSE
  5
396
100
AcDbEntity
  8
0
100
AcDbEllipse
 62
7
  6
BYLAYER
 10
30.274321833
 20
60.9000035057
 30
0.0
 11
17.4929960222
 21
-17.4882083164
 31
0.0
 40
0.0420701413
 41
1.8840939343
 42
1.9138630781
  0
ELLIPSE
  5
397
100
AcDbEntity
  8
0
100
AcDbEllipse
 62
7
  6
BYLAYER
 10
30.274321833
 20
60.9534239696
 30
0.0
 11
17.4466624083
 21
-17.4274961419
 31
0.0
 40
0.0843354388
 41
1.9261044297
 42
1.9558735735
  0
ELLIPSE
  5
398
100
AcDbEntity
  8
0
100
AcDbEllipse
 62
7
  6
BYLAYER
 10
30.274321833
 20
61.0420062255
 30
0.0
 11
17.3696482286
 21
-17.326459176
 31
0.0
 40
0.1269935126
 41
1.9680666685
 42
1.9978358124
  0
ELLIPSE
  5
399
100
AcDbEntity
  8
0
100
AcDbEllipse
 62
7
  6
BYLAYER
 10
30.274321833
 20
69.4164813039
 30
0.0
 11
16.7637596114
 21
16.523808647
 31
0.0
 40
0.3057398728
 41
-2.1645365695
 42
-2.1347674256
  0
ELLIPSE
  5
39A
100
AcDbEntity
  8
0
100
AcDbEllipse
 62
7
  6
BYLAYER
 10
30.274321833
 20
61.1650761091
 30
0.0
 11
17.2622772411
 21
-17.185307668
 31
0.0
 40
0.1702469903
 41
2.0099524677
 42
2.0397216116
  0
ELLIPSE
  5
39B
100
AcDbEntity
  8
0
100
AcDbEllipse
 62
7
  6
BYLAYER
 10
30.274321833
 20
61.3216969842
 30
0.0
 11
17.1250267564
 21
-17.0043043001
 31
0.0
 40
0.2143062114
 41
2.0517281558
 42
2.0814972997
  0
ELLIPSE
  5
39C
100
AcDbEntity
  8
0
100
AcDbEllipse
 62
7
  6
BYLAYER
 10
30.274321833
 20
61.5106768714
 30
0.0
 11
16.9585571531
 21
-16.7837266909
 31
0.0
 40
0.2593921815
 41
2.093351538
 42
2.1231206819
  0
ELLIPSE
  5
39D
100
AcDbEntity
  8
0
100
AcDbEllipse
 62
7
  6
BYLAYER
 10
30.274321833
 20
61.7305775196
 30
0.0
 11
16.7637596114
 21
-16.523808647
 31
0.0
 40
0.3057398728
 41
2.1347674256
 42
2.1645365695
  0
ELLIPSE
  5
39E
100
AcDbEntity
  8
0
100
AcDbEllipse
 62
7
  6
BYLAYER
 10
30.274321833
 20
69.6363819521
 30
0.0
 11
16.9585571531
 21
16.7837266909
 31
0.0
 40
0.2593921815
 41
-2.1231206819
 42
-2.093351538
  0
ELLIPSE
  5
39F
100
AcDbEntity
  8
0
100
AcDbEllipse
 62
7
  6
BYLAYER
 10
30.274321833
 20
61.9797253522
 30
0.0
 11
16.5418339295
 21
-16.2246471729
 31
0.0
 40
0.3536019736
 41
2.1759006671
 42
2.205669811
  0
ELLIPSE
  5
3A0
100
AcDbEntity
  8
0
100
AcDbEllipse
 62
7
  6
BYLAYER
 10
30.274321833
 20
62.2562242037
 30
0.0
 11
16.2944188981
 21
-15.8860502942
 31
0.0
 40
0.4032531911
 41
2.2166446984
 42
2.2464138423
  0
ELLIPSE
  5
3A1
100
AcDbEntity
  8
0
100
AcDbEllipse
 62
7
  6
BYLAYER
 10
30.274321833
 20
62.5579697509
 30
0.0
 11
16.023819938
 21
-15.507275323
 31
0.0
 40
0.4549951859
 41
2.2568416702
 42
2.2866108141
  0
ELLIPSE
  5
3A2
100
AcDbEntity
  8
0
100
AcDbEllipse
 62
7
  6
BYLAYER
 10
30.274321833
 20
62.8826655279
 30
0.0
 11
15.7334287619
 21
-15.0865489373
 31
0.0
 40
0.5091621171
 41
2.2962457518
 42
2.3260148957
  0
ELLIPSE
  5
3A3
100
AcDbEntity
  8
0
100
AcDbEllipse
 62
7
  6
BYLAYER
 10
30.274321833
 20
69.8253618393
 30
0.0
 11
17.1250267564
 21
17.0043043001
 31
0.0
 40
0.2143062114
 41
-2.0814972997
 42
-2.0517281558
  0
ELLIPSE
  5
3A4
100
AcDbEntity
  8
0
100
AcDbEllipse
 62
7
  6
BYLAYER
 10
30.274321833
 20
63.2278404039
 30
0.0
 11
15.4285527016
 21
-14.6201143459
 31
0.0
 40
0.5661264515
 41
2.3344501161
 42
2.36421926
  0
ELLIPSE
  5
3A5
100
AcDbEntity
  8
0
100
AcDbEllipse
 62
7
  6
BYLAYER
 10
30.274321833
 20
63.5908673896
 30
0.0
 11
15.1182070608
 21
-14.1001405585
 31
0.0
 40
0.6263036642
 41
2.3707273168
 42
2.4004964607
  0
ELLIPSE
  5
3A6
100
AcDbEntity
  8
0
100
AcDbEllipse
 62
7
  6
BYLAYER
 10
30.274321833
 20
63.9689836304
 30
0.0
 11
14.8194770471
 21
-13.5094930283
 31
0.0
 40
0.6901509118
 41
2.4036339892
 42
2.4334031331
  0
ELLIPSE
  5
3A7
100
AcDbEntity
  8
0
100
AcDbEllipse
 62
7
  6
BYLAYER
 10
30.274321833
 20
64.3593114335
 30
0.0
 11
14.5700382847
 21
-12.8060309747
 31
0.0
 40
0.7581403628
 41
2.42984456
 42
2.4596137039
  0
ELLIPSE
  5
3A8
100
AcDbEntity
  8
0
100
AcDbEllipse
 62
7
  6
BYLAYER
 10
30.274321833
 20
64.7588801686
 30
0.0
 11
14.4741311195
 21
-11.8601695234
 31
0.0
 40
0.8306103506
 41
2.4396509658
 42
2.4694201097
  0
ELLIPSE
  5
3A9
100
AcDbEntity
  8
0
100
AcDbEllipse
 62
7
  6
BYLAYER
 10
30.274321833
 20
69.9819827145
 30
0.0
 11
17.2622772411
 21
17.185307668
 31
0.0
 40
0.1702469903
 41
-2.0397216116
 42
-2.0099524677
  0
ELLIPSE
  5
3AA
100
AcDbEntity
  8
0
100
AcDbEllipse
 62
7
  6
BYLAYER
 10
30.274321833
 20
65.1646488763
 30
0.0
 11
14.9543464083
 21
-10.0427045149
 31
0.0
 40
0.9066977799
 41
2.3889978337
 42
2.4187669776
  0
ELLIPSE
  5
3AB
100
AcDbEntity
  8
0
100
AcDbEllipse
 62
7
  6
BYLAYER
 10
30.274321833
 20
70.105052598
 30
0.0
 11
17.3696482286
 21
17.326459176
 31
0.0
 40
0.1269935126
 41
-1.9978358124
 42
-1.9680666685
  0
ELLIPSE
  5
3AC
100
AcDbEntity
  8
0
100
AcDbEllipse
 62
7
  6
BYLAYER
 10
30.274321833
 20
70.193634854
 30
0.0
 11
17.4466624083
 21
17.4274961419
 31
0.0
 40
0.0843354388
 41
-1.9558735735
 42
-1.9261044297
  0
ELLIPSE
  5
3AD
100
AcDbEntity
  8
0
100
AcDbEllipse
 62
7
  6
BYLAYER
 10
30.274321833
 20
65.9824099472
 30
0.0
 11
14.9543464083
 21
10.0427045149
 31
0.0
 40
0.9066977799
 41
-2.4187669776
 42
-2.3889978337
  0
ELLIPSE
  5
3AE
100
AcDbEntity
  8
0
100
AcDbEllipse
 62
7
  6
BYLAYER
 10
30.274321833
 20
70.2470553178
 30
0.0
 11
17.4929960222
 21
17.4882083164
 31
0.0
 40
0.0420701413
 41
-1.9138630781
 42
-1.8840939343
  0
ELLIPSE
  5
3AF
100
AcDbEntity
  8
0
100
AcDbEllipse
 62
7
  6
BYLAYER
 10
30.274321833
 20
66.3881786549
 30
0.0
 11
14.4741311195
 21
11.8601695234
 31
0.0
 40
0.8306103506
 41
-2.4694201097
 42
-2.4396509658
  0
ENDSEC
  0
SECTION
  2
OBJECTS
  0
DICTIONARY
  5
C
100
AcDbDictionary
280
0
281
1
  3
ACAD_GROUP
350
D
  3
ACAD_MLINESTYLE
350
17
  3
ACAD_LAYOUT
350
1A
  3
ACAD_PLOTSETTINGS
350
19
  3
ACAD_PLOTSTYLENAME
350
E
  0
DICTIONARY
  5
D
102
{ACAD_REACTORS
330
C
102
}
100
AcDbDictionary
280
0
281
1
  0
ACDBDICTIONARYWDFLT
  5
E
102
{ACAD_REACTORS
330
C
102
}
100
AcDbDictionary
281
1
  3
Normal
350
F
100
AcDbDictionaryWithDefault
340
F
  0
DICTIONARY
  5
17
102
{ACAD_REACTORS
330
C
102
}
100
AcDbDictionary
280
0
281
1
  3
Standard
350
18
  0
DICTIONARY
  5
19
102
{ACAD_REACTORS
330
C
102
}
100
AcDbDictionary
281
1
  0
DICTIONARY
  5
1A
102
{ACAD_REACTORS
330
C
102
}
100
AcDbDictionary
281
1
  3
Model
350
3B0
  3
Layout1
350
3B1
  0
ACDBPLACEHOLDER
  5
F
102
{ACAD_REACTORS
330
E
102
}
  0
MLINESTYLE
  5
18
102
{ACAD_REACTORS
330
17
102
}
100
AcDbMlineStyle
  2
STANDARD
 70
0
  3

 62
256
 51
90.0
 52
90.0
 71
2
 49
0.5
 62
256
  6
BYLAYER
 49
-0.5
 62
256
  6
BYLAYER
  0
LAYOUT
  5
3B0
102
{ACAD_REACTORS
330
1A
102
}
100
AcDbPlotSettings
  1

  2
none_device
  4

  6

 40
0.0
 41
0.0
 42
0.0
 43
0.0
 44
210.0
 45
297.0
 46
0.0
 47
0.0
 48
0.0
 49
0.0
140
0.0
141
0.0
142
1.0
143
1.0
 70
1024
 72
1
 73
0
 74
0
  7

 75
0
147
1.0
148
0.0
149
0.0
100
AcDbLayout
  1
Model
 70
0
 71
0
 10
0.0
 20
0.0
 11
210.0
 21
297.0
 12
0.0
 22
0.0
 32
0.0
 14
0.0
 24
0.0
 34
0.0
 15
0.0
 25
0.0
 35
0.0
146
0.0
 13
0.0
 23
0.0
 33
0.0
 16
1.0
 26
0.0
 36
0.0
 17
0.0
 27
1.0
 37
0.0
 76
0
330
210
345
0
346
0
  0
LAYOUT
  5
3B1
102
{ACAD_REACTORS
330
1A
102
}
100
AcDbPlotSettings
  1

  2
none_device
  4

  6

 40
0.0
 41
0.0
 42
0.0
 43
0.0
 44
210.0
 45
297.0
 46
0.0
 47
0.0
 48
0.0
 49
0.0
140
0.0
141
0.0
142
1.0
143
1.0
 70
0
 72
1
 73
0
 74
0
  7

 75
0
147
1.0
148
0.0
149
0.0
100
AcDbLayout
  1
Layout1
 70
0
 71
1
 10
0.0
 20
0.0
 11
210.0
 21
297.0
 12
0.0
 22
0.0
 32
0.0
 14
0.0
 24
0.0
 34
0.0
 15
0.0
 25
0.0
 35
0.0
146
0.0
 13
0.0
 23
0.0
 33
0.0
 16
1.0
 26
0.0
 36
0.0
 17
0.0
 27
1.0
 37
0.0
 76
0
330
211
345
0
346
0
  0
ENDSEC
  0
EOF
