999
DXF file: C:\Users\sesa63760\Dev\_Creo\CAD\MCADPD0004169_3D-CAD\drw0001_7.dxf
999
Pro/ENGINEER 2019471 by Parametric Technology Corporation
  0
SECTION
  2
HEADER
  9
$ACADVER
  1
AC1024
  9
$DWGCODEPAGE
  3
ANSI_1252
  9
$EXTMAX
 10
49.1720487147
 20
69.5433260394
 30
0.0
  9
$EXTMIN
 10
0.0
 20
0.0
 30
0.0
  9
$LIMMIN
 10
0.0
 20
0.0
  9
$LIMMAX
 10
49.1720487147
 20
69.5433260394
  9
$VIEWCTR
 10
24.5860243574
 20
34.7716630197
  9
$VIEWSIZE
 40
69.5433260394
  9
$CLAYER
  8
0
  9
$LTSCALE
 40
4.5331945863
  9
$CELTYPE
  6
BYLAYER
  9
$DIMSCALE
 40
1.0
  9
$DIMASZ
 40
0.5853815323
  9
$DIMEXO
 40
1.0
  9
$DIMDLI
 40
3.1320253505
  9
$DIMEXE
 40
1.0
  9
$DIMCEN
 40
0.7417954778
  9
$DIMLFAC
 40
1.0
  9
$DIMBLK
  1
_FILLED
  9
$DIMALT
 70
0
  9
$DIMALTF
 40
0.0393700787
  9
$DIMTXT
 40
0.8195341452
  9
$DIMTOL
 70
1
  9
$DIMLIM
 70
0
  9
$DIMTFAC
 40
1.0
  9
$DIMTP
 40
0.01
  9
$DIMTM
 40
0.01
  9
$DIMGAP
 40
0.625
  9
$DIMDSEP
 70
46
  9
$AUNITS
 70
0
  9
$PDMODE
 70
3
  9
$PDSIZE
 40
0.3125
  9
$HANDSEED
  5
2CC
  9
$TILEMODE
 70
1
  9
$MEASUREMENT
 70
1
  9
$INSUNITS
 70
4
  0
ENDSEC
  0
SECTION
  2
CLASSES
  0
CLASS
  1
ACDBDICTIONARYWDFLT
  2
AcDbDictionaryWithDefault
  3
AutoCAD 2000
 90
0
 91
1
280
0
281
0
  0
CLASS
  1
ACDBPLACEHOLDER
  2
AcDbPlaceHolder
  3
AutoCAD 2000
 90
0
 91
1
280
0
281
0
  0
CLASS
  1
LAYOUT
  2
AcDbLayout
  3
AutoCAD 2000
 90
0
 91
0
280
0
281
0
  0
ENDSEC
  0
SECTION
  2
TABLES
  0
TABLE
  2
VPORT
  5
8
100
AcDbSymbolTable
 70
2
  0
VPORT
  5
1F4
100
AcDbSymbolTableRecord
100
AcDbViewportTableRecord
  2
*ACTIVE
 70
0
 10
0.0
 20
0.0
 11
1.0
 21
1.0
 12
24.5860243574
 22
34.7716630197
 13
0.0
 23
0.0
 14
1.0
 24
1.0
 15
0.0
 25
0.0
 16
0.0
 26
0.0
 36
1.0
 17
0.0
 27
0.0
 37
0.0
 40
69.5433260394
 41
0.7070707071
 42
50.0
 43
0.0
 44
0.0
 50
0.0
 51
0.0
 71
0
 72
100
 73
1
 74
1
 75
0
 76
0
 77
0
 78
0
  0
ENDTAB
  0
TABLE
  2
LTYPE
  5
5
100
AcDbSymbolTable
 70
6
  0
LTYPE
  5
14
100
AcDbSymbolTableRecord
100
AcDbLinetypeTableRecord
  2
BYBLOCK
 70
0
  3

 72
65
 73
0
 40
0.0
  0
LTYPE
  5
15
100
AcDbSymbolTableRecord
100
AcDbLinetypeTableRecord
  2
BYLAYER
 70
0
  3

 72
65
 73
0
 40
0.0
  0
LTYPE
  5
16
100
AcDbSymbolTableRecord
100
AcDbLinetypeTableRecord
  2
CONTINUOUS
 70
64
  3
Solid line
 72
65
 73
0
 40
0.0
  0
LTYPE
  5
1F5
100
AcDbSymbolTableRecord
100
AcDbLinetypeTableRecord
  2
CENTER
 70
64
  3
____ _ ____ _ ____ _ ____ _ ____ _ ____ _ ____
 72
65
 73
4
 40
0.6
 49
0.375
 74
0
 49
-0.075
 74
0
 49
0.075
 74
0
 49
-0.075
 74
0
  0
LTYPE
  5
1F6
100
AcDbSymbolTableRecord
100
AcDbLinetypeTableRecord
  2
HIDDEN
 70
64
  3
- - - - - - - - - - - - - - - - - - - -
 72
65
 73
2
 40
0.2
 49
0.1
 74
0
 49
-0.1
 74
0
  0
LTYPE
  5
1F7
100
AcDbSymbolTableRecord
100
AcDbLinetypeTableRecord
  2
PHANTOM
 70
64
  3
_____ _ _ _____ _ _ _____ _ _ _____
 72
65
 73
6
 40
0.8
 49
0.45
 74
0
 49
-0.05
 74
0
 49
0.1
 74
0
 49
-0.05
 74
0
 49
0.1
 74
0
 49
-0.05
 74
0
  0
LTYPE
  5
1F8
100
AcDbSymbolTableRecord
100
AcDbLinetypeTableRecord
  2
DOT
 70
64
  3
. . . . . . . . . . . . . . . . . . . .
 72
65
 73
2
 40
0.2
 49
0.1
 74
0
 49
-0.1
 74
0
  0
LTYPE
  5
1F9
100
AcDbSymbolTableRecord
100
AcDbLinetypeTableRecord
  2
DASHED
 70
64
  3
- - - - - - - - - - - - - - - - - - - -
 72
65
 73
2
 40
0.2
 49
0.1
 74
0
 49
-0.1
 74
0
  0
ENDTAB
  0
TABLE
  2
LAYER
  5
2
100
AcDbSymbolTable
 70
36
  0
LAYER
  5
10
100
AcDbSymbolTableRecord
100
AcDbLayerTableRecord
  2
0
 70
0
 62
7
  6
CONTINUOUS
370
-3
390
F
  0
LAYER
  5
1FA
100
AcDbSymbolTableRecord
100
AcDbLayerTableRecord
  2
DEFAULT_1
 70
0
 62
7
  6
CENTER
370
-3
390
F
  0
LAYER
  5
1FB
100
AcDbSymbolTableRecord
100
AcDbLayerTableRecord
  2
DEFAULT_2
 70
0
 62
7
  6
HIDDEN
370
-3
390
F
  0
LAYER
  5
1FC
100
AcDbSymbolTableRecord
100
AcDbLayerTableRecord
  2
DEFAULT_3
 70
0
 62
7
  6
PHANTOM
370
-3
390
F
  0
LAYER
  5
1FD
100
AcDbSymbolTableRecord
100
AcDbLayerTableRecord
  2
00_COMPONENTS
 70
0
 62
7
  6
CONTINUOUS
370
-3
390
F
  0
LAYER
  5
1FE
100
AcDbSymbolTableRecord
100
AcDbLayerTableRecord
  2
01_1_DEFAULT_DATUMS
 70
0
 62
7
  6
CONTINUOUS
370
-3
390
F
  0
LAYER
  5
1FF
100
AcDbSymbolTableRecord
100
AcDbLayerTableRecord
  2
01_PLANES
 70
0
 62
7
  6
CONTINUOUS
370
-3
390
F
  0
LAYER
  5
200
100
AcDbSymbolTableRecord
100
AcDbLayerTableRecord
  2
02_COORD_SYS
 70
0
 62
7
  6
CONTINUOUS
370
-3
390
F
  0
LAYER
  5
201
100
AcDbSymbolTableRecord
100
AcDbLayerTableRecord
  2
03_AXES
 70
0
 62
7
  6
CONTINUOUS
370
-3
390
F
  0
LAYER
  5
202
100
AcDbSymbolTableRecord
100
AcDbLayerTableRecord
  2
04_POINTS
 70
0
 62
7
  6
CONTINUOUS
370
-3
390
F
  0
LAYER
  5
203
100
AcDbSymbolTableRecord
100
AcDbLayerTableRecord
  2
05_CURVES
 70
0
 62
7
  6
CONTINUOUS
370
-3
390
F
  0
LAYER
  5
204
100
AcDbSymbolTableRecord
100
AcDbLayerTableRecord
  2
06_SURFS
 70
0
 62
7
  6
CONTINUOUS
370
-3
390
F
  0
LAYER
  5
205
100
AcDbSymbolTableRecord
100
AcDbLayerTableRecord
  2
07_COSMETICS
 70
0
 62
7
  6
CONTINUOUS
370
-3
390
F
  0
LAYER
  5
206
100
AcDbSymbolTableRecord
100
AcDbLayerTableRecord
  2
10_NOTES
 70
0
 62
7
  6
CONTINUOUS
370
-3
390
F
  0
LAYER
  5
207
100
AcDbSymbolTableRecord
100
AcDbLayerTableRecord
  2
11_NOTES_PUB
 70
0
 62
7
  6
CONTINUOUS
370
-3
390
F
  0
LAYER
  5
208
100
AcDbSymbolTableRecord
100
AcDbLayerTableRecord
  2
13_REF_GTOL
 70
0
 62
7
  6
CONTINUOUS
370
-3
390
F
  0
LAYER
  5
209
100
AcDbSymbolTableRecord
100
AcDbLayerTableRecord
  2
16_MISC
 70
0
 62
7
  6
CONTINUOUS
370
-3
390
F
  0
LAYER
  5
20A
100
AcDbSymbolTableRecord
100
AcDbLayerTableRecord
  2
17_NO_PRINT
 70
0
 62
7
  6
CONTINUOUS
370
-3
390
F
  0
LAYER
  5
20B
100
AcDbSymbolTableRecord
100
AcDbLayerTableRecord
  2
18_DATUM_CAMS_JOINTS
 70
0
 62
7
  6
CONTINUOUS
370
-3
390
F
  0
LAYER
  5
20C
100
AcDbSymbolTableRecord
100
AcDbLayerTableRecord
  2
19_DATUM_FUNCTIONAL
 70
0
 62
7
  6
CONTINUOUS
370
-3
390
F
  0
LAYER
  5
20D
100
AcDbSymbolTableRecord
100
AcDbLayerTableRecord
  2
20_DATUM_KINEMATIC_SCHEME
 70
0
 62
7
  6
CONTINUOUS
370
-3
390
F
  0
ENDTAB
  0
TABLE
  2
STYLE
  5
3
100
AcDbSymbolTable
 70
1
  0
STYLE
  5
11
100
AcDbSymbolTableRecord
100
AcDbTextStyleTableRecord
  2
STANDARD
 70
0
 40
0.0
 41
1.0
 50
0.0
 71
0
 42
0.2
  3
ARIAL.TTF
  4

  0
STYLE
  5
20E
100
AcDbSymbolTableRecord
100
AcDbTextStyleTableRecord
  2
TEXTSTYLE_1
 70
0
 40
0.0
 41
0.8
 50
0.0
 71
0
 42
0.2
  3
gdt
  4

  0
ENDTAB
  0
TABLE
  2
VIEW
  5
6
100
AcDbSymbolTable
 70
0
  0
ENDTAB
  0
TABLE
  2
UCS
  5
7
100
AcDbSymbolTable
 70
0
  0
ENDTAB
  0
TABLE
  2
APPID
  5
9
100
AcDbSymbolTable
 70
1
  0
APPID
  5
20F
100
AcDbSymbolTableRecord
100
AcDbRegAppTableRecord
  2
ACAD
 70
0
  0
ENDTAB
  0
TABLE
  2
BLOCK_RECORD
  5
1
100
AcDbSymbolTable
 70
0
  0
BLOCK_RECORD
  5
210
100
AcDbSymbolTableRecord
100
AcDbBlockTableRecord
  2
*Model_Space
  0
BLOCK_RECORD
  5
211
100
AcDbSymbolTableRecord
100
AcDbBlockTableRecord
  2
*Paper_Space
  0
BLOCK_RECORD
  5
212
100
AcDbSymbolTableRecord
100
AcDbBlockTableRecord
  2
_FILLED
  0
ENDTAB
  0
TABLE
  2
DIMSTYLE
  5
A
100
AcDbSymbolTable
 70
1
100
AcDbDimStyleTable
 71
0
  0
DIMSTYLE
105
213
100
AcDbSymbolTableRecord
100
AcDbDimStyleTableRecord
  2
STANDARD
 70
0
  3

  4

 40
1.0
 41
0.5853815323
 42
1.0
 43
0.38
 44
1.0
 45
0.0
 46
0.0
 47
0.01
 48
0.01
140
0.8195341452
141
0.09
142
0.0
143
25.4
144
1.0
145
0.0
146
1.0
147
0.625
 71
1
 72
0
 73
0
 74
0
 75
0
 76
0
 77
1
 78
8
 79
2
170
0
171
1
172
0
173
0
174
0
175
0
176
0
177
0
178
0
270
2
179
2
271
2
272
2
273
2
274
2
275
0
280
0
281
0
282
0
283
1
284
8
285
0
286
0
287
3
288
0
340
11
278
46
341
212
342
212
343
212
344
212
  0
ENDTAB
  0
ENDSEC
  0
SECTION
  2
BLOCKS
  0
BLOCK
  5
20
100
AcDbEntity
  8
0
100
AcDbBlockBegin
  2
*Model_Space
 70
0
 10
0.0
 20
0.0
 30
0.0
  3
*Model_Space
  1

  0
ENDBLK
  5
21
100
AcDbEntity
  8
0
100
AcDbBlockEnd
  0
BLOCK
  5
1C
100
AcDbEntity
  8
0
100
AcDbBlockBegin
  2
*Paper_Space
 70
0
 10
0.0
 20
0.0
 30
0.0
  3
*Paper_Space
  1

  0
ENDBLK
  5
1D
100
AcDbEntity
  8
0
100
AcDbBlockEnd
  0
BLOCK
  5
214
100
AcDbEntity
  8
0
100
AcDbBlockBegin
  2
_FILLED
 70
64
 10
0.0
 20
0.0
  3
_FILLED
  1

  0
SOLID
  5
215
100
AcDbEntity
  8
0
  6
BYBLOCK
 62
0
100
AcDbTrace
 10
0.0
 20
0.0
 11
-1.0
 21
0.25
 12
-1.0
 22
-0.25
 13
-1.0
 23
-0.25
  0
ENDBLK
  5
216
100
AcDbEntity
  8
0
  6
BYBLOCK
 62
0
100
AcDbBlockEnd
  0
ENDSEC
  0
SECTION
  2
ENTITIES
  0
LINE
  5
217
100
AcDbEntity
  8
0
100
AcDbLine
 62
7
  6
BYLAYER
 10
5.2211447075
 20
17.4169037199
 11
5.2211447075
 21
16.2669037199
  0
LINE
  5
218
100
AcDbEntity
  8
0
100
AcDbLine
 62
7
  6
BYLAYER
 10
5.3211447075
 20
16.2169037199
 11
5.3211447075
 21
50.4169037199
  0
LINE
  5
219
100
AcDbEntity
  8
0
100
AcDbLine
 62
7
  6
BYLAYER
 10
5.9211447075
 20
47.2169037199
 11
5.9211447075
 21
46.6169037199
  0
LINE
  5
21A
100
AcDbEntity
  8
0
100
AcDbLine
 62
7
  6
BYLAYER
 10
6.3711447075
 20
16.2169037199
 11
6.3711447075
 21
15.3169037199
  0
LINE
  5
21B
100
AcDbEntity
  8
0
100
AcDbLine
 62
7
  6
BYLAYER
 10
23.0711447075
 20
15.3169037199
 11
6.3711447075
 21
15.3169037199
  0
LINE
  5
21C
100
AcDbEntity
  8
0
100
AcDbLine
 62
7
  6
BYLAYER
 10
42.4211447075
 20
15.5669037199
 11
40.9211447075
 21
15.5669037199
  0
LINE
  5
21D
100
AcDbEntity
  8
0
100
AcDbLine
 62
7
  6
BYLAYER
 10
44.1211447075
 20
16.2169037199
 11
41.6211447075
 21
16.2169037199
  0
LINE
  5
21E
100
AcDbEntity
  8
0
100
AcDbLine
 62
7
  6
BYLAYER
 10
33.9211447075
 20
16.2169037199
 11
32.9211447075
 21
16.2169037199
  0
LINE
  5
21F
100
AcDbEntity
  8
0
100
AcDbLine
 62
7
  6
BYLAYER
 10
25.2211447075
 20
16.2169037199
 11
24.2211447075
 21
16.2169037199
  0
LINE
  5
220
100
AcDbEntity
  8
0
100
AcDbLine
 62
7
  6
BYLAYER
 10
16.5211447075
 20
16.2169037199
 11
15.5211447075
 21
16.2169037199
  0
LINE
  5
221
100
AcDbEntity
  8
0
100
AcDbLine
 62
7
  6
BYLAYER
 10
7.8211447075
 20
16.2169037199
 11
5.3211447075
 21
16.2169037199
  0
LINE
  5
222
100
AcDbEntity
  8
0
100
AcDbLine
 62
7
  6
BYLAYER
 10
5.3211447075
 20
16.2669037199
 11
5.2211447075
 21
16.2669037199
  0
LINE
  5
223
100
AcDbEntity
  8
0
100
AcDbLine
 62
7
  6
BYLAYER
 10
7.8211447075
 20
16.2669037199
 11
15.5211447075
 21
16.2669037199
  0
LINE
  5
224
100
AcDbEntity
  8
0
100
AcDbLine
 62
7
  6
BYLAYER
 10
16.5211447075
 20
16.2669037199
 11
24.2211447075
 21
16.2669037199
  0
LINE
  5
225
100
AcDbEntity
  8
0
100
AcDbLine
 62
7
  6
BYLAYER
 10
25.2211447075
 20
16.2669037199
 11
32.9211447075
 21
16.2669037199
  0
LINE
  5
226
100
AcDbEntity
  8
0
100
AcDbLine
 62
7
  6
BYLAYER
 10
33.9211447075
 20
16.2669037199
 11
41.6211447075
 21
16.2669037199
  0
LINE
  5
227
100
AcDbEntity
  8
0
100
AcDbLine
 62
7
  6
BYLAYER
 10
6.8211447075
 20
16.2169037199
 11
6.8211447075
 21
46.6169037199
  0
LINE
  5
228
100
AcDbEntity
  8
0
100
AcDbLine
 62
7
  6
BYLAYER
 10
7.1711447075
 20
46.0169037199
 11
7.1711447075
 21
41.4169037199
  0
LINE
  5
229
100
AcDbEntity
  8
0
100
AcDbLine
 62
7
  6
BYLAYER
 10
7.8211447075
 20
16.2169037199
 11
7.8211447075
 21
41.4169037199
  0
LINE
  5
22A
100
AcDbEntity
  8
0
100
AcDbLine
 62
7
  6
BYLAYER
 10
8.0211447075
 20
23.0762060455
 11
8.0211447075
 21
20.8169037199
  0
LINE
  5
22B
100
AcDbEntity
  8
0
100
AcDbLine
 62
7
  6
BYLAYER
 10
8.0211447075
 20
20.0169037199
 11
8.0211447075
 21
16.2669037199
  0
LINE
  5
22C
100
AcDbEntity
  8
0
100
AcDbLine
 62
7
  6
BYLAYER
 10
8.2211447075
 20
50.4169037199
 11
8.2211447075
 21
48.1669037199
  0
LINE
  5
22D
100
AcDbEntity
  8
0
100
AcDbLine
 62
7
  6
BYLAYER
 10
5.2211447075
 20
17.4169037199
 11
5.3211447075
 21
17.4169037199
  0
LINE
  5
22E
100
AcDbEntity
  8
0
100
AcDbLine
 62
7
  6
BYLAYER
 10
9.0211447075
 20
17.4169037199
 11
15.5211447075
 21
17.4169037199
  0
LINE
  5
22F
100
AcDbEntity
  8
0
100
AcDbLine
 62
7
  6
BYLAYER
 10
16.5211447075
 20
17.4169037199
 11
24.2211447075
 21
17.4169037199
  0
LINE
  5
230
100
AcDbEntity
  8
0
100
AcDbLine
 62
7
  6
BYLAYER
 10
25.2211447075
 20
17.4169037199
 11
32.9211447075
 21
17.4169037199
  0
LINE
  5
231
100
AcDbEntity
  8
0
100
AcDbLine
 62
7
  6
BYLAYER
 10
33.9211447075
 20
17.4169037199
 11
40.3211447075
 21
17.4169037199
  0
LINE
  5
232
100
AcDbEntity
  8
0
100
AcDbLine
 62
7
  6
BYLAYER
 10
8.7461447075
 20
48.1669037199
 11
8.7461447075
 21
50.2669037199
  0
LINE
  5
233
100
AcDbEntity
  8
0
100
AcDbLine
 62
7
  6
BYLAYER
 10
9.0211447075
 20
16.2669037199
 11
9.0211447075
 21
20.8169037199
  0
LINE
  5
234
100
AcDbEntity
  8
0
100
AcDbLine
 62
7
  6
BYLAYER
 10
10.0211447075
 20
29.4169037199
 11
10.0211447075
 21
25.2669037199
  0
LINE
  5
235
100
AcDbEntity
  8
0
100
AcDbLine
 62
7
  6
BYLAYER
 10
41.6211447075
 20
20.0169037199
 11
41.3211447075
 21
20.0169037199
  0
LINE
  5
236
100
AcDbEntity
  8
0
100
AcDbLine
 62
7
  6
BYLAYER
 10
8.0211447075
 20
20.0169037199
 11
7.8211447075
 21
20.0169037199
  0
LINE
  5
237
100
AcDbEntity
  8
0
100
AcDbLine
 62
7
  6
BYLAYER
 10
7.8211447075
 20
20.8169037199
 11
9.0211447075
 21
20.8169037199
  0
LINE
  5
238
100
AcDbEntity
  8
0
100
AcDbLine
 62
7
  6
BYLAYER
 10
40.3211447075
 20
20.8169037199
 11
41.6211447075
 21
20.8169037199
  0
LINE
  5
239
100
AcDbEntity
  8
0
100
AcDbLine
 62
7
  6
BYLAYER
 10
13.5211447075
 20
29.4169037199
 11
13.5211447075
 21
25.2669037199
  0
LINE
  5
23A
100
AcDbEntity
  8
0
100
AcDbLine
 62
7
  6
BYLAYER
 10
41.6211447075
 20
23.0762060455
 11
41.3211447075
 21
23.0762060455
  0
LINE
  5
23B
100
AcDbEntity
  8
0
100
AcDbLine
 62
7
  6
BYLAYER
 10
8.0211447075
 20
23.0762060455
 11
7.8211447075
 21
23.0762060455
  0
LINE
  5
23C
100
AcDbEntity
  8
0
100
AcDbLine
 62
7
  6
BYLAYER
 10
15.5211447075
 20
16.2169037199
 11
15.5211447075
 21
41.4169037199
  0
LINE
  5
23D
100
AcDbEntity
  8
0
100
AcDbLine
 62
7
  6
BYLAYER
 10
7.8211447075
 20
25.2669037199
 11
15.5211447075
 21
25.2669037199
  0
LINE
  5
23E
100
AcDbEntity
  8
0
100
AcDbLine
 62
7
  6
BYLAYER
 10
16.5211447075
 20
25.2669037199
 11
16.6211447075
 21
25.2669037199
  0
LINE
  5
23F
100
AcDbEntity
  8
0
100
AcDbLine
 62
7
  6
BYLAYER
 10
32.7211447075
 20
25.2669037199
 11
32.9211447075
 21
25.2669037199
  0
LINE
  5
240
100
AcDbEntity
  8
0
100
AcDbLine
 62
7
  6
BYLAYER
 10
33.9211447075
 20
25.2669037199
 11
41.6211447075
 21
25.2669037199
  0
LINE
  5
241
100
AcDbEntity
  8
0
100
AcDbLine
 62
7
  6
BYLAYER
 10
16.5211447075
 20
16.2169037199
 11
16.5211447075
 21
41.4169037199
  0
LINE
  5
242
100
AcDbEntity
  8
0
100
AcDbLine
 62
7
  6
BYLAYER
 10
16.6211447075
 20
17.4169037199
 11
16.6211447075
 21
29.6169037199
  0
LINE
  5
243
100
AcDbEntity
  8
0
100
AcDbLine
 62
7
  6
BYLAYER
 10
17.9211447075
 20
50.4169037199
 11
17.9211447075
 21
53.6941764472
  0
LINE
  5
244
100
AcDbEntity
  8
0
100
AcDbLine
 62
7
  6
BYLAYER
 10
18.3211447075
 20
29.6169037199
 11
18.3211447075
 21
29.9169037199
  0
LINE
  5
245
100
AcDbEntity
  8
0
100
AcDbLine
 62
7
  6
BYLAYER
 10
18.9961447075
 20
52.7169037199
 11
18.9961447075
 21
50.4169037199
  0
LINE
  5
246
100
AcDbEntity
  8
0
100
AcDbLine
 62
7
  6
BYLAYER
 10
16.6211447075
 20
28.9669037199
 11
24.2211447075
 21
28.9669037199
  0
LINE
  5
247
100
AcDbEntity
  8
0
100
AcDbLine
 62
7
  6
BYLAYER
 10
25.2211447075
 20
28.9669037199
 11
32.7211447075
 21
28.9669037199
  0
LINE
  5
248
100
AcDbEntity
  8
0
100
AcDbLine
 62
7
  6
BYLAYER
 10
41.6211447075
 20
29.4169037199
 11
33.9211447075
 21
29.4169037199
  0
LINE
  5
249
100
AcDbEntity
  8
0
100
AcDbLine
 62
7
  6
BYLAYER
 10
32.9211447075
 20
29.4169037199
 11
32.7211447075
 21
29.4169037199
  0
LINE
  5
24A
100
AcDbEntity
  8
0
100
AcDbLine
 62
7
  6
BYLAYER
 10
16.6211447075
 20
29.4169037199
 11
16.5211447075
 21
29.4169037199
  0
LINE
  5
24B
100
AcDbEntity
  8
0
100
AcDbLine
 62
7
  6
BYLAYER
 10
15.5211447075
 20
29.4169037199
 11
7.8211447075
 21
29.4169037199
  0
LINE
  5
24C
100
AcDbEntity
  8
0
100
AcDbLine
 62
7
  6
BYLAYER
 10
16.6211447075
 20
29.6169037199
 11
18.3211447075
 21
29.6169037199
  0
LINE
  5
24D
100
AcDbEntity
  8
0
100
AcDbLine
 62
7
  6
BYLAYER
 10
22.3211447075
 20
29.6169037199
 11
24.2211447075
 21
29.6169037199
  0
LINE
  5
24E
100
AcDbEntity
  8
0
100
AcDbLine
 62
7
  6
BYLAYER
 10
25.2211447075
 20
29.6169037199
 11
27.0211447075
 21
29.6169037199
  0
LINE
  5
24F
100
AcDbEntity
  8
0
100
AcDbLine
 62
7
  6
BYLAYER
 10
31.0211447075
 20
29.6169037199
 11
32.7211447075
 21
29.6169037199
  0
LINE
  5
250
100
AcDbEntity
  8
0
100
AcDbLine
 62
7
  6
BYLAYER
 10
19.5461447075
 20
50.4169037199
 11
19.5461447075
 21
52.7169037199
  0
LINE
  5
251
100
AcDbEntity
  8
0
100
AcDbLine
 62
7
  6
BYLAYER
 10
20.6211447075
 20
50.4169037199
 11
20.6211447075
 21
53.6941764472
  0
LINE
  5
252
100
AcDbEntity
  8
0
100
AcDbLine
 62
7
  6
BYLAYER
 10
20.7211447075
 20
50.4169037199
 11
20.7211447075
 21
50.2669037199
  0
LINE
  5
253
100
AcDbEntity
  8
0
100
AcDbLine
 62
7
  6
BYLAYER
 10
20.7211447075
 20
48.1669037199
 11
20.7211447075
 21
46.8169037199
  0
LINE
  5
254
100
AcDbEntity
  8
0
100
AcDbLine
 62
7
  6
BYLAYER
 10
20.8961447075
 20
46.8169037199
 11
20.8961447075
 21
48.1669037199
  0
LINE
  5
255
100
AcDbEntity
  8
0
100
AcDbLine
 62
7
  6
BYLAYER
 10
7.8211447075
 20
29.9169037199
 11
15.5211447075
 21
29.9169037199
  0
LINE
  5
256
100
AcDbEntity
  8
0
100
AcDbLine
 62
7
  6
BYLAYER
 10
16.5211447075
 20
29.9169037199
 11
18.3211447075
 21
29.9169037199
  0
LINE
  5
257
100
AcDbEntity
  8
0
100
AcDbLine
 62
7
  6
BYLAYER
 10
22.3211447075
 20
29.9169037199
 11
24.2211447075
 21
29.9169037199
  0
LINE
  5
258
100
AcDbEntity
  8
0
100
AcDbLine
 62
7
  6
BYLAYER
 10
25.2211447075
 20
29.9169037199
 11
27.0211447075
 21
29.9169037199
  0
LINE
  5
259
100
AcDbEntity
  8
0
100
AcDbLine
 62
7
  6
BYLAYER
 10
31.0211447075
 20
29.9169037199
 11
32.9211447075
 21
29.9169037199
  0
LINE
  5
25A
100
AcDbEntity
  8
0
100
AcDbLine
 62
7
  6
BYLAYER
 10
33.9211447075
 20
29.9169037199
 11
41.6211447075
 21
29.9169037199
  0
LINE
  5
25B
100
AcDbEntity
  8
0
100
AcDbLine
 62
7
  6
BYLAYER
 10
7.8211447075
 20
30.5169037199
 11
15.5211447075
 21
30.5169037199
  0
LINE
  5
25C
100
AcDbEntity
  8
0
100
AcDbLine
 62
7
  6
BYLAYER
 10
16.5211447075
 20
30.5169037199
 11
24.2211447075
 21
30.5169037199
  0
LINE
  5
25D
100
AcDbEntity
  8
0
100
AcDbLine
 62
7
  6
BYLAYER
 10
25.2211447075
 20
30.5169037199
 11
32.9211447075
 21
30.5169037199
  0
LINE
  5
25E
100
AcDbEntity
  8
0
100
AcDbLine
 62
7
  6
BYLAYER
 10
33.9211447075
 20
30.5169037199
 11
41.6211447075
 21
30.5169037199
  0
LINE
  5
25F
100
AcDbEntity
  8
0
100
AcDbLine
 62
7
  6
BYLAYER
 10
22.2711447075
 20
50.4169037199
 11
22.2711447075
 21
50.3169037199
  0
LINE
  5
260
100
AcDbEntity
  8
0
100
AcDbLine
 62
7
  6
BYLAYER
 10
22.2711447075
 20
46.8169037199
 11
22.2711447075
 21
42.2169037199
  0
LINE
  5
261
100
AcDbEntity
  8
0
100
AcDbLine
 62
7
  6
BYLAYER
 10
22.3211447075
 20
29.6169037199
 11
22.3211447075
 21
29.9169037199
  0
LINE
  5
262
100
AcDbEntity
  8
0
100
AcDbLine
 62
7
  6
BYLAYER
 10
22.4461447075
 20
39.2235243012
 11
22.4461447075
 21
49.1169037199
  0
LINE
  5
263
100
AcDbEntity
  8
0
100
AcDbLine
 62
7
  6
BYLAYER
 10
23.0711447075
 20
16.2669037199
 11
23.0711447075
 21
15.3169037199
  0
LINE
  5
264
100
AcDbEntity
  8
0
100
AcDbLine
 62
7
  6
BYLAYER
 10
24.2211447075
 20
16.2169037199
 11
24.2211447075
 21
39.2235243012
  0
LINE
  5
265
100
AcDbEntity
  8
0
100
AcDbLine
 62
7
  6
BYLAYER
 10
24.3961447075
 20
39.2235243012
 11
24.3961447075
 21
49.1169037199
  0
LINE
  5
266
100
AcDbEntity
  8
0
100
AcDbLine
 62
7
  6
BYLAYER
 10
24.5711447075
 20
54.5669037199
 11
24.5711447075
 21
50.3169037199
  0
LINE
  5
267
100
AcDbEntity
  8
0
100
AcDbLine
 62
7
  6
BYLAYER
 10
24.6211447075
 20
42.2169037199
 11
24.6211447075
 21
46.8169037199
  0
LINE
  5
268
100
AcDbEntity
  8
0
100
AcDbLine
 62
7
  6
BYLAYER
 10
25.2211447075
 20
16.2169037199
 11
25.2211447075
 21
41.4169037199
  0
LINE
  5
269
100
AcDbEntity
  8
0
100
AcDbLine
 62
7
  6
BYLAYER
 10
25.9461447075
 20
46.8169037199
 11
25.9461447075
 21
48.1669037199
  0
LINE
  5
26A
100
AcDbEntity
  8
0
100
AcDbLine
 62
7
  6
BYLAYER
 10
26.1711447075
 20
48.1669037199
 11
26.1711447075
 21
46.8169037199
  0
LINE
  5
26B
100
AcDbEntity
  8
0
100
AcDbLine
 62
7
  6
BYLAYER
 10
26.1711447075
 20
50.2669037199
 11
26.1711447075
 21
51.7169037199
  0
LINE
  5
26C
100
AcDbEntity
  8
0
100
AcDbLine
 62
7
  6
BYLAYER
 10
26.6004304218
 20
51.7169037199
 11
26.6004304218
 21
53.6169037199
  0
LINE
  5
26D
100
AcDbEntity
  8
0
100
AcDbLine
 62
7
  6
BYLAYER
 10
26.7211447075
 20
53.6169037199
 11
26.7211447075
 21
51.7169037199
  0
LINE
  5
26E
100
AcDbEntity
  8
0
100
AcDbLine
 62
7
  6
BYLAYER
 10
15.5211447075
 20
35.4169037199
 11
16.5211447075
 21
35.4169037199
  0
LINE
  5
26F
100
AcDbEntity
  8
0
100
AcDbLine
 62
7
  6
BYLAYER
 10
24.2211447075
 20
35.4169037199
 11
25.2211447075
 21
35.4169037199
  0
LINE
  5
270
100
AcDbEntity
  8
0
100
AcDbLine
 62
7
  6
BYLAYER
 10
32.9211447075
 20
35.4169037199
 11
33.9211447075
 21
35.4169037199
  0
LINE
  5
271
100
AcDbEntity
  8
0
100
AcDbLine
 62
7
  6
BYLAYER
 10
27.0211447075
 20
29.6169037199
 11
27.0211447075
 21
29.9169037199
  0
LINE
  5
272
100
AcDbEntity
  8
0
100
AcDbLine
 62
7
  6
BYLAYER
 10
28.2211447075
 20
54.5669037199
 11
28.2211447075
 21
53.6169037199
  0
LINE
  5
273
100
AcDbEntity
  8
0
100
AcDbLine
 62
7
  6
BYLAYER
 10
28.9211447075
 20
51.7169037199
 11
28.9211447075
 21
53.6169037199
  0
LINE
  5
274
100
AcDbEntity
  8
0
100
AcDbLine
 62
7
  6
BYLAYER
 10
29.0418589932
 20
51.7169037199
 11
29.0418589932
 21
53.6169037199
  0
LINE
  5
275
100
AcDbEntity
  8
0
100
AcDbLine
 62
7
  6
BYLAYER
 10
29.4711447075
 20
50.2669037199
 11
29.4711447075
 21
51.7169037199
  0
LINE
  5
276
100
AcDbEntity
  8
0
100
AcDbLine
 62
7
  6
BYLAYER
 10
30.2711447075
 20
50.2669037199
 11
30.2711447075
 21
50.4169037199
  0
LINE
  5
277
100
AcDbEntity
  8
0
100
AcDbLine
 62
7
  6
BYLAYER
 10
24.3961447075
 20
39.2235243012
 11
22.4461447075
 21
39.2235243012
  0
LINE
  5
278
100
AcDbEntity
  8
0
100
AcDbLine
 62
7
  6
BYLAYER
 10
31.0211447075
 20
29.6169037199
 11
31.0211447075
 21
29.9169037199
  0
LINE
  5
279
100
AcDbEntity
  8
0
100
AcDbLine
 62
7
  6
BYLAYER
 10
42.6211447075
 20
41.4169037199
 11
41.6211447075
 21
41.4169037199
  0
LINE
  5
27A
100
AcDbEntity
  8
0
100
AcDbLine
 62
7
  6
BYLAYER
 10
33.9211447075
 20
41.4169037199
 11
32.9211447075
 21
41.4169037199
  0
LINE
  5
27B
100
AcDbEntity
  8
0
100
AcDbLine
 62
7
  6
BYLAYER
 10
25.2211447075
 20
41.4169037199
 11
24.3961447075
 21
41.4169037199
  0
LINE
  5
27C
100
AcDbEntity
  8
0
100
AcDbLine
 62
7
  6
BYLAYER
 10
16.5211447075
 20
41.4169037199
 11
15.5211447075
 21
41.4169037199
  0
LINE
  5
27D
100
AcDbEntity
  8
0
100
AcDbLine
 62
7
  6
BYLAYER
 10
7.8211447075
 20
41.4169037199
 11
6.8211447075
 21
41.4169037199
  0
LINE
  5
27E
100
AcDbEntity
  8
0
100
AcDbLine
 62
7
  6
BYLAYER
 10
22.2711447075
 20
42.2169037199
 11
22.4461447075
 21
42.2169037199
  0
LINE
  5
27F
100
AcDbEntity
  8
0
100
AcDbLine
 62
7
  6
BYLAYER
 10
24.3961447075
 20
42.2169037199
 11
24.6211447075
 21
42.2169037199
  0
LINE
  5
280
100
AcDbEntity
  8
0
100
AcDbLine
 62
7
  6
BYLAYER
 10
32.7211447075
 20
17.4169037199
 11
32.7211447075
 21
29.6169037199
  0
LINE
  5
281
100
AcDbEntity
  8
0
100
AcDbLine
 62
7
  6
BYLAYER
 10
32.9211447075
 20
16.2169037199
 11
32.9211447075
 21
41.4169037199
  0
LINE
  5
282
100
AcDbEntity
  8
0
100
AcDbLine
 62
7
  6
BYLAYER
 10
33.9211447075
 20
16.2169037199
 11
33.9211447075
 21
41.4169037199
  0
LINE
  5
283
100
AcDbEntity
  8
0
100
AcDbLine
 62
7
  6
BYLAYER
 10
35.1711447075
 20
50.4169037199
 11
35.1711447075
 21
53.6941764472
  0
LINE
  5
284
100
AcDbEntity
  8
0
100
AcDbLine
 62
7
  6
BYLAYER
 10
35.2211447075
 20
53.1169037199
 11
35.2211447075
 21
50.2669037199
  0
LINE
  5
285
100
AcDbEntity
  8
0
100
AcDbLine
 62
7
  6
BYLAYER
 10
35.8211447075
 20
29.4169037199
 11
35.8211447075
 21
25.2669037199
  0
LINE
  5
286
100
AcDbEntity
  8
0
100
AcDbLine
 62
7
  6
BYLAYER
 10
22.2711447075
 20
45.8169037199
 11
22.4461447075
 21
45.8169037199
  0
LINE
  5
287
100
AcDbEntity
  8
0
100
AcDbLine
 62
7
  6
BYLAYER
 10
24.3961447075
 20
45.8169037199
 11
24.6211447075
 21
45.8169037199
  0
LINE
  5
288
100
AcDbEntity
  8
0
100
AcDbLine
 62
7
  6
BYLAYER
 10
42.6211447075
 20
46.0169037199
 11
42.2711447075
 21
46.0169037199
  0
LINE
  5
289
100
AcDbEntity
  8
0
100
AcDbLine
 62
7
  6
BYLAYER
 10
6.8211447075
 20
46.0169037199
 11
7.1711447075
 21
46.0169037199
  0
LINE
  5
28A
100
AcDbEntity
  8
0
100
AcDbLine
 62
7
  6
BYLAYER
 10
24.3961447075
 20
46.2235243012
 11
22.4461447075
 21
46.2235243012
  0
LINE
  5
28B
100
AcDbEntity
  8
0
100
AcDbLine
 62
7
  6
BYLAYER
 10
36.2211447075
 20
50.2669037199
 11
36.2211447075
 21
51.8163492974
  0
LINE
  5
28C
100
AcDbEntity
  8
0
100
AcDbLine
 62
7
  6
BYLAYER
 10
36.2211447075
 20
52.6817031544
 11
36.2211447075
 21
53.1169037199
  0
LINE
  5
28D
100
AcDbEntity
  8
0
100
AcDbLine
 62
7
  6
BYLAYER
 10
36.2461447075
 20
52.7169037199
 11
36.2461447075
 21
52.6817031544
  0
LINE
  5
28E
100
AcDbEntity
  8
0
100
AcDbLine
 62
7
  6
BYLAYER
 10
36.2461447075
 20
51.8163492974
 11
36.2461447075
 21
50.4169037199
  0
LINE
  5
28F
100
AcDbEntity
  8
0
100
AcDbLine
 62
7
  6
BYLAYER
 10
36.7961447075
 20
50.4169037199
 11
36.7961447075
 21
52.7169037199
  0
LINE
  5
290
100
AcDbEntity
  8
0
100
AcDbLine
 62
7
  6
BYLAYER
 10
44.1211447075
 20
46.6169037199
 11
42.6211447075
 21
46.6169037199
  0
LINE
  5
291
100
AcDbEntity
  8
0
100
AcDbLine
 62
7
  6
BYLAYER
 10
6.8211447075
 20
46.6169037199
 11
5.3211447075
 21
46.6169037199
  0
LINE
  5
292
100
AcDbEntity
  8
0
100
AcDbLine
 62
7
  6
BYLAYER
 10
22.2711447075
 20
46.6169037199
 11
22.4461447075
 21
46.6169037199
  0
LINE
  5
293
100
AcDbEntity
  8
0
100
AcDbLine
 62
7
  6
BYLAYER
 10
24.3961447075
 20
46.6169037199
 11
24.6211447075
 21
46.6169037199
  0
LINE
  5
294
100
AcDbEntity
  8
0
100
AcDbLine
 62
7
  6
BYLAYER
 10
20.7211447075
 20
46.8169037199
 11
22.4461447075
 21
46.8169037199
  0
LINE
  5
295
100
AcDbEntity
  8
0
100
AcDbLine
 62
7
  6
BYLAYER
 10
24.3961447075
 20
46.8169037199
 11
26.1711447075
 21
46.8169037199
  0
LINE
  5
296
100
AcDbEntity
  8
0
100
AcDbLine
 62
7
  6
BYLAYER
 10
44.1211447075
 20
47.2169037199
 11
43.5211447075
 21
47.2169037199
  0
LINE
  5
297
100
AcDbEntity
  8
0
100
AcDbLine
 62
7
  6
BYLAYER
 10
26.1711447075
 20
47.2169037199
 11
25.9461447075
 21
47.2169037199
  0
LINE
  5
298
100
AcDbEntity
  8
0
100
AcDbLine
 62
7
  6
BYLAYER
 10
20.8961447075
 20
47.2169037199
 11
20.7211447075
 21
47.2169037199
  0
LINE
  5
299
100
AcDbEntity
  8
0
100
AcDbLine
 62
7
  6
BYLAYER
 10
5.9211447075
 20
47.2169037199
 11
5.3211447075
 21
47.2169037199
  0
LINE
  5
29A
100
AcDbEntity
  8
0
100
AcDbLine
 62
7
  6
BYLAYER
 10
37.8711447075
 20
50.4169037199
 11
37.8711447075
 21
53.6941764472
  0
LINE
  5
29B
100
AcDbEntity
  8
0
100
AcDbLine
 62
7
  6
BYLAYER
 10
38.0961447075
 20
48.1669037199
 11
38.0961447075
 21
50.2669037199
  0
LINE
  5
29C
100
AcDbEntity
  8
0
100
AcDbLine
 62
7
  6
BYLAYER
 10
38.7711447075
 20
50.4169037199
 11
38.7711447075
 21
48.1669037199
  0
LINE
  5
29D
100
AcDbEntity
  8
0
100
AcDbLine
 62
7
  6
BYLAYER
 10
39.0711447075
 20
53.1169037199
 11
39.0711447075
 21
50.4169037199
  0
LINE
  5
29E
100
AcDbEntity
  8
0
100
AcDbLine
 62
7
  6
BYLAYER
 10
39.3211447075
 20
29.4169037199
 11
39.3211447075
 21
25.2669037199
  0
LINE
  5
29F
100
AcDbEntity
  8
0
100
AcDbLine
 62
7
  6
BYLAYER
 10
8.2211447075
 20
48.1669037199
 11
20.8961447075
 21
48.1669037199
  0
LINE
  5
2A0
100
AcDbEntity
  8
0
100
AcDbLine
 62
7
  6
BYLAYER
 10
25.9461447075
 20
48.1669037199
 11
38.7711447075
 21
48.1669037199
  0
LINE
  5
2A1
100
AcDbEntity
  8
0
100
AcDbLine
 62
7
  6
BYLAYER
 10
24.3961447075
 20
49.1169037199
 11
22.4461447075
 21
49.1169037199
  0
LINE
  5
2A2
100
AcDbEntity
  8
0
100
AcDbLine
 62
7
  6
BYLAYER
 10
8.2211447075
 20
49.1669037199
 11
8.7461447075
 21
49.1669037199
  0
LINE
  5
2A3
100
AcDbEntity
  8
0
100
AcDbLine
 62
7
  6
BYLAYER
 10
38.0961447075
 20
49.1669037199
 11
38.7711447075
 21
49.1669037199
  0
LINE
  5
2A4
100
AcDbEntity
  8
0
100
AcDbLine
 62
7
  6
BYLAYER
 10
38.7711447075
 20
49.7091315537
 11
38.0961447075
 21
49.7091315537
  0
LINE
  5
2A5
100
AcDbEntity
  8
0
100
AcDbLine
 62
7
  6
BYLAYER
 10
40.0711447075
 20
50.4169037199
 11
40.0711447075
 21
53.1169037199
  0
LINE
  5
2A6
100
AcDbEntity
  8
0
100
AcDbLine
 62
7
  6
BYLAYER
 10
40.3211447075
 20
20.8169037199
 11
40.3211447075
 21
16.2669037199
  0
LINE
  5
2A7
100
AcDbEntity
  8
0
100
AcDbLine
 62
7
  6
BYLAYER
 10
40.9211447075
 20
16.2669037199
 11
40.9211447075
 21
15.5669037199
  0
LINE
  5
2A8
100
AcDbEntity
  8
0
100
AcDbLine
 62
7
  6
BYLAYER
 10
41.3211447075
 20
16.2669037199
 11
41.3211447075
 21
20.0169037199
  0
LINE
  5
2A9
100
AcDbEntity
  8
0
100
AcDbLine
 62
7
  6
BYLAYER
 10
41.3211447075
 20
20.8169037199
 11
41.3211447075
 21
23.0762060455
  0
LINE
  5
2AA
100
AcDbEntity
  8
0
100
AcDbLine
 62
7
  6
BYLAYER
 10
8.7461447075
 20
50.2669037199
 11
38.0961447075
 21
50.2669037199
  0
LINE
  5
2AB
100
AcDbEntity
  8
0
100
AcDbLine
 62
7
  6
BYLAYER
 10
20.7211447075
 20
50.3169037199
 11
26.1711447075
 21
50.3169037199
  0
LINE
  5
2AC
100
AcDbEntity
  8
0
100
AcDbLine
 62
7
  6
BYLAYER
 10
44.1211447075
 20
50.4169037199
 11
36.2211447075
 21
50.4169037199
  0
LINE
  5
2AD
100
AcDbEntity
  8
0
100
AcDbLine
 62
7
  6
BYLAYER
 10
35.2211447075
 20
50.4169037199
 11
29.4711447075
 21
50.4169037199
  0
LINE
  5
2AE
100
AcDbEntity
  8
0
100
AcDbLine
 62
7
  6
BYLAYER
 10
22.2711447075
 20
50.4169037199
 11
5.3211447075
 21
50.4169037199
  0
LINE
  5
2AF
100
AcDbEntity
  8
0
100
AcDbLine
 62
7
  6
BYLAYER
 10
29.4711447075
 20
51.7169037199
 11
28.9211447075
 21
51.7169037199
  0
LINE
  5
2B0
100
AcDbEntity
  8
0
100
AcDbLine
 62
7
  6
BYLAYER
 10
26.1711447075
 20
51.7169037199
 11
26.7211447075
 21
51.7169037199
  0
LINE
  5
2B1
100
AcDbEntity
  8
0
100
AcDbLine
 62
7
  6
BYLAYER
 10
41.6211447075
 20
16.2169037199
 11
41.6211447075
 21
41.4169037199
  0
LINE
  5
2B2
100
AcDbEntity
  8
0
100
AcDbLine
 62
7
  6
BYLAYER
 10
42.2711447075
 20
41.4169037199
 11
42.2711447075
 21
46.0169037199
  0
LINE
  5
2B3
100
AcDbEntity
  8
0
100
AcDbLine
 62
7
  6
BYLAYER
 10
42.4211447075
 20
16.2169037199
 11
42.4211447075
 21
15.5669037199
  0
LINE
  5
2B4
100
AcDbEntity
  8
0
100
AcDbLine
 62
7
  6
BYLAYER
 10
42.6211447075
 20
16.2169037199
 11
42.6211447075
 21
46.6169037199
  0
LINE
  5
2B5
100
AcDbEntity
  8
0
100
AcDbLine
 62
7
  6
BYLAYER
 10
18.9961447075
 20
52.7169037199
 11
19.5461447075
 21
52.7169037199
  0
LINE
  5
2B6
100
AcDbEntity
  8
0
100
AcDbLine
 62
7
  6
BYLAYER
 10
36.2461447075
 20
52.7169037199
 11
36.7961447075
 21
52.7169037199
  0
LINE
  5
2B7
100
AcDbEntity
  8
0
100
AcDbLine
 62
7
  6
BYLAYER
 10
40.0711447075
 20
53.1169037199
 11
39.0711447075
 21
53.1169037199
  0
LINE
  5
2B8
100
AcDbEntity
  8
0
100
AcDbLine
 62
7
  6
BYLAYER
 10
36.2211447075
 20
53.1169037199
 11
35.2211447075
 21
53.1169037199
  0
LINE
  5
2B9
100
AcDbEntity
  8
0
100
AcDbLine
 62
7
  6
BYLAYER
 10
43.5211447075
 20
47.2169037199
 11
43.5211447075
 21
46.6169037199
  0
LINE
  5
2BA
100
AcDbEntity
  8
0
100
AcDbLine
 62
7
  6
BYLAYER
 10
44.1211447075
 20
16.2169037199
 11
44.1211447075
 21
50.4169037199
  0
LINE
  5
2BB
100
AcDbEntity
  8
0
100
AcDbLine
 62
7
  6
BYLAYER
 10
26.6004304218
 20
53.6169037199
 11
29.0418589932
 21
53.6169037199
  0
LINE
  5
2BC
100
AcDbEntity
  8
0
100
AcDbLine
 62
7
  6
BYLAYER
 10
17.9214354445
 20
53.7169037199
 11
20.6208539705
 21
53.7169037199
  0
LINE
  5
2BD
100
AcDbEntity
  8
0
100
AcDbLine
 62
7
  6
BYLAYER
 10
35.1714354445
 20
53.7169037199
 11
37.8708539705
 21
53.7169037199
  0
LINE
  5
2BE
100
AcDbEntity
  8
0
100
AcDbLine
 62
7
  6
BYLAYER
 10
28.2211447075
 20
54.5669037199
 11
24.5711447075
 21
54.5669037199
  0
ARC
  5
2BF
100
AcDbEntity
  8
0
100
AcDbCircle
 62
7
  6
BYLAYER
 10
36.246154055
 20
53.8954980889
 40
1.178594369
100
AcDbArc
 50
268.9619767673
 51
269.999545582
  0
ARC
  5
2C0
100
AcDbEntity
  8
0
100
AcDbCircle
 62
7
  6
BYLAYER
 10
36.1421738209
 20
53.7317244054
 40
0.9802266992
100
AcDbArc
 50
214.3403237175
 51
218.947686374
  0
ARC
  5
2C1
100
AcDbEntity
  8
0
100
AcDbCircle
 62
7
  6
BYLAYER
 10
36.2211447075
 20
52.2490262259
 40
0.4326769285
100
AcDbArc
 50
270.0
 51
90.0
  0
SPLINE
  5
2C2
100
AcDbEntity
  8
0
100
AcDbSpline
 62
7
  6
BYLAYER
 70
0
 71
3
 72
10
 73
6
 74
0
 42
0.0000001
 43
0.0000001
 44
0.0000000001
 40
0.0
 40
0.0
 40
0.0
 40
0.0
 40
0.250053852
 40
0.6250169764
 40
1.0
 40
1.0
 40
1.0
 40
1.0
 10
37.8708539705
 20
53.7169037199
 30
0.0
 10
37.8709024248
 20
53.7150101068
 30
0.0
 10
37.8711215888
 20
53.7102791324
 30
0.0
 10
37.8710122697
 20
53.702701667
 30
0.0
 10
37.8711563932
 20
53.6970217416
 30
0.0
 10
37.8711564007
 20
53.6941811326
 30
0.0
  0
SPLINE
  5
2C3
100
AcDbEntity
  8
0
100
AcDbSpline
 62
7
  6
BYLAYER
 70
0
 71
3
 72
10
 73
6
 74
0
 42
0.0000001
 43
0.0000001
 44
0.0000000001
 40
0.0
 40
0.0
 40
0.0
 40
0.0
 40
0.25005361
 40
0.6250167764
 40
1.0
 40
1.0
 40
1.0
 40
1.0
 10
35.1714354445
 20
53.7169037199
 30
0.0
 10
35.1713869803
 20
53.7150097225
 30
0.0
 10
35.1711687943
 20
53.7102777539
 30
0.0
 10
35.1712773781
 20
53.7026987605
 30
0.0
 10
35.1711330144
 20
53.6970176747
 30
0.0
 10
35.1711330142
 20
53.694176485
 30
0.0
  0
SPLINE
  5
2C4
100
AcDbEntity
  8
0
100
AcDbSpline
 62
7
  6
BYLAYER
 70
0
 71
3
 72
10
 73
6
 74
0
 42
0.0000001
 43
0.0000001
 44
0.0000000001
 40
0.0
 40
0.0
 40
0.0
 40
0.0
 40
0.250053852
 40
0.6250169764
 40
1.0
 40
1.0
 40
1.0
 40
1.0
 10
20.6208539705
 20
53.7169037199
 30
0.0
 10
20.6209024248
 20
53.7150101068
 30
0.0
 10
20.6211215888
 20
53.7102791324
 30
0.0
 10
20.6210122697
 20
53.702701667
 30
0.0
 10
20.6211563932
 20
53.6970217416
 30
0.0
 10
20.6211564007
 20
53.6941811326
 30
0.0
  0
SPLINE
  5
2C5
100
AcDbEntity
  8
0
100
AcDbSpline
 62
7
  6
BYLAYER
 70
0
 71
3
 72
10
 73
6
 74
0
 42
0.0000001
 43
0.0000001
 44
0.0000000001
 40
0.0
 40
0.0
 40
0.0
 40
0.0
 40
0.25005361
 40
0.6250167764
 40
1.0
 40
1.0
 40
1.0
 40
1.0
 10
17.9214354445
 20
53.7169037199
 30
0.0
 10
17.9213869803
 20
53.7150097225
 30
0.0
 10
17.9211687943
 20
53.7102777539
 30
0.0
 10
17.9212773781
 20
53.7026987605
 30
0.0
 10
17.9211330144
 20
53.6970176747
 30
0.0
 10
17.9211330142
 20
53.694176485
 30
0.0
  0
SPLINE
  5
2C6
100
AcDbEntity
  8
0
100
AcDbSpline
 62
7
  6
BYLAYER
 70
0
 71
3
 72
15
 73
11
 74
0
 42
0.0000001
 43
0.0000001
 44
0.0000000001
 40
0.0
 40
0.0
 40
0.0
 40
0.0
 40
0.1533956637
 40
0.2997791958
 40
0.4357537744
 40
0.5613929556
 40
0.6784345979
 40
0.7890901963
 40
0.8955699819
 40
1.0
 40
1.0
 40
1.0
 40
1.0
 10
19.5461447075
 20
52.7169037199
 30
0.0
 10
19.628474742
 20
52.7169037199
 30
0.0
 10
19.789895571
 20
52.7337931884
 30
0.0
 10
20.0140224552
 20
52.8059182144
 30
0.0
 10
20.2060566012
 20
52.9141956406
 30
0.0
 10
20.361054478
 20
53.0476253103
 30
0.0
 10
20.4790192402
 20
53.1975954419
 30
0.0
 10
20.5615660937
 20
53.3580655715
 30
0.0
 10
20.6103466528
 20
53.5246474074
 30
0.0
 10
20.6211565485
 20
53.6381317842
 30
0.0
 10
20.6211564007
 20
53.6941811326
 30
0.0
  0
SPLINE
  5
2C7
100
AcDbEntity
  8
0
100
AcDbSpline
 62
7
  6
BYLAYER
 70
0
 71
3
 72
9
 73
5
 74
0
 42
0.0000001
 43
0.0000001
 44
0.0000000001
 40
0.0
 40
0.0
 40
0.0
 40
0.0
 40
0.5120681796
 40
1.0
 40
1.0
 40
1.0
 40
1.0
 10
35.3327991742
 20
53.1787713666
 30
0.0
 10
35.2802143534
 20
53.2557810255
 30
0.0
 10
35.1989012967
 20
53.4222193072
 30
0.0
 10
35.1711330162
 20
53.6053213193
 30
0.0
 10
35.1711330142
 20
53.6941764278
 30
0.0
  0
SPLINE
  5
2C8
100
AcDbEntity
  8
0
100
AcDbSpline
 62
7
  6
BYLAYER
 70
0
 71
3
 72
15
 73
11
 74
0
 42
0.0000001
 43
0.0000001
 44
0.0000000001
 40
0.0
 40
0.0
 40
0.0
 40
0.0
 40
0.1533956637
 40
0.2997791958
 40
0.4357537744
 40
0.5613929556
 40
0.6784345979
 40
0.7890901963
 40
0.8955699819
 40
1.0
 40
1.0
 40
1.0
 40
1.0
 10
36.7961447075
 20
52.7169037199
 30
0.0
 10
36.878474742
 20
52.7169037199
 30
0.0
 10
37.039895571
 20
52.7337931884
 30
0.0
 10
37.2640224552
 20
52.8059182144
 30
0.0
 10
37.4560566012
 20
52.9141956406
 30
0.0
 10
37.611054478
 20
53.0476253103
 30
0.0
 10
37.7290192402
 20
53.1975954419
 30
0.0
 10
37.8115660937
 20
53.3580655715
 30
0.0
 10
37.8603466528
 20
53.5246474074
 30
0.0
 10
37.8711565485
 20
53.6381317842
 30
0.0
 10
37.8711564007
 20
53.6941811326
 30
0.0
  0
SPLINE
  5
2C9
100
AcDbEntity
  8
0
100
AcDbSpline
 62
7
  6
BYLAYER
 70
0
 71
3
 72
15
 73
11
 74
0
 42
0.0000001
 43
0.0000001
 44
0.0000000001
 40
0.0
 40
0.0
 40
0.0
 40
0.0
 40
0.1533956063
 40
0.2997791076
 40
0.4357536811
 40
0.5613929047
 40
0.6784345831
 40
0.7890902203
 40
0.8955700154
 40
1.0
 40
1.0
 40
1.0
 40
1.0
 10
18.9961447075
 20
52.7169037199
 30
0.0
 10
18.9138149431
 20
52.7169037199
 30
0.0
 10
18.7523946342
 20
52.7337930766
 30
0.0
 10
18.5282683858
 20
52.805917647
 30
0.0
 10
18.3362346207
 20
52.9141944285
 30
0.0
 10
18.1812368519
 20
53.0476233642
 30
0.0
 10
18.0632719604
 20
53.197592751
 30
0.0
 10
17.9807246996
 20
53.358062139
 30
0.0
 10
17.9319436796
 20
53.5246432886
 30
0.0
 10
17.9211330155
 20
53.6381272603
 30
0.0
 10
17.9211330142
 20
53.6941764278
 30
0.0
  0
ENDSEC
  0
SECTION
  2
OBJECTS
  0
DICTIONARY
  5
C
100
AcDbDictionary
280
0
281
1
  3
ACAD_GROUP
350
D
  3
ACAD_MLINESTYLE
350
17
  3
ACAD_LAYOUT
350
1A
  3
ACAD_PLOTSETTINGS
350
19
  3
ACAD_PLOTSTYLENAME
350
E
  0
DICTIONARY
  5
D
102
{ACAD_REACTORS
330
C
102
}
100
AcDbDictionary
280
0
281
1
  0
ACDBDICTIONARYWDFLT
  5
E
102
{ACAD_REACTORS
330
C
102
}
100
AcDbDictionary
281
1
  3
Normal
350
F
100
AcDbDictionaryWithDefault
340
F
  0
DICTIONARY
  5
17
102
{ACAD_REACTORS
330
C
102
}
100
AcDbDictionary
280
0
281
1
  3
Standard
350
18
  0
DICTIONARY
  5
19
102
{ACAD_REACTORS
330
C
102
}
100
AcDbDictionary
281
1
  0
DICTIONARY
  5
1A
102
{ACAD_REACTORS
330
C
102
}
100
AcDbDictionary
281
1
  3
Model
350
2CA
  3
Layout1
350
2CB
  0
ACDBPLACEHOLDER
  5
F
102
{ACAD_REACTORS
330
E
102
}
  0
MLINESTYLE
  5
18
102
{ACAD_REACTORS
330
17
102
}
100
AcDbMlineStyle
  2
STANDARD
 70
0
  3

 62
256
 51
90.0
 52
90.0
 71
2
 49
0.5
 62
256
  6
BYLAYER
 49
-0.5
 62
256
  6
BYLAYER
  0
LAYOUT
  5
2CA
102
{ACAD_REACTORS
330
1A
102
}
100
AcDbPlotSettings
  1

  2
none_device
  4

  6

 40
0.0
 41
0.0
 42
0.0
 43
0.0
 44
210.0
 45
297.0
 46
0.0
 47
0.0
 48
0.0
 49
0.0
140
0.0
141
0.0
142
1.0
143
1.0
 70
1024
 72
1
 73
0
 74
0
  7

 75
0
147
1.0
148
0.0
149
0.0
100
AcDbLayout
  1
Model
 70
0
 71
0
 10
0.0
 20
0.0
 11
210.0
 21
297.0
 12
0.0
 22
0.0
 32
0.0
 14
0.0
 24
0.0
 34
0.0
 15
0.0
 25
0.0
 35
0.0
146
0.0
 13
0.0
 23
0.0
 33
0.0
 16
1.0
 26
0.0
 36
0.0
 17
0.0
 27
1.0
 37
0.0
 76
0
330
210
345
0
346
0
  0
LAYOUT
  5
2CB
102
{ACAD_REACTORS
330
1A
102
}
100
AcDbPlotSettings
  1

  2
none_device
  4

  6

 40
0.0
 41
0.0
 42
0.0
 43
0.0
 44
210.0
 45
297.0
 46
0.0
 47
0.0
 48
0.0
 49
0.0
140
0.0
141
0.0
142
1.0
143
1.0
 70
0
 72
1
 73
0
 74
0
  7

 75
0
147
1.0
148
0.0
149
0.0
100
AcDbLayout
  1
Layout1
 70
0
 71
1
 10
0.0
 20
0.0
 11
210.0
 21
297.0
 12
0.0
 22
0.0
 32
0.0
 14
0.0
 24
0.0
 34
0.0
 15
0.0
 25
0.0
 35
0.0
146
0.0
 13
0.0
 23
0.0
 33
0.0
 16
1.0
 26
0.0
 36
0.0
 17
0.0
 27
1.0
 37
0.0
 76
0
330
211
345
0
346
0
  0
ENDSEC
  0
EOF
