999
DXF file: C:\Users\sesa63760\Dev\_Creo\CAD\MCADID0000438_3D-CAD\drw0001_1.dxf
999
Pro/ENGINEER 2019471 by Parametric Technology Corporation
  0
SECTION
  2
HEADER
  9
$ACADVER
  1
AC1024
  9
$DWGCODEPAGE
  3
ANSI_1252
  9
$EXTMAX
 10
118.4060353075
 20
167.4599642205
 30
0.0
  9
$EXTMIN
 10
0.0
 20
0.0
 30
0.0
  9
$LIMMIN
 10
0.0
 20
0.0
  9
$LIMMAX
 10
118.4060353075
 20
167.4599642205
  9
$VIEWCTR
 10
59.2030176537
 20
83.7299821103
  9
$VIEWSIZE
 40
167.4599642205
  9
$CLAYER
  8
0
  9
$LTSCALE
 40
10.9159087788
  9
$CELTYPE
  6
BYLAYER
  9
$DIMSCALE
 40
1.0
  9
$DIMASZ
 40
1.4095956584
  9
$DIMEXO
 40
1.0
  9
$DIMDLI
 40
7.5419006108
  9
$DIMEXE
 40
1.0
  9
$DIMCEN
 40
1.7862396184
  9
$DIMLFAC
 40
1.0
  9
$DIMBLK
  1
_FILLED
  9
$DIMALT
 70
0
  9
$DIMALTF
 40
0.0393700787
  9
$DIMTXT
 40
1.9734339218
  9
$DIMTOL
 70
1
  9
$DIMLIM
 70
0
  9
$DIMTFAC
 40
1.0
  9
$DIMTP
 40
0.01
  9
$DIMTM
 40
0.01
  9
$DIMGAP
 40
0.625
  9
$DIMDSEP
 70
46
  9
$AUNITS
 70
0
  9
$PDMODE
 70
3
  9
$PDSIZE
 40
0.3125
  9
$HANDSEED
  5
255
  9
$TILEMODE
 70
1
  9
$MEASUREMENT
 70
1
  9
$INSUNITS
 70
4
  0
ENDSEC
  0
SECTION
  2
CLASSES
  0
CLASS
  1
ACDBDICTIONARYWDFLT
  2
AcDbDictionaryWithDefault
  3
AutoCAD 2000
 90
0
 91
1
280
0
281
0
  0
CLASS
  1
ACDBPLACEHOLDER
  2
AcDbPlaceHolder
  3
AutoCAD 2000
 90
0
 91
1
280
0
281
0
  0
CLASS
  1
LAYOUT
  2
AcDbLayout
  3
AutoCAD 2000
 90
0
 91
0
280
0
281
0
  0
ENDSEC
  0
SECTION
  2
TABLES
  0
TABLE
  2
VPORT
  5
8
100
AcDbSymbolTable
 70
2
  0
VPORT
  5
1F4
100
AcDbSymbolTableRecord
100
AcDbViewportTableRecord
  2
*ACTIVE
 70
0
 10
0.0
 20
0.0
 11
1.0
 21
1.0
 12
59.2030176537
 22
83.7299821103
 13
0.0
 23
0.0
 14
1.0
 24
1.0
 15
0.0
 25
0.0
 16
0.0
 26
0.0
 36
1.0
 17
0.0
 27
0.0
 37
0.0
 40
167.4599642205
 41
0.7070707071
 42
50.0
 43
0.0
 44
0.0
 50
0.0
 51
0.0
 71
0
 72
100
 73
1
 74
1
 75
0
 76
0
 77
0
 78
0
  0
ENDTAB
  0
TABLE
  2
LTYPE
  5
5
100
AcDbSymbolTable
 70
6
  0
LTYPE
  5
14
100
AcDbSymbolTableRecord
100
AcDbLinetypeTableRecord
  2
BYBLOCK
 70
0
  3

 72
65
 73
0
 40
0.0
  0
LTYPE
  5
15
100
AcDbSymbolTableRecord
100
AcDbLinetypeTableRecord
  2
BYLAYER
 70
0
  3

 72
65
 73
0
 40
0.0
  0
LTYPE
  5
16
100
AcDbSymbolTableRecord
100
AcDbLinetypeTableRecord
  2
CONTINUOUS
 70
64
  3
Solid line
 72
65
 73
0
 40
0.0
  0
LTYPE
  5
1F5
100
AcDbSymbolTableRecord
100
AcDbLinetypeTableRecord
  2
CENTER
 70
64
  3
____ _ ____ _ ____ _ ____ _ ____ _ ____ _ ____
 72
65
 73
4
 40
0.6
 49
0.375
 74
0
 49
-0.075
 74
0
 49
0.075
 74
0
 49
-0.075
 74
0
  0
LTYPE
  5
1F6
100
AcDbSymbolTableRecord
100
AcDbLinetypeTableRecord
  2
HIDDEN
 70
64
  3
- - - - - - - - - - - - - - - - - - - -
 72
65
 73
2
 40
0.2
 49
0.1
 74
0
 49
-0.1
 74
0
  0
LTYPE
  5
1F7
100
AcDbSymbolTableRecord
100
AcDbLinetypeTableRecord
  2
PHANTOM
 70
64
  3
_____ _ _ _____ _ _ _____ _ _ _____
 72
65
 73
6
 40
0.8
 49
0.45
 74
0
 49
-0.05
 74
0
 49
0.1
 74
0
 49
-0.05
 74
0
 49
0.1
 74
0
 49
-0.05
 74
0
  0
LTYPE
  5
1F8
100
AcDbSymbolTableRecord
100
AcDbLinetypeTableRecord
  2
DOT
 70
64
  3
. . . . . . . . . . . . . . . . . . . .
 72
65
 73
2
 40
0.2
 49
0.1
 74
0
 49
-0.1
 74
0
  0
LTYPE
  5
1F9
100
AcDbSymbolTableRecord
100
AcDbLinetypeTableRecord
  2
DASHED
 70
64
  3
- - - - - - - - - - - - - - - - - - - -
 72
65
 73
2
 40
0.2
 49
0.1
 74
0
 49
-0.1
 74
0
  0
ENDTAB
  0
TABLE
  2
LAYER
  5
2
100
AcDbSymbolTable
 70
36
  0
LAYER
  5
10
100
AcDbSymbolTableRecord
100
AcDbLayerTableRecord
  2
0
 70
0
 62
7
  6
CONTINUOUS
370
-3
390
F
  0
LAYER
  5
1FA
100
AcDbSymbolTableRecord
100
AcDbLayerTableRecord
  2
DEFAULT_1
 70
0
 62
7
  6
CENTER
370
-3
390
F
  0
LAYER
  5
1FB
100
AcDbSymbolTableRecord
100
AcDbLayerTableRecord
  2
DEFAULT_2
 70
0
 62
8
  6
HIDDEN
370
-3
390
F
  0
LAYER
  5
1FC
100
AcDbSymbolTableRecord
100
AcDbLayerTableRecord
  2
DEFAULT_3
 70
0
 62
7
  6
PHANTOM
370
-3
390
F
  0
LAYER
  5
1FD
100
AcDbSymbolTableRecord
100
AcDbLayerTableRecord
  2
00_COMPONENTS
 70
0
 62
7
  6
CONTINUOUS
370
-3
390
F
  0
LAYER
  5
1FE
100
AcDbSymbolTableRecord
100
AcDbLayerTableRecord
  2
01_1_DEFAULT_DATUMS
 70
0
 62
7
  6
CONTINUOUS
370
-3
390
F
  0
LAYER
  5
1FF
100
AcDbSymbolTableRecord
100
AcDbLayerTableRecord
  2
01_PLANES
 70
0
 62
7
  6
CONTINUOUS
370
-3
390
F
  0
LAYER
  5
200
100
AcDbSymbolTableRecord
100
AcDbLayerTableRecord
  2
02_COORD_SYS
 70
0
 62
7
  6
CONTINUOUS
370
-3
390
F
  0
LAYER
  5
201
100
AcDbSymbolTableRecord
100
AcDbLayerTableRecord
  2
03_AXES
 70
0
 62
7
  6
CONTINUOUS
370
-3
390
F
  0
LAYER
  5
202
100
AcDbSymbolTableRecord
100
AcDbLayerTableRecord
  2
04_POINTS
 70
0
 62
7
  6
CONTINUOUS
370
-3
390
F
  0
LAYER
  5
203
100
AcDbSymbolTableRecord
100
AcDbLayerTableRecord
  2
05_CURVES
 70
0
 62
7
  6
CONTINUOUS
370
-3
390
F
  0
LAYER
  5
204
100
AcDbSymbolTableRecord
100
AcDbLayerTableRecord
  2
06_SURFS
 70
0
 62
7
  6
CONTINUOUS
370
-3
390
F
  0
LAYER
  5
205
100
AcDbSymbolTableRecord
100
AcDbLayerTableRecord
  2
07_COSMETICS
 70
0
 62
7
  6
CONTINUOUS
370
-3
390
F
  0
LAYER
  5
206
100
AcDbSymbolTableRecord
100
AcDbLayerTableRecord
  2
10_NOTES
 70
0
 62
7
  6
CONTINUOUS
370
-3
390
F
  0
LAYER
  5
207
100
AcDbSymbolTableRecord
100
AcDbLayerTableRecord
  2
11_NOTES_PUB
 70
0
 62
7
  6
CONTINUOUS
370
-3
390
F
  0
LAYER
  5
208
100
AcDbSymbolTableRecord
100
AcDbLayerTableRecord
  2
13_REF_GTOL
 70
0
 62
7
  6
CONTINUOUS
370
-3
390
F
  0
LAYER
  5
209
100
AcDbSymbolTableRecord
100
AcDbLayerTableRecord
  2
16_MISC
 70
0
 62
7
  6
CONTINUOUS
370
-3
390
F
  0
LAYER
  5
20A
100
AcDbSymbolTableRecord
100
AcDbLayerTableRecord
  2
17_NO_PRINT
 70
0
 62
7
  6
CONTINUOUS
370
-3
390
F
  0
LAYER
  5
20B
100
AcDbSymbolTableRecord
100
AcDbLayerTableRecord
  2
18_DATUM_CAMS_JOINTS
 70
0
 62
7
  6
CONTINUOUS
370
-3
390
F
  0
LAYER
  5
20C
100
AcDbSymbolTableRecord
100
AcDbLayerTableRecord
  2
19_DATUM_FUNCTIONAL
 70
0
 62
7
  6
CONTINUOUS
370
-3
390
F
  0
LAYER
  5
20D
100
AcDbSymbolTableRecord
100
AcDbLayerTableRecord
  2
20_DATUM_KINEMATIC_SCHEME
 70
0
 62
7
  6
CONTINUOUS
370
-3
390
F
  0
ENDTAB
  0
TABLE
  2
STYLE
  5
3
100
AcDbSymbolTable
 70
1
  0
STYLE
  5
11
100
AcDbSymbolTableRecord
100
AcDbTextStyleTableRecord
  2
STANDARD
 70
0
 40
0.0
 41
0.8
 50
0.0
 71
0
 42
0.2
  3
txt
  4

  0
STYLE
  5
20E
100
AcDbSymbolTableRecord
100
AcDbTextStyleTableRecord
  2
TEXTSTYLE_1
 70
0
 40
0.0
 41
0.8
 50
0.0
 71
0
 42
0.2
  3
gdt
  4

  0
ENDTAB
  0
TABLE
  2
VIEW
  5
6
100
AcDbSymbolTable
 70
0
  0
ENDTAB
  0
TABLE
  2
UCS
  5
7
100
AcDbSymbolTable
 70
0
  0
ENDTAB
  0
TABLE
  2
APPID
  5
9
100
AcDbSymbolTable
 70
1
  0
APPID
  5
20F
100
AcDbSymbolTableRecord
100
AcDbRegAppTableRecord
  2
ACAD
 70
0
  0
ENDTAB
  0
TABLE
  2
BLOCK_RECORD
  5
1
100
AcDbSymbolTable
 70
0
  0
BLOCK_RECORD
  5
210
100
AcDbSymbolTableRecord
100
AcDbBlockTableRecord
  2
*Model_Space
  0
BLOCK_RECORD
  5
211
100
AcDbSymbolTableRecord
100
AcDbBlockTableRecord
  2
*Paper_Space
  0
BLOCK_RECORD
  5
212
100
AcDbSymbolTableRecord
100
AcDbBlockTableRecord
  2
_FILLED
  0
ENDTAB
  0
TABLE
  2
DIMSTYLE
  5
A
100
AcDbSymbolTable
 70
1
100
AcDbDimStyleTable
 71
0
  0
DIMSTYLE
105
213
100
AcDbSymbolTableRecord
100
AcDbDimStyleTableRecord
  2
STANDARD
 70
0
  3

  4

 40
1.0
 41
1.4095956584
 42
1.0
 43
0.38
 44
1.0
 45
0.0
 46
0.0
 47
0.01
 48
0.01
140
1.9734339218
141
0.09
142
0.0
143
25.4
144
1.0
145
0.0
146
1.0
147
0.625
 71
1
 72
0
 73
0
 74
0
 75
0
 76
0
 77
1
 78
8
 79
2
170
0
171
1
172
0
173
0
174
0
175
0
176
0
177
0
178
0
270
2
179
2
271
2
272
2
273
2
274
2
275
0
280
0
281
0
282
0
283
1
284
8
285
0
286
0
287
3
288
0
340
11
278
46
341
212
342
212
343
212
344
212
  0
ENDTAB
  0
ENDSEC
  0
SECTION
  2
BLOCKS
  0
BLOCK
  5
20
100
AcDbEntity
  8
0
100
AcDbBlockBegin
  2
*Model_Space
 70
0
 10
0.0
 20
0.0
 30
0.0
  3
*Model_Space
  1

  0
ENDBLK
  5
21
100
AcDbEntity
  8
0
100
AcDbBlockEnd
  0
BLOCK
  5
1C
100
AcDbEntity
  8
0
100
AcDbBlockBegin
  2
*Paper_Space
 70
0
 10
0.0
 20
0.0
 30
0.0
  3
*Paper_Space
  1

  0
ENDBLK
  5
1D
100
AcDbEntity
  8
0
100
AcDbBlockEnd
  0
BLOCK
  5
214
100
AcDbEntity
  8
0
100
AcDbBlockBegin
  2
_FILLED
 70
64
 10
0.0
 20
0.0
  3
_FILLED
  1

  0
SOLID
  5
215
100
AcDbEntity
  8
0
  6
BYBLOCK
 62
0
100
AcDbTrace
 10
0.0
 20
0.0
 11
-1.0
 21
0.25
 12
-1.0
 22
-0.25
 13
-1.0
 23
-0.25
  0
ENDBLK
  5
216
100
AcDbEntity
  8
0
  6
BYBLOCK
 62
0
100
AcDbBlockEnd
  0
ENDSEC
  0
SECTION
  2
ENTITIES
  0
LINE
  5
217
100
AcDbEntity
  8
0
100
AcDbLine
 62
7
  6
CONTINUOUS
 10
37.4040503119
 20
19.1087250444
 11
15.3422268873
 21
31.8458365855
  0
LINE
  5
218
100
AcDbEntity
  8
0
100
AcDbLine
 62
7
  6
CONTINUOUS
 10
35.798285814
 20
20.1285315811
 11
13.7364623895
 21
32.8656431222
  0
LINE
  5
219
100
AcDbEntity
  8
0
100
AcDbLine
 62
7
  6
CONTINUOUS
 10
13.7364623895
 20
32.8656431222
 11
13.7364623895
 21
106.9157053895
  0
LINE
  5
21A
100
AcDbEntity
  8
0
100
AcDbLine
 62
7
  6
CONTINUOUS
 10
17.0273994013
 20
112.6158071404
 11
81.155909099
 21
149.6401984713
  0
LWPOLYLINE
  5
21B
100
AcDbEntity
  8
0
100
AcDbPolyline
 62
7
  6
CONTINUOUS
 90
4
 70
0
 10
55.0834989446
 20
44.9673322477
 10
49.8463200866
 20
48.4463464398
 10
46.4992125927
 20
54.5159767909
 10
45.3441876164
 20
62.664858792
  0
LINE
  5
21C
100
AcDbEntity
  8
0
100
AcDbLine
 62
7
  6
CONTINUOUS
 10
35.798285814
 20
20.1285315811
 11
35.798285814
 21
94.1785938484
  0
LINE
  5
21D
100
AcDbEntity
  8
0
100
AcDbLine
 62
7
  6
CONTINUOUS
 10
39.0892228259
 20
99.8786955994
 11
103.2177325236
 21
136.9030869303
  0
LINE
  5
21E
100
AcDbEntity
  8
0
100
AcDbLine
 62
7
  6
CONTINUOUS
 10
71.1530316904
 20
107.3674719517
 11
73.0700593463
 21
108.3923356595
  0
LINE
  5
21F
100
AcDbEntity
  8
0
100
AcDbLine
 62
7
  6
CONTINUOUS
 10
71.1592237652
 20
107.3558795728
 11
72.7022325057
 21
108.180078431
  0
LWPOLYLINE
  5
220
100
AcDbEntity
  8
0
100
AcDbPolyline
 62
7
  6
CONTINUOUS
 90
3
 70
0
 10
73.0700593463
 20
108.3923356595
 10
80.5643369665
 20
110.7495941517
 10
87.2234564049
 20
110.1642085691
  0
LWPOLYLINE
  5
221
100
AcDbEntity
  8
0
100
AcDbPolyline
 62
7
  6
CONTINUOUS
 90
4
 70
0
 10
72.7022325057
 20
108.180078431
 10
80.0999482601
 20
110.5014149
 10
86.671315941
 20
109.9144118115
 10
88.7996174057
 20
108.9469816464
  0
LINE
  5
222
100
AcDbEntity
  8
0
100
AcDbLine
 62
7
  6
CONTINUOUS
 10
45.3441876164
 20
62.664858792
 11
46.4935071761
 21
72.1228452292
  0
LWPOLYLINE
  5
223
100
AcDbEntity
  8
0
100
AcDbPolyline
 62
7
  6
CONTINUOUS
 90
6
 70
0
 10
46.4935071761
 20
72.1228452292
 10
49.8281853054
 20
82.0408107315
 10
55.0663234385
 20
91.5825959976
 10
61.7234282943
 20
99.8631682965
 10
69.2156746003
 20
106.1651840571
 10
71.1530316904
 20
107.3674719517
  0
LINE
  5
224
100
AcDbEntity
  8
0
100
AcDbLine
 62
7
  6
CONTINUOUS
 10
13.7364623895
 20
106.9157053895
 11
35.798285814
 21
94.1785938484
  0
LINE
  5
225
100
AcDbEntity
  8
0
100
AcDbLine
 62
7
  6
CONTINUOUS
 10
39.0892228259
 20
99.8786955994
 11
17.0273994013
 21
112.6158071404
  0
LWPOLYLINE
  5
226
100
AcDbEntity
  8
0
100
AcDbPolyline
 62
7
  6
CONTINUOUS
 90
3
 70
0
 10
73.1332465387
 20
95.6100916429
 10
72.9072140444
 20
98.6336365397
 10
72.4577792372
 20
99.8863123515
  0
LWPOLYLINE
  5
227
100
AcDbEntity
  8
0
100
AcDbPolyline
 62
7
  6
CONTINUOUS
 90
8
 70
0
 10
52.3992938756
 20
65.3197019105
 10
55.178906252
 20
66.118669869
 10
57.9170110273
 20
67.7055486999
 10
63.1998990331
 20
72.3078224881
 10
67.7686443879
 20
78.3938074622
 10
71.1198512695
 20
85.2926716184
 10
72.9044008252
 20
92.3044945995
 10
73.1332465387
 20
95.6100916429
  0
LWPOLYLINE
  5
228
100
AcDbEntity
  8
0
100
AcDbPolyline
 62
7
  6
CONTINUOUS
 90
9
 70
0
 10
96.962767733
 20
92.4666820247
 10
95.8134481733
 20
83.0086955875
 10
92.4787700441
 20
73.0907300852
 10
87.240631911
 20
63.5489448191
 10
80.5835270551
 20
55.2683725202
 10
73.0912807492
 20
48.9663567596
 10
69.2368960031
 20
46.7392051572
 10
61.742618383
 20
44.381946665
 10
55.0834989446
 20
44.9673322477
  0
LWPOLYLINE
  5
229
100
AcDbEntity
  8
0
100
AcDbPolyline
 62
7
  6
CONTINUOUS
 90
4
 70
0
 10
87.2234564049
 20
110.1642085691
 10
92.4606352629
 20
106.6851943769
 10
95.8077427568
 20
100.6155640258
 10
96.962767733
 20
92.4666820247
  0
LINE
  5
22A
100
AcDbEntity
  8
0
100
AcDbLine
 62
7
  6
CONTINUOUS
 10
106.5086695354
 20
135.0030092356
 11
106.5086695354
 21
60.9529469683
  0
LINE
  5
22B
100
AcDbEntity
  8
0
100
AcDbLine
 62
7
  6
CONTINUOUS
 10
103.2177325236
 20
55.2528452173
 11
39.0892228259
 21
18.2284538864
  0
LINE
  5
22C
100
AcDbEntity
  8
0
100
AcDbLine
 62
7
  6
CONTINUOUS
 10
81.155909099
 20
149.6401984713
 11
103.2177325236
 21
136.9030869303
  0
LINE
  5
22D
100
AcDbEntity
  8
0
100
AcDbLine
 62
7
  6
CONTINUOUS
 10
104.9029050376
 20
136.0228157723
 11
82.841081613
 21
148.7599273133
  0
ARC
  5
22E
100
AcDbEntity
  8
0
100
AcDbCircle
 62
7
  6
CONTINUOUS
 10
116.5314407012
 20
51.3673837285
 40
116.843586069
100
AcDbArc
 50
148.3861635892
 51
151.6141118557
  0
ARC
  5
22F
100
AcDbEntity
  8
0
100
AcDbCircle
 62
7
  6
CONTINUOUS
 10
3.7136912237
 20
116.5012686292
 40
116.843586069
100
AcDbArc
 50
328.3861635892
 51
331.6141118557
  0
ARC
  5
230
100
AcDbEntity
  8
0
100
AcDbCircle
 62
7
  6
CONTINUOUS
 10
138.5932641258
 20
38.6302721875
 40
116.843586069
100
AcDbArc
 50
148.3861635892
 51
151.6141118557
  0
ARC
  5
231
100
AcDbEntity
  8
0
100
AcDbCircle
 62
7
  6
CONTINUOUS
 10
93.6204214026
 20
116.4835695026
 40
22.5627256323
100
AcDbArc
 50
55.1647550598
 51
59.9967132275
  0
ARC
  5
232
100
AcDbEntity
  8
0
100
AcDbCircle
 62
7
  6
CONTINUOUS
 10
48.6865339469
 20
38.6479713142
 40
22.5627256323
100
AcDbArc
 50
235.1647550598
 51
239.9967132275
  0
ARC
  5
233
100
AcDbEntity
  8
0
100
AcDbCircle
 62
7
  6
CONTINUOUS
 10
71.5612528681
 20
129.219222784
 40
22.5626611066
100
AcDbArc
 50
60.0044033857
 51
64.8338351735
  0
ARC
  5
234
100
AcDbEntity
  8
0
100
AcDbCircle
 62
7
  6
CONTINUOUS
 10
26.6100103323
 20
51.3619362695
 40
22.5353299694
100
AcDbArc
 50
235.1618162665
 51
239.9996520207
  0
ARC
  5
235
100
AcDbEntity
  8
0
100
AcDbCircle
 62
7
  6
CONTINUOUS
 10
48.671196663
 20
38.6251506627
 40
22.5352936967
100
AcDbArc
 50
240.0014691553
 51
244.8367694039
  0
ARC
  5
236
100
AcDbEntity
  8
0
100
AcDbCircle
 62
7
  6
CONTINUOUS
 10
93.6357586865
 20
116.5063901541
 40
22.5352936967
100
AcDbArc
 50
60.0014691553
 51
64.8367694039
  0
ARC
  5
237
100
AcDbEntity
  8
0
100
AcDbCircle
 62
7
  6
CONTINUOUS
 10
80.1202937299
 20
99.6695444175
 40
12.3763029105
100
AcDbArc
 50
46.8542824542
 51
54.8738187518
  0
SPLINE
  5
238
100
AcDbEntity
  8
0
100
AcDbSpline
 62
7
  6
CONTINUOUS
 70
0
 71
3
 72
14
 73
10
 74
0
 42
0.0000001
 43
0.0000001
 44
0.0000000001
 40
0.0
 40
0.0
 40
0.0
 40
0.0
 40
0.0753581474
 40
0.1502078344
 40
0.2380869295
 40
0.3461172962
 40
0.4766742244
 40
0.629893953
 40
1.0
 40
1.0
 40
1.0
 40
1.0
 10
79.8187177611
 20
98.6946305825
 30
0.0
 10
79.8436254253
 20
98.7090206519
 30
0.0
 10
79.8885356815
 20
98.7490565409
 30
0.0
 10
79.9170799817
 20
98.8389746398
 30
0.0
 10
79.9067727781
 20
98.943558454
 30
0.0
 10
79.8645805165
 20
99.0615715093
 30
0.0
 10
79.7919133896
 20
99.1928348235
 30
0.0
 10
79.6464670326
 20
99.3961052253
 30
0.0
 10
79.5095108845
 20
99.5427232506
 30
0.0
 10
79.4085799024
 20
99.641577108
 30
0.0
  0
SPLINE
  5
239
100
AcDbEntity
  8
0
100
AcDbSpline
 62
7
  6
CONTINUOUS
 70
0
 71
3
 72
17
 73
13
 74
0
 42
0.0000001
 43
0.0000001
 44
0.0000000001
 40
0.0
 40
0.0
 40
0.0
 40
0.0
 40
0.0428590382
 40
0.0874850278
 40
0.1353193459
 40
0.1872814037
 40
0.3045420728
 40
0.4382079173
 40
0.5825499624
 40
0.7297142529
 40
0.8713069433
 40
1.0
 40
1.0
 40
1.0
 40
1.0
 10
58.5748424289
 20
49.0132927946
 30
0.0
 10
58.4934826583
 20
49.0602565965
 30
0.0
 10
58.3393063165
 20
49.1783444417
 30
0.0
 10
58.1536714835
 20
49.4129723284
 30
0.0
 10
58.0150012348
 20
49.6999993893
 30
0.0
 10
57.8904376606
 20
50.1614552307
 30
0.0
 10
57.8748166347
 20
50.8342722035
 30
0.0
 10
58.0489737924
 20
51.688143752
 30
0.0
 10
58.3998609225
 20
52.5566641178
 30
0.0
 10
58.899435234
 20
53.3691769163
 30
0.0
 10
59.5063263986
 20
54.059711343
 30
0.0
 10
59.9805211128
 20
54.424602292
 30
0.0
 10
60.2248088134
 20
54.5656410197
 30
0.0
  0
SPLINE
  5
23A
100
AcDbEntity
  8
0
100
AcDbSpline
 62
7
  6
CONTINUOUS
 70
0
 71
3
 72
17
 73
13
 74
0
 42
0.0000001
 43
0.0000001
 44
0.0000000001
 40
0.0
 40
0.0
 40
0.0
 40
0.0
 40
0.0428590382
 40
0.0874850278
 40
0.1353193459
 40
0.1872814037
 40
0.3045420728
 40
0.4382079173
 40
0.5825499624
 40
0.7297142529
 40
0.8713069433
 40
1.0
 40
1.0
 40
1.0
 40
1.0
 10
86.2911130097
 20
78.2718312742
 30
0.0
 10
86.2097532391
 20
78.3187950761
 30
0.0
 10
86.0555768973
 20
78.4368829213
 30
0.0
 10
85.8699420643
 20
78.6715108079
 30
0.0
 10
85.7312718155
 20
78.9585378689
 30
0.0
 10
85.6067082414
 20
79.4199937103
 30
0.0
 10
85.5910872155
 20
80.0928106831
 30
0.0
 10
85.7652443731
 20
80.9466822316
 30
0.0
 10
86.1161315033
 20
81.8152025974
 30
0.0
 10
86.6157058147
 20
82.6277153959
 30
0.0
 10
87.2225969794
 20
83.3182498226
 30
0.0
 10
87.6967916936
 20
83.6831407716
 30
0.0
 10
87.9410793941
 20
83.8241794993
 30
0.0
  0
SPLINE
  5
23B
100
AcDbEntity
  8
0
100
AcDbSpline
 62
7
  6
CONTINUOUS
 70
0
 71
3
 72
17
 73
13
 74
0
 42
0.0000001
 43
0.0000001
 44
0.0000000001
 40
0.0
 40
0.0
 40
0.0
 40
0.0
 40
0.0428590382
 40
0.0874850278
 40
0.1353193459
 40
0.1872814037
 40
0.3045420728
 40
0.4382079173
 40
0.5825499624
 40
0.7297142529
 40
0.8713069433
 40
1.0
 40
1.0
 40
1.0
 40
1.0
 10
74.8106578367
 20
103.6479815234
 30
0.0
 10
74.7292980661
 20
103.6949453252
 30
0.0
 10
74.5751217243
 20
103.8130331705
 30
0.0
 10
74.3894868914
 20
104.0476610571
 30
0.0
 10
74.2508166426
 20
104.334688118
 30
0.0
 10
74.1262530684
 20
104.7961439594
 30
0.0
 10
74.1106320426
 20
105.4689609322
 30
0.0
 10
74.2847892002
 20
106.3228324807
 30
0.0
 10
74.6356763303
 20
107.1913528465
 30
0.0
 10
75.1352506418
 20
108.003865645
 30
0.0
 10
75.7421418064
 20
108.6944000717
 30
0.0
 10
76.2163365206
 20
109.0592910207
 30
0.0
 10
76.4606242212
 20
109.2003297485
 30
0.0
  0
SPLINE
  5
23C
100
AcDbEntity
  8
0
100
AcDbSpline
 62
7
  6
CONTINUOUS
 70
0
 71
3
 72
25
 73
21
 74
0
 42
0.0000001
 43
0.0000001
 44
0.0000000001
 40
0.0
 40
0.0
 40
0.0
 40
0.0
 40
0.0623811259
 40
0.1287240249
 40
0.1983150215
 40
0.2702917065
 40
0.3436686733
 40
0.417401496
 40
0.4904265535
 40
0.561713605
 40
0.6303110498
 40
0.6953984808
 40
0.7563457009
 40
0.812782574
 40
0.8646827843
 40
0.9124574208
 40
0.935102281
 40
0.9571073661
 40
0.9786679041
 40
1.0
 40
1.0
 40
1.0
 40
1.0
 10
51.7257763427
 20
69.5947897916
 30
0.0
 10
51.7257763427
 20
70.5696780218
 30
0.0
 10
51.8578849416
 20
72.5827080852
 30
0.0
 10
52.4013091171
 20
75.6391976687
 30
0.0
 10
53.2849885253
 20
78.7711207132
 30
0.0
 10
54.4897511638
 20
81.9114646704
 30
0.0
 10
55.9901678499
 20
84.9937097093
 30
0.0
 10
57.7541161892
 20
87.952099843
 30
0.0
 10
59.7440323241
 20
90.7235123567
 30
0.0
 10
61.9174893434
 20
93.2488722931
 30
0.0
 10
64.2283792715
 20
95.4744899644
 30
0.0
 10
66.6280893902
 20
97.3531798238
 30
0.0
 10
69.0667075373
 20
98.8451586344
 30
0.0
 10
71.4949712714
 20
99.9182408194
 30
0.0
 10
73.8636515739
 20
100.5478495694
 30
0.0
 10
75.7847879937
 20
100.6888378253
 30
0.0
 10
77.2256814308
 20
100.553734902
 30
0.0
 10
78.2401427821
 20
100.3372972024
 30
0.0
 10
79.2010831843
 20
100.0051845762
 30
0.0
 10
79.8037924886
 20
99.706907403
 30
0.0
 10
80.0924959552
 20
99.5402032275
 30
0.0
  0
SPLINE
  5
23D
100
AcDbEntity
  8
0
100
AcDbSpline
 62
7
  6
CONTINUOUS
 70
0
 71
3
 72
11
 73
7
 74
0
 42
0.0000001
 43
0.0000001
 44
0.0000000001
 40
0.0
 40
0.0
 40
0.0
 40
0.0
 40
0.2897011399
 40
0.5490888176
 40
0.7822183492
 40
1.0
 40
1.0
 40
1.0
 40
1.0
 10
76.4606242212
 20
109.2003297485
 30
0.0
 10
76.6054217754
 20
109.2839281564
 30
0.0
 10
76.8934720866
 20
109.4209623958
 30
0.0
 10
77.336211283
 20
109.5278874871
 30
0.0
 10
77.7516354111
 20
109.5173699797
 30
0.0
 10
78.0017344189
 20
109.4265977481
 30
0.0
 10
78.1105906056
 20
109.3637620205
 30
0.0
  0
SPLINE
  5
23E
100
AcDbEntity
  8
0
100
AcDbSpline
 62
7
  6
CONTINUOUS
 70
0
 71
3
 72
11
 73
7
 74
0
 42
0.0000001
 43
0.0000001
 44
0.0000000001
 40
0.0
 40
0.0
 40
0.0
 40
0.0
 40
0.2897011399
 40
0.5490888176
 40
0.7822183492
 40
1.0
 40
1.0
 40
1.0
 40
1.0
 10
87.9410793941
 20
83.8241794993
 30
0.0
 10
88.0858769484
 20
83.9077779072
 30
0.0
 10
88.3739272595
 20
84.0448121467
 30
0.0
 10
88.8166664559
 20
84.1517372379
 30
0.0
 10
89.2320905841
 20
84.1412197306
 30
0.0
 10
89.4821895919
 20
84.050447499
 30
0.0
 10
89.5910457786
 20
83.9876117714
 30
0.0
  0
SPLINE
  5
23F
100
AcDbEntity
  8
0
100
AcDbSpline
 62
7
  6
CONTINUOUS
 70
0
 71
3
 72
11
 73
7
 74
0
 42
0.0000001
 43
0.0000001
 44
0.0000000001
 40
0.0
 40
0.0
 40
0.0
 40
0.0
 40
0.2897011399
 40
0.5490888176
 40
0.7822183492
 40
1.0
 40
1.0
 40
1.0
 40
1.0
 10
60.2248088134
 20
54.5656410197
 30
0.0
 10
60.3696063676
 20
54.6492394276
 30
0.0
 10
60.6576566788
 20
54.7862736671
 30
0.0
 10
61.1003958751
 20
54.8931987583
 30
0.0
 10
61.5158200033
 20
54.882681251
 30
0.0
 10
61.7659190111
 20
54.7919090194
 30
0.0
 10
61.8747751978
 20
54.7290732918
 30
0.0
  0
SPLINE
  5
240
100
AcDbEntity
  8
0
100
AcDbSpline
 62
7
  6
CONTINUOUS
 70
0
 71
3
 72
11
 73
7
 74
0
 42
0.0000001
 43
0.0000001
 44
0.0000000001
 40
0.0
 40
0.0
 40
0.0
 40
0.0
 40
0.2783985283
 40
0.5339304548
 40
0.7718254265
 40
1.0
 40
1.0
 40
1.0
 40
1.0
 10
49.1731645841
 20
80.1434138759
 30
0.0
 10
49.2830679726
 20
80.1831713048
 30
0.0
 10
49.5002151552
 20
80.2436903988
 30
0.0
 10
49.8253352688
 20
80.2709207241
 30
0.0
 10
50.1280657811
 20
80.2286373556
 30
0.0
 10
50.3113601021
 20
80.1531110085
 30
0.0
 10
50.3943200249
 20
80.1052235409
 30
0.0
  0
SPLINE
  5
241
100
AcDbEntity
  8
0
100
AcDbSpline
 62
7
  6
CONTINUOUS
 70
0
 71
3
 72
9
 73
5
 74
0
 42
0.0000001
 43
0.0000001
 44
0.0000000001
 40
0.0
 40
0.0
 40
0.0
 40
0.0
 40
0.2613610816
 40
1.0
 40
1.0
 40
1.0
 40
1.0
 10
79.1461352728
 20
99.8809368487
 30
0.0
 10
79.1696374414
 20
99.8608007218
 30
0.0
 10
79.2590052693
 20
99.7831169886
 30
0.0
 10
79.3460933188
 20
99.7027777545
 30
0.0
 10
79.4085797475
 20
99.6415772749
 30
0.0
  0
SPLINE
  5
242
100
AcDbEntity
  8
0
100
AcDbSpline
 62
7
  6
CONTINUOUS
 70
0
 71
3
 72
15
 73
11
 74
0
 42
0.0000001
 43
0.0000001
 44
0.0000000001
 40
0.0
 40
0.0
 40
0.0
 40
0.0
 40
0.1080128966
 40
0.2180597217
 40
0.3319952804
 40
0.4513569042
 40
0.5772675423
 40
0.7104875555
 40
0.8514344323
 40
1.0
 40
1.0
 40
1.0
 40
1.0
 10
56.5929370794
 20
58.8368515877
 30
0.0
 10
56.2076532023
 20
59.0593235651
 30
0.0
 10
55.4668296155
 20
59.5761645162
 30
0.0
 10
54.4880806518
 20
60.5395065336
 30
0.0
 10
53.6461828128
 20
61.6827501801
 30
0.0
 10
52.9492877508
 20
62.9932588819
 30
0.0
 10
52.4024010661
 20
64.4574548201
 30
0.0
 10
52.0099706385
 20
66.0614593919
 30
0.0
 10
51.7752029854
 20
67.789544232
 30
0.0
 10
51.7257763427
 20
68.9828530413
 30
0.0
 10
51.7257763427
 20
69.5947897916
 30
0.0
  0
SPLINE
  5
243
100
AcDbEntity
  8
0
100
AcDbSpline
 62
7
  6
CONTINUOUS
 70
0
 71
3
 72
15
 73
11
 74
0
 42
0.0000001
 43
0.0000001
 44
0.0000000001
 40
0.0
 40
0.0
 40
0.0
 40
0.0
 40
0.108445815
 40
0.2188611299
 40
0.3330452582
 40
0.452497034
 40
0.5783397378
 40
0.7113183846
 40
0.8518694351
 40
1.0
 40
1.0
 40
1.0
 40
1.0
 10
52.800241124
 20
46.5928222788
 30
0.0
 10
52.2211265735
 20
46.9271318325
 30
0.0
 10
51.1071268746
 20
47.7018659657
 30
0.0
 10
49.6305623256
 20
49.1412012232
 30
0.0
 10
48.3554575237
 20
50.8468030631
 30
0.0
 10
47.2931742535
 20
52.8000808583
 30
0.0
 10
46.4517182518
 20
54.9817694864
 30
0.0
 10
45.8374509608
 20
57.3716475664
 30
0.0
 10
45.455031166
 20
59.947444776
 30
0.0
 10
45.3587593509
 20
61.7275945452
 30
0.0
 10
45.3469655963
 20
62.640899379
 30
0.0
  0
SPLINE
  5
244
100
AcDbEntity
  8
0
100
AcDbSpline
 62
7
  6
CONTINUOUS
 70
0
 71
3
 72
11
 73
7
 74
0
 42
0.0000001
 43
0.0000001
 44
0.0000000001
 40
0.0
 40
0.0
 40
0.0
 40
0.0
 40
0.2897011399
 40
0.5490888176
 40
0.7822183492
 40
1.0
 40
1.0
 40
1.0
 40
1.0
 10
60.2248088134
 20
49.1767250667
 30
0.0
 10
60.0800112591
 20
49.0931266588
 30
0.0
 10
59.791960948
 20
48.9560924194
 30
0.0
 10
59.3492217516
 20
48.8491673281
 30
0.0
 10
58.9337976234
 20
48.8596848354
 30
0.0
 10
58.6836986156
 20
48.950457067
 30
0.0
 10
58.5748424289
 20
49.0132927946
 30
0.0
  0
SPLINE
  5
245
100
AcDbEntity
  8
0
100
AcDbSpline
 62
7
  6
CONTINUOUS
 70
0
 71
3
 72
11
 73
7
 74
0
 42
0.0000001
 43
0.0000001
 44
0.0000000001
 40
0.0
 40
0.0
 40
0.0
 40
0.0
 40
0.2867231348
 40
0.5465666061
 40
0.7818143834
 40
1.0
 40
1.0
 40
1.0
 40
1.0
 10
48.7443536404
 20
74.5528753158
 30
0.0
 10
48.6133828191
 20
74.4772597282
 30
0.0
 10
48.3525949948
 20
74.3508735586
 30
0.0
 10
47.9523724287
 20
74.2405718784
 30
0.0
 10
47.5728004519
 20
74.2239877117
 30
0.0
 10
47.3361167179
 20
74.279840688
 30
0.0
 10
47.2295564477
 20
74.3233002079
 30
0.0
  0
SPLINE
  5
246
100
AcDbEntity
  8
0
100
AcDbSpline
 62
7
  6
CONTINUOUS
 70
0
 71
3
 72
17
 73
13
 74
0
 42
0.0000001
 43
0.0000001
 44
0.0000000001
 40
0.0
 40
0.0
 40
0.0
 40
0.0
 40
0.0428590382
 40
0.0874850278
 40
0.1353193459
 40
0.1872814037
 40
0.3045420728
 40
0.4382079173
 40
0.5825499624
 40
0.7297142529
 40
0.8713069433
 40
1.0
 40
1.0
 40
1.0
 40
1.0
 10
78.1105906056
 20
109.3637620205
 30
0.0
 10
78.1919503763
 20
109.3167982186
 30
0.0
 10
78.3461267181
 20
109.1987103734
 30
0.0
 10
78.531761551
 20
108.9640824868
 30
0.0
 10
78.6704317998
 20
108.6770554258
 30
0.0
 10
78.794995374
 20
108.2155995844
 30
0.0
 10
78.8106163998
 20
107.5427826117
 30
0.0
 10
78.6364592422
 20
106.6889110632
 30
0.0
 10
78.285572112
 20
105.8203906974
 30
0.0
 10
77.7859978006
 20
105.0078778989
 30
0.0
 10
77.1791066359
 20
104.3173434721
 30
0.0
 10
76.7049119217
 20
103.9524525232
 30
0.0
 10
76.4606242212
 20
103.8114137954
 30
0.0
  0
SPLINE
  5
247
100
AcDbEntity
  8
0
100
AcDbSpline
 62
7
  6
CONTINUOUS
 70
0
 71
3
 72
17
 73
13
 74
0
 42
0.0000001
 43
0.0000001
 44
0.0000000001
 40
0.0
 40
0.0
 40
0.0
 40
0.0
 40
0.0428590382
 40
0.0874850278
 40
0.1353193459
 40
0.1872814037
 40
0.3045420728
 40
0.4382079173
 40
0.5825499624
 40
0.7297142529
 40
0.8713069433
 40
1.0
 40
1.0
 40
1.0
 40
1.0
 10
89.5910457786
 20
83.9876117714
 30
0.0
 10
89.6724055492
 20
83.9406479695
 30
0.0
 10
89.826581891
 20
83.8225601243
 30
0.0
 10
90.012216724
 20
83.5879322377
 30
0.0
 10
90.1508869727
 20
83.3009051767
 30
0.0
 10
90.2754505469
 20
82.8394493353
 30
0.0
 10
90.2910715728
 20
82.1666323625
 30
0.0
 10
90.1169144151
 20
81.3127608141
 30
0.0
 10
89.766027285
 20
80.4442404483
 30
0.0
 10
89.2664529735
 20
79.6317276498
 30
0.0
 10
88.6595618089
 20
78.941193223
 30
0.0
 10
88.1853670947
 20
78.5763022741
 30
0.0
 10
87.9410793941
 20
78.4352635463
 30
0.0
  0
SPLINE
  5
248
100
AcDbEntity
  8
0
100
AcDbSpline
 62
7
  6
CONTINUOUS
 70
0
 71
3
 72
17
 73
13
 74
0
 42
0.0000001
 43
0.0000001
 44
0.0000000001
 40
0.0
 40
0.0
 40
0.0
 40
0.0
 40
0.0428590382
 40
0.0874850278
 40
0.1353193459
 40
0.1872814037
 40
0.3045420728
 40
0.4382079173
 40
0.5825499624
 40
0.7297142529
 40
0.8713069433
 40
1.0
 40
1.0
 40
1.0
 40
1.0
 10
61.8747751978
 20
54.7290732918
 30
0.0
 10
61.9561349684
 20
54.6821094899
 30
0.0
 10
62.1103113103
 20
54.5640216447
 30
0.0
 10
62.2959461432
 20
54.3293937581
 30
0.0
 10
62.434616392
 20
54.0423666971
 30
0.0
 10
62.5591799661
 20
53.5809108557
 30
0.0
 10
62.574800992
 20
52.9080938829
 30
0.0
 10
62.4006438344
 20
52.0542223345
 30
0.0
 10
62.0497567042
 20
51.1857019687
 30
0.0
 10
61.5501823928
 20
50.3731891702
 30
0.0
 10
60.9432912281
 20
49.6826547434
 30
0.0
 10
60.4690965139
 20
49.3177637945
 30
0.0
 10
60.2248088134
 20
49.1767250667
 30
0.0
  0
SPLINE
  5
249
100
AcDbEntity
  8
0
100
AcDbSpline
 62
7
  6
CONTINUOUS
 70
0
 71
3
 72
15
 73
11
 74
0
 42
0.0000001
 43
0.0000001
 44
0.0000000001
 40
0.0
 40
0.0
 40
0.0
 40
0.0
 40
0.1080128966
 40
0.2180597217
 40
0.3319952804
 40
0.4513569042
 40
0.5772675423
 40
0.7104875555
 40
0.8514344323
 40
1.0
 40
1.0
 40
1.0
 40
1.0
 10
80.0924959552
 20
99.5402032275
 30
0.0
 10
80.4777798322
 20
99.3177312501
 30
0.0
 10
81.218603419
 20
98.800890299
 30
0.0
 10
82.1973523827
 20
97.8375482816
 30
0.0
 10
83.0392502218
 20
96.6943046351
 30
0.0
 10
83.7361452838
 20
95.3837959332
 30
0.0
 10
84.2830319684
 20
93.9195999951
 30
0.0
 10
84.675462396
 20
92.3155954232
 30
0.0
 10
84.9102300491
 20
90.5875105831
 30
0.0
 10
84.9596566918
 20
89.3942017739
 30
0.0
 10
84.9596566918
 20
88.7822650236
 30
0.0
  0
SPLINE
  5
24A
100
AcDbEntity
  8
0
100
AcDbSpline
 62
7
  6
CONTINUOUS
 70
0
 71
3
 72
17
 73
13
 74
0
 42
0.0000001
 43
0.0000001
 44
0.0000000001
 40
0.0
 40
0.0
 40
0.0
 40
0.0
 40
0.0428590382
 40
0.0874850278
 40
0.1353193459
 40
0.1872814037
 40
0.3045420728
 40
0.4382079173
 40
0.5825499624
 40
0.7297142529
 40
0.8713069433
 40
1.0
 40
1.0
 40
1.0
 40
1.0
 10
50.3943200249
 20
80.1052235409
 30
0.0
 10
50.4756797955
 20
80.058259739
 30
0.0
 10
50.6298561373
 20
79.9401718938
 30
0.0
 10
50.8154909702
 20
79.7055440072
 30
0.0
 10
50.954161219
 20
79.4185169462
 30
0.0
 10
51.0787247932
 20
78.9570611049
 30
0.0
 10
51.094345819
 20
78.2842441321
 30
0.0
 10
50.9201886614
 20
77.4303725836
 30
0.0
 10
50.5693015313
 20
76.5618522178
 30
0.0
 10
50.0697272198
 20
75.7493394193
 30
0.0
 10
49.4628360551
 20
75.0588049925
 30
0.0
 10
48.988641341
 20
74.6939140436
 30
0.0
 10
48.7443536404
 20
74.5528753158
 30
0.0
  0
SPLINE
  5
24B
100
AcDbEntity
  8
0
100
AcDbSpline
 62
7
  6
CONTINUOUS
 70
0
 71
3
 72
25
 73
21
 74
0
 42
0.0000001
 43
0.0000001
 44
0.0000000001
 40
0.0
 40
0.0
 40
0.0
 40
0.0
 40
0.0623835391
 40
0.1287225869
 40
0.1983151499
 40
0.2702918486
 40
0.3436690036
 40
0.4174005851
 40
0.4904248853
 40
0.5617113556
 40
0.6303085737
 40
0.6953961904
 40
0.7563439081
 40
0.8127814136
 40
0.864682231
 40
0.9124573257
 40
0.9351020123
 40
0.957107448
 40
0.9786678913
 40
1.0
 40
1.0
 40
1.0
 40
1.0
 10
96.2556609519
 20
92.466680325
 30
0.0
 10
96.2556609519
 20
90.9731751214
 30
0.0
 10
96.0533307423
 20
87.8894096575
 30
0.0
 10
95.2207606177
 20
83.2071373427
 30
0.0
 10
93.867165204
 20
78.4093141207
 30
0.0
 10
92.021493484
 20
73.598550163
 30
0.0
 10
89.7230318687
 20
68.8768126152
 30
0.0
 10
87.0208093265
 20
64.3448550477
 30
0.0
 10
83.9724632287
 20
60.0993312224
 30
0.0
 10
80.6429286145
 20
56.2307221807
 30
0.0
 10
77.1028541104
 20
52.8212677013
 30
0.0
 10
73.426704477
 20
49.9432458582
 30
0.0
 10
69.6909346288
 20
47.6576191494
 30
0.0
 10
65.9710097671
 20
46.013692582
 30
0.0
 10
62.3423582275
 20
45.0491870375
 30
0.0
 10
59.3993045476
 20
44.8331061872
 30
0.0
 10
57.1919818995
 20
45.0402498097
 30
0.0
 10
55.6378856951
 20
45.3716882297
 30
0.0
 10
54.1658137463
 20
45.8805305449
 30
0.0
 10
53.2425390616
 20
46.3374938192
 30
0.0
 10
52.800241124
 20
46.5928222788
 30
0.0
  0
SPLINE
  5
24C
100
AcDbEntity
  8
0
100
AcDbSpline
 62
7
  6
CONTINUOUS
 70
0
 71
3
 72
15
 73
11
 74
0
 42
0.0000001
 43
0.0000001
 44
0.0000000001
 40
0.0
 40
0.0
 40
0.0
 40
0.0
 40
0.1080124904
 40
0.2180608332
 40
0.3319985641
 40
0.4513590544
 40
0.5772759815
 40
0.7104911665
 40
0.8514202096
 40
1.0
 40
1.0
 40
1.0
 40
1.0
 10
88.7996045004
 20
108.9469592924
 30
0.0
 10
89.389862439
 20
108.6062169162
 30
0.0
 10
90.524631928
 20
107.8142849228
 30
0.0
 10
92.0241585977
 20
106.3386765886
 30
0.0
 10
93.3137310136
 20
104.5871836166
 30
0.0
 10
94.3814500345
 20
102.5796241859
 30
0.0
 10
95.2191456948
 20
100.3365508816
 30
0.0
 10
95.8202592756
 20
97.8794526938
 30
0.0
 10
96.1800284892
 20
95.23223885
 30
0.0
 10
96.2556609519
 20
93.4042060707
 30
0.0
 10
96.2556609519
 20
92.466680325
 30
0.0
  0
SPLINE
  5
24D
100
AcDbEntity
  8
0
100
AcDbSpline
 62
7
  6
CONTINUOUS
 70
0
 71
3
 72
24
 73
20
 74
0
 42
0.0000001
 43
0.0000001
 44
0.0000000001
 40
0.0
 40
0.0
 40
0.0
 40
0.0
 40
0.0213566035
 40
0.0431614305
 40
0.0887306978
 40
0.1378609817
 40
0.1911640911
 40
0.2488239423
 40
0.3106738297
 40
0.3762741533
 40
0.4449792573
 40
0.5159934145
 40
0.5884188253
 40
0.6612988697
 40
0.7336580404
 40
0.8045427084
 40
0.873059837
 40
0.9384250376
 40
1.0
 40
1.0
 40
1.0
 40
1.0
 10
51.9460933463
 20
47.2378380363
 30
0.0
 10
52.4098370796
 20
47.0546304142
 30
0.0
 10
53.3707463811
 20
46.7415558337
 30
0.0
 10
55.4058915126
 20
46.3341432831
 30
0.0
 10
58.147426954
 20
46.2598455044
 30
0.0
 10
61.5715381709
 20
46.84178209
 30
0.0
 10
65.117158209
 20
48.069965747
 30
0.0
 10
68.7174647401
 20
49.9159386919
 30
0.0
 10
72.305501997
 20
52.3415433211
 30
0.0
 10
75.812520343
 20
55.2987407331
 30
0.0
 10
79.1703832625
 20
58.7292535627
 30
0.0
 10
82.3131186939
 20
62.5653915536
 30
0.0
 10
85.1786331146
 20
66.7312526427
 30
0.0
 10
87.7101199398
 20
71.1442537282
 30
0.0
 10
89.8573944771
 20
75.7168755224
 30
0.0
 10
91.5778246946
 20
80.3584220055
 30
0.0
 10
92.8374439213
 20
84.9774529618
 30
0.0
 10
93.6110670775
 20
89.4820958322
 30
0.0
 10
93.798454657
 20
92.447701041
 30
0.0
 10
93.798454657
 20
93.8853169469
 30
0.0
  0
SPLINE
  5
24E
100
AcDbEntity
  8
0
100
AcDbSpline
 62
7
  6
CONTINUOUS
 70
0
 71
3
 72
14
 73
10
 74
0
 42
0.0000001
 43
0.0000001
 44
0.0000000001
 40
0.0
 40
0.0
 40
0.0
 40
0.0
 40
0.1452601614
 40
0.2843912391
 40
0.5437191908
 40
0.6647349061
 40
0.7805641744
 40
0.8919851034
 40
1.0
 40
1.0
 40
1.0
 40
1.0
 10
93.798454657
 20
93.8853169469
 30
0.0
 10
93.798454657
 20
94.666465292
 30
0.0
 10
93.7455634753
 20
96.1967718082
 30
0.0
 10
93.4218323658
 20
99.1041183746
 30
0.0
 10
92.7715582142
 20
101.8406338787
 30
0.0
 10
91.7608973839
 20
104.3147767007
 30
0.0
 10
90.8631571865
 20
105.9633742375
 30
0.0
 10
89.8141441307
 20
107.4351243885
 30
0.0
 10
89.0078298951
 20
108.3024083111
 30
0.0
 10
88.5839048176
 20
108.6995035031
 30
0.0
  0
SPLINE
  5
24F
100
AcDbEntity
  8
0
100
AcDbSpline
 62
7
  6
CONTINUOUS
 70
0
 71
3
 72
25
 73
21
 74
0
 42
0.0000001
 43
0.0000001
 44
0.0000000001
 40
0.0
 40
0.0
 40
0.0
 40
0.0
 40
0.0623811259
 40
0.1287240249
 40
0.1983150215
 40
0.2702917065
 40
0.3436686733
 40
0.417401496
 40
0.4904265535
 40
0.561713605
 40
0.6303110498
 40
0.6953984808
 40
0.7563457009
 40
0.812782574
 40
0.8646827843
 40
0.9124574208
 40
0.935102281
 40
0.9571073661
 40
0.9786679041
 40
1.0
 40
1.0
 40
1.0
 40
1.0
 10
84.9596566918
 20
88.7822650236
 30
0.0
 10
84.9596566918
 20
87.8073767934
 30
0.0
 10
84.8275480929
 20
85.7943467299
 30
0.0
 10
84.2841239175
 20
82.7378571465
 30
0.0
 10
83.4004445092
 20
79.6059341019
 30
0.0
 10
82.1956818708
 20
76.4655901447
 30
0.0
 10
80.6952651847
 20
73.3833451059
 30
0.0
 10
78.9313168454
 20
70.4249549722
 30
0.0
 10
76.9414007104
 20
67.6535424585
 30
0.0
 10
74.7679436911
 20
65.128182522
 30
0.0
 10
72.457053763
 20
62.9025648507
 30
0.0
 10
70.0573436443
 20
61.0238749914
 30
0.0
 10
67.6187254973
 20
59.5318961807
 30
0.0
 10
65.1904617631
 20
58.4588139957
 30
0.0
 10
62.8217814607
 20
57.8292052457
 30
0.0
 10
60.9006450408
 20
57.6882169898
 30
0.0
 10
59.4597516038
 20
57.8233199132
 30
0.0
 10
58.4452902524
 20
58.0397576127
 30
0.0
 10
57.4843498503
 20
58.3718702389
 30
0.0
 10
56.8816405459
 20
58.6701474121
 30
0.0
 10
56.5929370794
 20
58.8368515877
 30
0.0
  0
SPLINE
  5
250
100
AcDbEntity
  8
0
100
AcDbSpline
 62
7
  6
CONTINUOUS
 70
0
 71
3
 72
11
 73
7
 74
0
 42
0.0000001
 43
0.0000001
 44
0.0000000001
 40
0.0
 40
0.0
 40
0.0
 40
0.0
 40
0.2897011399
 40
0.5490888176
 40
0.7822183492
 40
1.0
 40
1.0
 40
1.0
 40
1.0
 10
76.4606242212
 20
103.8114137954
 30
0.0
 10
76.3158266669
 20
103.7278153875
 30
0.0
 10
76.0277763558
 20
103.5907811481
 30
0.0
 10
75.5850371594
 20
103.4838560568
 30
0.0
 10
75.1696130312
 20
103.4943735641
 30
0.0
 10
74.9195140234
 20
103.5851457958
 30
0.0
 10
74.8106578367
 20
103.6479815234
 30
0.0
  0
SPLINE
  5
251
100
AcDbEntity
  8
0
100
AcDbSpline
 62
7
  6
CONTINUOUS
 70
0
 71
3
 72
11
 73
7
 74
0
 42
0.0000001
 43
0.0000001
 44
0.0000000001
 40
0.0
 40
0.0
 40
0.0
 40
0.0
 40
0.2897011399
 40
0.5490888176
 40
0.7822183492
 40
1.0
 40
1.0
 40
1.0
 40
1.0
 10
87.9410793941
 20
78.4352635463
 30
0.0
 10
87.7962818399
 20
78.3516651384
 30
0.0
 10
87.5082315287
 20
78.214630899
 30
0.0
 10
87.0654923324
 20
78.1077058077
 30
0.0
 10
86.6500682042
 20
78.118223315
 30
0.0
 10
86.3999691964
 20
78.2089955466
 30
0.0
 10
86.2911130097
 20
78.2718312742
 30
0.0
  0
SPLINE
  5
252
100
AcDbEntity
  8
0
100
AcDbSpline
 62
7
  6
CONTINUOUS
 70
0
 71
3
 72
15
 73
11
 74
0
 42
0.0000001
 43
0.0000001
 44
0.0000000001
 40
0.0
 40
0.0
 40
0.0
 40
0.0
 40
0.3500393693
 40
0.511609061
 40
0.6562803295
 40
0.7792667958
 40
0.8774240853
 40
0.9169078685
 40
0.9501469552
 40
1.0
 40
1.0
 40
1.0
 40
1.0
 10
76.8060611
 20
100.2886060752
 30
0.0
 10
77.1172812287
 20
100.0243444749
 30
0.0
 10
77.5847536964
 20
99.6518251217
 30
0.0
 10
78.2199503608
 20
99.2239619996
 30
0.0
 10
78.6531598712
 20
98.9720304756
 30
0.0
 10
79.0395732485
 20
98.7896490744
 30
0.0
 10
79.3287196816
 20
98.6922600838
 30
0.0
 10
79.5256284816
 20
98.6567313051
 30
0.0
 10
79.6677671213
 20
98.6490233497
 30
0.0
 10
79.7683688187
 20
98.6655421555
 30
0.0
 10
79.8187177611
 20
98.6946305825
 30
0.0
  0
ENDSEC
  0
SECTION
  2
OBJECTS
  0
DICTIONARY
  5
C
100
AcDbDictionary
280
0
281
1
  3
ACAD_GROUP
350
D
  3
ACAD_MLINESTYLE
350
17
  3
ACAD_LAYOUT
350
1A
  3
ACAD_PLOTSETTINGS
350
19
  3
ACAD_PLOTSTYLENAME
350
E
  0
DICTIONARY
  5
D
102
{ACAD_REACTORS
330
C
102
}
100
AcDbDictionary
280
0
281
1
  0
ACDBDICTIONARYWDFLT
  5
E
102
{ACAD_REACTORS
330
C
102
}
100
AcDbDictionary
281
1
  3
Normal
350
F
100
AcDbDictionaryWithDefault
340
F
  0
DICTIONARY
  5
17
102
{ACAD_REACTORS
330
C
102
}
100
AcDbDictionary
280
0
281
1
  3
Standard
350
18
  0
DICTIONARY
  5
19
102
{ACAD_REACTORS
330
C
102
}
100
AcDbDictionary
281
1
  0
DICTIONARY
  5
1A
102
{ACAD_REACTORS
330
C
102
}
100
AcDbDictionary
281
1
  3
Model
350
253
  3
Layout1
350
254
  0
ACDBPLACEHOLDER
  5
F
102
{ACAD_REACTORS
330
E
102
}
  0
MLINESTYLE
  5
18
102
{ACAD_REACTORS
330
17
102
}
100
AcDbMlineStyle
  2
STANDARD
 70
0
  3

 62
256
 51
90.0
 52
90.0
 71
2
 49
0.5
 62
256
  6
BYLAYER
 49
-0.5
 62
256
  6
BYLAYER
  0
LAYOUT
  5
253
102
{ACAD_REACTORS
330
1A
102
}
100
AcDbPlotSettings
  1

  2
none_device
  4

  6

 40
0.0
 41
0.0
 42
0.0
 43
0.0
 44
210.0
 45
297.0
 46
0.0
 47
0.0
 48
0.0
 49
0.0
140
0.0
141
0.0
142
1.0
143
1.0
 70
1024
 72
1
 73
0
 74
0
  7

 75
0
147
1.0
148
0.0
149
0.0
100
AcDbLayout
  1
Model
 70
0
 71
0
 10
0.0
 20
0.0
 11
210.0
 21
297.0
 12
0.0
 22
0.0
 32
0.0
 14
0.0
 24
0.0
 34
0.0
 15
0.0
 25
0.0
 35
0.0
146
0.0
 13
0.0
 23
0.0
 33
0.0
 16
1.0
 26
0.0
 36
0.0
 17
0.0
 27
1.0
 37
0.0
 76
0
330
210
345
0
346
0
  0
LAYOUT
  5
254
102
{ACAD_REACTORS
330
1A
102
}
100
AcDbPlotSettings
  1

  2
none_device
  4

  6

 40
0.0
 41
0.0
 42
0.0
 43
0.0
 44
210.0
 45
297.0
 46
0.0
 47
0.0
 48
0.0
 49
0.0
140
0.0
141
0.0
142
1.0
143
1.0
 70
0
 72
1
 73
0
 74
0
  7

 75
0
147
1.0
148
0.0
149
0.0
100
AcDbLayout
  1
Layout1
 70
0
 71
1
 10
0.0
 20
0.0
 11
210.0
 21
297.0
 12
0.0
 22
0.0
 32
0.0
 14
0.0
 24
0.0
 34
0.0
 15
0.0
 25
0.0
 35
0.0
146
0.0
 13
0.0
 23
0.0
 33
0.0
 16
1.0
 26
0.0
 36
0.0
 17
0.0
 27
1.0
 37
0.0
 76
0
330
211
345
0
346
0
  0
ENDSEC
  0
EOF
