999
DXF file: C:\Users\sesa63760\Dev\_Creo\CAD\MCADID0001769_3D-CAD\drw0001_2.dxf
999
Pro/ENGINEER 2019471 by Parametric Technology Corporation
  0
SECTION
  2
HEADER
  9
$ACADVER
  1
AC1024
  9
$DWGCODEPAGE
  3
ANSI_1252
  9
$EXTMAX
 10
65.5519736371
 20
92.7092198582
 30
0.0
  9
$EXTMIN
 10
0.0
 20
0.0
 30
0.0
  9
$LIMMIN
 10
0.0
 20
0.0
  9
$LIMMAX
 10
65.5519736371
 20
92.7092198582
  9
$VIEWCTR
 10
32.7759868185
 20
46.3546099291
  9
$VIEWSIZE
 40
92.7092198582
  9
$CLAYER
  8
0
  9
$LTSCALE
 40
6.0432676648
  9
$CELTYPE
  6
BYLAYER
  9
$DIMSCALE
 40
1.0
  9
$DIMASZ
 40
0.7803806385
  9
$DIMEXO
 40
1.0
  9
$DIMDLI
 40
4.1753485684
  9
$DIMEXE
 40
1.0
  9
$DIMCEN
 40
0.9888983452
  9
$DIMLFAC
 40
1.0
  9
$DIMBLK
  1
_FILLED
  9
$DIMALT
 70
0
  9
$DIMALTF
 40
0.0393700787
  9
$DIMTXT
 40
1.092532894
  9
$DIMTOL
 70
1
  9
$DIMLIM
 70
0
  9
$DIMTFAC
 40
1.0
  9
$DIMTP
 40
0.01
  9
$DIMTM
 40
0.01
  9
$DIMGAP
 40
0.625
  9
$DIMDSEP
 70
46
  9
$AUNITS
 70
0
  9
$PDMODE
 70
3
  9
$PDSIZE
 40
0.3125
  9
$HANDSEED
  5
292
  9
$TILEMODE
 70
1
  9
$MEASUREMENT
 70
1
  9
$INSUNITS
 70
4
  0
ENDSEC
  0
SECTION
  2
CLASSES
  0
CLASS
  1
ACDBDICTIONARYWDFLT
  2
AcDbDictionaryWithDefault
  3
AutoCAD 2000
 90
0
 91
1
280
0
281
0
  0
CLASS
  1
ACDBPLACEHOLDER
  2
AcDbPlaceHolder
  3
AutoCAD 2000
 90
0
 91
1
280
0
281
0
  0
CLASS
  1
LAYOUT
  2
AcDbLayout
  3
AutoCAD 2000
 90
0
 91
0
280
0
281
0
  0
ENDSEC
  0
SECTION
  2
TABLES
  0
TABLE
  2
VPORT
  5
8
100
AcDbSymbolTable
 70
2
  0
VPORT
  5
1F4
100
AcDbSymbolTableRecord
100
AcDbViewportTableRecord
  2
*ACTIVE
 70
0
 10
0.0
 20
0.0
 11
1.0
 21
1.0
 12
32.7759868185
 22
46.3546099291
 13
0.0
 23
0.0
 14
1.0
 24
1.0
 15
0.0
 25
0.0
 16
0.0
 26
0.0
 36
1.0
 17
0.0
 27
0.0
 37
0.0
 40
92.7092198582
 41
0.7070707071
 42
50.0
 43
0.0
 44
0.0
 50
0.0
 51
0.0
 71
0
 72
100
 73
1
 74
1
 75
0
 76
0
 77
0
 78
0
  0
ENDTAB
  0
TABLE
  2
LTYPE
  5
5
100
AcDbSymbolTable
 70
6
  0
LTYPE
  5
14
100
AcDbSymbolTableRecord
100
AcDbLinetypeTableRecord
  2
BYBLOCK
 70
0
  3

 72
65
 73
0
 40
0.0
  0
LTYPE
  5
15
100
AcDbSymbolTableRecord
100
AcDbLinetypeTableRecord
  2
BYLAYER
 70
0
  3

 72
65
 73
0
 40
0.0
  0
LTYPE
  5
16
100
AcDbSymbolTableRecord
100
AcDbLinetypeTableRecord
  2
CONTINUOUS
 70
64
  3
Solid line
 72
65
 73
0
 40
0.0
  0
LTYPE
  5
1F5
100
AcDbSymbolTableRecord
100
AcDbLinetypeTableRecord
  2
CENTER
 70
64
  3
____ _ ____ _ ____ _ ____ _ ____ _ ____ _ ____
 72
65
 73
4
 40
0.6
 49
0.375
 74
0
 49
-0.075
 74
0
 49
0.075
 74
0
 49
-0.075
 74
0
  0
LTYPE
  5
1F6
100
AcDbSymbolTableRecord
100
AcDbLinetypeTableRecord
  2
HIDDEN
 70
64
  3
- - - - - - - - - - - - - - - - - - - -
 72
65
 73
2
 40
0.2
 49
0.1
 74
0
 49
-0.1
 74
0
  0
LTYPE
  5
1F7
100
AcDbSymbolTableRecord
100
AcDbLinetypeTableRecord
  2
PHANTOM
 70
64
  3
_____ _ _ _____ _ _ _____ _ _ _____
 72
65
 73
6
 40
0.8
 49
0.45
 74
0
 49
-0.05
 74
0
 49
0.1
 74
0
 49
-0.05
 74
0
 49
0.1
 74
0
 49
-0.05
 74
0
  0
LTYPE
  5
1F8
100
AcDbSymbolTableRecord
100
AcDbLinetypeTableRecord
  2
DOT
 70
64
  3
. . . . . . . . . . . . . . . . . . . .
 72
65
 73
2
 40
0.2
 49
0.1
 74
0
 49
-0.1
 74
0
  0
LTYPE
  5
1F9
100
AcDbSymbolTableRecord
100
AcDbLinetypeTableRecord
  2
DASHED
 70
64
  3
- - - - - - - - - - - - - - - - - - - -
 72
65
 73
2
 40
0.2
 49
0.1
 74
0
 49
-0.1
 74
0
  0
ENDTAB
  0
TABLE
  2
LAYER
  5
2
100
AcDbSymbolTable
 70
36
  0
LAYER
  5
10
100
AcDbSymbolTableRecord
100
AcDbLayerTableRecord
  2
0
 70
0
 62
7
  6
CONTINUOUS
370
-3
390
F
  0
LAYER
  5
1FA
100
AcDbSymbolTableRecord
100
AcDbLayerTableRecord
  2
DEFAULT_1
 70
0
 62
7
  6
CENTER
370
-3
390
F
  0
LAYER
  5
1FB
100
AcDbSymbolTableRecord
100
AcDbLayerTableRecord
  2
DEFAULT_2
 70
0
 62
8
  6
HIDDEN
370
-3
390
F
  0
LAYER
  5
1FC
100
AcDbSymbolTableRecord
100
AcDbLayerTableRecord
  2
DEFAULT_3
 70
0
 62
7
  6
PHANTOM
370
-3
390
F
  0
LAYER
  5
1FD
100
AcDbSymbolTableRecord
100
AcDbLayerTableRecord
  2
00_COMPONENTS
 70
0
 62
7
  6
CONTINUOUS
370
-3
390
F
  0
LAYER
  5
1FE
100
AcDbSymbolTableRecord
100
AcDbLayerTableRecord
  2
01_1_DEFAULT_DATUMS
 70
0
 62
7
  6
CONTINUOUS
370
-3
390
F
  0
LAYER
  5
1FF
100
AcDbSymbolTableRecord
100
AcDbLayerTableRecord
  2
01_PLANES
 70
0
 62
7
  6
CONTINUOUS
370
-3
390
F
  0
LAYER
  5
200
100
AcDbSymbolTableRecord
100
AcDbLayerTableRecord
  2
02_COORD_SYS
 70
0
 62
7
  6
CONTINUOUS
370
-3
390
F
  0
LAYER
  5
201
100
AcDbSymbolTableRecord
100
AcDbLayerTableRecord
  2
03_AXES
 70
0
 62
7
  6
CONTINUOUS
370
-3
390
F
  0
LAYER
  5
202
100
AcDbSymbolTableRecord
100
AcDbLayerTableRecord
  2
04_POINTS
 70
0
 62
7
  6
CONTINUOUS
370
-3
390
F
  0
LAYER
  5
203
100
AcDbSymbolTableRecord
100
AcDbLayerTableRecord
  2
05_CURVES
 70
0
 62
7
  6
CONTINUOUS
370
-3
390
F
  0
LAYER
  5
204
100
AcDbSymbolTableRecord
100
AcDbLayerTableRecord
  2
06_SURFS
 70
0
 62
7
  6
CONTINUOUS
370
-3
390
F
  0
LAYER
  5
205
100
AcDbSymbolTableRecord
100
AcDbLayerTableRecord
  2
07_COSMETICS
 70
0
 62
7
  6
CONTINUOUS
370
-3
390
F
  0
LAYER
  5
206
100
AcDbSymbolTableRecord
100
AcDbLayerTableRecord
  2
10_NOTES
 70
0
 62
7
  6
CONTINUOUS
370
-3
390
F
  0
LAYER
  5
207
100
AcDbSymbolTableRecord
100
AcDbLayerTableRecord
  2
11_NOTES_PUB
 70
0
 62
7
  6
CONTINUOUS
370
-3
390
F
  0
LAYER
  5
208
100
AcDbSymbolTableRecord
100
AcDbLayerTableRecord
  2
13_REF_GTOL
 70
0
 62
7
  6
CONTINUOUS
370
-3
390
F
  0
LAYER
  5
209
100
AcDbSymbolTableRecord
100
AcDbLayerTableRecord
  2
16_MISC
 70
0
 62
7
  6
CONTINUOUS
370
-3
390
F
  0
LAYER
  5
20A
100
AcDbSymbolTableRecord
100
AcDbLayerTableRecord
  2
17_NO_PRINT
 70
0
 62
7
  6
CONTINUOUS
370
-3
390
F
  0
LAYER
  5
20B
100
AcDbSymbolTableRecord
100
AcDbLayerTableRecord
  2
18_DATUM_CAMS_JOINTS
 70
0
 62
7
  6
CONTINUOUS
370
-3
390
F
  0
LAYER
  5
20C
100
AcDbSymbolTableRecord
100
AcDbLayerTableRecord
  2
19_DATUM_FUNCTIONAL
 70
0
 62
7
  6
CONTINUOUS
370
-3
390
F
  0
LAYER
  5
20D
100
AcDbSymbolTableRecord
100
AcDbLayerTableRecord
  2
20_DATUM_KINEMATIC_SCHEME
 70
0
 62
7
  6
CONTINUOUS
370
-3
390
F
  0
ENDTAB
  0
TABLE
  2
STYLE
  5
3
100
AcDbSymbolTable
 70
1
  0
STYLE
  5
11
100
AcDbSymbolTableRecord
100
AcDbTextStyleTableRecord
  2
STANDARD
 70
0
 40
0.0
 41
0.8
 50
0.0
 71
0
 42
0.2
  3
txt
  4

  0
STYLE
  5
20E
100
AcDbSymbolTableRecord
100
AcDbTextStyleTableRecord
  2
TEXTSTYLE_1
 70
0
 40
0.0
 41
0.8
 50
0.0
 71
0
 42
0.2
  3
gdt
  4

  0
ENDTAB
  0
TABLE
  2
VIEW
  5
6
100
AcDbSymbolTable
 70
0
  0
ENDTAB
  0
TABLE
  2
UCS
  5
7
100
AcDbSymbolTable
 70
0
  0
ENDTAB
  0
TABLE
  2
APPID
  5
9
100
AcDbSymbolTable
 70
1
  0
APPID
  5
20F
100
AcDbSymbolTableRecord
100
AcDbRegAppTableRecord
  2
ACAD
 70
0
  0
ENDTAB
  0
TABLE
  2
BLOCK_RECORD
  5
1
100
AcDbSymbolTable
 70
0
  0
BLOCK_RECORD
  5
210
100
AcDbSymbolTableRecord
100
AcDbBlockTableRecord
  2
*Model_Space
  0
BLOCK_RECORD
  5
211
100
AcDbSymbolTableRecord
100
AcDbBlockTableRecord
  2
*Paper_Space
  0
BLOCK_RECORD
  5
212
100
AcDbSymbolTableRecord
100
AcDbBlockTableRecord
  2
_FILLED
  0
ENDTAB
  0
TABLE
  2
DIMSTYLE
  5
A
100
AcDbSymbolTable
 70
1
100
AcDbDimStyleTable
 71
0
  0
DIMSTYLE
105
213
100
AcDbSymbolTableRecord
100
AcDbDimStyleTableRecord
  2
STANDARD
 70
0
  3

  4

 40
1.0
 41
0.7803806385
 42
1.0
 43
0.38
 44
1.0
 45
0.0
 46
0.0
 47
0.01
 48
0.01
140
1.092532894
141
0.09
142
0.0
143
25.4
144
1.0
145
0.0
146
1.0
147
0.625
 71
1
 72
0
 73
0
 74
0
 75
0
 76
0
 77
1
 78
8
 79
2
170
0
171
1
172
0
173
0
174
0
175
0
176
0
177
0
178
0
270
2
179
2
271
2
272
2
273
2
274
2
275
0
280
0
281
0
282
0
283
1
284
8
285
0
286
0
287
3
288
0
340
11
278
46
341
212
342
212
343
212
344
212
  0
ENDTAB
  0
ENDSEC
  0
SECTION
  2
BLOCKS
  0
BLOCK
  5
20
100
AcDbEntity
  8
0
100
AcDbBlockBegin
  2
*Model_Space
 70
0
 10
0.0
 20
0.0
 30
0.0
  3
*Model_Space
  1

  0
ENDBLK
  5
21
100
AcDbEntity
  8
0
100
AcDbBlockEnd
  0
BLOCK
  5
1C
100
AcDbEntity
  8
0
100
AcDbBlockBegin
  2
*Paper_Space
 70
0
 10
0.0
 20
0.0
 30
0.0
  3
*Paper_Space
  1

  0
ENDBLK
  5
1D
100
AcDbEntity
  8
0
100
AcDbBlockEnd
  0
BLOCK
  5
214
100
AcDbEntity
  8
0
100
AcDbBlockBegin
  2
_FILLED
 70
64
 10
0.0
 20
0.0
  3
_FILLED
  1

  0
SOLID
  5
215
100
AcDbEntity
  8
0
  6
BYBLOCK
 62
0
100
AcDbTrace
 10
0.0
 20
0.0
 11
-1.0
 21
0.25
 12
-1.0
 22
-0.25
 13
-1.0
 23
-0.25
  0
ENDBLK
  5
216
100
AcDbEntity
  8
0
  6
BYBLOCK
 62
0
100
AcDbBlockEnd
  0
ENDSEC
  0
SECTION
  2
ENTITIES
  0
LINE
  5
217
100
AcDbEntity
  8
0
100
AcDbLine
 62
7
  6
CONTINUOUS
 10
40.8211541944
 20
8.6843971631
 11
43.1211541944
 21
8.6843971631
  0
LINE
  5
218
100
AcDbEntity
  8
0
100
AcDbLine
 62
7
  6
CONTINUOUS
 10
21.7798875278
 20
9.1843971631
 11
21.8052875278
 21
9.1843971631
  0
LINE
  5
219
100
AcDbEntity
  8
0
100
AcDbLine
 62
7
  6
CONTINUOUS
 10
44.6544875278
 20
9.1843971631
 11
44.6798875278
 21
9.1843971631
  0
LINE
  5
21A
100
AcDbEntity
  8
0
100
AcDbLine
 62
7
  6
CONTINUOUS
 10
44.6798875278
 20
9.7791088089
 11
44.6544875278
 21
9.7791088089
  0
LINE
  5
21B
100
AcDbEntity
  8
0
100
AcDbLine
 62
7
  6
CONTINUOUS
 10
21.8052875278
 20
9.7791088089
 11
21.7798875278
 21
9.7791088089
  0
LINE
  5
21C
100
AcDbEntity
  8
0
100
AcDbLine
 62
7
  6
CONTINUOUS
 10
43.1211541944
 20
9.8093971631
 11
40.8211541944
 21
9.8093971631
  0
LINE
  5
21D
100
AcDbEntity
  8
0
100
AcDbLine
 62
7
  6
CONTINUOUS
 10
40.8211541944
 20
12.0593971631
 11
43.1211541944
 21
12.0593971631
  0
LINE
  5
21E
100
AcDbEntity
  8
0
100
AcDbLine
 62
7
  6
CONTINUOUS
 10
21.7798875278
 20
13.1843971631
 11
44.6798875278
 21
13.1843971631
  0
LINE
  5
21F
100
AcDbEntity
  8
0
100
AcDbLine
 62
7
  6
CONTINUOUS
 10
21.7798875278
 20
9.1843971631
 11
21.7798875278
 21
86.1843971631
  0
LINE
  5
220
100
AcDbEntity
  8
0
100
AcDbLine
 62
7
  6
CONTINUOUS
 10
21.8052875278
 20
13.1843971631
 11
21.8052875278
 21
7.5843971631
  0
LINE
  5
221
100
AcDbEntity
  8
0
100
AcDbLine
 62
7
  6
CONTINUOUS
 10
21.8052875278
 20
36.6843971631
 11
21.8052875278
 21
55.6293971631
  0
LINE
  5
222
100
AcDbEntity
  8
0
100
AcDbLine
 62
7
  6
CONTINUOUS
 10
21.8052875278
 20
57.3843971631
 11
21.8052875278
 21
76.3293971631
  0
LINE
  5
223
100
AcDbEntity
  8
0
100
AcDbLine
 62
7
  6
CONTINUOUS
 10
22.7573375278
 20
60.4786359874
 11
22.7573375278
 21
57.3843971631
  0
LINE
  5
224
100
AcDbEntity
  8
0
100
AcDbLine
 62
7
  6
CONTINUOUS
 10
22.7573375278
 20
39.7786359874
 11
22.7573375278
 21
36.6843971631
  0
LINE
  5
225
100
AcDbEntity
  8
0
100
AcDbLine
 62
7
  6
CONTINUOUS
 10
23.0746875278
 20
74.2177304965
 11
23.0746875278
 21
63.7177304965
  0
LINE
  5
226
100
AcDbEntity
  8
0
100
AcDbLine
 62
7
  6
CONTINUOUS
 10
23.0746875278
 20
53.5177304965
 11
23.0746875278
 21
43.0177304965
  0
LINE
  5
227
100
AcDbEntity
  8
0
100
AcDbLine
 62
7
  6
CONTINUOUS
 10
21.8052875278
 20
36.6843971631
 11
22.7573375278
 21
36.6843971631
  0
LINE
  5
228
100
AcDbEntity
  8
0
100
AcDbLine
 62
7
  6
CONTINUOUS
 10
28.9456625278
 20
36.6843971631
 11
29.8977125278
 21
36.6843971631
  0
LINE
  5
229
100
AcDbEntity
  8
0
100
AcDbLine
 62
7
  6
CONTINUOUS
 10
36.5620625278
 20
36.6843971631
 11
37.5141125278
 21
36.6843971631
  0
LINE
  5
22A
100
AcDbEntity
  8
0
100
AcDbLine
 62
7
  6
CONTINUOUS
 10
43.7024375278
 20
36.6843971631
 11
44.6544875278
 21
36.6843971631
  0
LINE
  5
22B
100
AcDbEntity
  8
0
100
AcDbLine
 62
7
  6
CONTINUOUS
 10
27.5048875278
 20
83.4843971631
 11
27.5048875278
 21
80.7843971631
  0
LINE
  5
22C
100
AcDbEntity
  8
0
100
AcDbLine
 62
7
  6
CONTINUOUS
 10
22.7573375278
 20
38.6843971631
 11
28.9456625278
 21
38.6843971631
  0
LINE
  5
22D
100
AcDbEntity
  8
0
100
AcDbLine
 62
7
  6
CONTINUOUS
 10
29.8977125278
 20
38.6843971631
 11
36.5620625278
 21
38.6843971631
  0
LINE
  5
22E
100
AcDbEntity
  8
0
100
AcDbLine
 62
7
  6
CONTINUOUS
 10
37.5141125278
 20
38.6843971631
 11
43.7024375278
 21
38.6843971631
  0
LINE
  5
22F
100
AcDbEntity
  8
0
100
AcDbLine
 62
7
  6
CONTINUOUS
 10
44.6544875278
 20
39.7786359874
 11
43.7024375278
 21
39.7786359874
  0
LINE
  5
230
100
AcDbEntity
  8
0
100
AcDbLine
 62
7
  6
CONTINUOUS
 10
37.5141125278
 20
39.7786359874
 11
36.5620625278
 21
39.7786359874
  0
LINE
  5
231
100
AcDbEntity
  8
0
100
AcDbLine
 62
7
  6
CONTINUOUS
 10
29.8977125278
 20
39.7786359874
 11
28.9456625278
 21
39.7786359874
  0
LINE
  5
232
100
AcDbEntity
  8
0
100
AcDbLine
 62
7
  6
CONTINUOUS
 10
22.7573375278
 20
39.7786359874
 11
21.8052875278
 21
39.7786359874
  0
LINE
  5
233
100
AcDbEntity
  8
0
100
AcDbLine
 62
7
  6
CONTINUOUS
 10
44.6544875278
 20
40.6843971631
 11
21.8052875278
 21
40.6843971631
  0
LINE
  5
234
100
AcDbEntity
  8
0
100
AcDbLine
 62
7
  6
CONTINUOUS
 10
28.1522875278
 20
43.0177304965
 11
28.1522875278
 21
53.5177304965
  0
LINE
  5
235
100
AcDbEntity
  8
0
100
AcDbLine
 62
7
  6
CONTINUOUS
 10
28.1522875278
 20
63.7177304965
 11
28.1522875278
 21
74.2177304965
  0
LINE
  5
236
100
AcDbEntity
  8
0
100
AcDbLine
 62
7
  6
CONTINUOUS
 10
28.9456625278
 20
36.6843971631
 11
28.9456625278
 21
39.7786359874
  0
LINE
  5
237
100
AcDbEntity
  8
0
100
AcDbLine
 62
7
  6
CONTINUOUS
 10
28.9456625278
 20
57.3843971631
 11
28.9456625278
 21
60.4786359874
  0
LINE
  5
238
100
AcDbEntity
  8
0
100
AcDbLine
 62
7
  6
CONTINUOUS
 10
29.3048875278
 20
80.7843971631
 11
29.3048875278
 21
83.4843971631
  0
LINE
  5
239
100
AcDbEntity
  8
0
100
AcDbLine
 62
7
  6
CONTINUOUS
 10
29.8977125278
 20
60.4786359874
 11
29.8977125278
 21
57.3843971631
  0
LINE
  5
23A
100
AcDbEntity
  8
0
100
AcDbLine
 62
7
  6
CONTINUOUS
 10
29.8977125278
 20
39.7786359874
 11
29.8977125278
 21
36.6843971631
  0
LINE
  5
23B
100
AcDbEntity
  8
0
100
AcDbLine
 62
7
  6
CONTINUOUS
 10
30.6910875278
 20
74.2177304965
 11
30.6910875278
 21
63.7177304965
  0
LINE
  5
23C
100
AcDbEntity
  8
0
100
AcDbLine
 62
7
  6
CONTINUOUS
 10
30.6910875278
 20
53.5177304965
 11
30.6910875278
 21
43.0177304965
  0
LINE
  5
23D
100
AcDbEntity
  8
0
100
AcDbLine
 62
7
  6
CONTINUOUS
 10
23.0746875278
 20
43.0177304965
 11
28.1522875278
 21
43.0177304965
  0
LINE
  5
23E
100
AcDbEntity
  8
0
100
AcDbLine
 62
7
  6
CONTINUOUS
 10
30.6910875278
 20
43.0177304965
 11
35.7686875278
 21
43.0177304965
  0
LINE
  5
23F
100
AcDbEntity
  8
0
100
AcDbLine
 62
7
  6
CONTINUOUS
 10
38.3074875278
 20
43.0177304965
 11
43.3850875278
 21
43.0177304965
  0
LINE
  5
240
100
AcDbEntity
  8
0
100
AcDbLine
 62
7
  6
CONTINUOUS
 10
35.7686875278
 20
43.0177304965
 11
35.7686875278
 21
53.5177304965
  0
LINE
  5
241
100
AcDbEntity
  8
0
100
AcDbLine
 62
7
  6
CONTINUOUS
 10
35.7686875278
 20
63.7177304965
 11
35.7686875278
 21
74.2177304965
  0
LINE
  5
242
100
AcDbEntity
  8
0
100
AcDbLine
 62
7
  6
CONTINUOUS
 10
36.5620625278
 20
36.6843971631
 11
36.5620625278
 21
39.7786359874
  0
LINE
  5
243
100
AcDbEntity
  8
0
100
AcDbLine
 62
7
  6
CONTINUOUS
 10
36.5620625278
 20
57.3843971631
 11
36.5620625278
 21
60.4786359874
  0
LINE
  5
244
100
AcDbEntity
  8
0
100
AcDbLine
 62
7
  6
CONTINUOUS
 10
37.1548875278
 20
80.7843971631
 11
37.1548875278
 21
83.4843971631
  0
LINE
  5
245
100
AcDbEntity
  8
0
100
AcDbLine
 62
7
  6
CONTINUOUS
 10
37.5141125278
 20
60.4786359874
 11
37.5141125278
 21
57.3843971631
  0
LINE
  5
246
100
AcDbEntity
  8
0
100
AcDbLine
 62
7
  6
CONTINUOUS
 10
37.5141125278
 20
39.7786359874
 11
37.5141125278
 21
36.6843971631
  0
LINE
  5
247
100
AcDbEntity
  8
0
100
AcDbLine
 62
7
  6
CONTINUOUS
 10
38.3074875278
 20
74.2177304965
 11
38.3074875278
 21
63.7177304965
  0
LINE
  5
248
100
AcDbEntity
  8
0
100
AcDbLine
 62
7
  6
CONTINUOUS
 10
38.3074875278
 20
53.5177304965
 11
38.3074875278
 21
43.0177304965
  0
LINE
  5
249
100
AcDbEntity
  8
0
100
AcDbLine
 62
7
  6
CONTINUOUS
 10
38.9548875278
 20
80.7843971631
 11
38.9548875278
 21
83.4843971631
  0
LINE
  5
24A
100
AcDbEntity
  8
0
100
AcDbLine
 62
7
  6
CONTINUOUS
 10
23.0746875278
 20
50.8927304965
 11
28.1522875278
 21
50.8927304965
  0
LINE
  5
24B
100
AcDbEntity
  8
0
100
AcDbLine
 62
7
  6
CONTINUOUS
 10
30.6910875278
 20
50.8927304965
 11
35.7686875278
 21
50.8927304965
  0
LINE
  5
24C
100
AcDbEntity
  8
0
100
AcDbLine
 62
7
  6
CONTINUOUS
 10
38.3074875278
 20
50.8927304965
 11
43.3850875278
 21
50.8927304965
  0
LINE
  5
24D
100
AcDbEntity
  8
0
100
AcDbLine
 62
7
  6
CONTINUOUS
 10
40.8211541944
 20
13.1843971631
 11
40.8211541944
 21
6.797345067
  0
LINE
  5
24E
100
AcDbEntity
  8
0
100
AcDbLine
 62
7
  6
CONTINUOUS
 10
40.9544875278
 20
12.0593971631
 11
40.9544875278
 21
9.8093971631
  0
LINE
  5
24F
100
AcDbEntity
  8
0
100
AcDbLine
 62
7
  6
CONTINUOUS
 10
40.9544875278
 20
8.6843971631
 11
40.9544875278
 21
7.9468425493
  0
LINE
  5
250
100
AcDbEntity
  8
0
100
AcDbLine
 62
7
  6
CONTINUOUS
 10
43.3850875278
 20
53.5177304965
 11
38.3074875278
 21
53.5177304965
  0
LINE
  5
251
100
AcDbEntity
  8
0
100
AcDbLine
 62
7
  6
CONTINUOUS
 10
35.7686875278
 20
53.5177304965
 11
30.6910875278
 21
53.5177304965
  0
LINE
  5
252
100
AcDbEntity
  8
0
100
AcDbLine
 62
7
  6
CONTINUOUS
 10
28.1522875278
 20
53.5177304965
 11
23.0746875278
 21
53.5177304965
  0
LINE
  5
253
100
AcDbEntity
  8
0
100
AcDbLine
 62
7
  6
CONTINUOUS
 10
43.1211541944
 20
7.2298425481
 11
43.1211541944
 21
13.1843971631
  0
LINE
  5
254
100
AcDbEntity
  8
0
100
AcDbLine
 62
7
  6
CONTINUOUS
 10
43.3850875278
 20
43.0177304965
 11
43.3850875278
 21
53.5177304965
  0
LINE
  5
255
100
AcDbEntity
  8
0
100
AcDbLine
 62
7
  6
CONTINUOUS
 10
43.3850875278
 20
63.7177304965
 11
43.3850875278
 21
74.2177304965
  0
LINE
  5
256
100
AcDbEntity
  8
0
100
AcDbLine
 62
7
  6
CONTINUOUS
 10
43.7024375278
 20
36.6843971631
 11
43.7024375278
 21
39.7786359874
  0
LINE
  5
257
100
AcDbEntity
  8
0
100
AcDbLine
 62
7
  6
CONTINUOUS
 10
43.7024375278
 20
57.3843971631
 11
43.7024375278
 21
60.4786359874
  0
LINE
  5
258
100
AcDbEntity
  8
0
100
AcDbLine
 62
7
  6
CONTINUOUS
 10
44.6544875278
 20
76.3293971631
 11
44.6544875278
 21
57.3843971631
  0
LINE
  5
259
100
AcDbEntity
  8
0
100
AcDbLine
 62
7
  6
CONTINUOUS
 10
44.6544875278
 20
55.6293971631
 11
44.6544875278
 21
36.6843971631
  0
LINE
  5
25A
100
AcDbEntity
  8
0
100
AcDbLine
 62
7
  6
CONTINUOUS
 10
44.6544875278
 20
7.5843971631
 11
44.6544875278
 21
13.1843971631
  0
LINE
  5
25B
100
AcDbEntity
  8
0
100
AcDbLine
 62
7
  6
CONTINUOUS
 10
44.6798875278
 20
86.1843971631
 11
44.6798875278
 21
9.1843971631
  0
LINE
  5
25C
100
AcDbEntity
  8
0
100
AcDbLine
 62
7
  6
CONTINUOUS
 10
21.7798875278
 20
55.6293971631
 11
44.6798875278
 21
55.6293971631
  0
LINE
  5
25D
100
AcDbEntity
  8
0
100
AcDbLine
 62
7
  6
CONTINUOUS
 10
21.8052875278
 20
57.3843971631
 11
22.7573375278
 21
57.3843971631
  0
LINE
  5
25E
100
AcDbEntity
  8
0
100
AcDbLine
 62
7
  6
CONTINUOUS
 10
28.9456625278
 20
57.3843971631
 11
29.8977125278
 21
57.3843971631
  0
LINE
  5
25F
100
AcDbEntity
  8
0
100
AcDbLine
 62
7
  6
CONTINUOUS
 10
36.5620625278
 20
57.3843971631
 11
37.5141125278
 21
57.3843971631
  0
LINE
  5
260
100
AcDbEntity
  8
0
100
AcDbLine
 62
7
  6
CONTINUOUS
 10
43.7024375278
 20
57.3843971631
 11
44.6544875278
 21
57.3843971631
  0
LINE
  5
261
100
AcDbEntity
  8
0
100
AcDbLine
 62
7
  6
CONTINUOUS
 10
22.7573375278
 20
59.3843971631
 11
28.9456625278
 21
59.3843971631
  0
LINE
  5
262
100
AcDbEntity
  8
0
100
AcDbLine
 62
7
  6
CONTINUOUS
 10
29.8977125278
 20
59.3843971631
 11
36.5620625278
 21
59.3843971631
  0
LINE
  5
263
100
AcDbEntity
  8
0
100
AcDbLine
 62
7
  6
CONTINUOUS
 10
37.5141125278
 20
59.3843971631
 11
43.7024375278
 21
59.3843971631
  0
LINE
  5
264
100
AcDbEntity
  8
0
100
AcDbLine
 62
7
  6
CONTINUOUS
 10
44.6544875278
 20
60.4786359874
 11
43.7024375278
 21
60.4786359874
  0
LINE
  5
265
100
AcDbEntity
  8
0
100
AcDbLine
 62
7
  6
CONTINUOUS
 10
37.5141125278
 20
60.4786359874
 11
36.5620625278
 21
60.4786359874
  0
LINE
  5
266
100
AcDbEntity
  8
0
100
AcDbLine
 62
7
  6
CONTINUOUS
 10
29.8977125278
 20
60.4786359874
 11
28.9456625278
 21
60.4786359874
  0
LINE
  5
267
100
AcDbEntity
  8
0
100
AcDbLine
 62
7
  6
CONTINUOUS
 10
22.7573375278
 20
60.4786359874
 11
21.8052875278
 21
60.4786359874
  0
LINE
  5
268
100
AcDbEntity
  8
0
100
AcDbLine
 62
7
  6
CONTINUOUS
 10
44.6544875278
 20
61.3843971631
 11
21.8052875278
 21
61.3843971631
  0
LINE
  5
269
100
AcDbEntity
  8
0
100
AcDbLine
 62
7
  6
CONTINUOUS
 10
23.0746875278
 20
63.7177304965
 11
28.1522875278
 21
63.7177304965
  0
LINE
  5
26A
100
AcDbEntity
  8
0
100
AcDbLine
 62
7
  6
CONTINUOUS
 10
30.6910875278
 20
63.7177304965
 11
35.7686875278
 21
63.7177304965
  0
LINE
  5
26B
100
AcDbEntity
  8
0
100
AcDbLine
 62
7
  6
CONTINUOUS
 10
38.3074875278
 20
63.7177304965
 11
43.3850875278
 21
63.7177304965
  0
LINE
  5
26C
100
AcDbEntity
  8
0
100
AcDbLine
 62
7
  6
CONTINUOUS
 10
23.0746875278
 20
71.5927304965
 11
28.1522875278
 21
71.5927304965
  0
LINE
  5
26D
100
AcDbEntity
  8
0
100
AcDbLine
 62
7
  6
CONTINUOUS
 10
30.6910875278
 20
71.5927304965
 11
35.7686875278
 21
71.5927304965
  0
LINE
  5
26E
100
AcDbEntity
  8
0
100
AcDbLine
 62
7
  6
CONTINUOUS
 10
38.3074875278
 20
71.5927304965
 11
43.3850875278
 21
71.5927304965
  0
LINE
  5
26F
100
AcDbEntity
  8
0
100
AcDbLine
 62
7
  6
CONTINUOUS
 10
43.3850875278
 20
74.2177304965
 11
38.3074875278
 21
74.2177304965
  0
LINE
  5
270
100
AcDbEntity
  8
0
100
AcDbLine
 62
7
  6
CONTINUOUS
 10
35.7686875278
 20
74.2177304965
 11
30.6910875278
 21
74.2177304965
  0
LINE
  5
271
100
AcDbEntity
  8
0
100
AcDbLine
 62
7
  6
CONTINUOUS
 10
28.1522875278
 20
74.2177304965
 11
23.0746875278
 21
74.2177304965
  0
LINE
  5
272
100
AcDbEntity
  8
0
100
AcDbLine
 62
7
  6
CONTINUOUS
 10
21.7798875278
 20
76.3293971631
 11
44.6798875278
 21
76.3293971631
  0
LINE
  5
273
100
AcDbEntity
  8
0
100
AcDbLine
 62
7
  6
CONTINUOUS
 10
38.9548875278
 20
80.7843971631
 11
27.5048875278
 21
80.7843971631
  0
LINE
  5
274
100
AcDbEntity
  8
0
100
AcDbLine
 62
7
  6
CONTINUOUS
 10
27.5048875278
 20
83.4843971631
 11
38.9548875278
 21
83.4843971631
  0
LINE
  5
275
100
AcDbEntity
  8
0
100
AcDbLine
 62
7
  6
CONTINUOUS
 10
21.7798875278
 20
86.1843971631
 11
44.6798875278
 21
86.1843971631
  0
ARC
  5
276
100
AcDbEntity
  8
0
100
AcDbCircle
 62
7
  6
CONTINUOUS
 10
33.2298875278
 20
53.4992132917
 40
47.3148161286
100
AcDbArc
 50
256.027317533
 51
283.972682467
  0
ARC
  5
277
100
AcDbEntity
  8
0
100
AcDbCircle
 62
7
  6
CONTINUOUS
 10
33.2298875278
 20
46.6959275774
 40
39.5115304143
100
AcDbArc
 50
281.0769910931
 51
284.4975578636
  0
SPLINE
  5
278
100
AcDbEntity
  8
0
100
AcDbSpline
 62
7
  6
CONTINUOUS
 70
0
 71
3
 72
20
 73
16
 74
0
 42
0.0000001
 43
0.0000001
 44
0.0000000001
 40
0.0
 40
0.0
 40
0.0
 40
0.0
 40
0.0123432163
 40
0.0206743637
 40
0.0308312941
 40
0.0570919269
 40
0.0915735981
 40
0.1341772052
 40
0.1846556148
 40
0.2426244537
 40
0.307590212
 40
0.4562747535
 40
0.6254633022
 40
0.8091154662
 40
1.0
 40
1.0
 40
1.0
 40
1.0
 10
28.1522870113
 20
59.6005067289
 30
0.0
 10
28.1522915835
 20
59.6112393435
 30
0.0
 10
28.1431558073
 20
59.6287045664
 30
0.0
 10
28.1240619331
 20
59.6472409101
 30
0.0
 10
28.0925127234
 20
59.6703701875
 30
0.0
 10
28.037413377
 20
59.6984949803
 30
0.0
 10
27.9536116195
 20
59.7311299683
 30
0.0
 10
27.847660322
 20
59.7641860218
 30
0.0
 10
27.7205035595
 20
59.7972101044
 30
0.0
 10
27.5732009758
 20
59.8295754621
 30
0.0
 10
27.3410144275
 20
59.8729753401
 30
0.0
 10
27.0113509433
 20
59.9202629475
 30
0.0
 10
26.5772600646
 20
59.9631234653
 30
0.0
 10
26.1051637271
 20
59.9906080578
 30
0.0
 10
25.7794645522
 20
59.997019503
 30
0.0
 10
25.6134875278
 20
59.997019503
 30
0.0
  0
SPLINE
  5
279
100
AcDbEntity
  8
0
100
AcDbSpline
 62
7
  6
CONTINUOUS
 70
0
 71
3
 72
20
 73
16
 74
0
 42
0.0000001
 43
0.0000001
 44
0.0000000001
 40
0.0
 40
0.0
 40
0.0
 40
0.0
 40
0.0123432163
 40
0.0206743637
 40
0.0308312941
 40
0.0570919269
 40
0.0915735981
 40
0.1341772052
 40
0.1846556148
 40
0.2426244537
 40
0.307590212
 40
0.4562747535
 40
0.6254633022
 40
0.8091154662
 40
1.0
 40
1.0
 40
1.0
 40
1.0
 10
35.7686870113
 20
59.6005067289
 30
0.0
 10
35.7686915835
 20
59.6112393435
 30
0.0
 10
35.7595558073
 20
59.6287045664
 30
0.0
 10
35.7404619331
 20
59.6472409101
 30
0.0
 10
35.7089127234
 20
59.6703701875
 30
0.0
 10
35.653813377
 20
59.6984949803
 30
0.0
 10
35.5700116195
 20
59.7311299683
 30
0.0
 10
35.464060322
 20
59.7641860218
 30
0.0
 10
35.3369035595
 20
59.7972101044
 30
0.0
 10
35.1896009758
 20
59.8295754621
 30
0.0
 10
34.9574144275
 20
59.8729753401
 30
0.0
 10
34.6277509433
 20
59.9202629475
 30
0.0
 10
34.1936600646
 20
59.9631234653
 30
0.0
 10
33.7215637271
 20
59.9906080578
 30
0.0
 10
33.3958645522
 20
59.997019503
 30
0.0
 10
33.2298875278
 20
59.997019503
 30
0.0
  0
SPLINE
  5
27A
100
AcDbEntity
  8
0
100
AcDbSpline
 62
7
  6
CONTINUOUS
 70
0
 71
3
 72
20
 73
16
 74
0
 42
0.0000001
 43
0.0000001
 44
0.0000000001
 40
0.0
 40
0.0
 40
0.0
 40
0.0
 40
0.0123432163
 40
0.0206743637
 40
0.0308312941
 40
0.0570919269
 40
0.0915735981
 40
0.1341772052
 40
0.1846556148
 40
0.2426244537
 40
0.307590212
 40
0.4562747535
 40
0.6254633022
 40
0.8091154662
 40
1.0
 40
1.0
 40
1.0
 40
1.0
 10
43.3850870113
 20
59.6005067289
 30
0.0
 10
43.3850915835
 20
59.6112393435
 30
0.0
 10
43.3759558073
 20
59.6287045664
 30
0.0
 10
43.3568619331
 20
59.6472409101
 30
0.0
 10
43.3253127234
 20
59.6703701875
 30
0.0
 10
43.270213377
 20
59.6984949803
 30
0.0
 10
43.1864116195
 20
59.7311299683
 30
0.0
 10
43.080460322
 20
59.7641860218
 30
0.0
 10
42.9533035595
 20
59.7972101044
 30
0.0
 10
42.8060009758
 20
59.8295754621
 30
0.0
 10
42.5738144275
 20
59.8729753401
 30
0.0
 10
42.2441509433
 20
59.9202629475
 30
0.0
 10
41.8100600646
 20
59.9631234653
 30
0.0
 10
41.3379637271
 20
59.9906080578
 30
0.0
 10
41.0122645522
 20
59.997019503
 30
0.0
 10
40.8462875278
 20
59.997019503
 30
0.0
  0
SPLINE
  5
27B
100
AcDbEntity
  8
0
100
AcDbSpline
 62
7
  6
CONTINUOUS
 70
0
 71
3
 72
20
 73
16
 74
0
 42
0.0000001
 43
0.0000001
 44
0.0000000001
 40
0.0
 40
0.0
 40
0.0
 40
0.0
 40
0.0123432163
 40
0.0206743637
 40
0.0308312941
 40
0.0570919269
 40
0.0915735981
 40
0.1341772052
 40
0.1846556148
 40
0.2426244537
 40
0.307590212
 40
0.4562747535
 40
0.6254633022
 40
0.8091154662
 40
1.0
 40
1.0
 40
1.0
 40
1.0
 10
28.1522870113
 20
38.9005067289
 30
0.0
 10
28.1522915835
 20
38.9112393435
 30
0.0
 10
28.1431558073
 20
38.9287045664
 30
0.0
 10
28.1240619331
 20
38.9472409101
 30
0.0
 10
28.0925127234
 20
38.9703701875
 30
0.0
 10
28.037413377
 20
38.9984949803
 30
0.0
 10
27.9536116195
 20
39.0311299683
 30
0.0
 10
27.847660322
 20
39.0641860218
 30
0.0
 10
27.7205035595
 20
39.0972101044
 30
0.0
 10
27.5732009758
 20
39.1295754621
 30
0.0
 10
27.3410144275
 20
39.1729753401
 30
0.0
 10
27.0113509433
 20
39.2202629475
 30
0.0
 10
26.5772600646
 20
39.2631234653
 30
0.0
 10
26.1051637271
 20
39.2906080578
 30
0.0
 10
25.7794645522
 20
39.297019503
 30
0.0
 10
25.6134875278
 20
39.297019503
 30
0.0
  0
SPLINE
  5
27C
100
AcDbEntity
  8
0
100
AcDbSpline
 62
7
  6
CONTINUOUS
 70
0
 71
3
 72
20
 73
16
 74
0
 42
0.0000001
 43
0.0000001
 44
0.0000000001
 40
0.0
 40
0.0
 40
0.0
 40
0.0
 40
0.0123432163
 40
0.0206743637
 40
0.0308312941
 40
0.0570919269
 40
0.0915735981
 40
0.1341772052
 40
0.1846556148
 40
0.2426244537
 40
0.307590212
 40
0.4562747535
 40
0.6254633022
 40
0.8091154662
 40
1.0
 40
1.0
 40
1.0
 40
1.0
 10
35.7686870113
 20
38.9005067289
 30
0.0
 10
35.7686915835
 20
38.9112393435
 30
0.0
 10
35.7595558073
 20
38.9287045664
 30
0.0
 10
35.7404619331
 20
38.9472409101
 30
0.0
 10
35.7089127234
 20
38.9703701875
 30
0.0
 10
35.653813377
 20
38.9984949803
 30
0.0
 10
35.5700116195
 20
39.0311299683
 30
0.0
 10
35.464060322
 20
39.0641860218
 30
0.0
 10
35.3369035595
 20
39.0972101044
 30
0.0
 10
35.1896009758
 20
39.1295754621
 30
0.0
 10
34.9574144275
 20
39.1729753401
 30
0.0
 10
34.6277509433
 20
39.2202629475
 30
0.0
 10
34.1936600646
 20
39.2631234653
 30
0.0
 10
33.7215637271
 20
39.2906080578
 30
0.0
 10
33.3958645522
 20
39.297019503
 30
0.0
 10
33.2298875278
 20
39.297019503
 30
0.0
  0
SPLINE
  5
27D
100
AcDbEntity
  8
0
100
AcDbSpline
 62
7
  6
CONTINUOUS
 70
0
 71
3
 72
20
 73
16
 74
0
 42
0.0000001
 43
0.0000001
 44
0.0000000001
 40
0.0
 40
0.0
 40
0.0
 40
0.0
 40
0.0123432163
 40
0.0206743637
 40
0.0308312941
 40
0.0570919269
 40
0.0915735981
 40
0.1341772052
 40
0.1846556148
 40
0.2426244537
 40
0.307590212
 40
0.4562747535
 40
0.6254633022
 40
0.8091154662
 40
1.0
 40
1.0
 40
1.0
 40
1.0
 10
43.3850870113
 20
38.9005067289
 30
0.0
 10
43.3850915835
 20
38.9112393435
 30
0.0
 10
43.3759558073
 20
38.9287045664
 30
0.0
 10
43.3568619331
 20
38.9472409101
 30
0.0
 10
43.3253127234
 20
38.9703701875
 30
0.0
 10
43.270213377
 20
38.9984949803
 30
0.0
 10
43.1864116195
 20
39.0311299683
 30
0.0
 10
43.080460322
 20
39.0641860218
 30
0.0
 10
42.9533035595
 20
39.0972101044
 30
0.0
 10
42.8060009758
 20
39.1295754621
 30
0.0
 10
42.5738144275
 20
39.1729753401
 30
0.0
 10
42.2441509433
 20
39.2202629475
 30
0.0
 10
41.8100600646
 20
39.2631234653
 30
0.0
 10
41.3379637271
 20
39.2906080578
 30
0.0
 10
41.0122645522
 20
39.297019503
 30
0.0
 10
40.8462875278
 20
39.297019503
 30
0.0
  0
SPLINE
  5
27E
100
AcDbEntity
  8
0
100
AcDbSpline
 62
7
  6
CONTINUOUS
 70
0
 71
3
 72
20
 73
16
 74
0
 42
0.0000001
 43
0.0000001
 44
0.0000000001
 40
0.0
 40
0.0
 40
0.0
 40
0.0
 40
0.190889055
 40
0.3745553889
 40
0.5437539937
 40
0.6924402378
 40
0.7574047165
 40
0.8153694904
 40
0.8658446451
 40
0.9084406593
 40
0.9429149189
 40
0.9691720902
 40
0.9793275316
 40
0.9876575494
 40
1.0
 40
1.0
 40
1.0
 40
1.0
 10
25.6134875278
 20
59.997019503
 30
0.0
 10
25.4475064059
 20
59.997019503
 30
0.0
 10
25.1217905252
 20
59.9906121743
 30
0.0
 10
24.6496690982
 20
59.9631175167
 30
0.0
 10
24.2155560466
 20
59.920249439
 30
0.0
 10
23.885882639
 20
59.8729645002
 30
0.0
 10
23.653699278
 20
59.8295630489
 30
0.0
 10
23.5064055076
 20
59.7971914786
 30
0.0
 10
23.37926263
 20
59.7641654291
 30
0.0
 10
23.2733260549
 20
59.7311151786
 30
0.0
 10
23.1895388141
 20
59.6984873997
 30
0.0
 10
23.1344481024
 20
59.6703685387
 30
0.0
 10
23.1029048374
 20
59.6472400781
 30
0.0
 10
23.0838150842
 20
59.6287031922
 30
0.0
 10
23.0746834046
 20
59.6112386139
 30
0.0
 10
23.0746880708
 20
59.6005066544
 30
0.0
  0
SPLINE
  5
27F
100
AcDbEntity
  8
0
100
AcDbSpline
 62
7
  6
CONTINUOUS
 70
0
 71
3
 72
20
 73
16
 74
0
 42
0.0000001
 43
0.0000001
 44
0.0000000001
 40
0.0
 40
0.0
 40
0.0
 40
0.0
 40
0.190889055
 40
0.3745553889
 40
0.5437539937
 40
0.6924402378
 40
0.7574047165
 40
0.8153694904
 40
0.8658446451
 40
0.9084406593
 40
0.9429149189
 40
0.9691720902
 40
0.9793275316
 40
0.9876575494
 40
1.0
 40
1.0
 40
1.0
 40
1.0
 10
33.2298875278
 20
59.997019503
 30
0.0
 10
33.0639064059
 20
59.997019503
 30
0.0
 10
32.7381905252
 20
59.9906121743
 30
0.0
 10
32.2660690982
 20
59.9631175167
 30
0.0
 10
31.8319560466
 20
59.920249439
 30
0.0
 10
31.502282639
 20
59.8729645002
 30
0.0
 10
31.270099278
 20
59.8295630489
 30
0.0
 10
31.1228055076
 20
59.7971914786
 30
0.0
 10
30.99566263
 20
59.7641654291
 30
0.0
 10
30.8897260549
 20
59.7311151786
 30
0.0
 10
30.8059388141
 20
59.6984873997
 30
0.0
 10
30.7508481024
 20
59.6703685387
 30
0.0
 10
30.7193048374
 20
59.6472400781
 30
0.0
 10
30.7002150842
 20
59.6287031922
 30
0.0
 10
30.6910834046
 20
59.6112386139
 30
0.0
 10
30.6910880708
 20
59.6005066544
 30
0.0
  0
SPLINE
  5
280
100
AcDbEntity
  8
0
100
AcDbSpline
 62
7
  6
CONTINUOUS
 70
0
 71
3
 72
20
 73
16
 74
0
 42
0.0000001
 43
0.0000001
 44
0.0000000001
 40
0.0
 40
0.0
 40
0.0
 40
0.0
 40
0.190889055
 40
0.3745553889
 40
0.5437539937
 40
0.6924402378
 40
0.7574047165
 40
0.8153694904
 40
0.8658446451
 40
0.9084406593
 40
0.9429149189
 40
0.9691720902
 40
0.9793275316
 40
0.9876575494
 40
1.0
 40
1.0
 40
1.0
 40
1.0
 10
40.8462875278
 20
59.997019503
 30
0.0
 10
40.6803064059
 20
59.997019503
 30
0.0
 10
40.3545905252
 20
59.9906121743
 30
0.0
 10
39.8824690982
 20
59.9631175167
 30
0.0
 10
39.4483560466
 20
59.920249439
 30
0.0
 10
39.118682639
 20
59.8729645002
 30
0.0
 10
38.886499278
 20
59.8295630489
 30
0.0
 10
38.7392055076
 20
59.7971914786
 30
0.0
 10
38.61206263
 20
59.7641654291
 30
0.0
 10
38.5061260549
 20
59.7311151786
 30
0.0
 10
38.4223388141
 20
59.6984873997
 30
0.0
 10
38.3672481024
 20
59.6703685387
 30
0.0
 10
38.3357048374
 20
59.6472400781
 30
0.0
 10
38.3166150842
 20
59.6287031922
 30
0.0
 10
38.3074834046
 20
59.6112386139
 30
0.0
 10
38.3074880708
 20
59.6005066544
 30
0.0
  0
SPLINE
  5
281
100
AcDbEntity
  8
0
100
AcDbSpline
 62
7
  6
CONTINUOUS
 70
0
 71
3
 72
20
 73
16
 74
0
 42
0.0000001
 43
0.0000001
 44
0.0000000001
 40
0.0
 40
0.0
 40
0.0
 40
0.0
 40
0.190889055
 40
0.3745553889
 40
0.5437539937
 40
0.6924402378
 40
0.7574047165
 40
0.8153694904
 40
0.8658446451
 40
0.9084406593
 40
0.9429149189
 40
0.9691720902
 40
0.9793275316
 40
0.9876575494
 40
1.0
 40
1.0
 40
1.0
 40
1.0
 10
25.6134875278
 20
39.297019503
 30
0.0
 10
25.4475064059
 20
39.297019503
 30
0.0
 10
25.1217905252
 20
39.2906121743
 30
0.0
 10
24.6496690982
 20
39.2631175167
 30
0.0
 10
24.2155560466
 20
39.220249439
 30
0.0
 10
23.885882639
 20
39.1729645002
 30
0.0
 10
23.653699278
 20
39.1295630489
 30
0.0
 10
23.5064055076
 20
39.0971914786
 30
0.0
 10
23.37926263
 20
39.0641654291
 30
0.0
 10
23.2733260549
 20
39.0311151786
 30
0.0
 10
23.1895388141
 20
38.9984873997
 30
0.0
 10
23.1344481024
 20
38.9703685387
 30
0.0
 10
23.1029048374
 20
38.9472400781
 30
0.0
 10
23.0838150842
 20
38.9287031922
 30
0.0
 10
23.0746834046
 20
38.9112386139
 30
0.0
 10
23.0746880708
 20
38.9005066544
 30
0.0
  0
SPLINE
  5
282
100
AcDbEntity
  8
0
100
AcDbSpline
 62
7
  6
CONTINUOUS
 70
0
 71
3
 72
20
 73
16
 74
0
 42
0.0000001
 43
0.0000001
 44
0.0000000001
 40
0.0
 40
0.0
 40
0.0
 40
0.0
 40
0.190889055
 40
0.3745553889
 40
0.5437539937
 40
0.6924402378
 40
0.7574047165
 40
0.8153694904
 40
0.8658446451
 40
0.9084406593
 40
0.9429149189
 40
0.9691720902
 40
0.9793275316
 40
0.9876575494
 40
1.0
 40
1.0
 40
1.0
 40
1.0
 10
40.8462875278
 20
39.297019503
 30
0.0
 10
40.6803064059
 20
39.297019503
 30
0.0
 10
40.3545905252
 20
39.2906121743
 30
0.0
 10
39.8824690982
 20
39.2631175167
 30
0.0
 10
39.4483560466
 20
39.220249439
 30
0.0
 10
39.118682639
 20
39.1729645002
 30
0.0
 10
38.886499278
 20
39.1295630489
 30
0.0
 10
38.7392055076
 20
39.0971914786
 30
0.0
 10
38.61206263
 20
39.0641654291
 30
0.0
 10
38.5061260549
 20
39.0311151786
 30
0.0
 10
38.4223388141
 20
38.9984873997
 30
0.0
 10
38.3672481024
 20
38.9703685387
 30
0.0
 10
38.3357048374
 20
38.9472400781
 30
0.0
 10
38.3166150842
 20
38.9287031922
 30
0.0
 10
38.3074834046
 20
38.9112386139
 30
0.0
 10
38.3074880708
 20
38.9005066544
 30
0.0
  0
SPLINE
  5
283
100
AcDbEntity
  8
0
100
AcDbSpline
 62
7
  6
CONTINUOUS
 70
0
 71
3
 72
20
 73
16
 74
0
 42
0.0000001
 43
0.0000001
 44
0.0000000001
 40
0.0
 40
0.0
 40
0.0
 40
0.0
 40
0.190889055
 40
0.3745553889
 40
0.5437539937
 40
0.6924402378
 40
0.7574047165
 40
0.8153694904
 40
0.8658446451
 40
0.9084406593
 40
0.9429149189
 40
0.9691720902
 40
0.9793275316
 40
0.9876575494
 40
1.0
 40
1.0
 40
1.0
 40
1.0
 10
33.2298875278
 20
39.297019503
 30
0.0
 10
33.0639064059
 20
39.297019503
 30
0.0
 10
32.7381905252
 20
39.2906121743
 30
0.0
 10
32.2660690982
 20
39.2631175167
 30
0.0
 10
31.8319560466
 20
39.220249439
 30
0.0
 10
31.502282639
 20
39.1729645002
 30
0.0
 10
31.270099278
 20
39.1295630489
 30
0.0
 10
31.1228055076
 20
39.0971914786
 30
0.0
 10
30.99566263
 20
39.0641654291
 30
0.0
 10
30.8897260549
 20
39.0311151786
 30
0.0
 10
30.8059388141
 20
38.9984873997
 30
0.0
 10
30.7508481024
 20
38.9703685387
 30
0.0
 10
30.7193048374
 20
38.9472400781
 30
0.0
 10
30.7002150842
 20
38.9287031922
 30
0.0
 10
30.6910834046
 20
38.9112386139
 30
0.0
 10
30.6910880708
 20
38.9005066544
 30
0.0
  0
SPLINE
  5
284
100
AcDbEntity
  8
0
100
AcDbSpline
 62
7
  6
CONTINUOUS
 70
0
 71
3
 72
20
 73
16
 74
0
 42
0.0000001
 43
0.0000001
 44
0.0000000001
 40
0.0
 40
0.0
 40
0.0
 40
0.0
 40
0.0279708858
 40
0.0394794308
 40
0.0530559691
 40
0.0865207371
 40
0.1283743866
 40
0.178419184
 40
0.2362543699
 40
0.3013707044
 40
0.3732030275
 40
0.4510501503
 40
0.621801338
 40
0.8072668319
 40
1.0
 40
1.0
 40
1.0
 40
1.0
 10
23.0746880708
 20
59.6005066544
 30
0.0
 10
23.0746985039
 20
59.5765111443
 30
0.0
 10
23.1111296033
 20
59.5514804157
 30
0.0
 10
23.1514437372
 20
59.5343875179
 30
0.0
 10
23.1995306987
 20
59.5180611343
 30
0.0
 10
23.2735589454
 20
59.5005574316
 30
0.0
 10
23.3797490487
 20
59.4825347166
 30
0.0
 10
23.5072382236
 20
59.4669008278
 30
0.0
 10
23.6550622297
 20
59.4534109127
 30
0.0
 10
23.8217807792
 20
59.4420254447
 30
0.0
 10
24.0058160118
 20
59.4326143581
 30
0.0
 10
24.2805091401
 20
59.4221020278
 30
0.0
 10
24.652794663
 20
59.4132929411
 30
0.0
 10
25.1236975415
 20
59.4077347383
 30
0.0
 10
25.4481466387
 20
59.406661104
 30
0.0
 10
25.6134875278
 20
59.406661104
 30
0.0
  0
SPLINE
  5
285
100
AcDbEntity
  8
0
100
AcDbSpline
 62
7
  6
CONTINUOUS
 70
0
 71
3
 72
20
 73
16
 74
0
 42
0.0000001
 43
0.0000001
 44
0.0000000001
 40
0.0
 40
0.0
 40
0.0
 40
0.0
 40
0.0279708858
 40
0.0394794308
 40
0.0530559691
 40
0.0865207371
 40
0.1283743866
 40
0.178419184
 40
0.2362543699
 40
0.3013707044
 40
0.3732030275
 40
0.4510501503
 40
0.621801338
 40
0.8072668319
 40
1.0
 40
1.0
 40
1.0
 40
1.0
 10
23.0746880708
 20
38.9005066544
 30
0.0
 10
23.0746985039
 20
38.8765111443
 30
0.0
 10
23.1111296033
 20
38.8514804157
 30
0.0
 10
23.1514437372
 20
38.8343875179
 30
0.0
 10
23.1995306987
 20
38.8180611343
 30
0.0
 10
23.2735589454
 20
38.8005574316
 30
0.0
 10
23.3797490487
 20
38.7825347166
 30
0.0
 10
23.5072382236
 20
38.7669008278
 30
0.0
 10
23.6550622297
 20
38.7534109127
 30
0.0
 10
23.8217807792
 20
38.7420254447
 30
0.0
 10
24.0058160118
 20
38.7326143581
 30
0.0
 10
24.2805091401
 20
38.7221020278
 30
0.0
 10
24.652794663
 20
38.7132929411
 30
0.0
 10
25.1236975415
 20
38.7077347383
 30
0.0
 10
25.4481466387
 20
38.706661104
 30
0.0
 10
25.6134875278
 20
38.706661104
 30
0.0
  0
SPLINE
  5
286
100
AcDbEntity
  8
0
100
AcDbSpline
 62
7
  6
CONTINUOUS
 70
0
 71
3
 72
20
 73
16
 74
0
 42
0.0000001
 43
0.0000001
 44
0.0000000001
 40
0.0
 40
0.0
 40
0.0
 40
0.0
 40
0.0279708858
 40
0.0394794308
 40
0.0530559691
 40
0.0865207371
 40
0.1283743866
 40
0.178419184
 40
0.2362543699
 40
0.3013707044
 40
0.3732030275
 40
0.4510501503
 40
0.621801338
 40
0.8072668319
 40
1.0
 40
1.0
 40
1.0
 40
1.0
 10
38.3074880708
 20
59.6005066544
 30
0.0
 10
38.3074985039
 20
59.5765111443
 30
0.0
 10
38.3439296033
 20
59.5514804157
 30
0.0
 10
38.3842437372
 20
59.5343875179
 30
0.0
 10
38.4323306987
 20
59.5180611343
 30
0.0
 10
38.5063589454
 20
59.5005574316
 30
0.0
 10
38.6125490487
 20
59.4825347166
 30
0.0
 10
38.7400382236
 20
59.4669008278
 30
0.0
 10
38.8878622297
 20
59.4534109127
 30
0.0
 10
39.0545807792
 20
59.4420254447
 30
0.0
 10
39.2386160118
 20
59.4326143581
 30
0.0
 10
39.5133091401
 20
59.4221020278
 30
0.0
 10
39.885594663
 20
59.4132929411
 30
0.0
 10
40.3564975415
 20
59.4077347383
 30
0.0
 10
40.6809466387
 20
59.406661104
 30
0.0
 10
40.8462875278
 20
59.406661104
 30
0.0
  0
SPLINE
  5
287
100
AcDbEntity
  8
0
100
AcDbSpline
 62
7
  6
CONTINUOUS
 70
0
 71
3
 72
20
 73
16
 74
0
 42
0.0000001
 43
0.0000001
 44
0.0000000001
 40
0.0
 40
0.0
 40
0.0
 40
0.0
 40
0.1927262302
 40
0.3781879147
 40
0.5489455279
 40
0.626793938
 40
0.6986260108
 40
0.7637413764
 40
0.8215755305
 40
0.8716189878
 40
0.9134735147
 40
0.9469399396
 40
0.9605167828
 40
0.9720259146
 40
1.0
 40
1.0
 40
1.0
 40
1.0
 10
25.6134875278
 20
59.406661104
 30
0.0
 10
25.7788224089
 20
59.406661104
 30
0.0
 10
26.1032621783
 20
59.4077348623
 30
0.0
 10
26.5741611783
 20
59.4132935243
 30
0.0
 10
26.9464499537
 20
59.4221012387
 30
0.0
 10
27.221149417
 20
59.4326130677
 30
0.0
 10
27.4051846353
 20
59.4420244997
 30
0.0
 10
27.5719011298
 20
59.453410795
 30
0.0
 10
27.7197222202
 20
59.4669006919
 30
0.0
 10
27.8472099099
 20
59.482535697
 30
0.0
 10
27.9534013281
 20
59.5005560027
 30
0.0
 10
28.0274328512
 20
59.5180563462
 30
0.0
 10
28.0755220944
 20
59.5343832472
 30
0.0
 10
28.1158386005
 20
59.5514783338
 30
0.0
 10
28.1522767878
 20
59.576508482
 30
0.0
 10
28.1522870113
 20
59.6005067289
 30
0.0
  0
SPLINE
  5
288
100
AcDbEntity
  8
0
100
AcDbSpline
 62
7
  6
CONTINUOUS
 70
0
 71
3
 72
20
 73
16
 74
0
 42
0.0000001
 43
0.0000001
 44
0.0000000001
 40
0.0
 40
0.0
 40
0.0
 40
0.0
 40
0.1927262302
 40
0.3781879147
 40
0.5489455279
 40
0.626793938
 40
0.6986260108
 40
0.7637413764
 40
0.8215755305
 40
0.8716189878
 40
0.9134735147
 40
0.9469399396
 40
0.9605167828
 40
0.9720259146
 40
1.0
 40
1.0
 40
1.0
 40
1.0
 10
33.2298875278
 20
59.406661104
 30
0.0
 10
33.3952224089
 20
59.406661104
 30
0.0
 10
33.7196621783
 20
59.4077348623
 30
0.0
 10
34.1905611783
 20
59.4132935243
 30
0.0
 10
34.5628499537
 20
59.4221012387
 30
0.0
 10
34.837549417
 20
59.4326130677
 30
0.0
 10
35.0215846353
 20
59.4420244997
 30
0.0
 10
35.1883011298
 20
59.453410795
 30
0.0
 10
35.3361222202
 20
59.4669006919
 30
0.0
 10
35.4636099099
 20
59.482535697
 30
0.0
 10
35.5698013281
 20
59.5005560027
 30
0.0
 10
35.6438328512
 20
59.5180563462
 30
0.0
 10
35.6919220944
 20
59.5343832472
 30
0.0
 10
35.7322386005
 20
59.5514783338
 30
0.0
 10
35.7686767878
 20
59.576508482
 30
0.0
 10
35.7686870113
 20
59.6005067289
 30
0.0
  0
SPLINE
  5
289
100
AcDbEntity
  8
0
100
AcDbSpline
 62
7
  6
CONTINUOUS
 70
0
 71
3
 72
20
 73
16
 74
0
 42
0.0000001
 43
0.0000001
 44
0.0000000001
 40
0.0
 40
0.0
 40
0.0
 40
0.0
 40
0.1927262302
 40
0.3781879147
 40
0.5489455279
 40
0.626793938
 40
0.6986260108
 40
0.7637413764
 40
0.8215755305
 40
0.8716189878
 40
0.9134735147
 40
0.9469399396
 40
0.9605167828
 40
0.9720259146
 40
1.0
 40
1.0
 40
1.0
 40
1.0
 10
40.8462875278
 20
59.406661104
 30
0.0
 10
41.0116224089
 20
59.406661104
 30
0.0
 10
41.3360621783
 20
59.4077348623
 30
0.0
 10
41.8069611783
 20
59.4132935243
 30
0.0
 10
42.1792499537
 20
59.4221012387
 30
0.0
 10
42.453949417
 20
59.4326130677
 30
0.0
 10
42.6379846353
 20
59.4420244997
 30
0.0
 10
42.8047011298
 20
59.453410795
 30
0.0
 10
42.9525222202
 20
59.4669006919
 30
0.0
 10
43.0800099099
 20
59.482535697
 30
0.0
 10
43.1862013281
 20
59.5005560027
 30
0.0
 10
43.2602328512
 20
59.5180563462
 30
0.0
 10
43.3083220944
 20
59.5343832472
 30
0.0
 10
43.3486386005
 20
59.5514783338
 30
0.0
 10
43.3850767878
 20
59.576508482
 30
0.0
 10
43.3850870113
 20
59.6005067289
 30
0.0
  0
SPLINE
  5
28A
100
AcDbEntity
  8
0
100
AcDbSpline
 62
7
  6
CONTINUOUS
 70
0
 71
3
 72
20
 73
16
 74
0
 42
0.0000001
 43
0.0000001
 44
0.0000000001
 40
0.0
 40
0.0
 40
0.0
 40
0.0
 40
0.0279708858
 40
0.0394794308
 40
0.0530559691
 40
0.0865207371
 40
0.1283743866
 40
0.178419184
 40
0.2362543699
 40
0.3013707044
 40
0.3732030275
 40
0.4510501503
 40
0.621801338
 40
0.8072668319
 40
1.0
 40
1.0
 40
1.0
 40
1.0
 10
30.6910880708
 20
38.9005066544
 30
0.0
 10
30.6910985039
 20
38.8765111443
 30
0.0
 10
30.7275296033
 20
38.8514804157
 30
0.0
 10
30.7678437372
 20
38.8343875179
 30
0.0
 10
30.8159306987
 20
38.8180611343
 30
0.0
 10
30.8899589454
 20
38.8005574316
 30
0.0
 10
30.9961490487
 20
38.7825347166
 30
0.0
 10
31.1236382236
 20
38.7669008278
 30
0.0
 10
31.2714622297
 20
38.7534109127
 30
0.0
 10
31.4381807792
 20
38.7420254447
 30
0.0
 10
31.6222160118
 20
38.7326143581
 30
0.0
 10
31.8969091401
 20
38.7221020278
 30
0.0
 10
32.269194663
 20
38.7132929411
 30
0.0
 10
32.7400975415
 20
38.7077347383
 30
0.0
 10
33.0645466387
 20
38.706661104
 30
0.0
 10
33.2298875278
 20
38.706661104
 30
0.0
  0
SPLINE
  5
28B
100
AcDbEntity
  8
0
100
AcDbSpline
 62
7
  6
CONTINUOUS
 70
0
 71
3
 72
20
 73
16
 74
0
 42
0.0000001
 43
0.0000001
 44
0.0000000001
 40
0.0
 40
0.0
 40
0.0
 40
0.0
 40
0.0279708858
 40
0.0394794308
 40
0.0530559691
 40
0.0865207371
 40
0.1283743866
 40
0.178419184
 40
0.2362543699
 40
0.3013707044
 40
0.3732030275
 40
0.4510501503
 40
0.621801338
 40
0.8072668319
 40
1.0
 40
1.0
 40
1.0
 40
1.0
 10
30.6910880708
 20
59.6005066544
 30
0.0
 10
30.6910985039
 20
59.5765111443
 30
0.0
 10
30.7275296033
 20
59.5514804157
 30
0.0
 10
30.7678437372
 20
59.5343875179
 30
0.0
 10
30.8159306987
 20
59.5180611343
 30
0.0
 10
30.8899589454
 20
59.5005574316
 30
0.0
 10
30.9961490487
 20
59.4825347166
 30
0.0
 10
31.1236382236
 20
59.4669008278
 30
0.0
 10
31.2714622297
 20
59.4534109127
 30
0.0
 10
31.4381807792
 20
59.4420254447
 30
0.0
 10
31.6222160118
 20
59.4326143581
 30
0.0
 10
31.8969091401
 20
59.4221020278
 30
0.0
 10
32.269194663
 20
59.4132929411
 30
0.0
 10
32.7400975415
 20
59.4077347383
 30
0.0
 10
33.0645466387
 20
59.406661104
 30
0.0
 10
33.2298875278
 20
59.406661104
 30
0.0
  0
SPLINE
  5
28C
100
AcDbEntity
  8
0
100
AcDbSpline
 62
7
  6
CONTINUOUS
 70
0
 71
3
 72
20
 73
16
 74
0
 42
0.0000001
 43
0.0000001
 44
0.0000000001
 40
0.0
 40
0.0
 40
0.0
 40
0.0
 40
0.0279708858
 40
0.0394794308
 40
0.0530559691
 40
0.0865207371
 40
0.1283743866
 40
0.178419184
 40
0.2362543699
 40
0.3013707044
 40
0.3732030275
 40
0.4510501503
 40
0.621801338
 40
0.8072668319
 40
1.0
 40
1.0
 40
1.0
 40
1.0
 10
38.3074880708
 20
38.9005066544
 30
0.0
 10
38.3074985039
 20
38.8765111443
 30
0.0
 10
38.3439296033
 20
38.8514804157
 30
0.0
 10
38.3842437372
 20
38.8343875179
 30
0.0
 10
38.4323306987
 20
38.8180611343
 30
0.0
 10
38.5063589454
 20
38.8005574316
 30
0.0
 10
38.6125490487
 20
38.7825347166
 30
0.0
 10
38.7400382236
 20
38.7669008278
 30
0.0
 10
38.8878622297
 20
38.7534109127
 30
0.0
 10
39.0545807792
 20
38.7420254447
 30
0.0
 10
39.2386160118
 20
38.7326143581
 30
0.0
 10
39.5133091401
 20
38.7221020278
 30
0.0
 10
39.885594663
 20
38.7132929411
 30
0.0
 10
40.3564975415
 20
38.7077347383
 30
0.0
 10
40.6809466387
 20
38.706661104
 30
0.0
 10
40.8462875278
 20
38.706661104
 30
0.0
  0
SPLINE
  5
28D
100
AcDbEntity
  8
0
100
AcDbSpline
 62
7
  6
CONTINUOUS
 70
0
 71
3
 72
20
 73
16
 74
0
 42
0.0000001
 43
0.0000001
 44
0.0000000001
 40
0.0
 40
0.0
 40
0.0
 40
0.0
 40
0.1927262302
 40
0.3781879147
 40
0.5489455279
 40
0.626793938
 40
0.6986260108
 40
0.7637413764
 40
0.8215755305
 40
0.8716189878
 40
0.9134735147
 40
0.9469399396
 40
0.9605167828
 40
0.9720259146
 40
1.0
 40
1.0
 40
1.0
 40
1.0
 10
25.6134875278
 20
38.706661104
 30
0.0
 10
25.7788224089
 20
38.706661104
 30
0.0
 10
26.1032621783
 20
38.7077348623
 30
0.0
 10
26.5741611783
 20
38.7132935243
 30
0.0
 10
26.9464499537
 20
38.7221012387
 30
0.0
 10
27.221149417
 20
38.7326130677
 30
0.0
 10
27.4051846353
 20
38.7420244997
 30
0.0
 10
27.5719011298
 20
38.753410795
 30
0.0
 10
27.7197222202
 20
38.7669006919
 30
0.0
 10
27.8472099099
 20
38.782535697
 30
0.0
 10
27.9534013281
 20
38.8005560027
 30
0.0
 10
28.0274328512
 20
38.8180563462
 30
0.0
 10
28.0755220944
 20
38.8343832472
 30
0.0
 10
28.1158386005
 20
38.8514783338
 30
0.0
 10
28.1522767878
 20
38.876508482
 30
0.0
 10
28.1522870113
 20
38.9005067289
 30
0.0
  0
SPLINE
  5
28E
100
AcDbEntity
  8
0
100
AcDbSpline
 62
7
  6
CONTINUOUS
 70
0
 71
3
 72
20
 73
16
 74
0
 42
0.0000001
 43
0.0000001
 44
0.0000000001
 40
0.0
 40
0.0
 40
0.0
 40
0.0
 40
0.1927262302
 40
0.3781879147
 40
0.5489455279
 40
0.626793938
 40
0.6986260108
 40
0.7637413764
 40
0.8215755305
 40
0.8716189878
 40
0.9134735147
 40
0.9469399396
 40
0.9605167828
 40
0.9720259146
 40
1.0
 40
1.0
 40
1.0
 40
1.0
 10
40.8462875278
 20
38.706661104
 30
0.0
 10
41.0116224089
 20
38.706661104
 30
0.0
 10
41.3360621783
 20
38.7077348623
 30
0.0
 10
41.8069611783
 20
38.7132935243
 30
0.0
 10
42.1792499537
 20
38.7221012387
 30
0.0
 10
42.453949417
 20
38.7326130677
 30
0.0
 10
42.6379846353
 20
38.7420244997
 30
0.0
 10
42.8047011298
 20
38.753410795
 30
0.0
 10
42.9525222202
 20
38.7669006919
 30
0.0
 10
43.0800099099
 20
38.782535697
 30
0.0
 10
43.1862013281
 20
38.8005560027
 30
0.0
 10
43.2602328512
 20
38.8180563462
 30
0.0
 10
43.3083220944
 20
38.8343832472
 30
0.0
 10
43.3486386005
 20
38.8514783338
 30
0.0
 10
43.3850767878
 20
38.876508482
 30
0.0
 10
43.3850870113
 20
38.9005067289
 30
0.0
  0
SPLINE
  5
28F
100
AcDbEntity
  8
0
100
AcDbSpline
 62
7
  6
CONTINUOUS
 70
0
 71
3
 72
20
 73
16
 74
0
 42
0.0000001
 43
0.0000001
 44
0.0000000001
 40
0.0
 40
0.0
 40
0.0
 40
0.0
 40
0.1927262302
 40
0.3781879147
 40
0.5489455279
 40
0.626793938
 40
0.6986260108
 40
0.7637413764
 40
0.8215755305
 40
0.8716189878
 40
0.9134735147
 40
0.9469399396
 40
0.9605167828
 40
0.9720259146
 40
1.0
 40
1.0
 40
1.0
 40
1.0
 10
33.2298875278
 20
38.706661104
 30
0.0
 10
33.3952224089
 20
38.706661104
 30
0.0
 10
33.7196621783
 20
38.7077348623
 30
0.0
 10
34.1905611783
 20
38.7132935243
 30
0.0
 10
34.5628499537
 20
38.7221012387
 30
0.0
 10
34.837549417
 20
38.7326130677
 30
0.0
 10
35.0215846353
 20
38.7420244997
 30
0.0
 10
35.1883011298
 20
38.753410795
 30
0.0
 10
35.3361222202
 20
38.7669006919
 30
0.0
 10
35.4636099099
 20
38.782535697
 30
0.0
 10
35.5698013281
 20
38.8005560027
 30
0.0
 10
35.6438328512
 20
38.8180563462
 30
0.0
 10
35.6919220944
 20
38.8343832472
 30
0.0
 10
35.7322386005
 20
38.8514783338
 30
0.0
 10
35.7686767878
 20
38.876508482
 30
0.0
 10
35.7686870113
 20
38.9005067289
 30
0.0
  0
ENDSEC
  0
SECTION
  2
OBJECTS
  0
DICTIONARY
  5
C
100
AcDbDictionary
280
0
281
1
  3
ACAD_GROUP
350
D
  3
ACAD_MLINESTYLE
350
17
  3
ACAD_LAYOUT
350
1A
  3
ACAD_PLOTSETTINGS
350
19
  3
ACAD_PLOTSTYLENAME
350
E
  0
DICTIONARY
  5
D
102
{ACAD_REACTORS
330
C
102
}
100
AcDbDictionary
280
0
281
1
  0
ACDBDICTIONARYWDFLT
  5
E
102
{ACAD_REACTORS
330
C
102
}
100
AcDbDictionary
281
1
  3
Normal
350
F
100
AcDbDictionaryWithDefault
340
F
  0
DICTIONARY
  5
17
102
{ACAD_REACTORS
330
C
102
}
100
AcDbDictionary
280
0
281
1
  3
Standard
350
18
  0
DICTIONARY
  5
19
102
{ACAD_REACTORS
330
C
102
}
100
AcDbDictionary
281
1
  0
DICTIONARY
  5
1A
102
{ACAD_REACTORS
330
C
102
}
100
AcDbDictionary
281
1
  3
Model
350
290
  3
Layout1
350
291
  0
ACDBPLACEHOLDER
  5
F
102
{ACAD_REACTORS
330
E
102
}
  0
MLINESTYLE
  5
18
102
{ACAD_REACTORS
330
17
102
}
100
AcDbMlineStyle
  2
STANDARD
 70
0
  3

 62
256
 51
90.0
 52
90.0
 71
2
 49
0.5
 62
256
  6
BYLAYER
 49
-0.5
 62
256
  6
BYLAYER
  0
LAYOUT
  5
290
102
{ACAD_REACTORS
330
1A
102
}
100
AcDbPlotSettings
  1

  2
none_device
  4

  6

 40
0.0
 41
0.0
 42
0.0
 43
0.0
 44
210.0
 45
297.0
 46
0.0
 47
0.0
 48
0.0
 49
0.0
140
0.0
141
0.0
142
1.0
143
1.0
 70
1024
 72
1
 73
0
 74
0
  7

 75
0
147
1.0
148
0.0
149
0.0
100
AcDbLayout
  1
Model
 70
0
 71
0
 10
0.0
 20
0.0
 11
210.0
 21
297.0
 12
0.0
 22
0.0
 32
0.0
 14
0.0
 24
0.0
 34
0.0
 15
0.0
 25
0.0
 35
0.0
146
0.0
 13
0.0
 23
0.0
 33
0.0
 16
1.0
 26
0.0
 36
0.0
 17
0.0
 27
1.0
 37
0.0
 76
0
330
210
345
0
346
0
  0
LAYOUT
  5
291
102
{ACAD_REACTORS
330
1A
102
}
100
AcDbPlotSettings
  1

  2
none_device
  4

  6

 40
0.0
 41
0.0
 42
0.0
 43
0.0
 44
210.0
 45
297.0
 46
0.0
 47
0.0
 48
0.0
 49
0.0
140
0.0
141
0.0
142
1.0
143
1.0
 70
0
 72
1
 73
0
 74
0
  7

 75
0
147
1.0
148
0.0
149
0.0
100
AcDbLayout
  1
Layout1
 70
0
 71
1
 10
0.0
 20
0.0
 11
210.0
 21
297.0
 12
0.0
 22
0.0
 32
0.0
 14
0.0
 24
0.0
 34
0.0
 15
0.0
 25
0.0
 35
0.0
146
0.0
 13
0.0
 23
0.0
 33
0.0
 16
1.0
 26
0.0
 36
0.0
 17
0.0
 27
1.0
 37
0.0
 76
0
330
211
345
0
346
0
  0
ENDSEC
  0
EOF
