999
DXF file: C:\Users\sesa63760\Dev\_Creo\CAD\MCADID0005222_3D-CAD\drw0001_5.dxf
999
Pro/ENGINEER 2019471 by Parametric Technology Corporation
  0
SECTION
  2
HEADER
  9
$ACADVER
  1
AC1024
  9
$DWGCODEPAGE
  3
ANSI_1252
  9
$EXTMAX
 10
54.144816258
 20
76.5762401364
 30
0.0
  9
$EXTMIN
 10
0.0
 20
0.0
 30
0.0
  9
$LIMMIN
 10
0.0
 20
0.0
  9
$LIMMAX
 10
54.144816258
 20
76.5762401364
  9
$VIEWCTR
 10
27.072408129
 20
38.2881200682
  9
$VIEWSIZE
 40
76.5762401364
  9
$CLAYER
  8
0
  9
$LTSCALE
 40
4.9916363941
  9
$CELTYPE
  6
BYLAYER
  9
$DIMSCALE
 40
1.0
  9
$DIMASZ
 40
0.6445811459
  9
$DIMEXO
 40
1.0
  9
$DIMDLI
 40
3.4487669632
  9
$DIMEXE
 40
1.0
  9
$DIMCEN
 40
0.8168132281
  9
$DIMLFAC
 40
1.0
  9
$DIMBLK
  1
_FILLED
  9
$DIMALT
 70
0
  9
$DIMALTF
 40
0.0393700787
  9
$DIMTXT
 40
0.9024136043
  9
$DIMTOL
 70
1
  9
$DIMLIM
 70
0
  9
$DIMTFAC
 40
1.0
  9
$DIMTP
 40
0.01
  9
$DIMTM
 40
0.01
  9
$DIMGAP
 40
0.625
  9
$DIMDSEP
 70
46
  9
$AUNITS
 70
0
  9
$PDMODE
 70
3
  9
$PDSIZE
 40
0.3125
  9
$HANDSEED
  5
47C
  9
$TILEMODE
 70
1
  9
$MEASUREMENT
 70
1
  9
$INSUNITS
 70
4
  0
ENDSEC
  0
SECTION
  2
CLASSES
  0
CLASS
  1
ACDBDICTIONARYWDFLT
  2
AcDbDictionaryWithDefault
  3
AutoCAD 2000
 90
0
 91
1
280
0
281
0
  0
CLASS
  1
ACDBPLACEHOLDER
  2
AcDbPlaceHolder
  3
AutoCAD 2000
 90
0
 91
1
280
0
281
0
  0
CLASS
  1
LAYOUT
  2
AcDbLayout
  3
AutoCAD 2000
 90
0
 91
0
280
0
281
0
  0
ENDSEC
  0
SECTION
  2
TABLES
  0
TABLE
  2
VPORT
  5
8
100
AcDbSymbolTable
 70
2
  0
VPORT
  5
1F4
100
AcDbSymbolTableRecord
100
AcDbViewportTableRecord
  2
*ACTIVE
 70
0
 10
0.0
 20
0.0
 11
1.0
 21
1.0
 12
27.072408129
 22
38.2881200682
 13
0.0
 23
0.0
 14
1.0
 24
1.0
 15
0.0
 25
0.0
 16
0.0
 26
0.0
 36
1.0
 17
0.0
 27
0.0
 37
0.0
 40
76.5762401364
 41
0.7070707071
 42
50.0
 43
0.0
 44
0.0
 50
0.0
 51
0.0
 71
0
 72
100
 73
1
 74
1
 75
0
 76
0
 77
0
 78
0
  0
ENDTAB
  0
TABLE
  2
LTYPE
  5
5
100
AcDbSymbolTable
 70
6
  0
LTYPE
  5
14
100
AcDbSymbolTableRecord
100
AcDbLinetypeTableRecord
  2
BYBLOCK
 70
0
  3

 72
65
 73
0
 40
0.0
  0
LTYPE
  5
15
100
AcDbSymbolTableRecord
100
AcDbLinetypeTableRecord
  2
BYLAYER
 70
0
  3

 72
65
 73
0
 40
0.0
  0
LTYPE
  5
16
100
AcDbSymbolTableRecord
100
AcDbLinetypeTableRecord
  2
CONTINUOUS
 70
64
  3
Solid line
 72
65
 73
0
 40
0.0
  0
LTYPE
  5
1F5
100
AcDbSymbolTableRecord
100
AcDbLinetypeTableRecord
  2
CENTER
 70
64
  3
____ _ ____ _ ____ _ ____ _ ____ _ ____ _ ____
 72
65
 73
4
 40
0.6
 49
0.375
 74
0
 49
-0.075
 74
0
 49
0.075
 74
0
 49
-0.075
 74
0
  0
LTYPE
  5
1F6
100
AcDbSymbolTableRecord
100
AcDbLinetypeTableRecord
  2
HIDDEN
 70
64
  3
- - - - - - - - - - - - - - - - - - - -
 72
65
 73
2
 40
0.2
 49
0.1
 74
0
 49
-0.1
 74
0
  0
LTYPE
  5
1F7
100
AcDbSymbolTableRecord
100
AcDbLinetypeTableRecord
  2
PHANTOM
 70
64
  3
_____ _ _ _____ _ _ _____ _ _ _____
 72
65
 73
6
 40
0.8
 49
0.45
 74
0
 49
-0.05
 74
0
 49
0.1
 74
0
 49
-0.05
 74
0
 49
0.1
 74
0
 49
-0.05
 74
0
  0
LTYPE
  5
1F8
100
AcDbSymbolTableRecord
100
AcDbLinetypeTableRecord
  2
DOT
 70
64
  3
. . . . . . . . . . . . . . . . . . . .
 72
65
 73
2
 40
0.2
 49
0.1
 74
0
 49
-0.1
 74
0
  0
LTYPE
  5
1F9
100
AcDbSymbolTableRecord
100
AcDbLinetypeTableRecord
  2
DASHED
 70
64
  3
- - - - - - - - - - - - - - - - - - - -
 72
65
 73
2
 40
0.2
 49
0.1
 74
0
 49
-0.1
 74
0
  0
ENDTAB
  0
TABLE
  2
LAYER
  5
2
100
AcDbSymbolTable
 70
36
  0
LAYER
  5
10
100
AcDbSymbolTableRecord
100
AcDbLayerTableRecord
  2
0
 70
0
 62
7
  6
CONTINUOUS
370
-3
390
F
  0
LAYER
  5
1FA
100
AcDbSymbolTableRecord
100
AcDbLayerTableRecord
  2
DEFAULT_1
 70
0
 62
7
  6
CENTER
370
-3
390
F
  0
LAYER
  5
1FB
100
AcDbSymbolTableRecord
100
AcDbLayerTableRecord
  2
DEFAULT_2
 70
0
 62
7
  6
HIDDEN
370
-3
390
F
  0
LAYER
  5
1FC
100
AcDbSymbolTableRecord
100
AcDbLayerTableRecord
  2
DEFAULT_3
 70
0
 62
7
  6
PHANTOM
370
-3
390
F
  0
LAYER
  5
1FD
100
AcDbSymbolTableRecord
100
AcDbLayerTableRecord
  2
00_COMPONENTS
 70
0
 62
7
  6
CONTINUOUS
370
-3
390
F
  0
LAYER
  5
1FE
100
AcDbSymbolTableRecord
100
AcDbLayerTableRecord
  2
00_COMPONENTS_1
 70
0
 62
7
  6
CONTINUOUS
370
-3
390
F
  0
LAYER
  5
1FF
100
AcDbSymbolTableRecord
100
AcDbLayerTableRecord
  2
00_COMPONENTS_2
 70
0
 62
7
  6
CONTINUOUS
370
-3
390
F
  0
LAYER
  5
200
100
AcDbSymbolTableRecord
100
AcDbLayerTableRecord
  2
01_1_DEFAULT_DATUMS
 70
0
 62
7
  6
CONTINUOUS
370
-3
390
F
  0
LAYER
  5
201
100
AcDbSymbolTableRecord
100
AcDbLayerTableRecord
  2
01_PLANES
 70
0
 62
7
  6
CONTINUOUS
370
-3
390
F
  0
LAYER
  5
202
100
AcDbSymbolTableRecord
100
AcDbLayerTableRecord
  2
02_COORD_SYS
 70
0
 62
7
  6
CONTINUOUS
370
-3
390
F
  0
LAYER
  5
203
100
AcDbSymbolTableRecord
100
AcDbLayerTableRecord
  2
03_AXES
 70
0
 62
7
  6
CONTINUOUS
370
-3
390
F
  0
LAYER
  5
204
100
AcDbSymbolTableRecord
100
AcDbLayerTableRecord
  2
03_AXES_1
 70
0
 62
7
  6
CONTINUOUS
370
-3
390
F
  0
LAYER
  5
205
100
AcDbSymbolTableRecord
100
AcDbLayerTableRecord
  2
03_AXES_2
 70
0
 62
7
  6
CONTINUOUS
370
-3
390
F
  0
LAYER
  5
206
100
AcDbSymbolTableRecord
100
AcDbLayerTableRecord
  2
04_POINTS
 70
0
 62
7
  6
CONTINUOUS
370
-3
390
F
  0
LAYER
  5
207
100
AcDbSymbolTableRecord
100
AcDbLayerTableRecord
  2
05_CURVES
 70
0
 62
7
  6
CONTINUOUS
370
-3
390
F
  0
LAYER
  5
208
100
AcDbSymbolTableRecord
100
AcDbLayerTableRecord
  2
06_SURFS
 70
0
 62
7
  6
CONTINUOUS
370
-3
390
F
  0
LAYER
  5
209
100
AcDbSymbolTableRecord
100
AcDbLayerTableRecord
  2
07_COSMETICS
 70
0
 62
7
  6
CONTINUOUS
370
-3
390
F
  0
LAYER
  5
20A
100
AcDbSymbolTableRecord
100
AcDbLayerTableRecord
  2
10_NOTES
 70
0
 62
7
  6
CONTINUOUS
370
-3
390
F
  0
LAYER
  5
20B
100
AcDbSymbolTableRecord
100
AcDbLayerTableRecord
  2
11_NOTES_PUB
 70
0
 62
7
  6
CONTINUOUS
370
-3
390
F
  0
LAYER
  5
20C
100
AcDbSymbolTableRecord
100
AcDbLayerTableRecord
  2
13_REF_GTOL
 70
0
 62
7
  6
CONTINUOUS
370
-3
390
F
  0
LAYER
  5
20D
100
AcDbSymbolTableRecord
100
AcDbLayerTableRecord
  2
13_REF_GTOL_2
 70
0
 62
7
  6
CONTINUOUS
370
-3
390
F
  0
LAYER
  5
20E
100
AcDbSymbolTableRecord
100
AcDbLayerTableRecord
  2
16_MISC
 70
0
 62
7
  6
CONTINUOUS
370
-3
390
F
  0
LAYER
  5
20F
100
AcDbSymbolTableRecord
100
AcDbLayerTableRecord
  2
17_NO_PRINT
 70
0
 62
7
  6
CONTINUOUS
370
-3
390
F
  0
LAYER
  5
210
100
AcDbSymbolTableRecord
100
AcDbLayerTableRecord
  2
18_DATUM_CAMS_JOINTS
 70
0
 62
7
  6
CONTINUOUS
370
-3
390
F
  0
LAYER
  5
211
100
AcDbSymbolTableRecord
100
AcDbLayerTableRecord
  2
19_DATUM_FUNCTIONAL
 70
0
 62
7
  6
CONTINUOUS
370
-3
390
F
  0
LAYER
  5
212
100
AcDbSymbolTableRecord
100
AcDbLayerTableRecord
  2
20_DATUM_KINEMATIC_SCHEME
 70
0
 62
7
  6
CONTINUOUS
370
-3
390
F
  0
LAYER
  5
213
100
AcDbSymbolTableRecord
100
AcDbLayerTableRecord
  2
INTFCLR_25358
 70
0
 62
7
  6
CONTINUOUS
370
-3
390
F
  0
LAYER
  5
214
100
AcDbSymbolTableRecord
100
AcDbLayerTableRecord
  2
INTFCLR_35
 70
0
 62
7
  6
CONTINUOUS
370
-3
390
F
  0
LAYER
  5
215
100
AcDbSymbolTableRecord
100
AcDbLayerTableRecord
  2
INTFCLR_8
 70
0
 62
7
  6
CONTINUOUS
370
-3
390
F
  0
LAYER
  5
216
100
AcDbSymbolTableRecord
100
AcDbLayerTableRecord
  2
INTF_BLANK
 70
0
 62
7
  6
CONTINUOUS
370
-3
390
F
  0
LAYER
  5
217
100
AcDbSymbolTableRecord
100
AcDbLayerTableRecord
  2
_BLACK_HOLE
 70
0
 62
7
  6
CONTINUOUS
370
-3
390
F
  0
ENDTAB
  0
TABLE
  2
STYLE
  5
3
100
AcDbSymbolTable
 70
1
  0
STYLE
  5
11
100
AcDbSymbolTableRecord
100
AcDbTextStyleTableRecord
  2
STANDARD
 70
0
 40
0.0
 41
1.0
 50
0.0
 71
0
 42
0.2
  3
ARIAL.TTF
  4

  0
STYLE
  5
218
100
AcDbSymbolTableRecord
100
AcDbTextStyleTableRecord
  2
TEXTSTYLE_1
 70
0
 40
0.0
 41
0.8
 50
0.0
 71
0
 42
0.2
  3
gdt
  4

  0
ENDTAB
  0
TABLE
  2
VIEW
  5
6
100
AcDbSymbolTable
 70
0
  0
ENDTAB
  0
TABLE
  2
UCS
  5
7
100
AcDbSymbolTable
 70
0
  0
ENDTAB
  0
TABLE
  2
APPID
  5
9
100
AcDbSymbolTable
 70
1
  0
APPID
  5
219
100
AcDbSymbolTableRecord
100
AcDbRegAppTableRecord
  2
ACAD
 70
0
  0
ENDTAB
  0
TABLE
  2
BLOCK_RECORD
  5
1
100
AcDbSymbolTable
 70
0
  0
BLOCK_RECORD
  5
21A
100
AcDbSymbolTableRecord
100
AcDbBlockTableRecord
  2
*Model_Space
  0
BLOCK_RECORD
  5
21B
100
AcDbSymbolTableRecord
100
AcDbBlockTableRecord
  2
*Paper_Space
  0
BLOCK_RECORD
  5
21C
100
AcDbSymbolTableRecord
100
AcDbBlockTableRecord
  2
_FILLED
  0
ENDTAB
  0
TABLE
  2
DIMSTYLE
  5
A
100
AcDbSymbolTable
 70
1
100
AcDbDimStyleTable
 71
0
  0
DIMSTYLE
105
21D
100
AcDbSymbolTableRecord
100
AcDbDimStyleTableRecord
  2
STANDARD
 70
0
  3

  4

 40
1.0
 41
0.6445811459
 42
1.0
 43
0.38
 44
1.0
 45
0.0
 46
0.0
 47
0.01
 48
0.01
140
0.9024136043
141
0.09
142
0.0
143
25.4
144
1.0
145
0.0
146
1.0
147
0.625
 71
1
 72
0
 73
0
 74
0
 75
0
 76
0
 77
1
 78
8
 79
2
170
0
171
1
172
0
173
0
174
0
175
0
176
0
177
0
178
0
270
2
179
2
271
2
272
2
273
2
274
2
275
0
280
0
281
0
282
0
283
1
284
8
285
0
286
0
287
3
288
0
340
11
278
46
341
21C
342
21C
343
21C
344
21C
  0
ENDTAB
  0
ENDSEC
  0
SECTION
  2
BLOCKS
  0
BLOCK
  5
20
100
AcDbEntity
  8
0
100
AcDbBlockBegin
  2
*Model_Space
 70
0
 10
0.0
 20
0.0
 30
0.0
  3
*Model_Space
  1

  0
ENDBLK
  5
21
100
AcDbEntity
  8
0
100
AcDbBlockEnd
  0
BLOCK
  5
1C
100
AcDbEntity
  8
0
100
AcDbBlockBegin
  2
*Paper_Space
 70
0
 10
0.0
 20
0.0
 30
0.0
  3
*Paper_Space
  1

  0
ENDBLK
  5
1D
100
AcDbEntity
  8
0
100
AcDbBlockEnd
  0
BLOCK
  5
21E
100
AcDbEntity
  8
0
100
AcDbBlockBegin
  2
_FILLED
 70
64
 10
0.0
 20
0.0
  3
_FILLED
  1

  0
SOLID
  5
21F
100
AcDbEntity
  8
0
  6
BYBLOCK
 62
0
100
AcDbTrace
 10
0.0
 20
0.0
 11
-1.0
 21
0.25
 12
-1.0
 22
-0.25
 13
-1.0
 23
-0.25
  0
ENDBLK
  5
220
100
AcDbEntity
  8
0
  6
BYBLOCK
 62
0
100
AcDbBlockEnd
  0
ENDSEC
  0
SECTION
  2
ENTITIES
  0
LINE
  5
221
100
AcDbEntity
  8
00_COMPONENTS
100
AcDbLine
 62
7
  6
BYLAYER
 10
6.3115302952
 20
50.2309486363
 11
6.3115302952
 21
38.5786986363
  0
LINE
  5
222
100
AcDbEntity
  8
00_COMPONENTS
100
AcDbLine
 62
7
  6
BYLAYER
 10
10.2802802952
 20
50.2309486363
 11
10.5342802952
 21
50.4849486363
  0
LINE
  5
223
100
AcDbEntity
  8
00_COMPONENTS
100
AcDbLine
 62
7
  6
BYLAYER
 10
14.2490302952
 20
50.2309486363
 11
14.5030302952
 21
50.4849486363
  0
LINE
  5
224
100
AcDbEntity
  8
00_COMPONENTS
100
AcDbLine
 62
7
  6
BYLAYER
 10
10.0262802952
 20
50.2562225809
 11
10.0262802952
 21
38.2411229228
  0
LINE
  5
225
100
AcDbEntity
  8
00_COMPONENTS
100
AcDbLine
 62
7
  6
BYLAYER
 10
10.2802802952
 20
38.2180408227
 11
10.2802802952
 21
50.2309486363
  0
LINE
  5
226
100
AcDbEntity
  8
00_COMPONENTS
100
AcDbLine
 62
7
  6
BYLAYER
 10
10.5342802952
 20
50.2562225809
 11
10.5342802952
 21
38.1949587227
  0
LINE
  5
227
100
AcDbEntity
  8
00_COMPONENTS
100
AcDbLine
 62
7
  6
BYLAYER
 10
18.2177802952
 20
50.2309486363
 11
18.4717802952
 21
50.4849486363
  0
LINE
  5
228
100
AcDbEntity
  8
00_COMPONENTS
100
AcDbLine
 62
7
  6
BYLAYER
 10
13.9950302952
 20
50.2562225809
 11
13.9950302952
 21
37.8804651093
  0
LINE
  5
229
100
AcDbEntity
  8
00_COMPONENTS
100
AcDbLine
 62
7
  6
BYLAYER
 10
14.2490302952
 20
37.8573830092
 11
14.2490302952
 21
50.2309486363
  0
LINE
  5
22A
100
AcDbEntity
  8
00_COMPONENTS
100
AcDbLine
 62
7
  6
BYLAYER
 10
14.5030302952
 20
50.2562225809
 11
14.5030302952
 21
37.8343009091
  0
LINE
  5
22B
100
AcDbEntity
  8
00_COMPONENTS
100
AcDbLine
 62
7
  6
BYLAYER
 10
22.1865302952
 20
50.2309486363
 11
22.4405302952
 21
50.4849486363
  0
LINE
  5
22C
100
AcDbEntity
  8
00_COMPONENTS
100
AcDbLine
 62
7
  6
BYLAYER
 10
20.408651157
 20
26.2787486363
 11
49.3644094335
 21
26.2787486363
  0
LINE
  5
22D
100
AcDbEntity
  8
00_COMPONENTS
100
AcDbLine
 62
7
  6
BYLAYER
 10
17.9637802952
 20
50.2562225809
 11
17.9637802952
 21
37.5198072957
  0
LINE
  5
22E
100
AcDbEntity
  8
00_COMPONENTS
100
AcDbLine
 62
7
  6
BYLAYER
 10
18.2177802952
 20
37.4967251957
 11
18.2177802952
 21
50.2309486363
  0
LINE
  5
22F
100
AcDbEntity
  8
00_COMPONENTS
100
AcDbLine
 62
7
  6
BYLAYER
 10
18.4717802952
 20
50.2562225809
 11
18.4717802952
 21
37.4736430956
  0
LINE
  5
230
100
AcDbEntity
  8
00_COMPONENTS
100
AcDbLine
 62
7
  6
BYLAYER
 10
26.2234262434
 20
50.2309486363
 11
26.4774262434
 21
50.4849486363
  0
LINE
  5
231
100
AcDbEntity
  8
00_COMPONENTS
100
AcDbLine
 62
7
  6
BYLAYER
 10
49.3645302952
 20
29.5807486363
 11
20.4085302952
 21
29.5807486363
  0
LINE
  5
232
100
AcDbEntity
  8
00_COMPONENTS
100
AcDbLine
 62
7
  6
BYLAYER
 10
20.6626507351
 20
29.8347486363
 11
49.1104098554
 21
29.8347486363
  0
LINE
  5
233
100
AcDbEntity
  8
00_COMPONENTS
100
AcDbLine
 62
7
  6
BYLAYER
 10
20.8772626083
 20
33.8225486363
 11
20.8770536895
 21
33.8227438085
  0
LINE
  5
234
100
AcDbEntity
  8
00_COMPONENTS
100
AcDbLine
 62
7
  6
BYLAYER
 10
20.9801246837
 20
33.8225486363
 11
20.9780523216
 21
33.8245838575
  0
LINE
  5
235
100
AcDbEntity
  8
00_COMPONENTS
100
AcDbLine
 62
7
  6
BYLAYER
 10
20.4085302952
 20
26.2787486363
 11
20.4085302952
 21
29.5807486363
  0
LINE
  5
236
100
AcDbEntity
  8
00_COMPONENTS
100
AcDbLine
 62
7
  6
BYLAYER
 10
20.8657302952
 20
29.8347486363
 11
20.8657302952
 21
30.5459486363
  0
LINE
  5
237
100
AcDbEntity
  8
00_COMPONENTS
100
AcDbLine
 62
7
  6
BYLAYER
 10
20.8770536895
 20
33.8227537718
 11
20.8770536895
 21
30.5459486363
  0
LINE
  5
238
100
AcDbEntity
  8
00_COMPONENTS
100
AcDbLine
 62
7
  6
BYLAYER
 10
20.8810195189
 20
33.8225486363
 11
20.8810195189
 21
30.5459486363
  0
LINE
  5
239
100
AcDbEntity
  8
00_COMPONENTS
100
AcDbLine
 62
7
  6
BYLAYER
 10
20.9714744873
 20
33.9031235152
 11
20.9714744873
 21
30.5459486363
  0
LINE
  5
23A
100
AcDbEntity
  8
00_COMPONENTS
100
AcDbLine
 62
7
  6
BYLAYER
 10
20.9780523216
 20
33.8245836033
 11
20.9780523216
 21
30.5459486363
  0
LINE
  5
23B
100
AcDbEntity
  8
00_COMPONENTS
100
AcDbLine
 62
7
  6
BYLAYER
 10
20.9801246837
 20
30.5459486363
 11
20.9801246837
 21
33.8225486363
  0
LINE
  5
23C
100
AcDbEntity
  8
00_COMPONENTS
100
AcDbLine
 62
7
  6
BYLAYER
 10
20.9913668233
 20
33.8225486363
 11
20.9913668233
 21
30.5459486363
  0
LINE
  5
23D
100
AcDbEntity
  8
00_COMPONENTS
100
AcDbLine
 62
7
  6
BYLAYER
 10
21.0974023844
 20
33.9031235152
 11
21.0974023844
 21
30.5459486363
  0
LINE
  5
23E
100
AcDbEntity
  8
00_COMPONENTS
100
AcDbLine
 62
7
  6
BYLAYER
 10
21.1829697759
 20
33.8282969067
 11
21.1829697759
 21
30.5459486363
  0
LINE
  5
23F
100
AcDbEntity
  8
00_COMPONENTS
100
AcDbLine
 62
7
  6
BYLAYER
 10
21.1888229028
 20
30.5459486363
 11
21.1888229028
 21
33.8225486363
  0
LINE
  5
240
100
AcDbEntity
  8
00_COMPONENTS
100
AcDbLine
 62
7
  6
BYLAYER
 10
21.2074647119
 20
33.8225486363
 11
21.2074647119
 21
30.5459486363
  0
LINE
  5
241
100
AcDbEntity
  8
00_COMPONENTS
100
AcDbLine
 62
7
  6
BYLAYER
 10
21.3057977256
 20
34.2031376251
 11
21.3057977258
 21
34.2166885223
  0
LINE
  5
242
100
AcDbEntity
  8
00_COMPONENTS
100
AcDbLine
 62
7
  6
BYLAYER
 10
21.328273871
 20
33.9031235152
 11
21.328273871
 21
30.5459486363
  0
LINE
  5
243
100
AcDbEntity
  8
00_COMPONENTS
100
AcDbLine
 62
7
  6
BYLAYER
 10
21.4549032766
 20
34.1864321068
 11
21.4549032771
 21
34.2166885304
  0
LINE
  5
244
100
AcDbEntity
  8
00_COMPONENTS
100
AcDbLine
 62
7
  6
BYLAYER
 10
30.1240302952
 20
50.2309486363
 11
30.3780302952
 21
50.4849486363
  0
LINE
  5
245
100
AcDbEntity
  8
00_COMPONENTS
100
AcDbLine
 62
7
  6
BYLAYER
 10
48.9073301102
 20
30.5459486363
 11
48.8960069009
 21
30.5459486363
  0
LINE
  5
246
100
AcDbEntity
  8
00_COMPONENTS
100
AcDbLine
 62
7
  6
BYLAYER
 10
48.8920410716
 20
30.5459486363
 11
48.7929359067
 21
30.5459486363
  0
LINE
  5
247
100
AcDbEntity
  8
00_COMPONENTS
100
AcDbLine
 62
7
  6
BYLAYER
 10
48.7816937672
 20
30.5459486363
 11
48.5842376876
 21
30.5459486363
  0
LINE
  5
248
100
AcDbEntity
  8
00_COMPONENTS
100
AcDbLine
 62
7
  6
BYLAYER
 10
48.5655958786
 20
30.5459486363
 11
48.2712916444
 21
30.5459486363
  0
LINE
  5
249
100
AcDbEntity
  8
00_COMPONENTS
100
AcDbLine
 62
7
  6
BYLAYER
 10
48.2453920413
 20
30.5459486363
 11
47.8564794853
 21
30.5459486363
  0
LINE
  5
24A
100
AcDbEntity
  8
00_COMPONENTS
100
AcDbLine
 62
7
  6
BYLAYER
 10
47.8235191998
 20
30.5459486363
 11
47.3429581814
 21
30.5459486363
  0
LINE
  5
24B
100
AcDbEntity
  8
00_COMPONENTS
100
AcDbLine
 62
7
  6
BYLAYER
 10
47.3031880612
 20
30.5459486363
 11
46.7346359399
 21
30.5459486363
  0
LINE
  5
24C
100
AcDbEntity
  8
00_COMPONENTS
100
AcDbLine
 62
7
  6
BYLAYER
 10
46.6883586596
 20
30.5459486363
 11
46.0361424604
 21
30.5459486363
  0
LINE
  5
24D
100
AcDbEntity
  8
00_COMPONENTS
100
AcDbLine
 62
7
  6
BYLAYER
 10
45.983710218
 20
30.5459486363
 11
45.2527937
 21
30.5459486363
  0
LINE
  5
24E
100
AcDbEntity
  8
00_COMPONENTS
100
AcDbLine
 62
7
  6
BYLAYER
 10
45.1946055366
 20
30.5459486363
 11
44.3905514157
 21
30.5459486363
  0
LINE
  5
24F
100
AcDbEntity
  8
00_COMPONENTS
100
AcDbLine
 62
7
  6
BYLAYER
 10
44.3270501783
 20
30.5459486363
 11
43.4559777921
 21
30.5459486363
  0
LINE
  5
250
100
AcDbEntity
  8
00_COMPONENTS
100
AcDbLine
 62
7
  6
BYLAYER
 10
43.3876467635
 20
30.5459486363
 11
42.4561854986
 21
30.5459486363
  0
LINE
  5
251
100
AcDbEntity
  8
00_COMPONENTS
100
AcDbLine
 62
7
  6
BYLAYER
 10
42.3835447191
 20
30.5459486363
 11
41.3987835583
 21
30.5459486363
  0
LINE
  5
252
100
AcDbEntity
  8
00_COMPONENTS
100
AcDbLine
 62
7
  6
BYLAYER
 10
41.3223858682
 20
30.5459486363
 11
40.2918194385
 21
30.5459486363
  0
LINE
  5
253
100
AcDbEntity
  8
00_COMPONENTS
100
AcDbLine
 62
7
  6
BYLAYER
 10
40.2122462703
 20
30.5459486363
 11
39.1437178045
 21
30.5459486363
  0
LINE
  5
254
100
AcDbEntity
  8
00_COMPONENTS
100
AcDbLine
 62
7
  6
BYLAYER
 10
39.0615747581
 20
30.5459486363
 11
37.963216403
 21
30.5459486363
  0
LINE
  5
255
100
AcDbEntity
  8
00_COMPONENTS
100
AcDbLine
 62
7
  6
BYLAYER
 10
37.8791286366
 20
30.5459486363
 11
36.7592995625
 21
30.5459486363
  0
LINE
  5
256
100
AcDbEntity
  8
00_COMPONENTS
100
AcDbLine
 62
7
  6
BYLAYER
 10
36.6739070347
 20
30.5459486363
 11
35.541129817
 21
30.5459486363
  0
LINE
  5
257
100
AcDbEntity
  8
00_COMPONENTS
100
AcDbLine
 62
7
  6
BYLAYER
 10
35.4550824165
 20
30.5459486363
 11
34.3179781739
 21
30.5459486363
  0
LINE
  5
258
100
AcDbEntity
  8
00_COMPONENTS
100
AcDbLine
 62
7
  6
BYLAYER
 10
34.2319307734
 20
30.5459486363
 11
33.0991535558
 21
30.5459486363
  0
LINE
  5
259
100
AcDbEntity
  8
00_COMPONENTS
100
AcDbLine
 62
7
  6
BYLAYER
 10
33.013761028
 20
30.5459486363
 11
31.8939319539
 21
30.5459486363
  0
LINE
  5
25A
100
AcDbEntity
  8
00_COMPONENTS
100
AcDbLine
 62
7
  6
BYLAYER
 10
31.8098441874
 20
30.5459486363
 11
30.7114858324
 21
30.5459486363
  0
LINE
  5
25B
100
AcDbEntity
  8
00_COMPONENTS
100
AcDbLine
 62
7
  6
BYLAYER
 10
30.6293427859
 20
30.5459486363
 11
29.5608143201
 21
30.5459486363
  0
LINE
  5
25C
100
AcDbEntity
  8
00_COMPONENTS
100
AcDbLine
 62
7
  6
BYLAYER
 10
29.481241152
 20
30.5459486363
 11
28.4506747222
 21
30.5459486363
  0
LINE
  5
25D
100
AcDbEntity
  8
00_COMPONENTS
100
AcDbLine
 62
7
  6
BYLAYER
 10
28.3742770322
 20
30.5459486363
 11
27.3895158713
 21
30.5459486363
  0
LINE
  5
25E
100
AcDbEntity
  8
00_COMPONENTS
100
AcDbLine
 62
7
  6
BYLAYER
 10
27.3168750919
 20
30.5459486363
 11
26.385413827
 21
30.5459486363
  0
LINE
  5
25F
100
AcDbEntity
  8
00_COMPONENTS
100
AcDbLine
 62
7
  6
BYLAYER
 10
26.3170827984
 20
30.5459486363
 11
25.4460104121
 21
30.5459486363
  0
LINE
  5
260
100
AcDbEntity
  8
00_COMPONENTS
100
AcDbLine
 62
7
  6
BYLAYER
 10
25.3825091747
 20
30.5459486363
 11
24.5784550539
 21
30.5459486363
  0
LINE
  5
261
100
AcDbEntity
  8
00_COMPONENTS
100
AcDbLine
 62
7
  6
BYLAYER
 10
24.5202668905
 20
30.5459486363
 11
23.7893503724
 21
30.5459486363
  0
LINE
  5
262
100
AcDbEntity
  8
00_COMPONENTS
100
AcDbLine
 62
7
  6
BYLAYER
 10
23.7369181301
 20
30.5459486363
 11
23.0847019308
 21
30.5459486363
  0
LINE
  5
263
100
AcDbEntity
  8
00_COMPONENTS
100
AcDbLine
 62
7
  6
BYLAYER
 10
23.0384246505
 20
30.5459486363
 11
22.4698725292
 21
30.5459486363
  0
LINE
  5
264
100
AcDbEntity
  8
00_COMPONENTS
100
AcDbLine
 62
7
  6
BYLAYER
 10
22.4301024091
 20
30.5459486363
 11
21.9495413906
 21
30.5459486363
  0
LINE
  5
265
100
AcDbEntity
  8
00_COMPONENTS
100
AcDbLine
 62
7
  6
BYLAYER
 10
21.9165811052
 20
30.5459486363
 11
21.5276685492
 21
30.5459486363
  0
LINE
  5
266
100
AcDbEntity
  8
00_COMPONENTS
100
AcDbLine
 62
7
  6
BYLAYER
 10
21.5017689461
 20
30.5459486363
 11
21.2074647119
 21
30.5459486363
  0
LINE
  5
267
100
AcDbEntity
  8
00_COMPONENTS
100
AcDbLine
 62
7
  6
BYLAYER
 10
21.1888229028
 20
30.5459486363
 11
20.9913668233
 21
30.5459486363
  0
LINE
  5
268
100
AcDbEntity
  8
00_COMPONENTS
100
AcDbLine
 62
7
  6
BYLAYER
 10
20.8772626083
 20
30.5459486363
 11
20.8657304803
 21
30.5459486363
  0
LINE
  5
269
100
AcDbEntity
  8
00_COMPONENTS
100
AcDbLine
 62
7
  6
BYLAYER
 10
20.9801246837
 20
30.5459486363
 11
20.8810195189
 21
30.5459486363
  0
LINE
  5
26A
100
AcDbEntity
  8
00_COMPONENTS
100
AcDbLine
 62
7
  6
BYLAYER
 10
21.1888229028
 20
33.8225486363
 11
21.1829697759
 21
33.8282929236
  0
LINE
  5
26B
100
AcDbEntity
  8
00_COMPONENTS
100
AcDbLine
 62
7
  6
BYLAYER
 10
21.4902465068
 20
33.8225486363
 11
21.4902465068
 21
30.5459486363
  0
LINE
  5
26C
100
AcDbEntity
  8
00_COMPONENTS
100
AcDbLine
 62
7
  6
BYLAYER
 10
21.5017689461
 20
30.5459486363
 11
21.5017689461
 21
33.8225486363
  0
LINE
  5
26D
100
AcDbEntity
  8
00_COMPONENTS
100
AcDbLine
 62
7
  6
BYLAYER
 10
21.5276685492
 20
33.8225486363
 11
21.5276685492
 21
30.5459486363
  0
LINE
  5
26E
100
AcDbEntity
  8
00_COMPONENTS
100
AcDbLine
 62
7
  6
BYLAYER
 10
21.6623318756
 20
33.9031235152
 11
21.6623318756
 21
30.5459486363
  0
LINE
  5
26F
100
AcDbEntity
  8
00_COMPONENTS
100
AcDbLine
 62
7
  6
BYLAYER
 10
21.7062316197
 20
34.1649558973
 11
21.7062316209
 21
34.2166885344
  0
LINE
  5
270
100
AcDbEntity
  8
00_COMPONENTS
100
AcDbLine
 62
7
  6
BYLAYER
 10
21.8975439528
 20
33.8225486363
 11
21.8975439528
 21
30.5459486363
  0
LINE
  5
271
100
AcDbEntity
  8
00_COMPONENTS
100
AcDbLine
 62
7
  6
BYLAYER
 10
21.9165811052
 20
30.5459486363
 11
21.9165811052
 21
33.8225486363
  0
LINE
  5
272
100
AcDbEntity
  8
00_COMPONENTS
100
AcDbLine
 62
7
  6
BYLAYER
 10
21.9325302952
 20
50.2562225809
 11
21.9325302952
 21
37.1591494822
  0
LINE
  5
273
100
AcDbEntity
  8
00_COMPONENTS
100
AcDbLine
 62
7
  6
BYLAYER
 10
21.9495413906
 20
33.8225486363
 11
21.9495413906
 21
30.5459486363
  0
LINE
  5
274
100
AcDbEntity
  8
00_COMPONENTS
100
AcDbLine
 62
7
  6
BYLAYER
 10
22.0578699941
 20
34.1358084313
 11
22.0578699962
 21
34.2166885342
  0
LINE
  5
275
100
AcDbEntity
  8
00_COMPONENTS
100
AcDbLine
 62
7
  6
BYLAYER
 10
22.0970340153
 20
33.9031235152
 11
22.0970340153
 21
30.5459486363
  0
LINE
  5
276
100
AcDbEntity
  8
00_COMPONENTS
100
AcDbLine
 62
7
  6
BYLAYER
 10
22.1865302952
 20
37.1360673821
 11
22.1865302952
 21
50.2309486363
  0
LINE
  5
277
100
AcDbEntity
  8
00_COMPONENTS
100
AcDbLine
 62
7
  6
BYLAYER
 10
22.4017623345
 20
33.8225486363
 11
22.4017623345
 21
30.5459486363
  0
LINE
  5
278
100
AcDbEntity
  8
00_COMPONENTS
100
AcDbLine
 62
7
  6
BYLAYER
 10
22.4301024091
 20
30.5459486363
 11
22.4301024091
 21
33.8225486363
  0
LINE
  5
279
100
AcDbEntity
  8
00_COMPONENTS
100
AcDbLine
 62
7
  6
BYLAYER
 10
22.4405302952
 20
50.2562225809
 11
22.4405302952
 21
37.1129852821
  0
LINE
  5
27A
100
AcDbEntity
  8
00_COMPONENTS
100
AcDbLine
 62
7
  6
BYLAYER
 10
22.4698725292
 20
33.8225486363
 11
22.4698725292
 21
30.5459486363
  0
LINE
  5
27B
100
AcDbEntity
  8
00_COMPONENTS
100
AcDbLine
 62
7
  6
BYLAYER
 10
22.5071422188
 20
34.0930587536
 11
22.5071422224
 21
34.21668853
  0
LINE
  5
27C
100
AcDbEntity
  8
00_COMPONENTS
100
AcDbLine
 62
7
  6
BYLAYER
 10
22.6290719441
 20
33.9031235152
 11
22.6290719441
 21
30.5459486363
  0
LINE
  5
27D
100
AcDbEntity
  8
00_COMPONENTS
100
AcDbLine
 62
7
  6
BYLAYER
 10
22.9990642456
 20
33.8612494022
 11
22.9990642456
 21
30.5459486363
  0
LINE
  5
27E
100
AcDbEntity
  8
00_COMPONENTS
100
AcDbLine
 62
7
  6
BYLAYER
 10
23.0384246505
 20
30.5459486363
 11
23.0384246505
 21
33.8225486363
  0
LINE
  5
27F
100
AcDbEntity
  8
00_COMPONENTS
100
AcDbLine
 62
7
  6
BYLAYER
 10
23.0506290599
 20
34.0229841233
 11
23.0506290663
 21
34.2166885216
  0
LINE
  5
280
100
AcDbEntity
  8
00_COMPONENTS
100
AcDbLine
 62
7
  6
BYLAYER
 10
23.0847019308
 20
33.8225486363
 11
23.0847019308
 21
30.5459486363
  0
LINE
  5
281
100
AcDbEntity
  8
00_COMPONENTS
100
AcDbLine
 62
7
  6
BYLAYER
 10
23.2543965322
 20
33.9031235152
 11
23.2543965322
 21
30.5459486363
  0
LINE
  5
282
100
AcDbEntity
  8
00_COMPONENTS
100
AcDbLine
 62
7
  6
BYLAYER
 10
23.6841942533
 20
33.9031235154
 11
23.6841942645
 21
34.2166885092
  0
LINE
  5
283
100
AcDbEntity
  8
00_COMPONENTS
100
AcDbLine
 62
7
  6
BYLAYER
 10
23.6849038577
 20
33.8737139786
 11
23.6849038577
 21
30.5459486363
  0
LINE
  5
284
100
AcDbEntity
  8
00_COMPONENTS
100
AcDbLine
 62
7
  6
BYLAYER
 10
23.7369181301
 20
30.5459486363
 11
23.7369181301
 21
33.8225486363
  0
LINE
  5
285
100
AcDbEntity
  8
00_COMPONENTS
100
AcDbLine
 62
7
  6
BYLAYER
 10
23.7893503724
 20
33.8225486363
 11
23.7893503724
 21
30.5459486363
  0
LINE
  5
286
100
AcDbEntity
  8
00_COMPONENTS
100
AcDbLine
 62
7
  6
BYLAYER
 10
23.9173105447
 20
36.7425742639
 11
23.9173105447
 21
36.7555883636
  0
LINE
  5
287
100
AcDbEntity
  8
00_COMPONENTS
100
AcDbLine
 62
7
  6
BYLAYER
 10
23.9682486819
 20
33.9031235152
 11
23.9682486819
 21
30.5459486363
  0
LINE
  5
288
100
AcDbEntity
  8
00_COMPONENTS
100
AcDbLine
 62
7
  6
BYLAYER
 10
24.4030158649
 20
30.5459486363
 11
24.403016003
 21
34.2166884929
  0
LINE
  5
289
100
AcDbEntity
  8
00_COMPONENTS
100
AcDbLine
 62
7
  6
BYLAYER
 10
24.4540615174
 20
33.8877060363
 11
24.4540615174
 21
30.5459486363
  0
LINE
  5
28A
100
AcDbEntity
  8
00_COMPONENTS
100
AcDbLine
 62
7
  6
BYLAYER
 10
24.5202668905
 20
30.5459486363
 11
24.5202668905
 21
33.8225486363
  0
LINE
  5
28B
100
AcDbEntity
  8
00_COMPONENTS
100
AcDbLine
 62
7
  6
BYLAYER
 10
24.5784550539
 20
33.8225486363
 11
24.5784550539
 21
30.5459486363
  0
LINE
  5
28C
100
AcDbEntity
  8
00_COMPONENTS
100
AcDbLine
 62
7
  6
BYLAYER
 10
24.4540615175
 20
33.8877179923
 11
24.4550280641
 21
33.9031235152
  0
LINE
  5
28D
100
AcDbEntity
  8
00_COMPONENTS
100
AcDbLine
 62
7
  6
BYLAYER
 10
23.6849038577
 20
33.8737104603
 11
23.6887626884
 21
33.9031235152
  0
LINE
  5
28E
100
AcDbEntity
  8
00_COMPONENTS
100
AcDbLine
 62
7
  6
BYLAYER
 10
23.7660525459
 20
34.2278446378
 11
23.7645476066
 21
34.2166884907
  0
LINE
  5
28F
100
AcDbEntity
  8
00_COMPONENTS
100
AcDbLine
 62
7
  6
BYLAYER
 10
22.9990642456
 20
33.8612524643
 11
23.0077190857
 21
33.9031235152
  0
LINE
  5
290
100
AcDbEntity
  8
00_COMPONENTS
100
AcDbLine
 62
7
  6
BYLAYER
 10
23.1240503316
 20
34.2325252959
 11
23.1206749526
 21
34.2166884992
  0
LINE
  5
291
100
AcDbEntity
  8
00_COMPONENTS
100
AcDbLine
 62
7
  6
BYLAYER
 10
22.5723215986
 20
34.2365390527
 11
22.5663475633
 21
34.216688504
  0
LINE
  5
292
100
AcDbEntity
  8
00_COMPONENTS
100
AcDbLine
 62
7
  6
BYLAYER
 10
22.1150653357
 20
34.2398664556
 11
22.1057842046
 21
34.2166885049
  0
LINE
  5
293
100
AcDbEntity
  8
00_COMPONENTS
100
AcDbLine
 62
7
  6
BYLAYER
 10
48.8957979822
 20
33.8225486363
 11
48.8920410716
 21
33.8225486363
  0
LINE
  5
294
100
AcDbEntity
  8
00_COMPONENTS
100
AcDbLine
 62
7
  6
BYLAYER
 10
48.7929359067
 20
33.8225486363
 11
48.7816937672
 21
33.8225486363
  0
LINE
  5
295
100
AcDbEntity
  8
00_COMPONENTS
100
AcDbLine
 62
7
  6
BYLAYER
 10
48.5842376876
 20
33.8225486363
 11
48.5655958786
 21
33.8225486363
  0
LINE
  5
296
100
AcDbEntity
  8
00_COMPONENTS
100
AcDbLine
 62
7
  6
BYLAYER
 10
48.2712916444
 20
33.8225486363
 11
48.2453920413
 21
33.8225486363
  0
LINE
  5
297
100
AcDbEntity
  8
00_COMPONENTS
100
AcDbLine
 62
7
  6
BYLAYER
 10
47.8564794853
 20
33.8225486363
 11
47.8235191998
 21
33.8225486363
  0
LINE
  5
298
100
AcDbEntity
  8
00_COMPONENTS
100
AcDbLine
 62
7
  6
BYLAYER
 10
47.3429581814
 20
33.8225486363
 11
47.3031880612
 21
33.8225486363
  0
LINE
  5
299
100
AcDbEntity
  8
00_COMPONENTS
100
AcDbLine
 62
7
  6
BYLAYER
 10
46.7346359399
 20
33.8225486363
 11
46.6883586596
 21
33.8225486363
  0
LINE
  5
29A
100
AcDbEntity
  8
00_COMPONENTS
100
AcDbLine
 62
7
  6
BYLAYER
 10
46.0361424604
 20
33.8225486363
 11
45.983710218
 21
33.8225486363
  0
LINE
  5
29B
100
AcDbEntity
  8
00_COMPONENTS
100
AcDbLine
 62
7
  6
BYLAYER
 10
45.2527937
 20
33.8225486363
 11
45.1946055366
 21
33.8225486363
  0
LINE
  5
29C
100
AcDbEntity
  8
00_COMPONENTS
100
AcDbLine
 62
7
  6
BYLAYER
 10
44.3905514157
 20
33.8225486363
 11
44.3270501783
 21
33.8225486363
  0
LINE
  5
29D
100
AcDbEntity
  8
00_COMPONENTS
100
AcDbLine
 62
7
  6
BYLAYER
 10
43.4559777921
 20
33.8225486363
 11
43.3876467635
 21
33.8225486363
  0
LINE
  5
29E
100
AcDbEntity
  8
00_COMPONENTS
100
AcDbLine
 62
7
  6
BYLAYER
 10
42.4561854986
 20
33.8225486363
 11
42.3835447191
 21
33.8225486363
  0
LINE
  5
29F
100
AcDbEntity
  8
00_COMPONENTS
100
AcDbLine
 62
7
  6
BYLAYER
 10
41.3987835583
 20
33.8225486363
 11
41.3223858682
 21
33.8225486363
  0
LINE
  5
2A0
100
AcDbEntity
  8
00_COMPONENTS
100
AcDbLine
 62
7
  6
BYLAYER
 10
40.2918194385
 20
33.8225486363
 11
40.2122462703
 21
33.8225486363
  0
LINE
  5
2A1
100
AcDbEntity
  8
00_COMPONENTS
100
AcDbLine
 62
7
  6
BYLAYER
 10
39.1437178045
 20
33.8225486363
 11
39.0615747581
 21
33.8225486363
  0
LINE
  5
2A2
100
AcDbEntity
  8
00_COMPONENTS
100
AcDbLine
 62
7
  6
BYLAYER
 10
37.963216403
 20
33.8225486363
 11
37.8791286366
 21
33.8225486363
  0
LINE
  5
2A3
100
AcDbEntity
  8
00_COMPONENTS
100
AcDbLine
 62
7
  6
BYLAYER
 10
36.7592995625
 20
33.8225486363
 11
36.6739070347
 21
33.8225486363
  0
LINE
  5
2A4
100
AcDbEntity
  8
00_COMPONENTS
100
AcDbLine
 62
7
  6
BYLAYER
 10
35.541129817
 20
33.8225486363
 11
35.4550824165
 21
33.8225486363
  0
LINE
  5
2A5
100
AcDbEntity
  8
00_COMPONENTS
100
AcDbLine
 62
7
  6
BYLAYER
 10
34.3179781739
 20
33.8225486363
 11
34.2319307734
 21
33.8225486363
  0
LINE
  5
2A6
100
AcDbEntity
  8
00_COMPONENTS
100
AcDbLine
 62
7
  6
BYLAYER
 10
33.0991535558
 20
33.8225486363
 11
33.013761028
 21
33.8225486363
  0
LINE
  5
2A7
100
AcDbEntity
  8
00_COMPONENTS
100
AcDbLine
 62
7
  6
BYLAYER
 10
31.8939319539
 20
33.8225486363
 11
31.8098441874
 21
33.8225486363
  0
LINE
  5
2A8
100
AcDbEntity
  8
00_COMPONENTS
100
AcDbLine
 62
7
  6
BYLAYER
 10
30.7114858324
 20
33.8225486363
 11
30.629342786
 21
33.8225486363
  0
LINE
  5
2A9
100
AcDbEntity
  8
00_COMPONENTS
100
AcDbLine
 62
7
  6
BYLAYER
 10
29.5608143201
 20
33.8225486363
 11
29.481241152
 21
33.8225486363
  0
LINE
  5
2AA
100
AcDbEntity
  8
00_COMPONENTS
100
AcDbLine
 62
7
  6
BYLAYER
 10
28.4506747222
 20
33.8225486363
 11
28.3742770322
 21
33.8225486363
  0
LINE
  5
2AB
100
AcDbEntity
  8
00_COMPONENTS
100
AcDbLine
 62
7
  6
BYLAYER
 10
27.3895158713
 20
33.8225486363
 11
27.3168750919
 21
33.8225486363
  0
LINE
  5
2AC
100
AcDbEntity
  8
00_COMPONENTS
100
AcDbLine
 62
7
  6
BYLAYER
 10
26.385413827
 20
33.8225486363
 11
26.3170827984
 21
33.8225486363
  0
LINE
  5
2AD
100
AcDbEntity
  8
00_COMPONENTS
100
AcDbLine
 62
7
  6
BYLAYER
 10
25.4460104121
 20
33.8225486363
 11
25.3825091747
 21
33.8225486363
  0
LINE
  5
2AE
100
AcDbEntity
  8
00_COMPONENTS
100
AcDbLine
 62
7
  6
BYLAYER
 10
24.5784550539
 20
33.8225486363
 11
24.5202668905
 21
33.8225486363
  0
LINE
  5
2AF
100
AcDbEntity
  8
00_COMPONENTS
100
AcDbLine
 62
7
  6
BYLAYER
 10
23.7893503724
 20
33.8225486363
 11
23.7369181301
 21
33.8225486363
  0
LINE
  5
2B0
100
AcDbEntity
  8
00_COMPONENTS
100
AcDbLine
 62
7
  6
BYLAYER
 10
23.0847019308
 20
33.8225486363
 11
23.0384246505
 21
33.8225486363
  0
LINE
  5
2B1
100
AcDbEntity
  8
00_COMPONENTS
100
AcDbLine
 62
7
  6
BYLAYER
 10
22.4698725292
 20
33.8225486363
 11
22.4301024091
 21
33.8225486363
  0
LINE
  5
2B2
100
AcDbEntity
  8
00_COMPONENTS
100
AcDbLine
 62
7
  6
BYLAYER
 10
21.9495413906
 20
33.8225486363
 11
21.9165811052
 21
33.8225486363
  0
LINE
  5
2B3
100
AcDbEntity
  8
00_COMPONENTS
100
AcDbLine
 62
7
  6
BYLAYER
 10
21.5276685492
 20
33.8225486363
 11
21.5017689461
 21
33.8225486363
  0
LINE
  5
2B4
100
AcDbEntity
  8
00_COMPONENTS
100
AcDbLine
 62
7
  6
BYLAYER
 10
21.2074647119
 20
33.8225486363
 11
21.1888229028
 21
33.8225486363
  0
LINE
  5
2B5
100
AcDbEntity
  8
00_COMPONENTS
100
AcDbLine
 62
7
  6
BYLAYER
 10
20.9913668233
 20
33.8225486363
 11
20.9801246837
 21
33.8225486363
  0
LINE
  5
2B6
100
AcDbEntity
  8
00_COMPONENTS
100
AcDbLine
 62
7
  6
BYLAYER
 10
20.8810195189
 20
33.8225486363
 11
20.8772626083
 21
33.8225486363
  0
LINE
  5
2B7
100
AcDbEntity
  8
00_COMPONENTS
100
AcDbLine
 62
7
  6
BYLAYER
 10
48.1199302952
 20
34.6099486363
 11
21.6531302952
 21
34.6099486363
  0
LINE
  5
2B8
100
AcDbEntity
  8
00_COMPONENTS
100
AcDbLine
 62
7
  6
BYLAYER
 10
26.4774262434
 20
34.8386746917
 11
29.8701839552
 21
34.8386746917
  0
LINE
  5
2B9
100
AcDbEntity
  8
00_COMPONENTS
100
AcDbLine
 62
7
  6
BYLAYER
 10
30.3778766353
 20
34.8386746917
 11
43.3984086121
 21
34.8386746917
  0
LINE
  5
2BA
100
AcDbEntity
  8
00_COMPONENTS
100
AcDbLine
 62
7
  6
BYLAYER
 10
30.3780302952
 20
34.8460772587
 11
29.8700302952
 21
34.8460772587
  0
LINE
  5
2BB
100
AcDbEntity
  8
00_COMPONENTS
100
AcDbLine
 62
7
  6
BYLAYER
 10
25.0491129794
 20
34.7791732192
 11
26.1266743176
 21
34.6594890558
  0
LINE
  5
2BC
100
AcDbEntity
  8
00_COMPONENTS
100
AcDbLine
 62
7
  6
BYLAYER
 10
10.2802802952
 20
50.2309486363
 11
10.0262802952
 21
50.4849486363
  0
LINE
  5
2BD
100
AcDbEntity
  8
00_COMPONENTS
100
AcDbLine
 62
7
  6
BYLAYER
 10
26.1285590057
 20
34.6099486363
 11
26.1266576952
 21
34.6594893062
  0
LINE
  5
2BE
100
AcDbEntity
  8
00_COMPONENTS
100
AcDbLine
 62
7
  6
BYLAYER
 10
25.0535351403
 20
34.6099486363
 11
25.0491129794
 21
34.7791732192
  0
LINE
  5
2BF
100
AcDbEntity
  8
00_COMPONENTS
100
AcDbLine
 62
7
  6
BYLAYER
 10
25.0228645472
 20
34.7820876336
 11
25.0271129894
 21
34.6099486363
  0
LINE
  5
2C0
100
AcDbEntity
  8
00_COMPONENTS
100
AcDbLine
 62
7
  6
BYLAYER
 10
24.7651955474
 20
33.9031235152
 11
24.7651955474
 21
30.5459486363
  0
LINE
  5
2C1
100
AcDbEntity
  8
00_COMPONENTS
100
AcDbLine
 62
7
  6
BYLAYER
 10
25.2016234704
 20
30.5459486363
 11
25.2016236143
 21
34.2166884728
  0
LINE
  5
2C2
100
AcDbEntity
  8
00_COMPONENTS
100
AcDbLine
 62
7
  6
BYLAYER
 10
25.3006834704
 20
30.5459486363
 11
25.3006834704
 21
34.2166884702
  0
LINE
  5
2C3
100
AcDbEntity
  8
00_COMPONENTS
100
AcDbLine
 62
7
  6
BYLAYER
 10
25.3825091747
 20
30.5459486363
 11
25.3825091747
 21
33.8225486363
  0
LINE
  5
2C4
100
AcDbEntity
  8
00_COMPONENTS
100
AcDbLine
 62
7
  6
BYLAYER
 10
25.4460104121
 20
33.8225486363
 11
25.4460104121
 21
30.5459486363
  0
LINE
  5
2C5
100
AcDbEntity
  8
00_COMPONENTS
100
AcDbLine
 62
7
  6
BYLAYER
 10
25.6391718817
 20
33.9031235152
 11
25.6391718817
 21
30.5459486363
  0
LINE
  5
2C6
100
AcDbEntity
  8
00_COMPONENTS
100
AcDbLine
 62
7
  6
BYLAYER
 10
25.9694262434
 20
50.2562225809
 11
25.9694262434
 21
35.5297927514
  0
LINE
  5
2C7
100
AcDbEntity
  8
00_COMPONENTS
100
AcDbLine
 62
7
  6
BYLAYER
 10
26.0739390647
 20
30.5459486363
 11
26.073939212
 21
34.2166884491
  0
LINE
  5
2C8
100
AcDbEntity
  8
00_COMPONENTS
100
AcDbLine
 62
7
  6
BYLAYER
 10
26.1812557586
 20
34.216688446
 11
26.1812557594
 21
30.5459486363
  0
LINE
  5
2C9
100
AcDbEntity
  8
00_COMPONENTS
100
AcDbLine
 62
7
  6
BYLAYER
 10
26.2192929592
 20
30.5459486363
 11
26.2192929592
 21
33.9031235152
  0
LINE
  5
2CA
100
AcDbEntity
  8
00_COMPONENTS
100
AcDbLine
 62
7
  6
BYLAYER
 10
26.2234262434
 20
34.6099486363
 11
26.2234262434
 21
50.2309486363
  0
LINE
  5
2CB
100
AcDbEntity
  8
00_COMPONENTS
100
AcDbLine
 62
7
  6
BYLAYER
 10
26.3170827984
 20
30.5459486363
 11
26.3170827984
 21
33.8225486363
  0
LINE
  5
2CC
100
AcDbEntity
  8
00_COMPONENTS
100
AcDbLine
 62
7
  6
BYLAYER
 10
26.385413827
 20
33.8225486363
 11
26.385413827
 21
30.5459486363
  0
LINE
  5
2CD
100
AcDbEntity
  8
00_COMPONENTS
100
AcDbLine
 62
7
  6
BYLAYER
 10
24.493442217
 20
34.2225504808
 11
24.4930652655
 21
34.2166884785
  0
LINE
  5
2CE
100
AcDbEntity
  8
00_COMPONENTS
100
AcDbLine
 62
7
  6
BYLAYER
 10
20.9934419508
 20
33.9461836285
 11
20.9514485671
 21
33.9031235152
  0
LINE
  5
2CF
100
AcDbEntity
  8
00_COMPONENTS
100
AcDbLine
 62
7
  6
BYLAYER
 10
21.2890637132
 20
34.2458977157
 11
21.2600497572
 21
34.2166884707
  0
LINE
  5
2D0
100
AcDbEntity
  8
00_COMPONENTS
100
AcDbLine
 62
7
  6
BYLAYER
 10
21.6531302952
 20
34.6099486363
 11
21.2890637132
 21
34.2458820543
  0
LINE
  5
2D1
100
AcDbEntity
  8
00_COMPONENTS
100
AcDbLine
 62
7
  6
BYLAYER
 10
20.9714744873
 20
33.9031235152
 11
21.0063267059
 21
33.9361220814
  0
LINE
  5
2D2
100
AcDbEntity
  8
00_COMPONENTS
100
AcDbLine
 62
7
  6
BYLAYER
 10
6.3115302952
 20
38.5786986363
 11
23.7001881652
 21
36.9985144501
  0
LINE
  5
2D3
100
AcDbEntity
  8
00_COMPONENTS
100
AcDbLine
 62
7
  6
BYLAYER
 10
26.4774262434
 20
50.2562225809
 11
26.4774262434
 21
34.8386746917
  0
LINE
  5
2D4
100
AcDbEntity
  8
00_COMPONENTS
100
AcDbLine
 62
7
  6
BYLAYER
 10
26.5835261973
 20
33.9031235152
 11
26.5835261973
 21
30.5459486363
  0
LINE
  5
2D5
100
AcDbEntity
  8
00_COMPONENTS
100
AcDbLine
 62
7
  6
BYLAYER
 10
27.0133237995
 20
30.5459486363
 11
27.0133239476
 21
34.2166884218
  0
LINE
  5
2D6
100
AcDbEntity
  8
00_COMPONENTS
100
AcDbLine
 62
7
  6
BYLAYER
 10
27.1280804451
 20
34.2166884184
 11
27.128080444
 21
30.5459486363
  0
LINE
  5
2D7
100
AcDbEntity
  8
00_COMPONENTS
100
AcDbLine
 62
7
  6
BYLAYER
 10
27.2038653575
 20
30.5459486363
 11
27.2038653575
 21
33.9031235152
  0
LINE
  5
2D8
100
AcDbEntity
  8
00_COMPONENTS
100
AcDbLine
 62
7
  6
BYLAYER
 10
27.3168750919
 20
30.5459486363
 11
27.3168750919
 21
33.8225486363
  0
LINE
  5
2D9
100
AcDbEntity
  8
00_COMPONENTS
100
AcDbLine
 62
7
  6
BYLAYER
 10
27.3895158713
 20
33.8225486363
 11
27.3895158713
 21
30.5459486363
  0
LINE
  5
2DA
100
AcDbEntity
  8
00_COMPONENTS
100
AcDbLine
 62
7
  6
BYLAYER
 10
27.5910713875
 20
33.9031235152
 11
27.5910713875
 21
30.5459486363
  0
LINE
  5
2DB
100
AcDbEntity
  8
00_COMPONENTS
100
AcDbLine
 62
7
  6
BYLAYER
 10
28.0126283896
 20
30.5459486363
 11
28.0126285361
 21
34.2166883914
  0
LINE
  5
2DC
100
AcDbEntity
  8
00_COMPONENTS
100
AcDbLine
 62
7
  6
BYLAYER
 10
21.0974023844
 20
33.9031235152
 11
21.1712342692
 21
33.9684285773
  0
LINE
  5
2DD
100
AcDbEntity
  8
00_COMPONENTS
100
AcDbLine
 62
7
  6
BYLAYER
 10
14.2490302952
 20
50.2309486363
 11
13.9950302952
 21
50.4849486363
  0
LINE
  5
2DE
100
AcDbEntity
  8
00_COMPONENTS
100
AcDbLine
 62
7
  6
BYLAYER
 10
28.1339516224
 20
34.2166883876
 11
28.1339516166
 21
30.5459486363
  0
LINE
  5
2DF
100
AcDbEntity
  8
00_COMPONENTS
100
AcDbLine
 62
7
  6
BYLAYER
 10
28.2469074749
 20
30.5459486363
 11
28.2469074749
 21
33.9031235152
  0
LINE
  5
2E0
100
AcDbEntity
  8
00_COMPONENTS
100
AcDbLine
 62
7
  6
BYLAYER
 10
28.3742770322
 20
30.5459486363
 11
28.3742770322
 21
33.8225486363
  0
LINE
  5
2E1
100
AcDbEntity
  8
00_COMPONENTS
100
AcDbLine
 62
7
  6
BYLAYER
 10
28.4506747222
 20
33.8225486363
 11
28.4506747222
 21
30.5459486363
  0
LINE
  5
2E2
100
AcDbEntity
  8
00_COMPONENTS
100
AcDbLine
 62
7
  6
BYLAYER
 10
28.6541394251
 20
33.9031235152
 11
28.6541394251
 21
30.5459486363
  0
LINE
  5
2E3
100
AcDbEntity
  8
00_COMPONENTS
100
AcDbLine
 62
7
  6
BYLAYER
 10
29.0642475239
 20
30.5459486363
 11
29.0642476663
 21
34.2166883578
  0
LINE
  5
2E4
100
AcDbEntity
  8
00_COMPONENTS
100
AcDbLine
 62
7
  6
BYLAYER
 10
29.1912140033
 20
34.2166883537
 11
29.1912139903
 21
30.5459486363
  0
LINE
  5
2E5
100
AcDbEntity
  8
00_COMPONENTS
100
AcDbLine
 62
7
  6
BYLAYER
 10
29.3404811311
 20
30.5459486363
 11
29.3404811311
 21
33.9031235152
  0
LINE
  5
2E6
100
AcDbEntity
  8
00_COMPONENTS
100
AcDbLine
 62
7
  6
BYLAYER
 10
29.481241152
 20
30.5459486363
 11
29.481241152
 21
33.8225486363
  0
LINE
  5
2E7
100
AcDbEntity
  8
00_COMPONENTS
100
AcDbLine
 62
7
  6
BYLAYER
 10
29.5608143201
 20
33.8225486363
 11
29.5608143201
 21
30.5459486363
  0
LINE
  5
2E8
100
AcDbEntity
  8
00_COMPONENTS
100
AcDbLine
 62
7
  6
BYLAYER
 10
18.2177802952
 20
50.2309486363
 11
17.9637802952
 21
50.4849486363
  0
LINE
  5
2E9
100
AcDbEntity
  8
00_COMPONENTS
100
AcDbLine
 62
7
  6
BYLAYER
 10
29.7646397205
 20
33.9031235152
 11
29.7646397205
 21
30.5459486363
  0
LINE
  5
2EA
100
AcDbEntity
  8
00_COMPONENTS
100
AcDbLine
 62
7
  6
BYLAYER
 10
29.8700302952
 20
50.2562225809
 11
29.8700302952
 21
34.8460772587
  0
LINE
  5
2EB
100
AcDbEntity
  8
00_COMPONENTS
100
AcDbLine
 62
7
  6
BYLAYER
 10
30.1240302952
 20
34.6099486363
 11
30.1240302952
 21
50.2309486363
  0
LINE
  5
2EC
100
AcDbEntity
  8
00_COMPONENTS
100
AcDbLine
 62
7
  6
BYLAYER
 10
30.1601777456
 20
30.5459486363
 11
30.1601778816
 21
34.2166883215
  0
LINE
  5
2ED
100
AcDbEntity
  8
00_COMPONENTS
100
AcDbLine
 62
7
  6
BYLAYER
 10
30.29182116
 20
30.5459486363
 11
30.2918211827
 21
34.2166883171
  0
LINE
  5
2EE
100
AcDbEntity
  8
00_COMPONENTS
100
AcDbLine
 62
7
  6
BYLAYER
 10
30.3780302952
 20
50.2562225809
 11
30.3780302952
 21
34.8460772587
  0
LINE
  5
2EF
100
AcDbEntity
  8
00_COMPONENTS
100
AcDbLine
 62
7
  6
BYLAYER
 10
30.4762635702
 20
30.5459486363
 11
30.4762635702
 21
33.9031235152
  0
LINE
  5
2F0
100
AcDbEntity
  8
00_COMPONENTS
100
AcDbLine
 62
7
  6
BYLAYER
 10
30.629342786
 20
30.5459486363
 11
30.629342786
 21
33.8225486363
  0
LINE
  5
2F1
100
AcDbEntity
  8
00_COMPONENTS
100
AcDbLine
 62
7
  6
BYLAYER
 10
30.7114858324
 20
33.8225486363
 11
30.7114858324
 21
30.5459486363
  0
LINE
  5
2F2
100
AcDbEntity
  8
00_COMPONENTS
100
AcDbLine
 62
7
  6
BYLAYER
 10
30.9141206958
 20
33.9031235152
 11
30.9141206958
 21
30.5459486363
  0
LINE
  5
2F3
100
AcDbEntity
  8
00_COMPONENTS
100
AcDbLine
 62
7
  6
BYLAYER
 10
31.2920783641
 20
30.5459486363
 11
31.2920784915
 21
34.2166882827
  0
LINE
  5
2F4
100
AcDbEntity
  8
00_COMPONENTS
100
AcDbLine
 62
7
  6
BYLAYER
 10
31.4273968406
 20
30.5459486363
 11
31.4273968752
 21
34.216688278
  0
LINE
  5
2F5
100
AcDbEntity
  8
00_COMPONENTS
100
AcDbLine
 62
7
  6
BYLAYER
 10
31.6456108021
 20
30.5459486363
 11
31.6456108021
 21
33.9031235152
  0
LINE
  5
2F6
100
AcDbEntity
  8
00_COMPONENTS
100
AcDbLine
 62
7
  6
BYLAYER
 10
31.8098441874
 20
30.5459486363
 11
31.8098441874
 21
33.8225486363
  0
LINE
  5
2F7
100
AcDbEntity
  8
00_COMPONENTS
100
AcDbLine
 62
7
  6
BYLAYER
 10
31.8939319539
 20
33.8225486363
 11
31.8939319539
 21
30.5459486363
  0
LINE
  5
2F8
100
AcDbEntity
  8
00_COMPONENTS
100
AcDbLine
 62
7
  6
BYLAYER
 10
32.0938341068
 20
33.9031235152
 11
32.0938341068
 21
30.5459486363
  0
LINE
  5
2F9
100
AcDbEntity
  8
00_COMPONENTS
100
AcDbLine
 62
7
  6
BYLAYER
 10
32.4513349321
 20
30.5459486363
 11
32.4513350492
 21
34.2166882417
  0
LINE
  5
2FA
100
AcDbEntity
  8
00_COMPONENTS
100
AcDbLine
 62
7
  6
BYLAYER
 10
32.5892986154
 20
30.5459486363
 11
32.5892986639
 21
34.2166882367
  0
LINE
  5
2FB
100
AcDbEntity
  8
00_COMPONENTS
100
AcDbLine
 62
7
  6
BYLAYER
 10
32.8396233882
 20
30.5459486363
 11
32.8396233882
 21
33.9031235152
  0
LINE
  5
2FC
100
AcDbEntity
  8
00_COMPONENTS
100
AcDbLine
 62
7
  6
BYLAYER
 10
22.1865302952
 20
50.2309486363
 11
21.9325302952
 21
50.4849486363
  0
LINE
  5
2FD
100
AcDbEntity
  8
00_COMPONENTS
100
AcDbLine
 62
7
  6
BYLAYER
 10
33.013761028
 20
30.5459486363
 11
33.013761028
 21
33.8225486363
  0
LINE
  5
2FE
100
AcDbEntity
  8
00_COMPONENTS
100
AcDbLine
 62
7
  6
BYLAYER
 10
33.0991535558
 20
33.8225486363
 11
33.0991535558
 21
30.5459486363
  0
LINE
  5
2FF
100
AcDbEntity
  8
00_COMPONENTS
100
AcDbLine
 62
7
  6
BYLAYER
 10
33.2948016221
 20
33.9031235152
 11
33.2948016221
 21
30.5459486363
  0
LINE
  5
300
100
AcDbEntity
  8
00_COMPONENTS
100
AcDbLine
 62
7
  6
BYLAYER
 10
33.6291248073
 20
30.5459486363
 11
33.6291249126
 21
34.2166881988
  0
LINE
  5
301
100
AcDbEntity
  8
00_COMPONENTS
100
AcDbLine
 62
7
  6
BYLAYER
 10
33.7686837104
 20
30.5459486363
 11
33.7686837743
 21
34.2166881936
  0
LINE
  5
302
100
AcDbEntity
  8
00_COMPONENTS
100
AcDbLine
 62
7
  6
BYLAYER
 10
34.0492141719
 20
30.5459486363
 11
34.0492141719
 21
33.9031235152
  0
LINE
  5
303
100
AcDbEntity
  8
00_COMPONENTS
100
AcDbLine
 62
7
  6
BYLAYER
 10
34.2319307734
 20
30.5459486363
 11
34.2319307734
 21
33.8225486363
  0
LINE
  5
304
100
AcDbEntity
  8
00_COMPONENTS
100
AcDbLine
 62
7
  6
BYLAYER
 10
34.3179781739
 20
33.8225486363
 11
34.3179781739
 21
30.5459486363
  0
LINE
  5
305
100
AcDbEntity
  8
00_COMPONENTS
100
AcDbLine
 62
7
  6
BYLAYER
 10
34.5078831536
 20
33.9031235152
 11
34.5078831536
 21
30.5459486363
  0
LINE
  5
306
100
AcDbEntity
  8
00_COMPONENTS
100
AcDbLine
 62
7
  6
BYLAYER
 10
34.8164842975
 20
30.5459486363
 11
34.8164843899
 21
34.2166881543
  0
LINE
  5
307
100
AcDbEntity
  8
00_COMPONENTS
100
AcDbLine
 62
7
  6
BYLAYER
 10
34.956576293
 20
30.5459486363
 11
34.9565763733
 21
34.216688149
  0
LINE
  5
308
100
AcDbEntity
  8
00_COMPONENTS
100
AcDbLine
 62
7
  6
BYLAYER
 10
35.2651774368
 20
30.5459486363
 11
35.2651774368
 21
33.9031235152
  0
LINE
  5
309
100
AcDbEntity
  8
00_COMPONENTS
100
AcDbLine
 62
7
  6
BYLAYER
 10
35.4550824165
 20
30.5459486363
 11
35.4550824165
 21
33.8225486363
  0
LINE
  5
30A
100
AcDbEntity
  8
00_COMPONENTS
100
AcDbLine
 62
7
  6
BYLAYER
 10
35.541129817
 20
33.8225486363
 11
35.541129817
 21
30.5459486363
  0
LINE
  5
30B
100
AcDbEntity
  8
00_COMPONENTS
100
AcDbLine
 62
7
  6
BYLAYER
 10
35.7238464186
 20
33.9031235152
 11
35.7238464186
 21
30.5459486363
  0
LINE
  5
30C
100
AcDbEntity
  8
00_COMPONENTS
100
AcDbLine
 62
7
  6
BYLAYER
 10
36.00437688
 20
30.5459486363
 11
36.00437688
 21
34.2166880199
  0
LINE
  5
30D
100
AcDbEntity
  8
00_COMPONENTS
100
AcDbLine
 62
7
  6
BYLAYER
 10
36.1439357832
 20
34.2166880199
 11
36.1439357832
 21
30.5459486363
  0
LINE
  5
30E
100
AcDbEntity
  8
00_COMPONENTS
100
AcDbLine
 62
7
  6
BYLAYER
 10
26.2234262434
 20
50.2309486363
 11
25.9694262434
 21
50.4849486363
  0
LINE
  5
30F
100
AcDbEntity
  8
00_COMPONENTS
100
AcDbLine
 62
7
  6
BYLAYER
 10
36.4782589684
 20
30.5459486363
 11
36.4782589684
 21
33.9031235152
  0
LINE
  5
310
100
AcDbEntity
  8
00_COMPONENTS
100
AcDbLine
 62
7
  6
BYLAYER
 10
36.6739070347
 20
30.5459486363
 11
36.6739070347
 21
33.8225486363
  0
LINE
  5
311
100
AcDbEntity
  8
00_COMPONENTS
100
AcDbLine
 62
7
  6
BYLAYER
 10
36.7592995625
 20
33.8225486363
 11
36.7592995625
 21
30.5459486363
  0
LINE
  5
312
100
AcDbEntity
  8
00_COMPONENTS
100
AcDbLine
 62
7
  6
BYLAYER
 10
36.9334372023
 20
33.9031235152
 11
36.9334372023
 21
30.5459486363
  0
LINE
  5
313
100
AcDbEntity
  8
00_COMPONENTS
100
AcDbLine
 62
7
  6
BYLAYER
 10
37.1837619751
 20
30.5459486363
 11
37.1837619751
 21
34.2166880199
  0
LINE
  5
314
100
AcDbEntity
  8
00_COMPONENTS
100
AcDbLine
 62
7
  6
BYLAYER
 10
37.3217256583
 20
34.2166880199
 11
37.3217256583
 21
30.5459486363
  0
LINE
  5
315
100
AcDbEntity
  8
00_COMPONENTS
100
AcDbLine
 62
7
  6
BYLAYER
 10
37.6792264837
 20
30.5459486363
 11
37.6792264837
 21
33.9031235152
  0
LINE
  5
316
100
AcDbEntity
  8
00_COMPONENTS
100
AcDbLine
 62
7
  6
BYLAYER
 10
37.8791286366
 20
30.5459486363
 11
37.8791286366
 21
33.8225486363
  0
LINE
  5
317
100
AcDbEntity
  8
00_COMPONENTS
100
AcDbLine
 62
7
  6
BYLAYER
 10
30.1240302952
 20
50.2309486363
 11
29.8700302952
 21
50.4849486363
  0
LINE
  5
318
100
AcDbEntity
  8
00_COMPONENTS
100
AcDbLine
 62
7
  6
BYLAYER
 10
37.963216403
 20
33.8225486363
 11
37.963216403
 21
30.5459486363
  0
LINE
  5
319
100
AcDbEntity
  8
00_COMPONENTS
100
AcDbLine
 62
7
  6
BYLAYER
 10
38.1274497884
 20
33.9031235152
 11
38.1274497884
 21
30.5459486363
  0
LINE
  5
31A
100
AcDbEntity
  8
00_COMPONENTS
100
AcDbLine
 62
7
  6
BYLAYER
 10
38.3456637499
 20
30.5459486363
 11
38.3456637499
 21
34.2166880199
  0
LINE
  5
31B
100
AcDbEntity
  8
00_COMPONENTS
100
AcDbLine
 62
7
  6
BYLAYER
 10
38.4809822264
 20
34.2166880199
 11
38.4809822264
 21
30.5459486363
  0
LINE
  5
31C
100
AcDbEntity
  8
00_COMPONENTS
100
AcDbLine
 62
7
  6
BYLAYER
 10
38.8589398947
 20
30.5459486363
 11
38.8589398947
 21
33.9031235152
  0
LINE
  5
31D
100
AcDbEntity
  8
00_COMPONENTS
100
AcDbLine
 62
7
  6
BYLAYER
 10
39.0615747581
 20
30.5459486363
 11
39.0615747581
 21
33.8225486363
  0
LINE
  5
31E
100
AcDbEntity
  8
00_COMPONENTS
100
AcDbLine
 62
7
  6
BYLAYER
 10
39.1437178045
 20
33.8225486363
 11
39.1437178045
 21
30.5459486363
  0
LINE
  5
31F
100
AcDbEntity
  8
00_COMPONENTS
100
AcDbLine
 62
7
  6
BYLAYER
 10
39.2967970203
 20
33.9031235152
 11
39.2967970203
 21
30.5459486363
  0
LINE
  5
320
100
AcDbEntity
  8
00_COMPONENTS
100
AcDbLine
 62
7
  6
BYLAYER
 10
39.4812394305
 20
30.5459486363
 11
39.4812394305
 21
34.2166880199
  0
LINE
  5
321
100
AcDbEntity
  8
00_COMPONENTS
100
AcDbLine
 62
7
  6
BYLAYER
 10
48.6756582061
 20
33.9031235152
 11
48.6017900816
 21
33.968371989
  0
LINE
  5
322
100
AcDbEntity
  8
00_COMPONENTS
100
AcDbLine
 62
7
  6
BYLAYER
 10
48.8015861031
 20
33.9031235152
 11
48.7667041732
 21
33.9360711576
  0
LINE
  5
323
100
AcDbEntity
  8
00_COMPONENTS
100
AcDbLine
 62
7
  6
BYLAYER
 10
48.1199302952
 20
34.6099486363
 11
48.4839968772
 21
34.2458820543
  0
LINE
  5
324
100
AcDbEntity
  8
00_COMPONENTS
100
AcDbLine
 62
7
  6
BYLAYER
 10
48.5130108795
 20
34.2166880199
 11
48.4907674866
 21
34.239063831
  0
LINE
  5
325
100
AcDbEntity
  8
00_COMPONENTS
100
AcDbLine
 62
7
  6
BYLAYER
 10
39.6128828449
 20
34.2166880199
 11
39.6128828449
 21
30.5459486363
  0
LINE
  5
326
100
AcDbEntity
  8
00_COMPONENTS
100
AcDbLine
 62
7
  6
BYLAYER
 10
40.00842087
 20
30.5459486363
 11
40.00842087
 21
33.9031235152
  0
LINE
  5
327
100
AcDbEntity
  8
00_COMPONENTS
100
AcDbLine
 62
7
  6
BYLAYER
 10
40.2122462703
 20
30.5459486363
 11
40.2122462703
 21
33.8225486363
  0
LINE
  5
328
100
AcDbEntity
  8
00_COMPONENTS
100
AcDbLine
 62
7
  6
BYLAYER
 10
40.2918194385
 20
33.8225486363
 11
40.2918194385
 21
30.5459486363
  0
LINE
  5
329
100
AcDbEntity
  8
00_COMPONENTS
100
AcDbLine
 62
7
  6
BYLAYER
 10
40.4325794594
 20
33.9031235152
 11
40.4325794594
 21
30.5459486363
  0
LINE
  5
32A
100
AcDbEntity
  8
00_COMPONENTS
100
AcDbLine
 62
7
  6
BYLAYER
 10
40.5818466002
 20
30.5459486363
 11
40.5818466002
 21
34.2166880199
  0
LINE
  5
32B
100
AcDbEntity
  8
00_COMPONENTS
100
AcDbLine
 62
7
  6
BYLAYER
 10
40.7088130666
 20
34.2166880199
 11
40.7088130666
 21
30.5459486363
  0
LINE
  5
32C
100
AcDbEntity
  8
00_COMPONENTS
100
AcDbLine
 62
7
  6
BYLAYER
 10
41.1189211654
 20
30.5459486363
 11
41.1189211654
 21
33.9031235152
  0
LINE
  5
32D
100
AcDbEntity
  8
00_COMPONENTS
100
AcDbLine
 62
7
  6
BYLAYER
 10
32.9803048126
 20
50.2562225809
 11
30.3780302952
 21
50.2562225809
  0
LINE
  5
32E
100
AcDbEntity
  8
00_COMPONENTS
100
AcDbLine
 62
7
  6
BYLAYER
 10
29.8700302952
 20
50.2562225809
 11
26.4774262434
 21
50.2562225809
  0
LINE
  5
32F
100
AcDbEntity
  8
00_COMPONENTS
100
AcDbLine
 62
7
  6
BYLAYER
 10
25.9694262434
 20
50.2562225809
 11
22.4405302952
 21
50.2562225809
  0
LINE
  5
330
100
AcDbEntity
  8
00_COMPONENTS
100
AcDbLine
 62
7
  6
BYLAYER
 10
21.9325302952
 20
50.2562225809
 11
18.4717802952
 21
50.2562225809
  0
LINE
  5
331
100
AcDbEntity
  8
00_COMPONENTS
100
AcDbLine
 62
7
  6
BYLAYER
 10
17.9637802952
 20
50.2562225809
 11
14.5030302952
 21
50.2562225809
  0
LINE
  5
332
100
AcDbEntity
  8
00_COMPONENTS
100
AcDbLine
 62
7
  6
BYLAYER
 10
13.9950302952
 20
50.2562225809
 11
10.5342802952
 21
50.2562225809
  0
LINE
  5
333
100
AcDbEntity
  8
00_COMPONENTS
100
AcDbLine
 62
7
  6
BYLAYER
 10
10.0262802952
 20
50.2562225809
 11
6.3127908489
 21
50.2562225809
  0
LINE
  5
334
100
AcDbEntity
  8
00_COMPONENTS
100
AcDbLine
 62
7
  6
BYLAYER
 10
6.5655302952
 20
50.4849486363
 11
10.0262802952
 21
50.4849486363
  0
LINE
  5
335
100
AcDbEntity
  8
00_COMPONENTS
100
AcDbLine
 62
7
  6
BYLAYER
 10
10.5342802952
 20
50.4849486363
 11
13.9950302952
 21
50.4849486363
  0
LINE
  5
336
100
AcDbEntity
  8
00_COMPONENTS
100
AcDbLine
 62
7
  6
BYLAYER
 10
14.5030302952
 20
50.4849486363
 11
17.9637802952
 21
50.4849486363
  0
LINE
  5
337
100
AcDbEntity
  8
00_COMPONENTS
100
AcDbLine
 62
7
  6
BYLAYER
 10
18.4717802952
 20
50.4849486363
 11
21.9325302952
 21
50.4849486363
  0
LINE
  5
338
100
AcDbEntity
  8
00_COMPONENTS
100
AcDbLine
 62
7
  6
BYLAYER
 10
22.4405302952
 20
50.4849486363
 11
25.9694262434
 21
50.4849486363
  0
LINE
  5
339
100
AcDbEntity
  8
00_COMPONENTS
100
AcDbLine
 62
7
  6
BYLAYER
 10
26.4774262434
 20
50.4849486363
 11
29.8700302952
 21
50.4849486363
  0
LINE
  5
33A
100
AcDbEntity
  8
00_COMPONENTS
100
AcDbLine
 62
7
  6
BYLAYER
 10
30.3780302952
 20
50.4849486363
 11
32.8677193486
 21
50.4849486363
  0
LINE
  5
33B
100
AcDbEntity
  8
00_COMPONENTS
100
AcDbLine
 62
7
  6
BYLAYER
 10
48.7795873423
 20
33.9461263642
 11
48.8216120233
 21
33.9031235152
  0
LINE
  5
33C
100
AcDbEntity
  8
00_COMPONENTS
100
AcDbLine
 62
7
  6
BYLAYER
 10
34.7417096553
 20
49.5081324899
 11
45.1735302952
 21
34.6099486363
  0
LINE
  5
33D
100
AcDbEntity
  8
00_COMPONENTS
100
AcDbLine
 62
7
  6
BYLAYER
 10
41.3223858682
 20
30.5459486363
 11
41.3223858682
 21
33.8225486363
  0
LINE
  5
33E
100
AcDbEntity
  8
00_COMPONENTS
100
AcDbLine
 62
7
  6
BYLAYER
 10
41.3987835583
 20
33.8225486363
 11
41.3987835583
 21
30.5459486363
  0
LINE
  5
33F
100
AcDbEntity
  8
00_COMPONENTS
100
AcDbLine
 62
7
  6
BYLAYER
 10
41.5261531156
 20
33.9031235152
 11
41.5261531156
 21
30.5459486363
  0
LINE
  5
340
100
AcDbEntity
  8
00_COMPONENTS
100
AcDbLine
 62
7
  6
BYLAYER
 10
41.6391089739
 20
30.5459486363
 11
41.6391089739
 21
34.2166880199
  0
LINE
  5
341
100
AcDbEntity
  8
00_COMPONENTS
100
AcDbLine
 62
7
  6
BYLAYER
 10
41.7604322008
 20
34.2166880199
 11
41.7604322008
 21
30.5459486363
  0
LINE
  5
342
100
AcDbEntity
  8
00_COMPONENTS
100
AcDbLine
 62
7
  6
BYLAYER
 10
42.181989203
 20
30.5459486363
 11
42.181989203
 21
33.9031235152
  0
LINE
  5
343
100
AcDbEntity
  8
00_COMPONENTS
100
AcDbLine
 62
7
  6
BYLAYER
 10
42.3835447191
 20
30.5459486363
 11
42.3835447191
 21
33.8225486363
  0
LINE
  5
344
100
AcDbEntity
  8
00_COMPONENTS
100
AcDbLine
 62
7
  6
BYLAYER
 10
42.4561854986
 20
33.8225486363
 11
42.4561854986
 21
30.5459486363
  0
LINE
  5
345
100
AcDbEntity
  8
00_COMPONENTS
100
AcDbLine
 62
7
  6
BYLAYER
 10
42.569195233
 20
33.9031235152
 11
42.569195233
 21
30.5459486363
  0
LINE
  5
346
100
AcDbEntity
  8
00_COMPONENTS
100
AcDbLine
 62
7
  6
BYLAYER
 10
42.6449801465
 20
30.5459486363
 11
42.6449801465
 21
34.2166880199
  0
LINE
  5
347
100
AcDbEntity
  8
00_COMPONENTS
100
AcDbLine
 62
7
  6
BYLAYER
 10
42.759736791
 20
34.2166880199
 11
42.759736791
 21
30.5459486363
  0
LINE
  5
348
100
AcDbEntity
  8
00_COMPONENTS
100
AcDbLine
 62
7
  6
BYLAYER
 10
43.1895343932
 20
30.5459486363
 11
43.1895343932
 21
33.9031235152
  0
LINE
  5
349
100
AcDbEntity
  8
00_COMPONENTS
100
AcDbLine
 62
7
  6
BYLAYER
 10
43.3876467635
 20
30.5459486363
 11
43.3876467635
 21
33.8225486363
  0
LINE
  5
34A
100
AcDbEntity
  8
00_COMPONENTS
100
AcDbLine
 62
7
  6
BYLAYER
 10
43.4559777921
 20
33.8225486363
 11
43.4559777921
 21
30.5459486363
  0
LINE
  5
34B
100
AcDbEntity
  8
00_COMPONENTS
100
AcDbLine
 62
7
  6
BYLAYER
 10
43.5537676313
 20
33.9031235152
 11
43.5537676313
 21
30.5459486363
  0
LINE
  5
34C
100
AcDbEntity
  8
00_COMPONENTS
100
AcDbLine
 62
7
  6
BYLAYER
 10
43.5918048311
 20
30.5459486363
 11
43.5918048311
 21
34.2166880199
  0
LINE
  5
34D
100
AcDbEntity
  8
00_COMPONENTS
100
AcDbLine
 62
7
  6
BYLAYER
 10
43.6991215258
 20
34.2166880199
 11
43.6991215258
 21
30.5459486363
  0
LINE
  5
34E
100
AcDbEntity
  8
00_COMPONENTS
100
AcDbLine
 62
7
  6
BYLAYER
 10
44.1338887088
 20
30.5459486363
 11
44.1338887088
 21
33.9031235152
  0
LINE
  5
34F
100
AcDbEntity
  8
00_COMPONENTS
100
AcDbLine
 62
7
  6
BYLAYER
 10
44.3270501783
 20
30.5459486363
 11
44.3270501783
 21
33.8225486363
  0
LINE
  5
350
100
AcDbEntity
  8
00_COMPONENTS
100
AcDbLine
 62
7
  6
BYLAYER
 10
44.3905514157
 20
33.8225486363
 11
44.3905514157
 21
30.5459486363
  0
LINE
  5
351
100
AcDbEntity
  8
00_COMPONENTS
100
AcDbLine
 62
7
  6
BYLAYER
 10
44.4723771201
 20
34.2166880199
 11
44.4723771201
 21
30.5459486363
  0
LINE
  5
352
100
AcDbEntity
  8
00_COMPONENTS
100
AcDbLine
 62
7
  6
BYLAYER
 10
45.2799953266
 20
34.2166880199
 11
45.2796183734
 21
34.2225533107
  0
LINE
  5
353
100
AcDbEntity
  8
00_COMPONENTS
100
AcDbLine
 62
7
  6
BYLAYER
 10
45.3180325264
 20
33.9031235152
 11
45.318999073
 21
33.8877177606
  0
LINE
  5
354
100
AcDbEntity
  8
00_COMPONENTS
100
AcDbLine
 62
7
  6
BYLAYER
 10
44.5714371201
 20
34.2166880199
 11
44.5714371201
 21
30.5459486363
  0
LINE
  5
355
100
AcDbEntity
  8
00_COMPONENTS
100
AcDbLine
 62
7
  6
BYLAYER
 10
45.0078650431
 20
30.5459486363
 11
45.0078650431
 21
33.9031235152
  0
LINE
  5
356
100
AcDbEntity
  8
00_COMPONENTS
100
AcDbLine
 62
7
  6
BYLAYER
 10
45.1946055366
 20
30.5459486363
 11
45.1946055366
 21
33.8225486363
  0
LINE
  5
357
100
AcDbEntity
  8
00_COMPONENTS
100
AcDbLine
 62
7
  6
BYLAYER
 10
45.2527937
 20
33.8225486363
 11
45.2527937
 21
30.5459486363
  0
LINE
  5
358
100
AcDbEntity
  8
00_COMPONENTS
100
AcDbLine
 62
7
  6
BYLAYER
 10
45.3189990731
 20
30.5459486363
 11
45.3189990731
 21
33.8877060363
  0
LINE
  5
359
100
AcDbEntity
  8
00_COMPONENTS
100
AcDbLine
 62
7
  6
BYLAYER
 10
45.3700447255
 20
34.2166880199
 11
45.3700447255
 21
30.5459486363
  0
LINE
  5
35A
100
AcDbEntity
  8
00_COMPONENTS
100
AcDbLine
 62
7
  6
BYLAYER
 10
45.8048119085
 20
30.5459486363
 11
45.8048119085
 21
33.9031235152
  0
LINE
  5
35B
100
AcDbEntity
  8
00_COMPONENTS
100
AcDbLine
 62
7
  6
BYLAYER
 10
45.983710218
 20
30.5459486363
 11
45.983710218
 21
33.8225486363
  0
LINE
  5
35C
100
AcDbEntity
  8
00_COMPONENTS
100
AcDbLine
 62
7
  6
BYLAYER
 10
46.0361424604
 20
33.8225486363
 11
46.0361424604
 21
30.5459486363
  0
LINE
  5
35D
100
AcDbEntity
  8
00_COMPONENTS
100
AcDbLine
 62
7
  6
BYLAYER
 10
46.0881567328
 20
30.5459486363
 11
46.0881567328
 21
33.8737139786
  0
LINE
  5
35E
100
AcDbEntity
  8
00_COMPONENTS
100
AcDbLine
 62
7
  6
BYLAYER
 10
46.0888664561
 20
34.2166880199
 11
46.0888664561
 21
33.9031235152
  0
LINE
  5
35F
100
AcDbEntity
  8
00_COMPONENTS
100
AcDbLine
 62
7
  6
BYLAYER
 10
48.7950082688
 20
33.8245838695
 11
48.7929359067
 21
33.8225486363
  0
LINE
  5
360
100
AcDbEntity
  8
00_COMPONENTS
100
AcDbLine
 62
7
  6
BYLAYER
 10
48.5900908146
 20
33.8282925459
 11
48.5842376876
 21
33.8225486363
  0
LINE
  5
361
100
AcDbEntity
  8
00_COMPONENTS
100
AcDbLine
 62
7
  6
BYLAYER
 10
48.8960069009
 20
33.8227437853
 11
48.8957979822
 21
33.8225486363
  0
LINE
  5
362
100
AcDbEntity
  8
00_COMPONENTS
100
AcDbLine
 62
7
  6
BYLAYER
 10
47.6672764053
 20
34.2166880199
 11
47.6579952547
 21
34.2398674436
  0
LINE
  5
363
100
AcDbEntity
  8
00_COMPONENTS
100
AcDbLine
 62
7
  6
BYLAYER
 10
47.2067130408
 20
34.2166880199
 11
47.2007389919
 21
34.2365373599
  0
LINE
  5
364
100
AcDbEntity
  8
00_COMPONENTS
100
AcDbLine
 62
7
  6
BYLAYER
 10
46.6523856465
 20
34.2166880199
 11
46.6490102589
 21
34.2325235189
  0
LINE
  5
365
100
AcDbEntity
  8
00_COMPONENTS
100
AcDbLine
 62
7
  6
BYLAYER
 10
46.7653415048
 20
33.9031235152
 11
46.7739963449
 21
33.8612526427
  0
LINE
  5
366
100
AcDbEntity
  8
00_COMPONENTS
100
AcDbLine
 62
7
  6
BYLAYER
 10
46.0085129885
 20
34.2166880199
 11
46.0070080445
 21
34.2278461331
  0
LINE
  5
367
100
AcDbEntity
  8
00_COMPONENTS
100
AcDbLine
 62
7
  6
BYLAYER
 10
46.084297902
 20
33.9031235152
 11
46.0881567328
 21
33.8737105555
  0
LINE
  5
368
100
AcDbEntity
  8
00_COMPONENTS
100
AcDbLine
 62
7
  6
BYLAYER
 10
46.5186640583
 20
30.5459486363
 11
46.5186640583
 21
33.9031235152
  0
LINE
  5
369
100
AcDbEntity
  8
00_COMPONENTS
100
AcDbLine
 62
7
  6
BYLAYER
 10
46.6883586596
 20
30.5459486363
 11
46.6883586596
 21
33.8225486363
  0
LINE
  5
36A
100
AcDbEntity
  8
00_COMPONENTS
100
AcDbLine
 62
7
  6
BYLAYER
 10
46.7224316442
 20
34.2166880199
 11
46.7224316442
 21
34.0229831343
  0
LINE
  5
36B
100
AcDbEntity
  8
00_COMPONENTS
100
AcDbLine
 62
7
  6
BYLAYER
 10
46.7346359399
 20
33.8225486363
 11
46.7346359399
 21
30.5459486363
  0
LINE
  5
36C
100
AcDbEntity
  8
00_COMPONENTS
100
AcDbLine
 62
7
  6
BYLAYER
 10
46.7739963449
 20
30.5459486363
 11
46.7739963449
 21
33.8612494022
  0
LINE
  5
36D
100
AcDbEntity
  8
00_COMPONENTS
100
AcDbLine
 62
7
  6
BYLAYER
 10
47.1439886464
 20
30.5459486363
 11
47.1439886464
 21
33.9031235152
  0
LINE
  5
36E
100
AcDbEntity
  8
00_COMPONENTS
100
AcDbLine
 62
7
  6
BYLAYER
 10
47.2659184765
 20
34.2166880199
 11
47.2659184765
 21
34.0930589605
  0
LINE
  5
36F
100
AcDbEntity
  8
00_COMPONENTS
100
AcDbLine
 62
7
  6
BYLAYER
 10
47.3031880612
 20
30.5459486363
 11
47.3031880612
 21
33.8225486363
  0
LINE
  5
370
100
AcDbEntity
  8
00_COMPONENTS
100
AcDbLine
 62
7
  6
BYLAYER
 10
47.3429581814
 20
33.8225486363
 11
47.3429581814
 21
30.5459486363
  0
LINE
  5
371
100
AcDbEntity
  8
00_COMPONENTS
100
AcDbLine
 62
7
  6
BYLAYER
 10
47.3712982559
 20
30.5459486363
 11
47.3712982559
 21
33.8225486363
  0
LINE
  5
372
100
AcDbEntity
  8
00_COMPONENTS
100
AcDbLine
 62
7
  6
BYLAYER
 10
47.6760265752
 20
30.5459486363
 11
47.6760265752
 21
33.9031235152
  0
LINE
  5
373
100
AcDbEntity
  8
00_COMPONENTS
100
AcDbLine
 62
7
  6
BYLAYER
 10
47.7151906897
 20
34.2166880199
 11
47.7151906897
 21
34.1358117846
  0
LINE
  5
374
100
AcDbEntity
  8
00_COMPONENTS
100
AcDbLine
 62
7
  6
BYLAYER
 10
47.8235191998
 20
30.5459486363
 11
47.8235191998
 21
33.8225486363
  0
LINE
  5
375
100
AcDbEntity
  8
00_COMPONENTS
100
AcDbLine
 62
7
  6
BYLAYER
 10
47.8564794853
 20
33.8225486363
 11
47.8564794853
 21
30.5459486363
  0
LINE
  5
376
100
AcDbEntity
  8
00_COMPONENTS
100
AcDbLine
 62
7
  6
BYLAYER
 10
47.8755166376
 20
30.5459486363
 11
47.8755166376
 21
33.8225486363
  0
LINE
  5
377
100
AcDbEntity
  8
00_COMPONENTS
100
AcDbLine
 62
7
  6
BYLAYER
 10
48.0668290512
 20
34.2166880199
 11
48.0668290512
 21
34.164957871
  0
LINE
  5
378
100
AcDbEntity
  8
00_COMPONENTS
100
AcDbLine
 62
7
  6
BYLAYER
 10
48.1107287148
 20
30.5459486363
 11
48.1107287148
 21
33.9031235152
  0
LINE
  5
379
100
AcDbEntity
  8
00_COMPONENTS
100
AcDbLine
 62
7
  6
BYLAYER
 10
48.2453920413
 20
30.5459486363
 11
48.2453920413
 21
33.8225486363
  0
LINE
  5
37A
100
AcDbEntity
  8
00_COMPONENTS
100
AcDbLine
 62
7
  6
BYLAYER
 10
48.2712916444
 20
33.8225486363
 11
48.2712916444
 21
30.5459486363
  0
LINE
  5
37B
100
AcDbEntity
  8
00_COMPONENTS
100
AcDbLine
 62
7
  6
BYLAYER
 10
48.2828140837
 20
30.5459486363
 11
48.2828140837
 21
33.8225486363
  0
LINE
  5
37C
100
AcDbEntity
  8
00_COMPONENTS
100
AcDbLine
 62
7
  6
BYLAYER
 10
48.3181573807
 20
34.2166880199
 11
48.3181573807
 21
34.1864330705
  0
LINE
  5
37D
100
AcDbEntity
  8
00_COMPONENTS
100
AcDbLine
 62
7
  6
BYLAYER
 10
48.4447867195
 20
30.5459486363
 11
48.4447867195
 21
33.9031235152
  0
LINE
  5
37E
100
AcDbEntity
  8
00_COMPONENTS
100
AcDbLine
 62
7
  6
BYLAYER
 10
48.4672629179
 20
34.2166880199
 11
48.4672629179
 21
34.2031378103
  0
LINE
  5
37F
100
AcDbEntity
  8
00_COMPONENTS
100
AcDbLine
 62
7
  6
BYLAYER
 10
48.5655958786
 20
30.5459486363
 11
48.5655958786
 21
33.8225486363
  0
LINE
  5
380
100
AcDbEntity
  8
00_COMPONENTS
100
AcDbLine
 62
7
  6
BYLAYER
 10
48.5842376876
 20
33.8225486363
 11
48.5842376876
 21
30.5459486363
  0
LINE
  5
381
100
AcDbEntity
  8
00_COMPONENTS
100
AcDbLine
 62
7
  6
BYLAYER
 10
48.5900908146
 20
30.5459486363
 11
48.5900908146
 21
33.8282969067
  0
LINE
  5
382
100
AcDbEntity
  8
00_COMPONENTS
100
AcDbLine
 62
7
  6
BYLAYER
 10
48.6756582061
 20
30.5459486363
 11
48.6756582061
 21
33.9031235152
  0
LINE
  5
383
100
AcDbEntity
  8
00_COMPONENTS
100
AcDbLine
 62
7
  6
BYLAYER
 10
48.7816937672
 20
30.5459486363
 11
48.7816937672
 21
33.8225486363
  0
LINE
  5
384
100
AcDbEntity
  8
00_COMPONENTS
100
AcDbLine
 62
7
  6
BYLAYER
 10
48.7929359067
 20
33.8225486363
 11
48.7929359067
 21
30.5459486363
  0
LINE
  5
385
100
AcDbEntity
  8
00_COMPONENTS
100
AcDbLine
 62
7
  6
BYLAYER
 10
48.7950082688
 20
30.5459486363
 11
48.7950082688
 21
33.8245836033
  0
LINE
  5
386
100
AcDbEntity
  8
00_COMPONENTS
100
AcDbLine
 62
7
  6
BYLAYER
 10
48.8015861031
 20
30.5459486363
 11
48.8015861031
 21
33.9031235152
  0
LINE
  5
387
100
AcDbEntity
  8
00_COMPONENTS
100
AcDbLine
 62
7
  6
BYLAYER
 10
48.8920410716
 20
30.5459486363
 11
48.8920410716
 21
33.8225486363
  0
LINE
  5
388
100
AcDbEntity
  8
00_COMPONENTS
100
AcDbLine
 62
7
  6
BYLAYER
 10
48.8957979822
 20
33.8225486363
 11
48.8957979822
 21
30.5459486363
  0
LINE
  5
389
100
AcDbEntity
  8
00_COMPONENTS
100
AcDbLine
 62
7
  6
BYLAYER
 10
48.9073302952
 20
29.8347486363
 11
48.9073302952
 21
30.5459486363
  0
LINE
  5
38A
100
AcDbEntity
  8
00_COMPONENTS
100
AcDbLine
 62
7
  6
BYLAYER
 10
49.3645302952
 20
26.2787486363
 11
49.3645302952
 21
29.5807486363
  0
ARC
  5
38B
100
AcDbEntity
  8
00_COMPONENTS
100
AcDbCircle
 62
7
  6
BYLAYER
 10
-96.1609012981
 20
19.21680294
 40
123.2582652745
100
AcDbArc
 50
6.8430952225
 51
6.9899223285
  0
ARC
  5
38C
100
AcDbEntity
  8
00_COMPONENTS
100
AcDbCircle
 62
7
  6
BYLAYER
 10
-76.5352281616
 20
19.2807029631
 40
122.7274717538
100
AcDbArc
 50
6.8427869799
 51
6.9902489126
  0
ARC
  5
38D
100
AcDbEntity
  8
00_COMPONENTS
100
AcDbCircle
 62
7
  6
BYLAYER
 10
-36.9065683661
 20
18.574333845
 40
65.9175204705
100
AcDbArc
 50
13.4469528689
 51
13.7273523871
  0
ARC
  5
38E
100
AcDbEntity
  8
00_COMPONENTS
100
AcDbCircle
 62
7
  6
BYLAYER
 10
-17.7507810685
 20
18.6408637839
 40
65.6342431912
100
AcDbArc
 50
13.4463647652
 51
13.7279741517
  0
ARC
  5
38F
100
AcDbEntity
  8
00_COMPONENTS
100
AcDbCircle
 62
7
  6
BYLAYER
 10
13.7595776716
 20
-9.128625736
 40
53.180700515
100
AcDbArc
 50
54.014040472
 51
54.5930197611
  0
ARC
  5
390
100
AcDbEntity
  8
00_COMPONENTS
100
AcDbCircle
 62
7
  6
BYLAYER
 10
14.5948939949
 20
-8.9122311919
 40
52.9831442524
100
AcDbArc
 50
53.9101143876
 51
54.4897949418
  0
ARC
  5
391
100
AcDbEntity
  8
00_COMPONENTS
100
AcDbCircle
 62
7
  6
BYLAYER
 10
12.9239707957
 20
-8.9122311917
 40
52.9831442519
100
AcDbArc
 50
53.9101143879
 51
54.4897949421
  0
ARC
  5
392
100
AcDbEntity
  8
00_COMPONENTS
100
AcDbCircle
 62
7
  6
BYLAYER
 10
15.4217001644
 20
-8.2696223824
 40
52.3981074082
100
AcDbArc
 50
53.5960094463
 51
54.1777635589
  0
ARC
  5
393
100
AcDbEntity
  8
00_COMPONENTS
100
AcDbCircle
 62
7
  6
BYLAYER
 10
12.0925704999
 20
-8.2696223819
 40
52.3981074074
100
AcDbArc
 50
53.5960094464
 51
54.1777635591
  0
ARC
  5
394
100
AcDbEntity
  8
00_COMPONENTS
100
AcDbCircle
 62
7
  6
BYLAYER
 10
11.2659567646
 20
-7.2203239975
 40
51.4484110256
100
AcDbArc
 50
53.0646668204
 51
53.6497708104
  0
ARC
  5
395
100
AcDbEntity
  8
00_COMPONENTS
100
AcDbCircle
 62
7
  6
BYLAYER
 10
16.2279562087
 20
-7.2203239971
 40
51.4484110249
100
AcDbArc
 50
53.0646668208
 51
53.6497708108
  0
ARC
  5
396
100
AcDbEntity
  8
00_COMPONENTS
100
AcDbCircle
 62
7
  6
BYLAYER
 10
16.9973838901
 20
-5.796217329
 40
50.1718724034
100
AcDbArc
 50
52.3040613184
 51
52.8936132883
  0
ARC
  5
397
100
AcDbEntity
  8
00_COMPONENTS
100
AcDbCircle
 62
7
  6
BYLAYER
 10
10.4402784805
 20
-5.7962173286
 40
50.1718724029
100
AcDbArc
 50
52.3040613184
 51
52.8936132883
  0
ARC
  5
398
100
AcDbEntity
  8
00_COMPONENTS
100
AcDbCircle
 62
7
  6
BYLAYER
 10
9.4055809096
 20
-4.2938030733
 40
48.9442439357
100
AcDbArc
 50
51.2987836976
 51
51.8896641967
  0
ARC
  5
399
100
AcDbEntity
  8
00_COMPONENTS
100
AcDbCircle
 62
7
  6
BYLAYER
 10
17.5078888095
 20
-4.2938030046
 40
48.9442438478
100
AcDbArc
 50
51.2987836977
 51
51.8896641978
  0
ARC
  5
39A
100
AcDbEntity
  8
00_COMPONENTS
100
AcDbCircle
 62
7
  6
BYLAYER
 10
-17.7097511647
 20
17.5252284458
 40
48.7878050358
100
AcDbArc
 50
19.6148969036
 51
20.0063087378
  0
ARC
  5
39B
100
AcDbEntity
  8
00_COMPONENTS
100
AcDbCircle
 62
7
  6
BYLAYER
 10
1.0054467321
 20
17.5960885971
 40
48.5786718368
100
AcDbArc
 50
19.6140769418
 51
20.007173421
  0
ARC
  5
39C
100
AcDbEntity
  8
00_COMPONENTS
100
AcDbCircle
 62
7
  6
BYLAYER
 10
8.5454935429
 20
-2.2508798276
 40
47.1806844739
100
AcDbArc
 50
50.0217354789
 51
50.6181198134
  0
ARC
  5
39D
100
AcDbEntity
  8
00_COMPONENTS
100
AcDbCircle
 62
7
  6
BYLAYER
 10
18.1313404926
 20
-2.2508796776
 40
47.1806842788
100
AcDbArc
 50
50.021735478
 51
50.618119815
  0
ARC
  5
39E
100
AcDbEntity
  8
00_COMPONENTS
100
AcDbCircle
 62
7
  6
BYLAYER
 10
7.6347317817
 20
0.0094055596
 40
45.2929992244
100
AcDbArc
 50
48.4451758254
 51
49.0467264688
  0
ARC
  5
39F
100
AcDbEntity
  8
00_COMPONENTS
100
AcDbCircle
 62
7
  6
BYLAYER
 10
18.9430269744
 20
0.3658547777
 40
44.8193841722
100
AcDbArc
 50
48.567259821
 51
49.0491564839
  0
ARC
  5
3A0
100
AcDbEntity
  8
00_COMPONENTS
100
AcDbCircle
 62
7
  6
BYLAYER
 10
6.6342417681
 20
2.41837509
 40
43.3815023489
100
AcDbArc
 50
46.5324710264
 51
47.1378503773
  0
ARC
  5
3A1
100
AcDbEntity
  8
00_COMPONENTS
100
AcDbCircle
 62
7
  6
BYLAYER
 10
19.1358811253
 20
2.6088854796
 40
43.120565155
100
AcDbArc
 50
46.5940566831
 51
47.1393243867
  0
ARC
  5
3A2
100
AcDbEntity
  8
00_COMPONENTS
100
AcDbCircle
 62
7
  6
BYLAYER
 10
-8.4595504305
 20
16.1013815409
 40
41.7821062582
100
AcDbArc
 50
25.2178640005
 51
25.694090611
  0
ARC
  5
3A3
100
AcDbEntity
  8
00_COMPONENTS
100
AcDbCircle
 62
7
  6
BYLAYER
 10
9.7172014896
 20
16.1781224206
 40
41.6035253942
100
AcDbArc
 50
25.2168677272
 51
25.6951381189
  0
ARC
  5
3A4
100
AcDbEntity
  8
00_COMPONENTS
100
AcDbCircle
 62
7
  6
BYLAYER
 10
5.779355525
 20
5.1926876646
 40
41.1546208894
100
AcDbArc
 50
44.2366567552
 51
44.8491636481
  0
ARC
  5
3A5
100
AcDbEntity
  8
00_COMPONENTS
100
AcDbCircle
 62
7
  6
BYLAYER
 10
19.6122756454
 20
5.4657617798
 40
40.7660184067
100
AcDbArc
 50
44.3173075744
 51
44.8511161076
  0
ARC
  5
3A6
100
AcDbEntity
  8
00_COMPONENTS
100
AcDbCircle
 62
7
  6
BYLAYER
 10
4.4062639935
 20
7.6653515054
 40
39.5869318755
100
AcDbArc
 50
41.5129050271
 51
42.1218585367
  0
ARC
  5
3A7
100
AcDbEntity
  8
00_COMPONENTS
100
AcDbCircle
 62
7
  6
BYLAYER
 10
19.2169423571
 20
7.7765438316
 40
39.4201514999
100
AcDbArc
 50
41.5116391428
 51
42.1231689356
  0
ARC
  5
3A8
100
AcDbEntity
  8
00_COMPONENTS
100
AcDbCircle
 62
7
  6
BYLAYER
 10
-3.1308292198
 20
14.3460767668
 40
38.8833481494
100
AcDbArc
 50
30.1964999001
 51
30.7325547272
  0
ARC
  5
3A9
100
AcDbEntity
  8
00_COMPONENTS
100
AcDbCircle
 62
7
  6
BYLAYER
 10
14.3874211021
 20
14.4300492868
 40
38.7176941637
100
AcDbArc
 50
30.1953801378
 51
30.7337281349
  0
ARC
  5
3AA
100
AcDbEntity
  8
00_COMPONENTS
100
AcDbCircle
 62
7
  6
BYLAYER
 10
2.6551342235
 20
10.0629694306
 40
38.4637014978
100
AcDbArc
 50
38.3021988464
 51
38.8998759785
  0
ARC
  5
3AB
100
AcDbEntity
  8
00_COMPONENTS
100
AcDbCircle
 62
7
  6
BYLAYER
 10
18.4868183032
 20
10.1644560897
 40
38.3010162596
100
AcDbArc
 50
38.3009543433
 51
38.9011699499
  0
ARC
  5
3AC
100
AcDbEntity
  8
00_COMPONENTS
100
AcDbCircle
 62
7
  6
BYLAYER
 10
0.2865886267
 20
12.3126704925
 40
38.0727715502
100
AcDbArc
 50
34.5471215125
 51
35.1220282492
  0
ARC
  5
3AD
100
AcDbEntity
  8
00_COMPONENTS
100
AcDbCircle
 62
7
  6
BYLAYER
 10
17.0224434931
 20
12.404983688
 40
37.911138086
100
AcDbArc
 50
34.5459224783
 51
35.1232800501
  0
ARC
  5
3AE
100
AcDbEntity
  8
00_COMPONENTS
100
AcDbCircle
 62
7
  6
BYLAYER
 10
24.8430403041
 20
30.1087499246
 40
5.4352329474
100
AcDbArc
 50
135.7246835255
 51
136.1515830519
  0
ARC
  5
3AF
100
AcDbEntity
  8
00_COMPONENTS
100
AcDbCircle
 62
7
  6
BYLAYER
 10
17.9017286071
 20
37.1403155773
 40
4.4612500733
100
AcDbArc
 50
312.8276865742
 51
313.4791817569
  0
ARC
  5
3B0
100
AcDbEntity
  8
00_COMPONENTS
100
AcDbCircle
 62
7
  6
BYLAYER
 10
22.6866566572
 20
34.5965665727
 40
2.485132609
100
AcDbArc
 50
60.3166301416
 51
68.4514476834
  0
ARC
  5
3B1
100
AcDbEntity
  8
00_COMPONENTS
100
AcDbCircle
 62
7
  6
BYLAYER
 10
22.6639155029
 20
34.611419594
 40
2.4724116482
100
AcDbArc
 50
59.538956381
 51
67.9315329449
  0
ARC
  5
3B2
100
AcDbEntity
  8
00_COMPONENTS
100
AcDbCircle
 62
7
  6
BYLAYER
 10
22.7005092929
 20
34.6348572736
 40
2.4444305295
100
AcDbArc
 50
68.4238046496
 51
84.768580258
  0
ARC
  5
3B3
100
AcDbEntity
  8
00_COMPONENTS
100
AcDbCircle
 62
7
  6
BYLAYER
 10
22.6770371305
 20
34.6465671384
 40
2.4349094107
100
AcDbArc
 50
67.9069394122
 51
84.1962436452
  0
ARC
  5
3B4
100
AcDbEntity
  8
00_COMPONENTS
100
AcDbCircle
 62
7
  6
BYLAYER
 10
32.8677193486
 20
48.1989486363
 40
2.286
100
AcDbArc
 50
34.9384416795
 51
90.0
  0
ARC
  5
3B5
100
AcDbEntity
  8
00_COMPONENTS
100
AcDbCircle
 62
7
  6
BYLAYER
 10
20.6625302952
 20
29.5807486363
 40
0.254
100
AcDbArc
 50
90.0
 51
180.0
  0
ARC
  5
3B6
100
AcDbEntity
  8
00_COMPONENTS
100
AcDbCircle
 62
7
  6
BYLAYER
 10
6.5655302952
 20
50.2309486363
 40
0.254
100
AcDbArc
 50
90.0
 51
180.0
  0
ARC
  5
3B7
100
AcDbEntity
  8
00_COMPONENTS
100
AcDbCircle
 62
7
  6
BYLAYER
 10
146.8365682698
 20
19.2166407844
 40
123.2596209556
100
AcDbArc
 50
173.0100789729
 51
173.1569044848
  0
ARC
  5
3B8
100
AcDbEntity
  8
00_COMPONENTS
100
AcDbCircle
 62
7
  6
BYLAYER
 10
165.40702841
 20
19.2807029521
 40
122.7274718452
100
AcDbArc
 50
173.0097510875
 51
173.15721302
  0
ARC
  5
3B9
100
AcDbEntity
  8
00_COMPONENTS
100
AcDbCircle
 62
7
  6
BYLAYER
 10
87.8005992713
 20
18.5739971086
 40
65.9189631777
100
AcDbArc
 50
166.2726525623
 51
166.553046021
  0
ARC
  5
3BA
100
AcDbEntity
  8
00_COMPONENTS
100
AcDbCircle
 62
7
  6
BYLAYER
 10
106.4042743475
 20
18.6408637494
 40
65.6342433392
100
AcDbArc
 50
166.2720258488
 51
166.5536352347
  0
ARC
  5
3BB
100
AcDbEntity
  8
00_COMPONENTS
100
AcDbCircle
 62
7
  6
BYLAYER
 10
56.0135189825
 20
-9.1286274525
 40
53.1807230945
100
AcDbArc
 50
125.4070104268
 51
125.9859898807
  0
ARC
  5
3BC
100
AcDbEntity
  8
00_COMPONENTS
100
AcDbCircle
 62
7
  6
BYLAYER
 10
55.1782060997
 20
-8.9122344498
 40
52.9831701552
100
AcDbArc
 50
125.5102373675
 51
126.0899180587
  0
ARC
  5
3BD
100
AcDbEntity
  8
00_COMPONENTS
100
AcDbCircle
 62
7
  6
BYLAYER
 10
56.8491220354
 20
-8.9122313128
 40
52.9831633412
100
AcDbArc
 50
125.510232963
 51
126.0899137091
  0
ARC
  5
3BE
100
AcDbEntity
  8
00_COMPONENTS
100
AcDbCircle
 62
7
  6
BYLAYER
 10
54.3514029409
 20
-8.2696270696
 40
52.3981364122
100
AcDbArc
 50
125.8222707077
 51
126.4040249286
  0
ARC
  5
3BF
100
AcDbEntity
  8
00_COMPONENTS
100
AcDbCircle
 62
7
  6
BYLAYER
 10
57.680518183
 20
-8.2696209116
 40
52.3981228962
100
AcDbArc
 50
125.8222619007
 51
126.4040162313
  0
ARC
  5
3C0
100
AcDbEntity
  8
00_COMPONENTS
100
AcDbCircle
 62
7
  6
BYLAYER
 10
53.5451494446
 20
-7.2203299518
 40
51.4484428634
100
AcDbArc
 50
126.3502652387
 51
126.9353693074
  0
ARC
  5
3C1
100
AcDbEntity
  8
00_COMPONENTS
100
AcDbCircle
 62
7
  6
BYLAYER
 10
58.5071275125
 20
-7.2203210006
 40
51.4484228638
100
AcDbArc
 50
126.3502520369
 51
126.9353562701
  0
ARC
  5
3C2
100
AcDbEntity
  8
00_COMPONENTS
100
AcDbCircle
 62
7
  6
BYLAYER
 10
52.7757238326
 20
-5.796224347
 40
50.1719067765
100
AcDbArc
 50
127.1064243524
 51
127.6959763705
  0
ARC
  5
3C3
100
AcDbEntity
  8
00_COMPONENTS
100
AcDbCircle
 62
7
  6
BYLAYER
 10
59.3328012055
 20
-5.7962129257
 40
50.1718805955
100
AcDbArc
 50
127.106406774
 51
127.6959590112
  0
ARC
  5
3C4
100
AcDbEntity
  8
00_COMPONENTS
100
AcDbCircle
 62
7
  6
BYLAYER
 10
68.9658739769
 20
17.5246931355
 40
48.7893941622
100
AcDbArc
 50
159.9937015535
 51
160.3851007948
  0
ARC
  5
3C5
100
AcDbEntity
  8
00_COMPONENTS
100
AcDbCircle
 62
7
  6
BYLAYER
 10
52.141871157
 20
-4.1382147908
 40
48.7457252989
100
AcDbArc
 50
128.1091713905
 51
128.7024587556
  0
ARC
  5
3C6
100
AcDbEntity
  8
00_COMPONENTS
100
AcDbCircle
 62
7
  6
BYLAYER
 10
60.240119911
 20
-4.1331244617
 40
48.7392147351
100
AcDbArc
 50
128.1091100457
 51
128.7024765446
  0
ARC
  5
3C7
100
AcDbEntity
  8
00_COMPONENTS
100
AcDbCircle
 62
7
  6
BYLAYER
 10
87.2860478484
 20
17.5960886115
 40
48.5786717944
100
AcDbArc
 50
159.9928265789
 51
160.3859230585
  0
ARC
  5
3C8
100
AcDbEntity
  8
00_COMPONENTS
100
AcDbCircle
 62
7
  6
BYLAYER
 10
51.5197048661
 20
-2.1037557399
 40
46.9895505323
100
AcDbArc
 50
129.380707129
 51
129.9795178061
  0
ARC
  5
3C9
100
AcDbEntity
  8
00_COMPONENTS
100
AcDbCircle
 62
7
  6
BYLAYER
 10
61.1007931082
 20
-2.0980534485
 40
46.9821235589
100
AcDbArc
 50
129.3806338664
 51
129.9795390519
  0
ARC
  5
3CA
100
AcDbEntity
  8
00_COMPONENTS
100
AcDbCircle
 62
7
  6
BYLAYER
 10
62.0120424263
 20
0.1534001101
 40
45.1014746873
100
AcDbArc
 50
130.9520069089
 51
131.5561123734
  0
ARC
  5
3CB
100
AcDbEntity
  8
00_COMPONENTS
100
AcDbCircle
 62
7
  6
BYLAYER
 10
50.8097014479
 20
0.3888523112
 40
44.7886891851
100
AcDbArc
 50
130.9504803853
 51
131.4327104663
  0
ARC
  5
3CC
100
AcDbEntity
  8
00_COMPONENTS
100
AcDbCircle
 62
7
  6
BYLAYER
 10
63.0127218463
 20
2.5528281704
 40
43.1971735263
100
AcDbArc
 50
132.8608651638
 51
133.4688280477
  0
ARC
  5
3CD
100
AcDbEntity
  8
00_COMPONENTS
100
AcDbCircle
 62
7
  6
BYLAYER
 10
50.5098189196
 20
2.7447912004
 40
42.9343123262
100
AcDbArc
 50
132.8594593289
 51
133.4070945335
  0
ARC
  5
3CE
100
AcDbEntity
  8
00_COMPONENTS
100
AcDbCircle
 62
7
  6
BYLAYER
 10
60.2187349872
 20
16.1006142187
 40
41.7839015185
100
AcDbArc
 50
154.3059259245
 51
154.7821323147
  0
ARC
  5
3CF
100
AcDbEntity
  8
00_COMPONENTS
100
AcDbCircle
 62
7
  6
BYLAYER
 10
78.0713583071
 20
16.1781223467
 40
41.6035255666
100
AcDbArc
 50
154.3048618824
 51
154.7831322722
  0
ARC
  5
3D0
100
AcDbEntity
  8
00_COMPONENTS
100
AcDbCircle
 62
7
  6
BYLAYER
 10
64.1617054644
 20
5.0273309603
 40
41.3903439622
100
AcDbArc
 50
135.1525648888
 51
135.76158362
  0
ARC
  5
3D1
100
AcDbEntity
  8
00_COMPONENTS
100
AcDbCircle
 62
7
  6
BYLAYER
 10
50.3224422011
 20
5.3063477769
 40
40.99305372
100
AcDbArc
 50
135.1502757951
 51
135.681130655
  0
ARC
  5
3D2
100
AcDbEntity
  8
00_COMPONENTS
100
AcDbCircle
 62
7
  6
BYLAYER
 10
50.6828009675
 20
7.6632423908
 40
39.5901072567
100
AcDbArc
 50
137.8781811
 51
138.4870862606
  0
ARC
  5
3D3
100
AcDbEntity
  8
00_COMPONENTS
100
AcDbCircle
 62
7
  6
BYLAYER
 10
65.2424877811
 20
7.776543687
 40
39.4201517172
100
AcDbArc
 50
137.8768310667
 51
138.4883608562
  0
ARC
  5
3D4
100
AcDbEntity
  8
00_COMPONENTS
100
AcDbCircle
 62
7
  6
BYLAYER
 10
55.5302137433
 20
14.3450373997
 40
38.8854086707
100
AcDbArc
 50
149.2674682551
 51
149.8034949982
  0
ARC
  5
3D5
100
AcDbEntity
  8
00_COMPONENTS
100
AcDbCircle
 62
7
  6
BYLAYER
 10
72.7610948622
 20
14.4300492114
 40
38.7176943127
100
AcDbArc
 50
149.2662718664
 51
149.8046198615
  0
ARC
  5
3D6
100
AcDbEntity
  8
00_COMPONENTS
100
AcDbCircle
 62
7
  6
BYLAYER
 10
51.4155547755
 20
10.0612565213
 40
38.4664585966
100
AcDbArc
 50
141.1001587552
 51
141.6977934963
  0
ARC
  5
3D7
100
AcDbEntity
  8
00_COMPONENTS
100
AcDbCircle
 62
7
  6
BYLAYER
 10
66.9907745449
 20
10.1644559215
 40
38.3010165303
100
AcDbArc
 50
141.0988300534
 51
141.6990456558
  0
ARC
  5
3D8
100
AcDbEntity
  8
00_COMPONENTS
100
AcDbCircle
 62
7
  6
BYLAYER
 10
52.8852584097
 20
12.3113157225
 40
38.0751543406
100
AcDbArc
 50
144.8780008925
 51
145.4528720416
  0
ARC
  5
3D9
100
AcDbEntity
  8
00_COMPONENTS
100
AcDbCircle
 62
7
  6
BYLAYER
 10
69.3537909901
 20
12.4049835782
 40
37.9111382788
100
AcDbArc
 50
144.876719952
 51
145.4540775209
  0
ARC
  5
3DA
100
AcDbEntity
  8
00_COMPONENTS
100
AcDbCircle
 62
7
  6
BYLAYER
 10
44.4616699613
 20
29.6554910756
 40
6.0869923711
100
AcDbArc
 50
43.8712610555
 51
44.2524604656
  0
ARC
  5
3DB
100
AcDbEntity
  8
00_COMPONENTS
100
AcDbCircle
 62
7
  6
BYLAYER
 10
51.5739527398
 20
36.8231225849
 40
4.0264638748
100
AcDbArc
 50
226.4856423496
 51
227.2074737371
  0
ARC
  5
3DC
100
AcDbEntity
  8
00_COMPONENTS
100
AcDbCircle
 62
7
  6
BYLAYER
 10
47.7130420706
 20
33.4043597453
 40
1.1084792791
100
AcDbArc
 50
47.1242772802
 51
47.6566545734
  0
ARC
  5
3DD
100
AcDbEntity
  8
00_COMPONENTS
100
AcDbCircle
 62
7
  6
BYLAYER
 10
49.1105302952
 20
29.5807486363
 40
0.254
100
AcDbArc
 50
0.0
 51
90.0
  0
SPLINE
  5
3DE
100
AcDbEntity
  8
00_COMPONENTS
100
AcDbSpline
 62
7
  6
BYLAYER
 70
0
 71
3
 72
17
 73
13
 74
0
 42
0.0000001
 43
0.0000001
 44
0.0000000001
 40
0.0
 40
0.0
 40
0.0
 40
0.0
 40
0.009444491
 40
0.02682535
 40
0.052343549
 40
0.0858553209
 40
0.1758884779
 40
0.2946135682
 40
0.4392258123
 40
0.6068454209
 40
0.794613854
 40
1.0
 40
1.0
 40
1.0
 40
1.0
 10
20.8770546127
 20
33.822754669
 30
0.0
 10
20.8770551605
 20
33.8229723231
 30
0.0
 10
20.8773483058
 20
33.8235522872
 30
0.0
 10
20.8779769481
 20
33.8245587828
 30
0.0
 10
20.8790369379
 20
33.8259787664
 30
0.0
 10
20.8811761812
 20
33.8286598358
 30
0.0
 10
20.8848214001
 20
33.8328959652
 30
0.0
 10
20.8902530851
 20
33.8389611757
 30
0.0
 10
20.8969783948
 20
33.8462706218
 30
0.0
 10
20.9048529415
 20
33.8546827407
 30
0.0
 10
20.9137437388
 20
33.8640621043
 30
0.0
 10
20.9200075357
 20
33.870608703
 30
0.0
 10
20.9232857205
 20
33.874022982
 30
0.0
  0
SPLINE
  5
3DF
100
AcDbEntity
  8
00_COMPONENTS
100
AcDbSpline
 62
7
  6
BYLAYER
 70
0
 71
3
 72
14
 73
10
 74
0
 42
0.0000001
 43
0.0000001
 44
0.0000000001
 40
0.0
 40
0.0
 40
0.0
 40
0.0
 40
0.036220408
 40
0.1030751583
 40
0.1987430751
 40
0.320154789
 40
0.4640888569
 40
0.6272940053
 40
1.0
 40
1.0
 40
1.0
 40
1.0
 10
21.3411814322
 20
34.245500659
 30
0.0
 10
21.3411810769
 20
34.2450527756
 30
0.0
 10
21.3405579015
 20
34.2438626159
 30
0.0
 10
21.3392763199
 20
34.2418169817
 30
0.0
 10
21.3371622199
 20
34.2389844647
 30
0.0
 10
21.3343914026
 20
34.2354948346
 30
0.0
 10
21.3309950218
 20
34.2314226857
 30
0.0
 10
21.3255125068
 20
34.2250512419
 30
0.0
 10
21.3210988933
 20
34.2201066106
 30
0.0
 10
21.3180075339
 20
34.2166884847
 30
0.0
  0
SPLINE
  5
3E0
100
AcDbEntity
  8
00_COMPONENTS
100
AcDbSpline
 62
7
  6
BYLAYER
 70
0
 71
3
 72
14
 73
10
 74
0
 42
0.0000001
 43
0.0000001
 44
0.0000000001
 40
0.0
 40
0.0
 40
0.0
 40
0.0
 40
0.0433692892
 40
0.1145408624
 40
0.2122364542
 40
0.3337368192
 40
0.4759964381
 40
0.6361742241
 40
1.0
 40
1.0
 40
1.0
 40
1.0
 10
20.9780523039
 20
33.8245835863
 30
0.0
 10
20.9780517626
 20
33.8260145567
 30
0.0
 10
20.9794931734
 20
33.829659603
 30
0.0
 10
20.98289272
 20
33.8357089441
 30
0.0
 10
20.9883047388
 20
33.8436616938
 30
0.0
 10
20.9954335107
 20
33.8532099758
 30
0.0
 10
21.004138403
 20
33.8641665287
 30
0.0
 10
21.0181687422
 20
33.8810893952
 30
0.0
 10
21.0295196613
 20
33.8941353685
 30
0.0
 10
21.0374770331
 20
33.9031235152
 30
0.0
  0
SPLINE
  5
3E1
100
AcDbEntity
  8
00_COMPONENTS
100
AcDbSpline
 62
7
  6
BYLAYER
 70
0
 71
3
 72
12
 73
8
 74
0
 42
0.0000001
 43
0.0000001
 44
0.0000000001
 40
0.0
 40
0.0
 40
0.0
 40
0.0
 40
0.0542607817
 40
0.1318147804
 40
0.3527091265
 40
0.6478598404
 40
1.0
 40
1.0
 40
1.0
 40
1.0
 10
21.4971445545
 20
34.244366062
 30
0.0
 10
21.4971452657
 20
34.2437655117
 30
0.0
 10
21.4967765157
 20
34.242323531
 30
0.0
 10
21.4952051979
 20
34.2387559121
 30
0.0
 10
21.4917098934
 20
34.2331558069
 30
0.0
 10
21.4861094566
 20
34.2253564233
 30
0.0
 10
21.4816776355
 20
34.2197214665
 30
0.0
 10
21.479229962
 20
34.2166884952
 30
0.0
  0
SPLINE
  5
3E2
100
AcDbEntity
  8
00_COMPONENTS
100
AcDbSpline
 62
7
  6
BYLAYER
 70
0
 71
3
 72
12
 73
8
 74
0
 42
0.0000001
 43
0.0000001
 44
0.0000000001
 40
0.0
 40
0.0
 40
0.0
 40
0.0
 40
0.0600602998
 40
0.1413112664
 40
0.3641210272
 40
0.6553848153
 40
1.0
 40
1.0
 40
1.0
 40
1.0
 10
21.1829701507
 20
33.8282972456
 30
0.0
 10
21.1829698712
 20
33.8300694728
 30
0.0
 10
21.1838545349
 20
33.8342118846
 30
0.0
 10
21.1878426846
 20
33.8441912864
 30
0.0
 10
21.1967713153
 20
33.8594137458
 30
0.0
 10
21.2111776424
 20
33.8802440469
 30
0.0
 10
21.2226016141
 20
33.8951442778
 30
0.0
 10
21.2289051566
 20
33.9031235152
 30
0.0
  0
SPLINE
  5
3E3
100
AcDbEntity
  8
00_COMPONENTS
100
AcDbSpline
 62
7
  6
BYLAYER
 70
0
 71
3
 72
11
 73
7
 74
0
 42
0.0000001
 43
0.0000001
 44
0.0000000001
 40
0.0
 40
0.0
 40
0.0
 40
0.0
 40
0.1583409681
 40
0.384025376
 40
0.6682548222
 40
1.0
 40
1.0
 40
1.0
 40
1.0
 10
21.7557604899
 20
34.2424815519
 30
0.0
 10
21.7557595193
 20
34.2409375407
 30
0.0
 10
21.7547052877
 20
34.2372511301
 30
0.0
 10
21.7519194166
 20
34.2313808223
 30
0.0
 10
21.7477134685
 20
34.2243104292
 30
0.0
 10
21.7443513481
 20
34.2193342841
 30
0.0
 10
21.7424900416
 20
34.2166885019
 30
0.0
  0
SPLINE
  5
3E4
100
AcDbEntity
  8
00_COMPONENTS
100
AcDbSpline
 62
7
  6
BYLAYER
 70
0
 71
3
 72
11
 73
7
 74
0
 42
0.0000001
 43
0.0000001
 44
0.0000000001
 40
0.0
 40
0.0
 40
0.0
 40
0.0
 40
0.1657570939
 40
0.3930165368
 40
0.6742723501
 40
1.0
 40
1.0
 40
1.0
 40
1.0
 10
21.4902470265
 20
33.8338673513
 30
0.0
 10
21.4902476862
 20
33.838169197
 30
0.0
 10
21.4928417467
 20
33.8482540566
 30
0.0
 10
21.5000146887
 20
33.8641884503
 30
0.0
 10
21.5108126436
 20
33.8830071307
 30
0.0
 10
21.5194814329
 20
33.896161222
 30
0.0
 10
21.5242760542
 20
33.9031235152
 30
0.0
  0
SPLINE
  5
3E5
100
AcDbEntity
  8
00_COMPONENTS
100
AcDbSpline
 62
7
  6
BYLAYER
 70
0
 71
3
 72
10
 73
6
 74
0
 42
0.0000001
 43
0.0000001
 44
0.0000000001
 40
0.0
 40
0.0
 40
0.0
 40
0.0
 40
0.188028039
 40
0.4200626538
 40
1.0
 40
1.0
 40
1.0
 40
1.0
 10
21.8975439367
 20
33.8412533764
 30
0.0
 10
21.8975436296
 20
33.845441914
 30
0.0
 10
21.8990974119
 20
33.8547774528
 30
0.0
 10
21.9063112088
 20
33.8758829777
 30
0.0
 10
21.914842856
 20
33.8919584603
 30
0.0
 10
21.9213417749
 20
33.9031235152
 30
0.0
  0
SPLINE
  5
3E6
100
AcDbEntity
  8
00_COMPONENTS
100
AcDbSpline
 62
7
  6
BYLAYER
 70
0
 71
3
 72
9
 73
5
 74
0
 42
0.0000001
 43
0.0000001
 44
0.0000000001
 40
0.0
 40
0.0
 40
0.0
 40
0.0
 40
0.4431104616
 40
1.0
 40
1.0
 40
1.0
 40
1.0
 10
22.4017626643
 20
33.8504032132
 30
0.0
 10
22.4017626283
 20
33.8585547203
 30
0.0
 10
22.4056993532
 20
33.8768450447
 30
0.0
 10
22.4127146484
 20
33.8938557244
 30
0.0
 10
22.4170804088
 20
33.9031235152
 30
0.0
  0
LINE
  5
3E7
100
AcDbEntity
  8
00_COMPONENTS
100
AcDbLine
 62
7
  6
BYLAYER
 10
48.4839968772
 20
34.245912317
 11
48.4907678405
 21
34.2390634729
  0
SPLINE
  5
3E8
100
AcDbEntity
  8
00_COMPONENTS
100
AcDbSpline
 62
7
  6
BYLAYER
 70
0
 71
3
 72
17
 73
13
 74
0
 42
0.0000001
 43
0.0000001
 44
0.0000000001
 40
0.0
 40
0.0
 40
0.0
 40
0.0
 40
0.205386548
 40
0.3931551346
 40
0.5607747071
 40
0.705386895
 40
0.8241119656
 40
0.9141449893
 40
0.9476565761
 40
0.9731746914
 40
0.9905555254
 40
1.0
 40
1.0
 40
1.0
 40
1.0
 10
48.8497756027
 20
33.8740222188
 30
0.0
 10
48.8530537429
 20
33.8706079844
 30
0.0
 10
48.8593174511
 20
33.8640614747
 30
0.0
 10
48.868208118
 20
33.8546822429
 30
0.0
 10
48.8760825422
 20
33.8462702485
 30
0.0
 10
48.8828077442
 20
33.838960913
 30
0.0
 10
48.8882393383
 20
33.8328957947
 30
0.0
 10
48.8918844948
 20
33.8286597343
 30
0.0
 10
48.8940236958
 20
33.82597871
 30
0.0
 10
48.8950836633
 20
33.8245587521
 30
0.0
 10
48.8957122938
 20
33.8235522738
 30
0.0
 10
48.8960054322
 20
33.8229723183
 30
0.0
 10
48.8960059789
 20
33.8227546679
 30
0.0
  0
SPLINE
  5
3E9
100
AcDbEntity
  8
00_COMPONENTS
100
AcDbSpline
 62
7
  6
BYLAYER
 70
0
 71
3
 72
14
 73
10
 74
0
 42
0.0000001
 43
0.0000001
 44
0.0000000001
 40
0.0
 40
0.0
 40
0.0
 40
0.0
 40
0.3638256921
 40
0.5240036085
 40
0.6662632471
 40
0.787763585
 40
0.8854592054
 40
0.9566308451
 40
1.0
 40
1.0
 40
1.0
 40
1.0
 10
48.7355835574
 20
33.9031235152
 30
0.0
 10
48.7435409274
 20
33.8941353704
 30
0.0
 10
48.7548918477
 20
33.8810893959
 30
0.0
 10
48.7689221885
 20
33.8641665273
 30
0.0
 10
48.7776270829
 20
33.8532099712
 30
0.0
 10
48.784755858
 20
33.8436616893
 30
0.0
 10
48.7901678699
 20
33.8357089344
 30
0.0
 10
48.793567428
 20
33.8296595973
 30
0.0
 10
48.7950088238
 20
33.8260145516
 30
0.0
 10
48.7950082874
 20
33.8245835855
 30
0.0
  0
SPLINE
  5
3EA
100
AcDbEntity
  8
00_COMPONENTS
100
AcDbSpline
 62
7
  6
BYLAYER
 70
0
 71
3
 72
12
 73
8
 74
0
 42
0.0000001
 43
0.0000001
 44
0.0000000001
 40
0.0
 40
0.0
 40
0.0
 40
0.0
 40
0.3446149955
 40
0.635878917
 40
0.8586886226
 40
0.9399396397
 40
1.0
 40
1.0
 40
1.0
 40
1.0
 10
48.5441554338
 20
33.9031235152
 30
0.0
 10
48.5504589731
 20
33.8951442819
 30
0.0
 10
48.5618829457
 20
33.8802440524
 30
0.0
 10
48.576289267
 20
33.8594137524
 30
0.0
 10
48.5852179108
 20
33.8441912923
 30
0.0
 10
48.589206047
 20
33.8342118851
 30
0.0
 10
48.5900907231
 20
33.8300694719
 30
0.0
 10
48.5900904428
 20
33.8282972429
 30
0.0
  0
SPLINE
  5
3EB
100
AcDbEntity
  8
00_COMPONENTS
100
AcDbSpline
 62
7
  6
BYLAYER
 70
0
 71
3
 72
11
 73
7
 74
0
 42
0.0000001
 43
0.0000001
 44
0.0000000001
 40
0.0
 40
0.0
 40
0.0
 40
0.0
 40
0.3257274698
 40
0.606983413
 40
0.8342428396
 40
1.0
 40
1.0
 40
1.0
 40
1.0
 10
48.2487845362
 20
33.9031235152
 30
0.0
 10
48.2535791546
 20
33.8961612263
 30
0.0
 10
48.2622479441
 20
33.8830071376
 30
0.0
 10
48.2730458943
 20
33.8641884588
 30
0.0
 10
48.280218846
 20
33.8482540645
 30
0.0
 10
48.282812899
 20
33.8381692027
 30
0.0
 10
48.2828135591
 20
33.8338673555
 30
0.0
  0
SPLINE
  5
3EC
100
AcDbEntity
  8
00_COMPONENTS
100
AcDbSpline
 62
7
  6
BYLAYER
 70
0
 71
3
 72
10
 73
6
 74
0
 42
0.0000001
 43
0.0000001
 44
0.0000000001
 40
0.0
 40
0.0
 40
0.0
 40
0.0
 40
0.579937294
 40
0.8119719988
 40
1.0
 40
1.0
 40
1.0
 40
1.0
 10
47.8517188155
 20
33.9031235152
 30
0.0
 10
47.8582177339
 20
33.8919584613
 30
0.0
 10
47.8667493794
 20
33.8758829768
 30
0.0
 10
47.8739631797
 20
33.8547774531
 30
0.0
 10
47.8755169627
 20
33.8454419127
 30
0.0
 10
47.8755166543
 20
33.841253376
 30
0.0
  0
SPLINE
  5
3ED
100
AcDbEntity
  8
00_COMPONENTS
100
AcDbSpline
 62
7
  6
BYLAYER
 70
0
 71
3
 72
9
 73
5
 74
0
 42
0.0000001
 43
0.0000001
 44
0.0000000001
 40
0.0
 40
0.0
 40
0.0
 40
0.0
 40
0.5568893803
 40
1.0
 40
1.0
 40
1.0
 40
1.0
 10
47.3559801816
 20
33.9031235152
 30
0.0
 10
47.360345941
 20
33.8938557268
 30
0.0
 10
47.3673612353
 20
33.8768450464
 30
0.0
 10
47.3712979632
 20
33.8585547222
 30
0.0
 10
47.3712979278
 20
33.8504032119
 30
0.0
  0
LINE
  5
3EE
100
AcDbEntity
  8
00_COMPONENTS
100
AcDbLine
 62
7
  6
BYLAYER
 10
48.4907668628
 20
34.2390644589
 11
48.4839968772
 21
34.245912317
  0
SPLINE
  5
3EF
100
AcDbEntity
  8
00_COMPONENTS
100
AcDbSpline
 62
7
  6
BYLAYER
 70
0
 71
3
 72
14
 73
10
 74
0
 42
0.0000001
 43
0.0000001
 44
0.0000000001
 40
0.0
 40
0.0
 40
0.0
 40
0.0
 40
0.3727027096
 40
0.53590819
 40
0.6798419163
 40
0.8012558388
 40
0.8969288025
 40
0.9637802707
 40
1.0
 40
1.0
 40
1.0
 40
1.0
 10
48.455053096
 20
34.2166880199
 30
0.0
 10
48.4519617502
 20
34.2201061304
 30
0.0
 10
48.4475482659
 20
34.2250508674
 30
0.0
 10
48.4420658629
 20
34.2314224031
 30
0.0
 10
48.4386694397
 20
34.2354945774
 30
0.0
 10
48.4358985266
 20
34.2389842773
 30
0.0
 10
48.433784359
 20
34.2418167936
 30
0.0
 10
48.4325026914
 20
34.2438624686
 30
0.0
 10
48.431879736
 20
34.2450526183
 30
0.0
 10
48.4318793237
 20
34.2455004952
 30
0.0
  0
SPLINE
  5
3F0
100
AcDbEntity
  8
00_COMPONENTS
100
AcDbSpline
 62
7
  6
BYLAYER
 70
0
 71
3
 72
12
 73
8
 74
0
 42
0.0000001
 43
0.0000001
 44
0.0000000001
 40
0.0
 40
0.0
 40
0.0
 40
0.0
 40
0.3521391037
 40
0.6472905597
 40
0.8681877463
 40
0.9457447003
 40
1.0
 40
1.0
 40
1.0
 40
1.0
 10
48.293830661
 20
34.2166880199
 30
0.0
 10
48.2913829698
 20
34.2197210123
 30
0.0
 10
48.2869512443
 20
34.2253561324
 30
0.0
 10
48.2813508225
 20
34.2331556817
 30
0.0
 10
48.2778554809
 20
34.2387559184
 30
0.0
 10
48.2762839555
 20
34.2423234736
 30
0.0
 10
48.2759152655
 20
34.2437654965
 30
0.0
 10
48.2759161097
 20
34.2443659919
 30
0.0
  0
SPLINE
  5
3F1
100
AcDbEntity
  8
00_COMPONENTS
100
AcDbSpline
 62
7
  6
BYLAYER
 70
0
 71
3
 72
11
 73
7
 74
0
 42
0.0000001
 43
0.0000001
 44
0.0000000001
 40
0.0
 40
0.0
 40
0.0
 40
0.0
 40
0.3317434693
 40
0.6159728576
 40
0.8416552325
 40
1.0
 40
1.0
 40
1.0
 40
1.0
 10
48.0305705747
 20
34.2166880199
 30
0.0
 10
48.0287092416
 20
34.2193338388
 30
0.0
 10
48.0253471591
 20
34.2243101269
 30
0.0
 10
48.0211412672
 20
34.231380704
 30
0.0
 10
48.0183554079
 20
34.2372511424
 30
0.0
 10
48.0173009428
 20
34.2409375952
 30
0.0
 10
48.0172999595
 20
34.242481673
 30
0.0
  0
SPLINE
  5
3F2
100
AcDbEntity
  8
00_COMPONENTS
100
AcDbSpline
 62
7
  6
BYLAYER
 70
0
 71
3
 72
11
 73
7
 74
0
 42
0.0000001
 43
0.0000001
 44
0.0000000001
 40
0.0
 40
0.0
 40
0.0
 40
0.0
 40
0.2096972008
 40
0.4562056043
 40
0.72390733
 40
1.0
 40
1.0
 40
1.0
 40
1.0
 10
45.1946055366
 20
33.8225486363
 30
0.0
 10
45.1802048263
 20
33.8225486363
 30
0.0
 10
45.1489240467
 20
33.8279784309
 30
0.0
 10
45.1023015041
 20
33.8456059455
 30
0.0
 10
45.0543173808
 20
33.8712330753
 30
0.0
 10
45.0232078563
 20
33.8919838279
 30
0.0
 10
45.0078650431
 20
33.9031235152
 30
0.0
  0
SPLINE
  5
3F3
100
AcDbEntity
  8
00_COMPONENTS
100
AcDbSpline
 62
7
  6
BYLAYER
 70
0
 71
3
 72
13
 73
9
 74
0
 42
0.0000001
 43
0.0000001
 44
0.0000000001
 40
0.0
 40
0.0
 40
0.0
 40
0.0
 40
0.2435598335
 40
0.3580568745
 40
0.4711529106
 40
0.5872392459
 40
0.7114247561
 40
1.0
 40
1.0
 40
1.0
 40
1.0
 10
44.4723771201
 20
33.9031235152
 30
0.0
 10
44.4723771201
 20
33.8925491467
 30
0.0
 10
44.4705361396
 20
33.8767714088
 30
0.0
 10
44.4625345847
 20
33.857807776
 30
0.0
 10
44.4538012176
 20
33.8455411685
 30
0.0
 10
44.4420502417
 20
33.8354385823
 30
0.0
 10
44.4214086012
 20
33.8249617208
 30
0.0
 10
44.4030801686
 20
33.8225486363
 30
0.0
 10
44.3905514157
 20
33.8225486363
 30
0.0
  0
SPLINE
  5
3F4
100
AcDbEntity
  8
00_COMPONENTS
100
AcDbSpline
 62
7
  6
BYLAYER
 70
0
 71
3
 72
11
 73
7
 74
0
 42
0.0000001
 43
0.0000001
 44
0.0000000001
 40
0.0
 40
0.0
 40
0.0
 40
0.0
 40
0.2179759823
 40
0.4665654464
 40
0.7310464264
 40
1.0
 40
1.0
 40
1.0
 40
1.0
 10
44.3270501783
 20
33.8225486363
 30
0.0
 10
44.3116365261
 20
33.8225486363
 30
0.0
 10
44.278658072
 20
33.8277694271
 30
0.0
 10
44.2298830109
 20
33.8453775133
 30
0.0
 10
44.1807385252
 20
33.8710280245
 30
0.0
 10
44.1492582214
 20
33.8919218169
 30
0.0
 10
44.1338887088
 20
33.9031235152
 30
0.0
  0
SPLINE
  5
3F5
100
AcDbEntity
  8
00_COMPONENTS
100
AcDbSpline
 62
7
  6
BYLAYER
 70
0
 71
3
 72
11
 73
7
 74
0
 42
0.0000001
 43
0.0000001
 44
0.0000000001
 40
0.0
 40
0.0
 40
0.0
 40
0.0
 40
0.2326342065
 40
0.4594432046
 40
0.7061455313
 40
1.0
 40
1.0
 40
1.0
 40
1.0
 10
43.5537676313
 20
33.9031235152
 30
0.0
 10
43.5524741292
 20
33.8923479729
 30
0.0
 10
43.5471761157
 20
33.8711569667
 30
0.0
 10
43.5274992345
 20
33.8435516703
 30
0.0
 10
43.4952450229
 20
33.8256663279
 30
0.0
 10
43.4696867538
 20
33.8225486363
 30
0.0
 10
43.4559777921
 20
33.8225486363
 30
0.0
  0
SPLINE
  5
3F6
100
AcDbEntity
  8
00_COMPONENTS
100
AcDbSpline
 62
7
  6
BYLAYER
 70
0
 71
3
 72
10
 73
6
 74
0
 42
0.0000001
 43
0.0000001
 44
0.0000000001
 40
0.0
 40
0.0
 40
0.0
 40
0.0
 40
0.2257919352
 40
0.476481271
 40
1.0
 40
1.0
 40
1.0
 40
1.0
 10
43.3876467635
 20
33.8225486363
 30
0.0
 10
43.3713342704
 20
33.8225486363
 30
0.0
 10
43.3368908596
 20
33.8275853169
 30
0.0
 10
43.2684536915
 20
33.8514090689
 30
0.0
 10
43.2199772158
 20
33.8806794532
 30
0.0
 10
43.1895343932
 20
33.9031235152
 30
0.0
  0
SPLINE
  5
3F7
100
AcDbEntity
  8
00_COMPONENTS
100
AcDbSpline
 62
7
  6
BYLAYER
 70
0
 71
3
 72
11
 73
7
 74
0
 42
0.0000001
 43
0.0000001
 44
0.0000000001
 40
0.0
 40
0.0
 40
0.0
 40
0.0
 40
0.2250796044
 40
0.4530464072
 40
0.7050062065
 40
1.0
 40
1.0
 40
1.0
 40
1.0
 10
42.569195233
 20
33.9031235152
 30
0.0
 10
42.5665704255
 20
33.89214875
 30
0.0
 10
42.5582490593
 20
33.8705547473
 30
0.0
 10
42.5343264798
 20
33.8434075781
 30
0.0
 10
42.4986801922
 20
33.8258258404
 30
0.0
 10
42.4709749061
 20
33.8225486363
 30
0.0
 10
42.4561854986
 20
33.8225486363
 30
0.0
  0
SPLINE
  5
3F8
100
AcDbEntity
  8
00_COMPONENTS
100
AcDbSpline
 62
7
  6
BYLAYER
 70
0
 71
3
 72
10
 73
6
 74
0
 42
0.0000001
 43
0.0000001
 44
0.0000000001
 40
0.0
 40
0.0
 40
0.0
 40
0.0
 40
0.2329127067
 40
0.4853378274
 40
1.0
 40
1.0
 40
1.0
 40
1.0
 10
42.3835447191
 20
33.8225486363
 30
0.0
 10
42.3664548317
 20
33.8225486363
 30
0.0
 10
42.3308007893
 20
33.8274244335
 30
0.0
 10
42.2610609061
 20
33.8509958861
 30
0.0
 10
42.2121755873
 20
33.8804334721
 30
0.0
 10
42.181989203
 20
33.9031235152
 30
0.0
  0
SPLINE
  5
3F9
100
AcDbEntity
  8
00_COMPONENTS
100
AcDbSpline
 62
7
  6
BYLAYER
 70
0
 71
3
 72
11
 73
7
 74
0
 42
0.0000001
 43
0.0000001
 44
0.0000000001
 40
0.0
 40
0.0
 40
0.0
 40
0.0
 40
0.2207637577
 40
0.4505869244
 40
0.7061181238
 40
1.0
 40
1.0
 40
1.0
 40
1.0
 10
41.5261531156
 20
33.9031235152
 30
0.0
 10
41.5221776423
 20
33.8919713137
 30
0.0
 10
41.5108878834
 20
33.87013358
 30
0.0
 10
41.4830753068
 20
33.8433782988
 30
0.0
 10
41.4442545625
 20
33.8259673035
 30
0.0
 10
41.4145444881
 20
33.8225486363
 30
0.0
 10
41.3987835583
 20
33.8225486363
 30
0.0
  0
SPLINE
  5
3FA
100
AcDbEntity
  8
00_COMPONENTS
100
AcDbSpline
 62
7
  6
BYLAYER
 70
0
 71
3
 72
10
 73
6
 74
0
 42
0.0000001
 43
0.0000001
 44
0.0000000001
 40
0.0
 40
0.0
 40
0.0
 40
0.0
 40
0.2396097374
 40
0.4936161441
 40
1.0
 40
1.0
 40
1.0
 40
1.0
 10
41.3223858682
 20
33.8225486363
 30
0.0
 10
41.3046463037
 20
33.8225486363
 30
0.0
 10
41.268039282
 20
33.8272791805
 30
0.0
 10
41.1975032952
 20
33.8506100736
 30
0.0
 10
41.1485877633
 20
33.8802016512
 30
0.0
 10
41.1189211654
 20
33.9031235152
 30
0.0
  0
SPLINE
  5
3FB
100
AcDbEntity
  8
00_COMPONENTS
100
AcDbSpline
 62
7
  6
BYLAYER
 70
0
 71
3
 72
11
 73
7
 74
0
 42
0.0000001
 43
0.0000001
 44
0.0000000001
 40
0.0
 40
0.0
 40
0.0
 40
0.0
 40
0.218887623
 40
0.4509124375
 40
0.7087362252
 40
1.0
 40
1.0
 40
1.0
 40
1.0
 10
40.4325794594
 20
33.9031235152
 30
0.0
 10
40.4272582168
 20
33.8918273932
 30
0.0
 10
40.4131276124
 20
33.8698673618
 30
0.0
 10
40.381733433
 20
33.8434167731
 30
0.0
 10
40.3399734576
 20
33.8260965063
 30
0.0
 10
40.3084349375
 20
33.8225486363
 30
0.0
 10
40.2918194385
 20
33.8225486363
 30
0.0
  0
SPLINE
  5
3FC
100
AcDbEntity
  8
00_COMPONENTS
100
AcDbSpline
 62
7
  6
BYLAYER
 70
0
 71
3
 72
9
 73
5
 74
0
 42
0.0000001
 43
0.0000001
 44
0.0000000001
 40
0.0
 40
0.0
 40
0.0
 40
0.0
 40
0.5002097396
 40
1.0
 40
1.0
 40
1.0
 40
1.0
 10
40.2122462703
 20
33.8225486363
 30
0.0
 10
40.1752082584
 20
33.8225486363
 30
0.0
 10
40.1010918928
 20
33.8407972464
 30
0.0
 10
40.0373027955
 20
33.8799859085
 30
0.0
 10
40.00842087
 20
33.9031235152
 30
0.0
  0
SPLINE
  5
3FD
100
AcDbEntity
  8
00_COMPONENTS
100
AcDbSpline
 62
7
  6
BYLAYER
 70
0
 71
3
 72
11
 73
7
 74
0
 42
0.0000001
 43
0.0000001
 44
0.0000000001
 40
0.0
 40
0.0
 40
0.0
 40
0.0
 40
0.2187992313
 40
0.4531750571
 40
0.7123453181
 40
1.0
 40
1.0
 40
1.0
 40
1.0
 10
39.2967970203
 20
33.9031235152
 30
0.0
 10
39.2901596175
 20
33.8917205468
 30
0.0
 10
39.2733573138
 20
33.869721217
 30
0.0
 10
39.2386648943
 20
33.8434954445
 30
0.0
 10
39.1942296033
 20
33.8262176
 30
0.0
 10
39.1610639742
 20
33.8225486363
 30
0.0
 10
39.1437178045
 20
33.8225486363
 30
0.0
  0
SPLINE
  5
3FE
100
AcDbEntity
  8
00_COMPONENTS
100
AcDbSpline
 62
7
  6
BYLAYER
 70
0
 71
3
 72
9
 73
5
 74
0
 42
0.0000001
 43
0.0000001
 44
0.0000000001
 40
0.0
 40
0.0
 40
0.0
 40
0.0
 40
0.5075647723
 40
1.0
 40
1.0
 40
1.0
 40
1.0
 10
39.0615747581
 20
33.8225486363
 30
0.0
 10
39.0241389478
 20
33.8225486363
 30
0.0
 10
38.9501264818
 20
33.8400510307
 30
0.0
 10
38.8867725209
 20
33.8797893882
 30
0.0
 10
38.8589398947
 20
33.9031235152
 30
0.0
  0
SPLINE
  5
3FF
100
AcDbEntity
  8
00_COMPONENTS
100
AcDbSpline
 62
7
  6
BYLAYER
 70
0
 71
3
 72
9
 73
5
 74
0
 42
0.0000001
 43
0.0000001
 44
0.0000000001
 40
0.0
 40
0.0
 40
0.0
 40
0.0
 40
0.4911008107
 40
1.0
 40
1.0
 40
1.0
 40
1.0
 10
38.4809822264
 20
34.2166880199
 30
0.0
 10
38.4705973607
 20
34.2252107014
 30
0.0
 10
38.4469556515
 20
34.2397327429
 30
0.0
 10
38.4194617777
 20
34.2459232361
 30
0.0
 10
38.4055406134
 20
34.2458816479
 30
0.0
  0
SPLINE
  5
400
100
AcDbEntity
  8
00_COMPONENTS
100
AcDbSpline
 62
7
  6
BYLAYER
 70
0
 71
3
 72
9
 73
5
 74
0
 42
0.0000001
 43
0.0000001
 44
0.0000000001
 40
0.0
 40
0.0
 40
0.0
 40
0.0
 40
0.5382530298
 40
1.0
 40
1.0
 40
1.0
 40
1.0
 10
37.2477190944
 20
34.2458820533
 30
0.0
 10
37.2347782265
 20
34.245883884
 30
0.0
 10
37.2102613512
 20
34.2408265253
 30
0.0
 10
37.1907339425
 20
34.2253271509
 30
0.0
 10
37.1837619751
 20
34.2166880199
 30
0.0
  0
SPLINE
  5
401
100
AcDbEntity
  8
00_COMPONENTS
100
AcDbSpline
 62
7
  6
BYLAYER
 70
0
 71
3
 72
11
 73
7
 74
0
 42
0.0000001
 43
0.0000001
 44
0.0000000001
 40
0.0
 40
0.0
 40
0.0
 40
0.0
 40
0.2221525819
 40
0.4613283113
 40
0.7212940313
 40
1.0
 40
1.0
 40
1.0
 40
1.0
 10
36.9334372023
 20
33.9031235152
 30
0.0
 10
36.9243389577
 20
33.8916066494
 30
0.0
 10
36.902781708
 20
33.869668445
 30
0.0
 10
36.8623343116
 20
33.8437178165
 30
0.0
 10
36.8134546844
 20
33.826445932
 30
0.0
 10
36.7777129688
 20
33.8225486363
 30
0.0
 10
36.7592995625
 20
33.8225486363
 30
0.0
  0
SPLINE
  5
402
100
AcDbEntity
  8
00_COMPONENTS
100
AcDbSpline
 62
7
  6
BYLAYER
 70
0
 71
3
 72
9
 73
5
 74
0
 42
0.0000001
 43
0.0000001
 44
0.0000000001
 40
0.0
 40
0.0
 40
0.0
 40
0.0
 40
0.5211477129
 40
1.0
 40
1.0
 40
1.0
 40
1.0
 10
36.6739070347
 20
33.8225486363
 30
0.0
 10
36.6364937038
 20
33.8225486363
 30
0.0
 10
36.5640829164
 20
33.8386467521
 30
0.0
 10
36.5032096895
 20
33.8794753671
 30
0.0
 10
36.4782589684
 20
33.9031235152
 30
0.0
  0
SPLINE
  5
403
100
AcDbEntity
  8
00_COMPONENTS
100
AcDbSpline
 62
7
  6
BYLAYER
 70
0
 71
3
 72
11
 73
7
 74
0
 42
0.0000001
 43
0.0000001
 44
0.0000000001
 40
0.0
 40
0.0
 40
0.0
 40
0.0
 40
0.2249945399
 40
0.4665556102
 40
0.7262838244
 40
1.0
 40
1.0
 40
1.0
 40
1.0
 10
35.7238464186
 20
33.9031235152
 30
0.0
 10
35.7136345976
 20
33.8915888844
 30
0.0
 10
35.6900165547
 20
33.8697185924
 30
0.0
 10
35.6471335096
 20
33.8438478422
 30
0.0
 10
35.5965338947
 20
33.8265568953
 30
0.0
 10
35.5598712971
 20
33.8225486363
 30
0.0
 10
35.541129817
 20
33.8225486363
 30
0.0
  0
SPLINE
  5
404
100
AcDbEntity
  8
00_COMPONENTS
100
AcDbSpline
 62
7
  6
BYLAYER
 70
0
 71
3
 72
11
 73
7
 74
0
 42
0.0000001
 43
0.0000001
 44
0.0000000001
 40
0.0
 40
0.0
 40
0.0
 40
0.0
 40
0.2685008791
 40
0.5277013831
 40
0.7716325355
 40
1.0
 40
1.0
 40
1.0
 40
1.0
 10
35.4550824165
 20
33.8225486363
 30
0.0
 10
35.4361536938
 20
33.8225486363
 30
0.0
 10
35.3988287869
 20
33.8266678103
 30
0.0
 10
35.3468701861
 20
33.8439861545
 30
0.0
 10
35.3018667509
 20
33.869801031
 30
0.0
 10
35.2764099629
 20
33.8915900334
 30
0.0
 10
35.2651774368
 20
33.9031235152
 30
0.0
  0
SPLINE
  5
405
100
AcDbEntity
  8
00_COMPONENTS
100
AcDbSpline
 62
7
  6
BYLAYER
 70
0
 71
3
 72
11
 73
7
 74
0
 42
0.0000001
 43
0.0000001
 44
0.0000000001
 40
0.0
 40
0.0
 40
0.0
 40
0.0
 40
0.2283674911
 40
0.4722987441
 40
0.7314994897
 40
1.0
 40
1.0
 40
1.0
 40
1.0
 10
34.5078831536
 20
33.9031235152
 30
0.0
 10
34.4966506262
 20
33.891590032
 30
0.0
 10
34.4711938298
 20
33.8698010254
 30
0.0
 10
34.4261903722
 20
33.8439861354
 30
0.0
 10
34.3742317688
 20
33.8266677989
 30
0.0
 10
34.3369068708
 20
33.8225486363
 30
0.0
 10
34.3179781739
 20
33.8225486363
 30
0.0
  0
SPLINE
  5
406
100
AcDbEntity
  8
00_COMPONENTS
100
AcDbSpline
 62
7
  6
BYLAYER
 70
0
 71
3
 72
11
 73
7
 74
0
 42
0.0000001
 43
0.0000001
 44
0.0000000001
 40
0.0
 40
0.0
 40
0.0
 40
0.0
 40
0.2737165467
 40
0.5334445158
 40
0.7750054863
 40
1.0
 40
1.0
 40
1.0
 40
1.0
 10
34.2319307734
 20
33.8225486363
 30
0.0
 10
34.213189268
 20
33.8225486363
 30
0.0
 10
34.1765266618
 20
33.8265569065
 30
0.0
 10
34.1259270499
 20
33.8438478616
 30
0.0
 10
34.0830440264
 20
33.8697185979
 30
0.0
 10
34.0594259917
 20
33.8915888857
 30
0.0
 10
34.0492141719
 20
33.9031235152
 30
0.0
  0
SPLINE
  5
407
100
AcDbEntity
  8
00_COMPONENTS
100
AcDbSpline
 62
7
  6
BYLAYER
 70
0
 71
3
 72
9
 73
5
 74
0
 42
0.0000001
 43
0.0000001
 44
0.0000000001
 40
0.0
 40
0.0
 40
0.0
 40
0.0
 40
0.4788524161
 40
1.0
 40
1.0
 40
1.0
 40
1.0
 10
33.2948016221
 20
33.9031235152
 30
0.0
 10
33.2698508941
 20
33.8794753606
 30
0.0
 10
33.2089776656
 20
33.8386467451
 30
0.0
 10
33.1365668775
 20
33.8225486363
 30
0.0
 10
33.0991535558
 20
33.8225486363
 30
0.0
  0
SPLINE
  5
408
100
AcDbEntity
  8
00_COMPONENTS
100
AcDbSpline
 62
7
  6
BYLAYER
 70
0
 71
3
 72
11
 73
7
 74
0
 42
0.0000001
 43
0.0000001
 44
0.0000000001
 40
0.0
 40
0.0
 40
0.0
 40
0.0
 40
0.2787063417
 40
0.5386718132
 40
0.7778474438
 40
1.0
 40
1.0
 40
1.0
 40
1.0
 10
33.013761028
 20
33.8225486363
 30
0.0
 10
32.9953475971
 20
33.8225486363
 30
0.0
 10
32.9596058733
 20
33.826445943
 30
0.0
 10
32.9107262494
 20
33.8437178362
 30
0.0
 10
32.8702788736
 20
33.8696684506
 30
0.0
 10
32.8487216317
 20
33.8916066508
 30
0.0
 10
32.8396233882
 20
33.9031235152
 30
0.0
  0
SPLINE
  5
409
100
AcDbEntity
  8
00_COMPONENTS
100
AcDbSpline
 62
7
  6
BYLAYER
 70
0
 71
3
 72
9
 73
5
 74
0
 42
0.0000001
 43
0.0000001
 44
0.0000000001
 40
0.0
 40
0.0
 40
0.0
 40
0.0
 40
0.4854633634
 40
1.0
 40
1.0
 40
1.0
 40
1.0
 10
32.0938341068
 20
33.9031235152
 30
0.0
 10
32.0673132774
 20
33.8796168737
 30
0.0
 10
32.0049306932
 20
33.8393367451
 30
0.0
 10
31.9314932215
 20
33.8225486363
 30
0.0
 10
31.8939319539
 20
33.8225486363
 30
0.0
  0
SPLINE
  5
40A
100
AcDbEntity
  8
00_COMPONENTS
100
AcDbSpline
 62
7
  6
BYLAYER
 70
0
 71
3
 72
11
 73
7
 74
0
 42
0.0000001
 43
0.0000001
 44
0.0000000001
 40
0.0
 40
0.0
 40
0.0
 40
0.0
 40
0.2833965508
 40
0.5432193544
 40
0.7799943513
 40
1.0
 40
1.0
 40
1.0
 40
1.0
 10
31.8098441874
 20
33.8225486363
 30
0.0
 10
31.7918970943
 20
33.8225486363
 30
0.0
 10
31.7573251832
 20
33.8263334031
 30
0.0
 10
31.7105078656
 20
33.8435987351
 30
0.0
 10
31.6727952852
 20
33.8696632614
 30
0.0
 10
31.6535130447
 20
33.8916486298
 30
0.0
 10
31.6456108021
 20
33.9031235152
 30
0.0
  0
SPLINE
  5
40B
100
AcDbEntity
  8
00_COMPONENTS
100
AcDbSpline
 62
7
  6
BYLAYER
 70
0
 71
3
 72
9
 73
5
 74
0
 42
0.0000001
 43
0.0000001
 44
0.0000000001
 40
0.0
 40
0.0
 40
0.0
 40
0.0
 40
0.492435359
 40
1.0
 40
1.0
 40
1.0
 40
1.0
 10
30.9141206958
 20
33.9031235152
 30
0.0
 10
30.8862880621
 20
33.8797893819
 30
0.0
 10
30.8229340999
 20
33.8400510236
 30
0.0
 10
30.7489216331
 20
33.8225486363
 30
0.0
 10
30.7114858324
 20
33.8225486363
 30
0.0
  0
SPLINE
  5
40C
100
AcDbEntity
  8
00_COMPONENTS
100
AcDbSpline
 62
7
  6
BYLAYER
 70
0
 71
3
 72
11
 73
7
 74
0
 42
0.0000001
 43
0.0000001
 44
0.0000000001
 40
0.0
 40
0.0
 40
0.0
 40
0.0
 40
0.2876550564
 40
0.5468250641
 40
0.7812007933
 40
1.0
 40
1.0
 40
1.0
 40
1.0
 10
30.629342786
 20
33.8225486363
 30
0.0
 10
30.6119965938
 20
33.8225486363
 30
0.0
 10
30.5788309571
 20
33.8262176106
 30
0.0
 10
30.5343956707
 20
33.8434954645
 30
0.0
 10
30.4997032691
 20
33.8697212226
 30
0.0
 10
30.4829009722
 20
33.8917205482
 30
0.0
 10
30.4762635702
 20
33.9031235152
 30
0.0
  0
SPLINE
  5
40D
100
AcDbEntity
  8
00_COMPONENTS
100
AcDbSpline
 62
7
  6
BYLAYER
 70
0
 71
3
 72
9
 73
5
 74
0
 42
0.0000001
 43
0.0000001
 44
0.0000000001
 40
0.0
 40
0.0
 40
0.0
 40
0.0
 40
0.4997903927
 40
1.0
 40
1.0
 40
1.0
 40
1.0
 10
29.7646397205
 20
33.9031235152
 30
0.0
 10
29.7357577872
 20
33.8799859023
 30
0.0
 10
29.6719686889
 20
33.8407972392
 30
0.0
 10
29.5978523223
 20
33.8225486363
 30
0.0
 10
29.5608143201
 20
33.8225486363
 30
0.0
  0
SPLINE
  5
40E
100
AcDbEntity
  8
00_COMPONENTS
100
AcDbSpline
 62
7
  6
BYLAYER
 70
0
 71
3
 72
11
 73
7
 74
0
 42
0.0000001
 43
0.0000001
 44
0.0000000001
 40
0.0
 40
0.0
 40
0.0
 40
0.0
 40
0.2912641486
 40
0.5490876818
 40
0.7811124008
 40
1.0
 40
1.0
 40
1.0
 40
1.0
 10
29.481241152
 20
33.8225486363
 30
0.0
 10
29.4646256317
 20
33.8225486363
 30
0.0
 10
29.4330871044
 20
33.8260965168
 30
0.0
 10
29.3913271345
 20
33.8434167934
 30
0.0
 10
29.3599329713
 20
33.8698673675
 30
0.0
 10
29.345802373
 20
33.8918273945
 30
0.0
 10
29.3404811311
 20
33.9031235152
 30
0.0
  0
SPLINE
  5
40F
100
AcDbEntity
  8
00_COMPONENTS
100
AcDbSpline
 62
7
  6
BYLAYER
 70
0
 71
3
 72
10
 73
6
 74
0
 42
0.0000001
 43
0.0000001
 44
0.0000000001
 40
0.0
 40
0.0
 40
0.0
 40
0.0
 40
0.5063839885
 40
0.7603906146
 40
1.0
 40
1.0
 40
1.0
 40
1.0
 10
28.6541394251
 20
33.9031235152
 30
0.0
 10
28.6244728193
 20
33.8802016451
 30
0.0
 10
28.5755572639
 20
33.8506100554
 30
0.0
 10
28.5050212732
 20
33.827279168
 30
0.0
 10
28.4684142608
 20
33.8225486363
 30
0.0
 10
28.4506747222
 20
33.8225486363
 30
0.0
  0
SPLINE
  5
410
100
AcDbEntity
  8
00_COMPONENTS
100
AcDbSpline
 62
7
  6
BYLAYER
 70
0
 71
3
 72
11
 73
7
 74
0
 42
0.0000001
 43
0.0000001
 44
0.0000000001
 40
0.0
 40
0.0
 40
0.0
 40
0.0
 40
0.2938822474
 40
0.5494131926
 40
0.7792362652
 40
1.0
 40
1.0
 40
1.0
 40
1.0
 10
28.3742770322
 20
33.8225486363
 30
0.0
 10
28.3585160826
 20
33.8225486363
 30
0.0
 10
28.3288060014
 20
33.8259673138
 30
0.0
 10
28.2899852634
 20
33.8433783192
 30
0.0
 10
28.2621727011
 20
33.8701335857
 30
0.0
 10
28.2508829477
 20
33.891971315
 30
0.0
 10
28.2469074749
 20
33.9031235152
 30
0.0
  0
SPLINE
  5
411
100
AcDbEntity
  8
00_COMPONENTS
100
AcDbSpline
 62
7
  6
BYLAYER
 70
0
 71
3
 72
10
 73
6
 74
0
 42
0.0000001
 43
0.0000001
 44
0.0000000001
 40
0.0
 40
0.0
 40
0.0
 40
0.0
 40
0.5146623063
 40
0.7670876408
 40
1.0
 40
1.0
 40
1.0
 40
1.0
 10
27.5910713875
 20
33.9031235152
 30
0.0
 10
27.5608849952
 20
33.8804334661
 30
0.0
 10
27.5119996535
 20
33.8509958684
 30
0.0
 10
27.4422597666
 20
33.8274244209
 30
0.0
 10
27.4066057333
 20
33.8225486363
 30
0.0
 10
27.3895158713
 20
33.8225486363
 30
0.0
  0
SPLINE
  5
412
100
AcDbEntity
  8
00_COMPONENTS
100
AcDbSpline
 62
7
  6
BYLAYER
 70
0
 71
3
 72
11
 73
7
 74
0
 42
0.0000001
 43
0.0000001
 44
0.0000000001
 40
0.0
 40
0.0
 40
0.0
 40
0.0
 40
0.2949941598
 40
0.5469537072
 40
0.7749204173
 40
1.0
 40
1.0
 40
1.0
 40
1.0
 10
27.3168750919
 20
33.8225486363
 30
0.0
 10
27.3020856661
 20
33.8225486363
 30
0.0
 10
27.2743803736
 20
33.8258258505
 30
0.0
 10
27.2387340935
 20
33.8434075987
 30
0.0
 10
27.2148115261
 20
33.870554753
 30
0.0
 10
27.2064901647
 20
33.8921487512
 30
0.0
 10
27.2038653575
 20
33.9031235152
 30
0.0
  0
SPLINE
  5
413
100
AcDbEntity
  8
00_COMPONENTS
100
AcDbSpline
 62
7
  6
BYLAYER
 70
0
 71
3
 72
10
 73
6
 74
0
 42
0.0000001
 43
0.0000001
 44
0.0000000001
 40
0.0
 40
0.0
 40
0.0
 40
0.0
 40
0.5235188636
 40
0.7742084075
 40
1.0
 40
1.0
 40
1.0
 40
1.0
 10
26.5835261973
 20
33.9031235152
 30
0.0
 10
26.5530833668
 20
33.8806794474
 30
0.0
 10
26.5046068689
 20
33.8514090517
 30
0.0
 10
26.4361696972
 20
33.827585304
 30
0.0
 10
26.4017262954
 20
33.8225486363
 30
0.0
 10
26.385413827
 20
33.8225486363
 30
0.0
  0
SPLINE
  5
414
100
AcDbEntity
  8
00_COMPONENTS
100
AcDbSpline
 62
7
  6
BYLAYER
 70
0
 71
3
 72
11
 73
7
 74
0
 42
0.0000001
 43
0.0000001
 44
0.0000000001
 40
0.0
 40
0.0
 40
0.0
 40
0.0
 40
0.2938548269
 40
0.5405569069
 40
0.767365814
 40
1.0
 40
1.0
 40
1.0
 40
1.0
 10
26.3170827984
 20
33.8225486363
 30
0.0
 10
26.3033738201
 20
33.8225486363
 30
0.0
 10
26.2778155448
 20
33.8256663379
 30
0.0
 10
26.2455613422
 20
33.8435516909
 30
0.0
 10
26.2258844707
 20
33.8711569722
 30
0.0
 10
26.2205864611
 20
33.892347974
 30
0.0
 10
26.2192929592
 20
33.9031235152
 30
0.0
  0
SPLINE
  5
415
100
AcDbEntity
  8
00_COMPONENTS
100
AcDbSpline
 62
7
  6
BYLAYER
 70
0
 71
3
 72
11
 73
7
 74
0
 42
0.0000001
 43
0.0000001
 44
0.0000000001
 40
0.0
 40
0.0
 40
0.0
 40
0.0
 40
0.2689536021
 40
0.5334346893
 40
0.782024355
 40
1.0
 40
1.0
 40
1.0
 40
1.0
 10
25.6391718817
 20
33.9031235152
 30
0.0
 10
25.6238023674
 20
33.8919218156
 30
0.0
 10
25.5923220546
 20
33.871028019
 30
0.0
 10
25.5431775479
 20
33.8453774967
 30
0.0
 10
25.494402486
 20
33.827769414
 30
0.0
 10
25.4614240406
 20
33.8225486363
 30
0.0
 10
25.4460104121
 20
33.8225486363
 30
0.0
  0
SPLINE
  5
416
100
AcDbEntity
  8
00_COMPONENTS
100
AcDbSpline
 62
7
  6
BYLAYER
 70
0
 71
3
 72
13
 73
9
 74
0
 42
0.0000001
 43
0.0000001
 44
0.0000000001
 40
0.0
 40
0.0
 40
0.0
 40
0.0
 40
0.288575586
 40
0.4127610069
 40
0.5288472027
 40
0.6419432492
 40
0.7564401876
 40
1.0
 40
1.0
 40
1.0
 40
1.0
 10
25.3825091747
 20
33.8225486363
 30
0.0
 10
25.3699804071
 20
33.8225486363
 30
0.0
 10
25.3516519675
 20
33.8249617382
 30
0.0
 10
25.3310103168
 20
33.8354385926
 30
0.0
 10
25.3192593624
 20
33.8455411894
 30
0.0
 10
25.3105259997
 20
33.8578077859
 30
0.0
 10
25.3025244487
 20
33.8767714155
 30
0.0
 10
25.3006834704
 20
33.8925491477
 30
0.0
 10
25.3006834704
 20
33.9031235152
 30
0.0
  0
SPLINE
  5
417
100
AcDbEntity
  8
00_COMPONENTS
100
AcDbSpline
 62
7
  6
BYLAYER
 70
0
 71
3
 72
11
 73
7
 74
0
 42
0.0000001
 43
0.0000001
 44
0.0000000001
 40
0.0
 40
0.0
 40
0.0
 40
0.0
 40
0.2760926988
 40
0.5437945324
 40
0.7903031307
 40
1.0
 40
1.0
 40
1.0
 40
1.0
 10
24.7651955474
 20
33.9031235152
 30
0.0
 10
24.7498527325
 20
33.8919838267
 30
0.0
 10
24.7187431993
 20
33.8712330698
 30
0.0
 10
24.670759056
 20
33.8456059293
 30
0.0
 10
24.6241365127
 20
33.8279784175
 30
0.0
 10
24.5928557414
 20
33.8225486363
 30
0.0
 10
24.5784550539
 20
33.8225486363
 30
0.0
  0
SPLINE
  5
418
100
AcDbEntity
  8
00_COMPONENTS
100
AcDbSpline
 62
7
  6
BYLAYER
 70
0
 71
3
 72
12
 73
8
 74
0
 42
0.0000001
 43
0.0000001
 44
0.0000000001
 40
0.0
 40
0.0
 40
0.0
 40
0.0
 40
0.2870942422
 40
0.4103137841
 40
0.5256365996
 40
0.7520887601
 40
1.0
 40
1.0
 40
1.0
 40
1.0
 10
24.5202668905
 20
33.8225486363
 30
0.0
 10
24.5101807572
 20
33.8225486363
 30
0.0
 10
24.4954442815
 20
33.8243945138
 30
0.0
 10
24.4787605045
 20
33.8326530886
 30
0.0
 10
24.4661284716
 20
33.8432712852
 30
0.0
 10
24.4559020936
 20
33.8621406401
 30
0.0
 10
24.4540614689
 20
33.8789964483
 30
0.0
 10
24.4540614479
 20
33.8877060128
 30
0.0
  0
SPLINE
  5
419
100
AcDbEntity
  8
00_COMPONENTS
100
AcDbSpline
 62
7
  6
BYLAYER
 70
0
 71
3
 72
11
 73
7
 74
0
 42
0.0000001
 43
0.0000001
 44
0.0000000001
 40
0.0
 40
0.0
 40
0.0
 40
0.0
 40
0.2839711329
 40
0.5552001873
 40
0.7994006395
 40
1.0
 40
1.0
 40
1.0
 40
1.0
 10
23.9682486819
 20
33.9031235152
 30
0.0
 10
23.9530538181
 20
33.8920491054
 30
0.0
 10
23.9225581883
 20
33.8714514954
 30
0.0
 10
23.8760956221
 20
33.8458539874
 30
0.0
 10
23.8319879646
 20
33.828222794
 30
0.0
 10
23.8026324588
 20
33.8225486363
 30
0.0
 10
23.7893503724
 20
33.8225486363
 30
0.0
  0
SPLINE
  5
41A
100
AcDbEntity
  8
00_COMPONENTS
100
AcDbSpline
 62
7
  6
BYLAYER
 70
0
 71
3
 72
11
 73
7
 74
0
 42
0.0000001
 43
0.0000001
 44
0.0000000001
 40
0.0
 40
0.0
 40
0.0
 40
0.0
 40
0.2856554169
 40
0.5209636125
 40
0.7476609822
 40
1.0
 40
1.0
 40
1.0
 40
1.0
 10
23.7369181301
 20
33.8225486363
 30
0.0
 10
23.7290368232
 20
33.8225486363
 30
0.0
 10
23.7144164969
 20
33.8242141061
 30
0.0
 10
23.6960962959
 20
33.8354191939
 30
0.0
 10
23.6863435237
 20
33.8533832246
 30
0.0
 10
23.6849035824
 20
33.8667518444
 30
0.0
 10
23.6849037946
 20
33.8737139432
 30
0.0
  0
SPLINE
  5
41B
100
AcDbEntity
  8
00_COMPONENTS
100
AcDbSpline
 62
7
  6
BYLAYER
 70
0
 71
3
 72
12
 73
8
 74
0
 42
0.0000001
 43
0.0000001
 44
0.0000000001
 40
0.0
 40
0.0
 40
0.0
 40
0.0
 40
0.2926023579
 40
0.5676087028
 40
0.8091159904
 40
0.9117321063
 40
1.0
 40
1.0
 40
1.0
 40
1.0
 10
23.2543965322
 20
33.9031235152
 30
0.0
 10
23.2394684038
 20
33.8921177079
 30
0.0
 10
23.2098100403
 20
33.8716749081
 30
0.0
 10
23.1652682015
 20
33.8461561053
 30
0.0
 10
23.1290106917
 20
33.8306239718
 30
0.0
 10
23.1023978411
 20
33.8238597779
 30
0.0
 10
23.0902967947
 20
33.8225486363
 30
0.0
 10
23.0847019308
 20
33.8225486363
 30
0.0
  0
SPLINE
  5
41C
100
AcDbEntity
  8
00_COMPONENTS
100
AcDbSpline
 62
7
  6
BYLAYER
 70
0
 71
3
 72
11
 73
7
 74
0
 42
0.0000001
 43
0.0000001
 44
0.0000000001
 40
0.0
 40
0.0
 40
0.0
 40
0.0
 40
0.2837394035
 40
0.5171961992
 40
0.7436798395
 40
1.0
 40
1.0
 40
1.0
 40
1.0
 10
23.0384246505
 20
33.8225486363
 30
0.0
 10
23.0324941877
 20
33.8225486363
 30
0.0
 10
23.0215077483
 20
33.8237487287
 30
0.0
 10
23.0076146742
 20
33.8320490323
 30
0.0
 10
23.0001433501
 20
33.8456791844
 30
0.0
 10
22.9990641158
 20
33.8558918443
 30
0.0
 10
22.9990639519
 20
33.8612492151
 30
0.0
  0
SPLINE
  5
41D
100
AcDbEntity
  8
00_COMPONENTS
100
AcDbSpline
 62
7
  6
BYLAYER
 70
0
 71
3
 72
12
 73
8
 74
0
 42
0.0000001
 43
0.0000001
 44
0.0000000001
 40
0.0
 40
0.0
 40
0.0
 40
0.0
 40
0.3024622202
 40
0.5818581966
 40
0.8204748465
 40
0.9184504796
 40
1.0
 40
1.0
 40
1.0
 40
1.0
 10
22.6290719441
 20
33.9031235152
 30
0.0
 10
22.6145258641
 20
33.8921897386
 30
0.0
 10
22.5859401942
 20
33.8719201846
 30
0.0
 10
22.5436110363
 20
33.8464679647
 30
0.0
 10
22.5098210196
 20
33.8307983605
 30
0.0
 10
22.4855748463
 20
33.8239175004
 30
0.0
 10
22.4747788215
 20
33.8225486363
 30
0.0
 10
22.4698725292
 20
33.8225486363
 30
0.0
  0
SPLINE
  5
41E
100
AcDbEntity
  8
00_COMPONENTS
100
AcDbSpline
 62
7
  6
BYLAYER
 70
0
 71
3
 72
11
 73
7
 74
0
 42
0.0000001
 43
0.0000001
 44
0.0000000001
 40
0.0
 40
0.0
 40
0.0
 40
0.0
 40
0.281893533
 40
0.5136684611
 40
0.7398762031
 40
1.0
 40
1.0
 40
1.0
 40
1.0
 10
22.4301024091
 20
33.8225486363
 30
0.0
 10
22.4258562086
 20
33.8225486363
 30
0.0
 10
22.417998893
 20
33.8233770352
 30
0.0
 10
22.4079805466
 20
33.8292321026
 30
0.0
 10
22.4025345398
 20
33.8390667209
 30
0.0
 10
22.4017626817
 20
33.8464849332
 30
0.0
 10
22.4017626643
 20
33.8504032132
 30
0.0
  0
SPLINE
  5
41F
100
AcDbEntity
  8
00_COMPONENTS
100
AcDbSpline
 62
7
  6
BYLAYER
 70
0
 71
3
 72
12
 73
8
 74
0
 42
0.0000001
 43
0.0000001
 44
0.0000000001
 40
0.0
 40
0.0
 40
0.0
 40
0.0
 40
0.3136736668
 40
0.5980762802
 40
0.8334428371
 40
0.9261352449
 40
1.0
 40
1.0
 40
1.0
 40
1.0
 10
22.0970340153
 20
33.9031235152
 30
0.0
 10
22.0829807886
 20
33.8922653052
 30
0.0
 10
22.055680721
 20
33.8721820088
 30
0.0
 10
22.0158787373
 20
33.8468159047
 30
0.0
 10
21.9848222026
 20
33.8310123625
 30
0.0
 10
21.9631367857
 20
33.8239956829
 30
0.0
 10
21.9537234081
 20
33.8225486363
 30
0.0
 10
21.9495413906
 20
33.8225486363
 30
0.0
  0
SPLINE
  5
420
100
AcDbEntity
  8
00_COMPONENTS
100
AcDbSpline
 62
7
  6
BYLAYER
 70
0
 71
3
 72
11
 73
7
 74
0
 42
0.0000001
 43
0.0000001
 44
0.0000000001
 40
0.0
 40
0.0
 40
0.0
 40
0.0
 40
0.2801864992
 40
0.5104957253
 40
0.7363923815
 40
1.0
 40
1.0
 40
1.0
 40
1.0
 10
21.9165811052
 20
33.8225486363
 30
0.0
 10
21.91374395
 20
33.8225486363
 30
0.0
 10
21.9084986239
 20
33.8230865341
 30
0.0
 10
21.9017629866
 20
33.8269460369
 30
0.0
 10
21.8980605413
 20
33.8335618004
 30
0.0
 10
21.8975441324
 20
33.8385840982
 30
0.0
 10
21.8975439367
 20
33.8412533764
 30
0.0
  0
SPLINE
  5
421
100
AcDbEntity
  8
00_COMPONENTS
100
AcDbSpline
 62
7
  6
BYLAYER
 70
0
 71
3
 72
13
 73
9
 74
0
 42
0.0000001
 43
0.0000001
 44
0.0000000001
 40
0.0
 40
0.0
 40
0.0
 40
0.0
 40
0.3265016729
 40
0.6166471991
 40
0.7414126185
 40
0.8484638848
 40
0.9350685861
 40
1.0
 40
1.0
 40
1.0
 40
1.0
 10
21.6623318756
 20
33.9031235152
 30
0.0
 10
21.6488767273
 20
33.8923444579
 30
0.0
 10
21.6230606363
 20
33.8724879859
 30
0.0
 10
21.5907348127
 20
33.8503256422
 30
0.0
 10
21.566923686
 20
33.8364266647
 30
0.0
 10
21.5518421275
 20
33.8289317504
 30
0.0
 10
21.5390587085
 20
33.824111019
 30
0.0
 10
21.5310971356
 20
33.8225486363
 30
0.0
 10
21.5276685492
 20
33.8225486363
 30
0.0
  0
SPLINE
  5
422
100
AcDbEntity
  8
00_COMPONENTS
100
AcDbSpline
 62
7
  6
BYLAYER
 70
0
 71
3
 72
11
 73
7
 74
0
 42
0.0000001
 43
0.0000001
 44
0.0000000001
 40
0.0
 40
0.0
 40
0.0
 40
0.0
 40
0.2786748625
 40
0.5077809431
 40
0.7333946303
 40
1.0
 40
1.0
 40
1.0
 40
1.0
 10
21.5017689461
 20
33.8225486363
 30
0.0
 10
21.500059947
 20
33.8225486363
 30
0.0
 10
21.4969025905
 20
33.8228666407
 30
0.0
 10
21.4928224527
 20
33.825162792
 30
0.0
 10
21.4905582258
 20
33.8291722092
 30
0.0
 10
21.4902467758
 20
33.8322323694
 30
0.0
 10
21.4902470265
 20
33.8338673513
 30
0.0
  0
SPLINE
  5
423
100
AcDbEntity
  8
00_COMPONENTS
100
AcDbSpline
 62
7
  6
BYLAYER
 70
0
 71
3
 72
14
 73
10
 74
0
 42
0.0000001
 43
0.0000001
 44
0.0000000001
 40
0.0
 40
0.0
 40
0.0
 40
0.0
 40
0.3414000716
 40
0.4968197516
 40
0.6383290921
 40
0.7625652802
 40
0.8660014294
 40
0.9455781056
 40
1.0
 40
1.0
 40
1.0
 40
1.0
 10
21.328273871
 20
33.9031235152
 30
0.0
 10
21.3155153373
 20
33.8924271029
 30
0.0
 10
21.296717275
 20
33.8771278041
 30
0.0
 10
21.2719016482
 20
33.8583299725
 30
0.0
 10
21.2551664186
 20
33.8464116879
 30
0.0
 10
21.2400986255
 20
33.8365592709
 30
0.0
 10
21.2270785409
 20
33.8290772042
 30
0.0
 10
21.2165649395
 20
33.8242861637
 30
0.0
 10
21.2101187154
 20
33.8225486363
 30
0.0
 10
21.2074647119
 20
33.8225486363
 30
0.0
  0
SPLINE
  5
424
100
AcDbEntity
  8
00_COMPONENTS
100
AcDbSpline
 62
7
  6
BYLAYER
 70
0
 71
3
 72
15
 73
11
 74
0
 42
0.0000001
 43
0.0000001
 44
0.0000000001
 40
0.0
 40
0.0
 40
0.0
 40
0.0
 40
0.3586264981
 40
0.519313869
 40
0.6633876591
 40
0.787074004
 40
0.8864094775
 40
0.9578766757
 40
0.9825294625
 40
1.0
 40
1.0
 40
1.0
 40
1.0
 10
21.0974023844
 20
33.9031235152
 30
0.0
 10
21.0854311716
 20
33.8925128739
 30
0.0
 10
21.067948707
 20
33.877311039
 30
0.0
 10
21.0451646612
 20
33.8584264508
 30
0.0
 10
21.0302036761
 20
33.8465352429
 30
0.0
 10
21.017100284
 20
33.8367014312
 30
0.0
 10
21.0062576116
 20
33.8292993812
 30
0.0
 10
20.9987057769
 20
33.82486448
 30
0.0
 10
20.9940099265
 20
33.8229650165
 30
0.0
 10
20.9921461065
 20
33.8225486363
 30
0.0
 10
20.9913668233
 20
33.8225486363
 30
0.0
  0
SPLINE
  5
425
100
AcDbEntity
  8
00_COMPONENTS
100
AcDbSpline
 62
7
  6
BYLAYER
 70
0
 71
3
 72
16
 73
12
 74
0
 42
0.0000001
 43
0.0000001
 44
0.0000000001
 40
0.0
 40
0.0
 40
0.0
 40
0.0
 40
0.392100523
 40
0.5593806035
 40
0.7037366226
 40
0.8223027256
 40
0.9124007473
 40
0.9460834482
 40
0.9718962882
 40
0.9897976611
 40
1.0
 40
1.0
 40
1.0
 40
1.0
 10
20.9344675771
 20
33.8684282693
 30
0.0
 10
20.9276972164
 20
33.8621651851
 30
0.0
 10
20.9180005892
 20
33.8532703139
 30
0.0
 10
20.9056694315
 20
33.8422270958
 30
0.0
 10
20.8980605058
 20
33.8355546428
 30
0.0
 10
20.8917337925
 20
33.8301784194
 30
0.0
 10
20.8873025735
 20
33.8265849112
 30
0.0
 10
20.8844848534
 20
33.824483694
 30
0.0
 10
20.8829780234
 20
33.8234463811
 30
0.0
 10
20.8818909614
 20
33.8228228147
 30
0.0
 10
20.881259499
 20
33.8225486363
 30
0.0
 10
20.8810195189
 20
33.8225486363
 30
0.0
  0
SPLINE
  5
426
100
AcDbEntity
  8
00_COMPONENTS
100
AcDbSpline
 62
7
  6
BYLAYER
 70
0
 71
3
 72
13
 73
9
 74
0
 42
0.0000001
 43
0.0000001
 44
0.0000000001
 40
0.0
 40
0.0
 40
0.0
 40
0.0
 40
0.4033545905
 40
0.578373892
 40
0.7294240147
 40
0.8514055911
 40
0.9390590246
 40
1.0
 40
1.0
 40
1.0
 40
1.0
 10
21.3057976992
 20
34.2166885004
 30
0.0
 10
21.3103248762
 20
34.2208887925
 30
0.0
 10
21.3168238222
 20
34.226852609
 30
0.0
 10
21.3252716494
 20
34.2342848763
 30
0.0
 10
21.3303260869
 20
34.2386349333
 30
0.0
 10
21.3350785424
 20
34.242370884
 30
0.0
 10
21.3373453204
 20
34.2441879673
 30
0.0
 10
21.3411821723
 20
34.2464336984
 30
0.0
 10
21.3411814322
 20
34.245500659
 30
0.0
  0
SPLINE
  5
427
100
AcDbEntity
  8
00_COMPONENTS
100
AcDbSpline
 62
7
  6
BYLAYER
 70
0
 71
3
 72
18
 73
14
 74
0
 42
0.0000001
 43
0.0000001
 44
0.0000000001
 40
0.0
 40
0.0
 40
0.0
 40
0.0
 40
0.0094112578
 40
0.0201638814
 40
0.0387910581
 40
0.0665294149
 40
0.1034858299
 40
0.1495159654
 40
0.2671336384
 40
0.4152379093
 40
0.5894978203
 40
0.7857311082
 40
1.0
 40
1.0
 40
1.0
 40
1.0
 10
48.4318793237
 20
34.2455004952
 30
0.0
 10
48.4318792196
 20
34.2456134873
 30
0.0
 10
48.4319707279
 20
34.2458969245
 30
0.0
 10
48.4325111466
 20
34.2458848073
 30
0.0
 10
48.4331266909
 20
34.2456395056
 30
0.0
 10
48.4340240194
 20
34.2451682227
 30
0.0
 10
48.4351408224
 20
34.2444541585
 30
0.0
 10
48.437114935
 20
34.2430698157
 30
0.0
 10
48.440071467
 20
34.2407741727
 30
0.0
 10
48.4441467201
 20
34.2374119384
 30
0.0
 10
48.4488666144
 20
34.2333508808
 30
0.0
 10
48.4541245201
 20
34.2286982427
 30
0.0
 10
48.4577808822
 20
34.225393395
 30
0.0
 10
48.459682528
 20
34.223660874
 30
0.0
  0
SPLINE
  5
428
100
AcDbEntity
  8
00_COMPONENTS
100
AcDbSpline
 62
7
  6
BYLAYER
 70
0
 71
3
 72
17
 73
13
 74
0
 42
0.0000001
 43
0.0000001
 44
0.0000000001
 40
0.0
 40
0.0
 40
0.0
 40
0.0
 40
0.2066767596
 40
0.3988901759
 40
0.5719465565
 40
0.7203830109
 40
0.8384697694
 40
0.9209445088
 40
0.9483750581
 40
0.9676120867
 40
0.9825223108
 40
1.0
 40
1.0
 40
1.0
 40
1.0
 10
21.4549032434
 20
34.2166885044
 30
0.0
 10
21.4576534355
 20
34.2190746913
 30
0.0
 10
21.4629951378
 20
34.2236411744
 30
0.0
 10
21.470777967
 20
34.2300431676
 30
0.0
 10
21.4779101588
 20
34.2356127355
 30
0.0
 10
21.4841859554
 20
34.2401649023
 30
0.0
 10
21.4893583672
 20
34.2434689145
 30
0.0
 10
21.4929650828
 20
34.2453293877
 30
0.0
 10
21.495163834
 20
34.245902028
 30
0.0
 10
21.4962942153
 20
34.2459012894
 30
0.0
 10
21.4970676734
 20
34.245283916
 30
0.0
 10
21.4971441899
 20
34.2446739707
 30
0.0
 10
21.4971445545
 20
34.244366062
 30
0.0
  0
SPLINE
  5
429
100
AcDbEntity
  8
00_COMPONENTS
100
AcDbSpline
 62
7
  6
BYLAYER
 70
0
 71
3
 72
16
 73
12
 74
0
 42
0.0000001
 43
0.0000001
 44
0.0000000001
 40
0.0
 40
0.0
 40
0.0
 40
0.0
 40
0.2034221746
 40
0.3932383125
 40
0.5642260717
 40
0.7103810124
 40
0.8254512811
 40
0.8698485887
 40
0.9053773347
 40
0.9539272576
 40
1.0
 40
1.0
 40
1.0
 40
1.0
 10
21.70623158
 20
34.2166885046
 30
0.0
 10
21.7093988083
 20
34.2192877941
 30
0.0
 10
21.7155778081
 20
34.224244651
 30
0.0
 10
21.7246475587
 20
34.2310955612
 30
0.0
 10
21.7330261122
 20
34.2369381369
 30
0.0
 10
21.7404492377
 20
34.2415002234
 30
0.0
 10
21.7459480806
 20
34.2442856034
 30
0.0
 10
21.7497070033
 20
34.2455296934
 30
0.0
 10
21.7521946827
 20
34.2460271602
 30
0.0
 10
21.7552018594
 20
34.2456154235
 30
0.0
 10
21.7557610733
 20
34.2434095359
 30
0.0
 10
21.7557604899
 20
34.2424815519
 30
0.0
  0
SPLINE
  5
42A
100
AcDbEntity
  8
00_COMPONENTS
100
AcDbSpline
 62
7
  6
BYLAYER
 70
0
 71
3
 72
15
 73
11
 74
0
 42
0.0000001
 43
0.0000001
 44
0.0000000001
 40
0.0
 40
0.0
 40
0.0
 40
0.0
 40
0.0401950922
 40
0.0842153398
 40
0.1585562265
 40
0.267764339
 40
0.4104186655
 40
0.5827424868
 40
0.7805946469
 40
1.0
 40
1.0
 40
1.0
 40
1.0
 10
48.2759161097
 20
34.2443659919
 30
0.0
 10
48.2759167169
 20
34.2447979176
 30
0.0
 10
48.2762259316
 20
34.2458523756
 30
0.0
 10
48.2781837841
 20
34.2459536455
 30
0.0
 10
48.280419879
 20
34.2451161068
 30
0.0
 10
48.2835816688
 20
34.2435219653
 30
0.0
 10
48.2874318934
 20
34.2410963466
 30
0.0
 10
48.2919618337
 20
34.2379496059
 30
0.0
 10
48.2970326033
 20
34.234151875
 30
0.0
 10
48.3005555253
 20
34.2313771969
 30
0.0
 10
48.3023941269
 20
34.2299013352
 30
0.0
  0
LINE
  5
42B
100
AcDbEntity
  8
00_COMPONENTS
100
AcDbLine
 62
7
  6
BYLAYER
 10
48.3023941269
 20
34.2299013352
 11
48.3181573807
 21
34.2166880199
  0
SPLINE
  5
42C
100
AcDbEntity
  8
00_COMPONENTS
100
AcDbSpline
 62
7
  6
BYLAYER
 70
0
 71
3
 72
17
 73
13
 74
0
 42
0.0000001
 43
0.0000001
 44
0.0000000001
 40
0.0
 40
0.0
 40
0.0
 40
0.0
 40
0.1980939627
 40
0.3837727099
 40
0.5513699479
 40
0.6944427555
 40
0.8065007984
 40
0.8499117808
 40
0.8853053214
 40
0.9144889127
 40
0.9408028637
 40
1.0
 40
1.0
 40
1.0
 40
1.0
 10
22.0578699485
 20
34.216688501
 30
0.0
 10
22.0614647345
 20
34.2195075538
 30
0.0
 10
22.0685130285
 20
34.2248639305
 30
0.0
 10
22.0789335334
 20
34.2321556778
 30
0.0
 10
22.0886505766
 20
34.2382254031
 30
0.0
 10
22.0972958686
 20
34.242740901
 30
0.0
 10
22.1037779117
 20
34.2451963799
 30
0.0
 10
22.1081347244
 20
34.2459327635
 30
0.0
 10
22.1106458188
 20
34.2458715965
 30
0.0
 10
22.1126816375
 20
34.2452072265
 30
0.0
 10
22.114706422
 20
34.2433711193
 30
0.0
 10
22.1150637584
 20
34.2412304476
 30
0.0
 10
22.115064698
 20
34.2398652804
 30
0.0
  0
SPLINE
  5
42D
100
AcDbEntity
  8
00_COMPONENTS
100
AcDbSpline
 62
7
  6
BYLAYER
 70
0
 71
3
 72
15
 73
11
 74
0
 42
0.0000001
 43
0.0000001
 44
0.0000000001
 40
0.0
 40
0.0
 40
0.0
 40
0.0
 40
0.373898068
 40
0.5382543672
 40
0.6786034869
 40
0.7885331113
 40
0.8674470308
 40
0.8993261628
 40
0.9301098603
 40
1.0
 40
1.0
 40
1.0
 40
1.0
 10
22.5071421682
 20
34.2166884935
 30
0.0
 10
22.5149651833
 20
34.2226053932
 30
0.0
 10
22.5265472352
 20
34.2307481696
 30
0.0
 10
22.5420741397
 20
34.2394784135
 30
0.0
 10
22.5520734133
 20
34.2438606436
 30
0.0
 10
22.5604299171
 20
34.2460937655
 30
0.0
 10
22.5664643047
 20
34.2458716156
 30
0.0
 10
22.5697421141
 20
34.243954237
 30
0.0
 10
22.5719154027
 20
34.2411426643
 30
0.0
 10
22.5723221121
 20
34.2383702678
 30
0.0
 10
22.5723220264
 20
34.2365368091
 30
0.0
  0
SPLINE
  5
42E
100
AcDbEntity
  8
00_COMPONENTS
100
AcDbSpline
 62
7
  6
BYLAYER
 70
0
 71
3
 72
13
 73
9
 74
0
 42
0.0000001
 43
0.0000001
 44
0.0000000001
 40
0.0
 40
0.0
 40
0.0
 40
0.0
 40
0.0665102653
 40
0.1232977502
 40
0.1946975522
 40
0.2951811753
 40
0.5917619166
 40
1.0
 40
1.0
 40
1.0
 40
1.0
 10
48.0172999595
 20
34.242481673
 30
0.0
 10
48.017299534
 20
34.2431498582
 30
0.0
 10
48.017454384
 20
34.2444644396
 30
0.0
 10
48.0190527355
 20
34.2458590174
 30
0.0
 10
48.0214490756
 20
34.2459637027
 30
0.0
 10
48.0260262059
 20
34.2448694483
 30
0.0
 10
48.0333248835
 20
34.2411735979
 30
0.0
 10
48.039280342
 20
34.2373734866
 30
0.0
 10
48.0426682589
 20
34.2350620584
 30
0.0
  0
SPLINE
  5
42F
100
AcDbEntity
  8
00_COMPONENTS
100
AcDbSpline
 62
7
  6
BYLAYER
 70
0
 71
3
 72
9
 73
5
 74
0
 42
0.0000001
 43
0.0000001
 44
0.0000000001
 40
0.0
 40
0.0
 40
0.0
 40
0.0
 40
0.2290689754
 40
1.0
 40
1.0
 40
1.0
 40
1.0
 10
48.0426682589
 20
34.2350620584
 30
0.0
 10
48.0445831849
 20
34.2337555878
 30
0.0
 10
48.052844834
 20
34.2279086738
 30
0.0
 10
48.0607982533
 20
34.2216373926
 30
0.0
 10
48.0668290512
 20
34.2166880199
 30
0.0
  0
SPLINE
  5
430
100
AcDbEntity
  8
00_COMPONENTS
100
AcDbSpline
 62
7
  6
BYLAYER
 70
0
 71
3
 72
15
 73
11
 74
0
 42
0.0000001
 43
0.0000001
 44
0.0000000001
 40
0.0
 40
0.0
 40
0.0
 40
0.0
 40
0.3637550716
 40
0.5249499227
 40
0.6628208503
 40
0.7712867432
 40
0.8519758557
 40
0.8868377696
 40
0.9217022553
 40
1.0
 40
1.0
 40
1.0
 40
1.0
 10
23.0506290062
 20
34.2166884824
 30
0.0
 10
23.0593221057
 20
34.223084898
 30
0.0
 10
23.0723020912
 20
34.2317994179
 30
0.0
 10
23.0898711865
 20
34.2406948225
 30
0.0
 10
23.1012869741
 20
34.2448233913
 30
0.0
 10
23.1109303199
 20
34.2464141771
 30
0.0
 10
23.1177587148
 20
34.2450186668
 30
0.0
 10
23.1212522784
 20
34.242106209
 30
0.0
 10
23.1235916276
 20
34.2383146607
 30
0.0
 10
23.1240504739
 20
34.2348435013
 30
0.0
 10
23.12405033
 20
34.2325203712
 30
0.0
  0
SPLINE
  5
431
100
AcDbEntity
  8
00_COMPONENTS
100
AcDbSpline
 62
7
  6
BYLAYER
 70
0
 71
3
 72
11
 73
7
 74
0
 42
0.0000001
 43
0.0000001
 44
0.0000000001
 40
0.0
 40
0.0
 40
0.0
 40
0.0
 40
0.2666058972
 40
0.4922193331
 40
0.7213250345
 40
1.0
 40
1.0
 40
1.0
 40
1.0
 10
48.2828135591
 20
33.8338673555
 30
0.0
 10
48.28281381
 20
33.8322323699
 30
0.0
 10
48.2825023735
 20
33.8291722033
 30
0.0
 10
48.2802381322
 20
33.8251627933
 30
0.0
 10
48.2761580029
 20
33.8228666348
 30
0.0
 10
48.2730006447
 20
33.8225486363
 30
0.0
 10
48.2712916444
 20
33.8225486363
 30
0.0
  0
SPLINE
  5
432
100
AcDbEntity
  8
00_COMPONENTS
100
AcDbSpline
 62
7
  6
BYLAYER
 70
0
 71
3
 72
15
 73
11
 74
0
 42
0.0000001
 43
0.0000001
 44
0.0000000001
 40
0.0
 40
0.0
 40
0.0
 40
0.0
 40
0.1817445536
 40
0.3554384293
 40
0.5143665833
 40
0.6507033446
 40
0.8384277098
 40
0.8763863781
 40
0.9148779304
 40
1.0
 40
1.0
 40
1.0
 40
1.0
 10
23.6841941994
 20
34.2166884675
 30
0.0
 10
23.689087138
 20
34.2202196818
 30
0.0
 10
23.6988685909
 20
34.2268511106
 30
0.0
 10
23.7136362717
 20
34.2354020857
 30
0.0
 10
23.7279647125
 20
34.2418459099
 30
0.0
 10
23.742999735
 20
34.2464102895
 30
0.0
 10
23.7568596851
 20
34.2461590601
 30
0.0
 10
23.7630344217
 20
34.2396833996
 30
0.0
 10
23.7655306435
 20
34.234879598
 30
0.0
 10
23.7660525273
 20
34.2306749627
 30
0.0
 10
23.7660526515
 20
34.2278488269
 30
0.0
  0
SPLINE
  5
433
100
AcDbEntity
  8
00_COMPONENTS
100
AcDbSpline
 62
7
  6
BYLAYER
 70
0
 71
3
 72
12
 73
8
 74
0
 42
0.0000001
 43
0.0000001
 44
0.0000000001
 40
0.0
 40
0.0
 40
0.0
 40
0.0
 40
0.162396682
 40
0.3332620818
 40
0.4571065363
 40
0.6105729451
 40
1.0
 40
1.0
 40
1.0
 40
1.0
 10
47.6579958853
 20
34.2398652792
 30
0.0
 10
47.6579969137
 20
34.2414820382
 30
0.0
 10
47.6589303928
 20
34.2453080184
 30
0.0
 10
47.664125637
 20
34.2461499289
 30
0.0
 10
47.6684287178
 20
34.2453208436
 30
0.0
 10
47.6747856226
 20
34.2432362807
 30
0.0
 10
47.6796037874
 20
34.2407605112
 30
0.0
 10
47.6829890861
 20
34.23887086
 30
0.0
  0
SPLINE
  5
434
100
AcDbEntity
  8
00_COMPONENTS
100
AcDbSpline
 62
7
  6
BYLAYER
 70
0
 71
3
 72
9
 73
5
 74
0
 42
0.0000001
 43
0.0000001
 44
0.0000000001
 40
0.0
 40
0.0
 40
0.0
 40
0.0
 40
0.4672325311
 40
1.0
 40
1.0
 40
1.0
 40
1.0
 10
47.6829890861
 20
34.23887086
 30
0.0
 10
47.6883103963
 20
34.23590054
 30
0.0
 10
47.6992737272
 20
34.2287890657
 30
0.0
 10
47.709722582
 20
34.2209761441
 30
0.0
 10
47.7151906897
 20
34.2166880199
 30
0.0
  0
SPLINE
  5
435
100
AcDbEntity
  8
00_COMPONENTS
100
AcDbSpline
 62
7
  6
BYLAYER
 70
0
 71
3
 72
11
 73
7
 74
0
 42
0.0000001
 43
0.0000001
 44
0.0000000001
 40
0.0
 40
0.0
 40
0.0
 40
0.0
 40
0.2636079822
 40
0.4895046772
 40
0.7198135638
 40
1.0
 40
1.0
 40
1.0
 40
1.0
 10
47.8755166543
 20
33.841253376
 30
0.0
 10
47.8755164578
 20
33.8385840941
 30
0.0
 10
47.8750000369
 20
33.8335617946
 30
0.0
 10
47.8712976006
 20
33.8269460258
 30
0.0
 10
47.8645619613
 20
33.8230865299
 30
0.0
 10
47.8593166398
 20
33.8225486363
 30
0.0
 10
47.8564794853
 20
33.8225486363
 30
0.0
  0
SPLINE
  5
436
100
AcDbEntity
  8
00_COMPONENTS
100
AcDbSpline
 62
7
  6
BYLAYER
 70
0
 71
3
 72
15
 73
11
 74
0
 42
0.0000001
 43
0.0000001
 44
0.0000000001
 40
0.0
 40
0.0
 40
0.0
 40
0.0
 40
0.1756033139
 40
0.3448238808
 40
0.5006934472
 40
0.6349845817
 40
0.7426144811
 40
0.8290435353
 40
0.9102433453
 40
1.0
 40
1.0
 40
1.0
 40
1.0
 10
24.403015934
 20
34.2166884492
 30
0.0
 10
24.4083270773
 20
34.2204776666
 30
0.0
 10
24.4190170226
 20
34.2275650972
 30
0.0
 10
24.4353642039
 20
34.2364992154
 30
0.0
 10
24.4512221979
 20
34.2429577541
 30
0.0
 10
24.4657237595
 20
34.2462275051
 30
0.0
 10
24.4781521999
 20
34.2458218843
 30
0.0
 10
24.4876731487
 20
34.2409318563
 30
0.0
 10
24.4927230743
 20
34.2323287456
 30
0.0
 10
24.4934424388
 20
34.2258926491
 30
0.0
 10
24.4934423286
 20
34.2225578669
 30
0.0
  0
SPLINE
  5
437
100
AcDbEntity
  8
00_COMPONENTS
100
AcDbSpline
 62
7
  6
BYLAYER
 70
0
 71
3
 72
13
 73
9
 74
0
 42
0.0000001
 43
0.0000001
 44
0.0000000001
 40
0.0
 40
0.0
 40
0.0
 40
0.0
 40
0.1795675374
 40
0.2626280392
 40
0.3592418789
 40
0.4796624874
 40
0.6275120718
 40
1.0
 40
1.0
 40
1.0
 40
1.0
 10
47.2007386062
 20
34.2365368006
 30
0.0
 10
47.2007385009
 20
34.2388040721
 30
0.0
 10
47.2014451614
 20
34.2424683951
 30
0.0
 10
47.2052420432
 20
34.2452660488
 30
0.0
 10
47.2090304158
 20
34.2460429691
 30
0.0
 10
47.2136581938
 20
34.2457105695
 30
0.0
 10
47.2215306503
 20
34.2437398495
 30
0.0
 10
47.2275581651
 20
34.2410078385
 30
0.0
 10
47.2317477867
 20
34.2388708788
 30
0.0
  0
SPLINE
  5
438
100
AcDbEntity
  8
00_COMPONENTS
100
AcDbSpline
 62
7
  6
BYLAYER
 70
0
 71
3
 72
9
 73
5
 74
0
 42
0.0000001
 43
0.0000001
 44
0.0000000001
 40
0.0
 40
0.0
 40
0.0
 40
0.0
 40
0.4728340479
 40
1.0
 40
1.0
 40
1.0
 40
1.0
 10
47.2317477867
 20
34.2388708788
 30
0.0
 10
47.2374727985
 20
34.2359507776
 30
0.0
 10
47.24913736
 20
34.2289129858
 30
0.0
 10
47.2602037722
 20
34.2210103104
 30
0.0
 10
47.2659184765
 20
34.2166880199
 30
0.0
  0
SPLINE
  5
439
100
AcDbEntity
  8
00_COMPONENTS
100
AcDbSpline
 62
7
  6
BYLAYER
 70
0
 71
3
 72
15
 73
11
 74
0
 42
0.0000001
 43
0.0000001
 44
0.0000000001
 40
0.0
 40
0.0
 40
0.0
 40
0.0
 40
0.1702794662
 40
0.3358843267
 40
0.4895838332
 40
0.6227320315
 40
0.7308220658
 40
0.8205357905
 40
0.9065956064
 40
1.0
 40
1.0
 40
1.0
 40
1.0
 10
25.2016235423
 20
34.2166884274
 30
0.0
 10
25.2073342406
 20
34.2207472018
 30
0.0
 10
25.218929087
 20
34.2283056999
 30
0.0
 10
25.2368421112
 20
34.2376060548
 30
0.0
 10
25.2544152162
 20
34.2439791638
 30
0.0
 10
25.2705821375
 20
34.2465957421
 30
0.0
 10
25.2844067419
 20
34.2448267316
 30
0.0
 10
25.2945813293
 20
34.2381474031
 30
0.0
 10
25.2998654186
 20
34.2279884914
 30
0.0
 10
25.3006834697
 20
34.220531571
 30
0.0
 10
25.3006834704
 20
34.2166884626
 30
0.0
  0
SPLINE
  5
43A
100
AcDbEntity
  8
00_COMPONENTS
100
AcDbSpline
 62
7
  6
BYLAYER
 70
0
 71
3
 72
11
 73
7
 74
0
 42
0.0000001
 43
0.0000001
 44
0.0000000001
 40
0.0
 40
0.0
 40
0.0
 40
0.0
 40
0.2601239223
 40
0.4863319961
 40
0.7181066701
 40
1.0
 40
1.0
 40
1.0
 40
1.0
 10
47.3712979278
 20
33.8504032119
 30
0.0
 10
47.3712979108
 20
33.84648493
 30
0.0
 10
47.3705260454
 20
33.839066712
 30
0.0
 10
47.3650800373
 20
33.8292320894
 30
0.0
 10
47.3550616866
 20
33.8233770328
 30
0.0
 10
47.3472043789
 20
33.8225486363
 30
0.0
 10
47.3429581814
 20
33.8225486363
 30
0.0
  0
SPLINE
  5
43B
100
AcDbEntity
  8
00_COMPONENTS
100
AcDbSpline
 62
7
  6
BYLAYER
 70
0
 71
3
 72
13
 73
9
 74
0
 42
0.0000001
 43
0.0000001
 44
0.0000000001
 40
0.0
 40
0.0
 40
0.0
 40
0.0
 40
0.1916714744
 40
0.2795343859
 40
0.3775116843
 40
0.4961712314
 40
0.6402829538
 40
1.0
 40
1.0
 40
1.0
 40
1.0
 10
46.6490102848
 20
34.2325203924
 30
0.0
 10
46.6490101193
 20
34.2355068027
 30
0.0
 10
46.6498350108
 20
34.240205028
 30
0.0
 10
46.6542820574
 20
34.2443435865
 30
0.0
 10
46.6588888231
 20
34.2458740376
 30
0.0
 10
46.6645606091
 20
34.2459900269
 30
0.0
 10
46.6741434041
 20
34.2442546409
 30
0.0
 10
46.6814853129
 20
34.2412668156
 30
0.0
 10
46.6865520674
 20
34.2388708289
 30
0.0
  0
SPLINE
  5
43C
100
AcDbEntity
  8
00_COMPONENTS
100
AcDbSpline
 62
7
  6
BYLAYER
 70
0
 71
3
 72
9
 73
5
 74
0
 42
0.0000001
 43
0.0000001
 44
0.0000000001
 40
0.0
 40
0.0
 40
0.0
 40
0.0
 40
0.4779946068
 40
1.0
 40
1.0
 40
1.0
 40
1.0
 10
46.6865520674
 20
34.2388708289
 30
0.0
 10
46.6926346348
 20
34.2359944805
 30
0.0
 10
46.7049092693
 20
34.229028242
 30
0.0
 10
46.7165132581
 20
34.2210427929
 30
0.0
 10
46.7224316442
 20
34.2166880199
 30
0.0
  0
SPLINE
  5
43D
100
AcDbEntity
  8
00_COMPONENTS
100
AcDbSpline
 62
7
  6
BYLAYER
 70
0
 71
3
 72
15
 73
11
 74
0
 42
0.0000001
 43
0.0000001
 44
0.0000000001
 40
0.0
 40
0.0
 40
0.0
 40
0.0
 40
0.1629076923
 40
0.3235007336
 40
0.4754616001
 40
0.6107955324
 40
0.724360294
 40
0.8199239947
 40
0.9085101215
 40
1.0
 40
1.0
 40
1.0
 40
1.0
 10
26.0739391383
 20
34.2166884024
 30
0.0
 10
26.0796586831
 20
34.2207689917
 30
0.0
 10
26.0913832942
 20
34.2283771176
 30
0.0
 10
26.1097067136
 20
34.2376847852
 30
0.0
 10
26.1280312835
 20
34.2440462152
 30
0.0
 10
26.1452678778
 20
34.2466070664
 30
0.0
 10
26.1602819197
 20
34.2447627468
 30
0.0
 10
26.1718317242
 20
34.2382834209
 30
0.0
 10
26.1788621527
 20
34.2282780831
 30
0.0
 10
26.1807754867
 20
34.2206049359
 30
0.0
 10
26.181255759
 20
34.2166884433
 30
0.0
  0
SPLINE
  5
43E
100
AcDbEntity
  8
00_COMPONENTS
100
AcDbSpline
 62
7
  6
BYLAYER
 70
0
 71
3
 72
11
 73
7
 74
0
 42
0.0000001
 43
0.0000001
 44
0.0000000001
 40
0.0
 40
0.0
 40
0.0
 40
0.0
 40
0.2563202413
 40
0.4828041974
 40
0.7162608776
 40
1.0
 40
1.0
 40
1.0
 40
1.0
 10
46.7739966378
 20
33.8612492156
 30
0.0
 10
46.7739964749
 20
33.8558918433
 30
0.0
 10
46.7729172455
 20
33.8456791725
 30
0.0
 10
46.7654458972
 20
33.8320490264
 30
0.0
 10
46.7515528288
 20
33.8237487243
 30
0.0
 10
46.7405663967
 20
33.8225486363
 30
0.0
 10
46.7346359399
 20
33.8225486363
 30
0.0
  0
SPLINE
  5
43F
100
AcDbEntity
  8
00_COMPONENTS
100
AcDbSpline
 62
7
  6
BYLAYER
 70
0
 71
3
 72
14
 73
10
 74
0
 42
0.0000001
 43
0.0000001
 44
0.0000000001
 40
0.0
 40
0.0
 40
0.0
 40
0.0
 40
0.3108887085
 40
0.4607493352
 40
0.5975377387
 40
0.7156736885
 40
0.8167098975
 40
0.9086805098
 40
1.0
 40
1.0
 40
1.0
 40
1.0
 10
27.0133238735
 20
34.2166883743
 30
0.0
 10
27.024661304
 20
34.2248705499
 30
0.0
 10
27.042726023
 20
34.2355252407
 30
0.0
 10
27.0682989456
 20
34.2441059975
 30
0.0
 10
27.0864750285
 20
34.2466148825
 30
0.0
 10
27.1026101463
 20
34.244706487
 30
0.0
 10
27.1154477221
 20
34.2383455027
 30
0.0
 10
27.1240725419
 20
34.2285040188
 30
0.0
 10
27.1271057028
 20
34.2206779846
 30
0.0
 10
27.1280804445
 20
34.2166884205
 30
0.0
  0
SPLINE
  5
440
100
AcDbEntity
  8
00_COMPONENTS
100
AcDbSpline
 62
7
  6
BYLAYER
 70
0
 71
3
 72
14
 73
10
 74
0
 42
0.0000001
 43
0.0000001
 44
0.0000000001
 40
0.0
 40
0.0
 40
0.0
 40
0.0
 40
0.29889
 40
0.4462773979
 40
0.5838386185
 40
0.7057183143
 40
0.8117496244
 40
0.9075495395
 40
1.0
 40
1.0
 40
1.0
 40
1.0
 10
28.0126284629
 20
34.2166883434
 30
0.0
 10
28.0238654998
 20
34.2249565938
 30
0.0
 10
28.0420602492
 20
34.2356670882
 30
0.0
 10
28.0680654738
 20
34.2441588686
 30
0.0
 10
28.0870422209
 20
34.2466204126
 30
0.0
 10
28.1042063217
 20
34.2446565886
 30
0.0
 10
28.1182523067
 20
34.2383626287
 30
0.0
 10
28.1283395932
 20
34.228662906
 30
0.0
 10
28.132475037
 20
34.2207431785
 30
0.0
 10
28.1339516195
 20
34.2166883946
 30
0.0
  0
SPLINE
  5
441
100
AcDbEntity
  8
00_COMPONENTS
100
AcDbSpline
 62
7
  6
BYLAYER
 70
0
 71
3
 72
13
 73
9
 74
0
 42
0.0000001
 43
0.0000001
 44
0.0000000001
 40
0.0
 40
0.0
 40
0.0
 40
0.0
 40
0.1998290337
 40
0.2918216307
 40
0.3914834623
 40
0.5093222925
 40
0.6507275472
 40
1.0
 40
1.0
 40
1.0
 40
1.0
 10
46.007007927
 20
34.2278487781
 30
0.0
 10
46.0070081216
 20
34.2316107621
 30
0.0
 10
46.0079763788
 20
34.2374452901
 30
0.0
 10
46.013090117
 20
34.2430281231
 30
0.0
 10
46.0185333024
 20
34.2454620767
 30
0.0
 10
46.0253338527
 20
34.2461515022
 30
0.0
 10
46.0367644796
 20
34.2447732238
 30
0.0
 10
46.0455409427
 20
34.2415387079
 30
0.0
 10
46.0515508278
 20
34.2388708873
 30
0.0
  0
SPLINE
  5
442
100
AcDbEntity
  8
00_COMPONENTS
100
AcDbSpline
 62
7
  6
BYLAYER
 70
0
 71
3
 72
9
 73
5
 74
0
 42
0.0000001
 43
0.0000001
 44
0.0000000001
 40
0.0
 40
0.0
 40
0.0
 40
0.0
 40
0.2353848395
 40
1.0
 40
1.0
 40
1.0
 40
1.0
 10
46.0515508278
 20
34.2388708873
 30
0.0
 10
46.0546673086
 20
34.2374874646
 30
0.0
 10
46.067676462
 20
34.2310911934
 30
0.0
 10
46.0798850817
 20
34.2231698456
 30
0.0
 10
46.0888664561
 20
34.2166880199
 30
0.0
  0
SPLINE
  5
443
100
AcDbEntity
  8
00_COMPONENTS
100
AcDbSpline
 62
7
  6
BYLAYER
 70
0
 71
3
 72
14
 73
10
 74
0
 42
0.0000001
 43
0.0000001
 44
0.0000000001
 40
0.0
 40
0.0
 40
0.0
 40
0.0
 40
0.2872717206
 40
0.4319800973
 40
0.5698363767
 40
0.6948419366
 40
0.805475039
 40
0.9053840326
 40
1.0
 40
1.0
 40
1.0
 40
1.0
 10
29.0642475951
 20
34.21668831
 30
0.0
 10
29.0752864667
 20
34.2250375014
 30
0.0
 10
29.093469372
 20
34.2357994337
 30
0.0
 10
29.1197194274
 20
34.2442070281
 30
0.0
 10
29.1393562128
 20
34.2466243223
 30
0.0
 10
29.1574399381
 20
34.2446111757
 30
0.0
 10
29.1726092501
 20
34.2383533353
 30
0.0
 10
29.1840450047
 20
34.2287641404
 30
0.0
 10
29.1892372755
 20
34.2207960785
 30
0.0
 10
29.1912139968
 20
34.2166883657
 30
0.0
  0
SPLINE
  5
444
100
AcDbEntity
  8
00_COMPONENTS
100
AcDbSpline
 62
7
  6
BYLAYER
 70
0
 71
3
 72
11
 73
7
 74
0
 42
0.0000001
 43
0.0000001
 44
0.0000000001
 40
0.0
 40
0.0
 40
0.0
 40
0.0
 40
0.2523391871
 40
0.4790366711
 40
0.7143449309
 40
1.0
 40
1.0
 40
1.0
 40
1.0
 10
46.0881567953
 20
33.8737139435
 30
0.0
 10
46.0881570062
 20
33.86675184
 30
0.0
 10
46.0867170708
 20
33.85338321
 30
0.0
 10
46.0769642732
 20
33.8354191813
 30
0.0
 10
46.0586440765
 20
33.8242140999
 30
0.0
 10
46.0440237576
 20
33.8225486363
 30
0.0
 10
46.0361424604
 20
33.8225486363
 30
0.0
  0
SPLINE
  5
445
100
AcDbEntity
  8
00_COMPONENTS
100
AcDbSpline
 62
7
  6
BYLAYER
 70
0
 71
3
 72
14
 73
10
 74
0
 42
0.0000001
 43
0.0000001
 44
0.0000000001
 40
0.0
 40
0.0
 40
0.0
 40
0.0
 40
0.2760678914
 40
0.4179519523
 40
0.5557269247
 40
0.683362962
 40
0.7982577565
 40
0.9024323792
 40
1.0
 40
1.0
 40
1.0
 40
1.0
 10
30.1601778136
 20
34.2166882741
 30
0.0
 10
30.1709203185
 20
34.2251126042
 30
0.0
 10
30.1889493455
 20
34.2359237677
 30
0.0
 10
30.2152568118
 20
34.2442514952
 30
0.0
 10
30.2354088305
 20
34.2466271598
 30
0.0
 10
30.2542907256
 20
34.2445688005
 30
0.0
 10
30.2704877384
 20
34.2383284811
 30
0.0
 10
30.283167587
 20
34.2288207542
 30
0.0
 10
30.2893552506
 20
34.2208353647
 30
0.0
 10
30.2918211714
 20
34.2166883341
 30
0.0
  0
SPLINE
  5
446
100
AcDbEntity
  8
00_COMPONENTS
100
AcDbSpline
 62
7
  6
BYLAYER
 70
0
 71
3
 72
11
 73
7
 74
0
 42
0.0000001
 43
0.0000001
 44
0.0000000001
 40
0.0
 40
0.0
 40
0.0
 40
0.0
 40
0.2665053364
 40
0.5428141704
 40
0.7908956072
 40
1.0
 40
1.0
 40
1.0
 40
1.0
 10
31.2920784278
 20
34.2166882362
 30
0.0
 10
31.3024265945
 20
34.2251807895
 30
0.0
 10
31.326040755
 20
34.2396521568
 30
0.0
 10
31.3656796984
 20
34.2487670083
 30
0.0
 10
31.403209932
 20
34.2410468622
 30
0.0
 10
31.4213533115
 20
34.2252789946
 30
0.0
 10
31.4273968579
 20
34.2166882999
 30
0.0
  0
SPLINE
  5
447
100
AcDbEntity
  8
00_COMPONENTS
100
AcDbSpline
 62
7
  6
BYLAYER
 70
0
 71
3
 72
11
 73
7
 74
0
 42
0.0000001
 43
0.0000001
 44
0.0000000001
 40
0.0
 40
0.0
 40
0.0
 40
0.0
 40
0.2559805603
 40
0.5284761781
 40
0.7822931498
 40
1.0
 40
1.0
 40
1.0
 40
1.0
 10
32.4513349907
 20
34.2166881965
 30
0.0
 10
32.4611917561
 20
34.2252403478
 30
0.0
 10
32.4843914888
 20
34.2399013497
 30
0.0
 10
32.5243087769
 20
34.2487783848
 30
0.0
 10
32.5627638389
 20
34.240829189
 30
0.0
 10
32.5823285189
 20
34.2253251151
 30
0.0
 10
32.5892986397
 20
34.2166882634
 30
0.0
  0
SPLINE
  5
448
100
AcDbEntity
  8
00_COMPONENTS
100
AcDbSpline
 62
7
  6
BYLAYER
 70
0
 71
3
 72
13
 73
9
 74
0
 42
0.0000001
 43
0.0000001
 44
0.0000000001
 40
0.0
 40
0.0
 40
0.0
 40
0.0
 40
0.2051987847
 40
0.3006018907
 40
0.4021389234
 40
0.5198212839
 40
0.6593225756
 40
1.0
 40
1.0
 40
1.0
 40
1.0
 10
45.279618239
 20
34.2225576627
 30
0.0
 10
45.2796180828
 20
34.2271400662
 30
0.0
 10
45.2807566149
 20
34.2341911199
 30
0.0
 10
45.2865465074
 20
34.2413211098
 30
0.0
 10
45.2928418258
 20
34.244784848
 30
0.0
 10
45.3008400358
 20
34.2461783967
 30
0.0
 10
45.3142419405
 20
34.2452936995
 30
0.0
 10
45.32456618
 20
34.2418245891
 30
0.0
 10
45.3315772318
 20
34.2388708587
 30
0.0
  0
SPLINE
  5
449
100
AcDbEntity
  8
00_COMPONENTS
100
AcDbSpline
 62
7
  6
BYLAYER
 70
0
 71
3
 72
9
 73
5
 74
0
 42
0.0000001
 43
0.0000001
 44
0.0000000001
 40
0.0
 40
0.0
 40
0.0
 40
0.0
 40
0.2388875693
 40
1.0
 40
1.0
 40
1.0
 40
1.0
 10
45.3315772318
 20
34.2388708587
 30
0.0
 10
45.3348397445
 20
34.237496374
 30
0.0
 10
45.348266221
 20
34.2311962748
 30
0.0
 10
45.3608626553
 20
34.2232389413
 30
0.0
 10
45.3700447255
 20
34.2166880199
 30
0.0
  0
SPLINE
  5
44A
100
AcDbEntity
  8
00_COMPONENTS
100
AcDbSpline
 62
7
  6
BYLAYER
 70
0
 71
3
 72
11
 73
7
 74
0
 42
0.0000001
 43
0.0000001
 44
0.0000000001
 40
0.0
 40
0.0
 40
0.0
 40
0.0
 40
0.2458567374
 40
0.5142158093
 40
0.7732762138
 40
1.0
 40
1.0
 40
1.0
 40
1.0
 10
33.62912486
 20
34.2166881554
 30
0.0
 10
33.6383948256
 20
34.2252887724
 30
0.0
 10
33.6609840184
 20
34.2401417633
 30
0.0
 10
33.7009092845
 20
34.2487856603
 30
0.0
 10
33.7400871283
 20
34.2406048996
 30
0.0
 10
33.7608618071
 20
34.2253369722
 30
0.0
 10
33.7686837424
 20
34.216688225
 30
0.0
  0
SPLINE
  5
44B
100
AcDbEntity
  8
00_COMPONENTS
100
AcDbSpline
 62
7
  6
BYLAYER
 70
0
 71
3
 72
12
 73
8
 74
0
 42
0.0000001
 43
0.0000001
 44
0.0000000001
 40
0.0
 40
0.0
 40
0.0
 40
0.0
 40
0.2479113873
 40
0.47436357
 40
0.5896866033
 40
0.7129061117
 40
1.0
 40
1.0
 40
1.0
 40
1.0
 10
45.3189991435
 20
33.8877060124
 30
0.0
 10
45.3189991226
 20
33.8789964428
 30
0.0
 10
45.3171584908
 20
33.862140631
 30
0.0
 10
45.3069321087
 20
33.8432712583
 30
0.0
 10
45.2943000521
 20
33.8326530787
 30
0.0
 10
45.2776162864
 20
33.8243944981
 30
0.0
 10
45.2628798207
 20
33.8225486363
 30
0.0
 10
45.2527937
 20
33.8225486363
 30
0.0
  0
SPLINE
  5
44C
100
AcDbEntity
  8
00_COMPONENTS
100
AcDbSpline
 62
7
  6
BYLAYER
 70
0
 71
3
 72
16
 73
12
 74
0
 42
0.0000001
 43
0.0000001
 44
0.0000000001
 40
0.0
 40
0.0
 40
0.0
 40
0.0
 40
0.0102023332
 40
0.0281037528
 40
0.0539166484
 40
0.0875994575
 40
0.1776978141
 40
0.2962638868
 40
0.4406198763
 40
0.6078999496
 40
1.0
 40
1.0
 40
1.0
 40
1.0
 10
48.8920410716
 20
33.8225486363
 30
0.0
 10
48.8918010881
 20
33.8225486363
 30
0.0
 10
48.8911696165
 20
33.8228228221
 30
0.0
 10
48.8900825382
 20
33.8234464
 30
0.0
 10
48.8885756833
 20
33.8244837326
 30
0.0
 10
48.8857579153
 20
33.82658499
 30
0.0
 10
48.8813266283
 20
33.8301785609
 30
0.0
 10
48.8749998211
 20
33.8355548691
 30
0.0
 10
48.8673907908
 20
33.8422274224
 30
0.0
 10
48.8550594683
 20
33.8532707974
 30
0.0
 10
48.8453627122
 20
33.8621657929
 30
0.0
 10
48.838592264
 20
33.8684289625
 30
0.0
  0
SPLINE
  5
44D
100
AcDbEntity
  8
00_COMPONENTS
100
AcDbSpline
 62
7
  6
BYLAYER
 70
0
 71
3
 72
15
 73
11
 74
0
 42
0.0000001
 43
0.0000001
 44
0.0000000001
 40
0.0
 40
0.0
 40
0.0
 40
0.0
 40
0.0174705633
 40
0.0421234006
 40
0.1135907894
 40
0.2129261971
 40
0.3366124914
 40
0.4806863035
 40
0.6413735333
 40
1.0
 40
1.0
 40
1.0
 40
1.0
 10
48.7816937672
 20
33.8225486363
 30
0.0
 10
48.7809144828
 20
33.8225486363
 30
0.0
 10
48.7790506599
 20
33.8229650199
 30
0.0
 10
48.7743547986
 20
33.8248644871
 30
0.0
 10
48.766802959
 20
33.8292993965
 30
0.0
 10
48.7559602826
 20
33.8367014458
 30
0.0
 10
48.7428568965
 20
33.8465352585
 30
0.0
 10
48.7278959166
 20
33.8584264607
 30
0.0
 10
48.7051118765
 20
33.8773110451
 30
0.0
 10
48.6876294178
 20
33.8925128749
 30
0.0
 10
48.6756582061
 20
33.9031235152
 30
0.0
  0
SPLINE
  5
44E
100
AcDbEntity
  8
00_COMPONENTS
100
AcDbSpline
 62
7
  6
BYLAYER
 70
0
 71
3
 72
14
 73
10
 74
0
 42
0.0000001
 43
0.0000001
 44
0.0000000001
 40
0.0
 40
0.0
 40
0.0
 40
0.0
 40
0.054421979
 40
0.1339988507
 40
0.2374349305
 40
0.3616710558
 40
0.5031804166
 40
0.6585999594
 40
1.0
 40
1.0
 40
1.0
 40
1.0
 10
48.5655958786
 20
33.8225486363
 30
0.0
 10
48.5629418709
 20
33.8225486363
 30
0.0
 10
48.556495634
 20
33.8242861715
 30
0.0
 10
48.5459820253
 20
33.8290772192
 30
0.0
 10
48.5329619367
 20
33.8365592851
 30
0.0
 10
48.5178941514
 20
33.8464117041
 30
0.0
 10
48.5011589282
 20
33.8583299823
 30
0.0
 10
48.4763433078
 20
33.8771278102
 30
0.0
 10
48.457545252
 20
33.8924271039
 30
0.0
 10
48.4447867195
 20
33.9031235152
 30
0.0
  0
SPLINE
  5
44F
100
AcDbEntity
  8
00_COMPONENTS
100
AcDbSpline
 62
7
  6
BYLAYER
 70
0
 71
3
 72
13
 73
9
 74
0
 42
0.0000001
 43
0.0000001
 44
0.0000000001
 40
0.0
 40
0.0
 40
0.0
 40
0.0
 40
0.0649315054
 40
0.1515364068
 40
0.2585876006
 40
0.3833529464
 40
0.6734983577
 40
1.0
 40
1.0
 40
1.0
 40
1.0
 10
48.2453920413
 20
33.8225486363
 30
0.0
 10
48.24196345
 20
33.8225486363
 30
0.0
 10
48.2340018623
 20
33.824111026
 30
0.0
 10
48.2212184346
 20
33.8289317658
 30
0.0
 10
48.2061368721
 20
33.8364266786
 30
0.0
 10
48.1823257622
 20
33.8503256574
 30
0.0
 10
48.1499999455
 20
33.8724879898
 30
0.0
 10
48.1241838619
 20
33.8923444589
 30
0.0
 10
48.1107287148
 20
33.9031235152
 30
0.0
  0
SPLINE
  5
450
100
AcDbEntity
  8
00_COMPONENTS
100
AcDbSpline
 62
7
  6
BYLAYER
 70
0
 71
3
 72
15
 73
11
 74
0
 42
0.0000001
 43
0.0000001
 44
0.0000000001
 40
0.0
 40
0.0
 40
0.0
 40
0.0
 40
0.0934040665
 40
0.179463119
 40
0.2691742392
 40
0.3772686965
 40
0.5104099724
 40
0.6641106167
 40
0.8297167129
 40
1.0
 40
1.0
 40
1.0
 40
1.0
 10
44.4723771201
 20
34.2166880199
 30
0.0
 10
44.4723771201
 20
34.2205311374
 30
0.0
 10
44.4731950314
 20
34.2279880787
 30
0.0
 10
44.4784789963
 20
34.2381469114
 30
0.0
 10
44.4886533378
 20
34.2448267879
 30
0.0
 10
44.5024779324
 20
34.246595717
 30
0.0
 10
44.5186448352
 20
34.2439791951
 30
0.0
 10
44.5362179834
 20
34.2376063822
 30
0.0
 10
44.5541313506
 20
34.2283058353
 30
0.0
 10
44.5657262614
 20
34.2207469112
 30
0.0
 10
44.5714371201
 20
34.2166880199
 30
0.0
  0
SPLINE
  5
451
100
AcDbEntity
  8
00_COMPONENTS
100
AcDbSpline
 62
7
  6
BYLAYER
 70
0
 71
3
 72
15
 73
11
 74
0
 42
0.0000001
 43
0.0000001
 44
0.0000000001
 40
0.0
 40
0.0
 40
0.0
 40
0.0
 40
0.0914893031
 40
0.1800744875
 40
0.2756354064
 40
0.3892049206
 40
0.5245319271
 40
0.6764942278
 40
0.8370885674
 40
1.0
 40
1.0
 40
1.0
 40
1.0
 10
43.5918048311
 20
34.2166880199
 30
0.0
 10
43.5922851026
 20
34.2206045085
 30
0.0
 10
43.5941982276
 20
34.2282776861
 30
0.0
 10
43.6012285251
 20
34.2382829405
 30
0.0
 10
43.6127781342
 20
34.244762801
 30
0.0
 10
43.6277921431
 20
34.2466070441
 30
0.0
 10
43.6450287435
 20
34.2440462381
 30
0.0
 10
43.6633533525
 20
34.2376851208
 30
0.0
 10
43.6816771299
 20
34.2283772569
 30
0.0
 10
43.6934018212
 20
34.2207687265
 30
0.0
 10
43.6991215258
 20
34.2166880199
 30
0.0
  0
SPLINE
  5
452
100
AcDbEntity
  8
00_COMPONENTS
100
AcDbSpline
 62
7
  6
BYLAYER
 70
0
 71
3
 72
12
 73
8
 74
0
 42
0.0000001
 43
0.0000001
 44
0.0000000001
 40
0.0
 40
0.0
 40
0.0
 40
0.0
 40
0.0738648526
 40
0.1665574649
 40
0.401923863
 40
0.6863263633
 40
1.0
 40
1.0
 40
1.0
 40
1.0
 10
47.8235191998
 20
33.8225486363
 30
0.0
 10
47.8193371768
 20
33.8225486363
 30
0.0
 10
47.8099237826
 20
33.8239956897
 30
0.0
 10
47.7882383602
 20
33.8310123774
 30
0.0
 10
47.7571818304
 20
33.8468159194
 30
0.0
 10
47.7173798609
 20
33.8721820141
 30
0.0
 10
47.6900798004
 20
33.8922653063
 30
0.0
 10
47.6760265752
 20
33.9031235152
 30
0.0
  0
SPLINE
  5
453
100
AcDbEntity
  8
00_COMPONENTS
100
AcDbSpline
 62
7
  6
BYLAYER
 70
0
 71
3
 72
11
 73
7
 74
0
 42
0.0000001
 43
0.0000001
 44
0.0000000001
 40
0.0
 40
0.0
 40
0.0
 40
0.0
 40
0.2361074307
 40
0.499999376
 40
0.7638882207
 40
1.0
 40
1.0
 40
1.0
 40
1.0
 10
34.8164843437
 20
34.216688113
 30
0.0
 10
34.8250747048
 20
34.2253225068
 30
0.0
 10
34.8468560679
 20
34.2403757591
 30
0.0
 10
34.8865300656
 20
34.2487881382
 30
0.0
 10
34.9262042541
 20
34.2403758855
 30
0.0
 10
34.9479858245
 20
34.2253227482
 30
0.0
 10
34.9565763331
 20
34.2166881848
 30
0.0
  0
SPLINE
  5
454
100
AcDbEntity
  8
00_COMPONENTS
100
AcDbSpline
 62
7
  6
BYLAYER
 70
0
 71
3
 72
11
 73
7
 74
0
 42
0.0000001
 43
0.0000001
 44
0.0000000001
 40
0.0
 40
0.0
 40
0.0
 40
0.0
 40
0.2267195969
 40
0.4857833109
 40
0.7541387249
 40
1.0
 40
1.0
 40
1.0
 40
1.0
 10
36.00437688
 20
34.2166880199
 30
0.0
 10
36.0121986864
 20
34.2253366151
 30
0.0
 10
36.0329731207
 20
34.2406047971
 30
0.0
 10
36.0721508376
 20
34.2487856355
 30
0.0
 10
36.1120764073
 20
34.2401419685
 30
0.0
 10
36.134665639
 20
34.2252888136
 30
0.0
 10
36.1439357832
 20
34.2166880199
 30
0.0
  0
SPLINE
  5
455
100
AcDbEntity
  8
00_COMPONENTS
100
AcDbSpline
 62
7
  6
BYLAYER
 70
0
 71
3
 72
14
 73
10
 74
0
 42
0.0000001
 43
0.0000001
 44
0.0000000001
 40
0.0
 40
0.0
 40
0.0
 40
0.0
 40
0.0913186171
 40
0.1832881476
 40
0.2843214988
 40
0.4024625
 40
0.5392440196
 40
0.6891063452
 40
1.0
 40
1.0
 40
1.0
 40
1.0
 10
42.6449801465
 20
34.2166880199
 30
0.0
 10
42.6459548836
 20
34.2206775639
 30
0.0
 10
42.6489877794
 20
34.2285036476
 30
0.0
 10
42.6576124631
 20
34.238345033
 30
0.0
 10
42.6704498811
 20
34.2447065372
 30
0.0
 10
42.6865849521
 20
34.2466148647
 30
0.0
 10
42.7047610565
 20
34.2441060068
 30
0.0
 10
42.7303342702
 20
34.2355256619
 30
0.0
 10
42.7483991321
 20
34.2248703676
 30
0.0
 10
42.759736791
 20
34.2166880199
 30
0.0
  0
SPLINE
  5
456
100
AcDbEntity
  8
00_COMPONENTS
100
AcDbSpline
 62
7
  6
BYLAYER
 70
0
 71
3
 72
11
 73
7
 74
0
 42
0.0000001
 43
0.0000001
 44
0.0000000001
 40
0.0
 40
0.0
 40
0.0
 40
0.0
 40
0.2200056739
 40
0.4567807686
 40
0.7166038234
 40
1.0
 40
1.0
 40
1.0
 40
1.0
 10
38.1274497884
 20
33.9031235152
 30
0.0
 10
38.1195475448
 20
33.8916486284
 30
0.0
 10
38.1002652971
 20
33.8696632558
 30
0.0
 10
38.0625526973
 20
33.8435987153
 30
0.0
 10
38.0157353757
 20
33.8263333923
 30
0.0
 10
37.9811634726
 20
33.8225486363
 30
0.0
 10
37.963216403
 20
33.8225486363
 30
0.0
  0
SPLINE
  5
457
100
AcDbEntity
  8
00_COMPONENTS
100
AcDbSpline
 62
7
  6
BYLAYER
 70
0
 71
3
 72
9
 73
5
 74
0
 42
0.0000001
 43
0.0000001
 44
0.0000000001
 40
0.0
 40
0.0
 40
0.0
 40
0.0
 40
0.5145367667
 40
1.0
 40
1.0
 40
1.0
 40
1.0
 10
37.8791286366
 20
33.8225486363
 30
0.0
 10
37.8415673596
 20
33.8225486363
 30
0.0
 10
37.7681298886
 20
33.8393367521
 30
0.0
 10
37.7057473058
 20
33.8796168801
 30
0.0
 10
37.6792264837
 20
33.9031235152
 30
0.0
  0
SPLINE
  5
458
100
AcDbEntity
  8
00_COMPONENTS
100
AcDbSpline
 62
7
  6
BYLAYER
 70
0
 71
3
 72
9
 73
5
 74
0
 42
0.0000001
 43
0.0000001
 44
0.0000000001
 40
0.0
 40
0.0
 40
0.0
 40
0.0
 40
0.4844235112
 40
1.0
 40
1.0
 40
1.0
 40
1.0
 10
37.3217256583
 20
34.2166880199
 30
0.0
 10
37.3118695046
 20
34.225239651
 30
0.0
 10
37.2887232258
 20
34.2399058348
 30
0.0
 10
37.2616071761
 20
34.2458800887
 30
0.0
 10
37.2477190944
 20
34.2458820533
 30
0.0
  0
SPLINE
  5
459
100
AcDbEntity
  8
00_COMPONENTS
100
AcDbSpline
 62
7
  6
BYLAYER
 70
0
 71
3
 72
9
 73
5
 74
0
 42
0.0000001
 43
0.0000001
 44
0.0000000001
 40
0.0
 40
0.0
 40
0.0
 40
0.0
 40
0.5424381853
 40
1.0
 40
1.0
 40
1.0
 40
1.0
 10
38.4055406134
 20
34.2458816479
 30
0.0
 10
38.3931317583
 20
34.2458446856
 30
0.0
 10
38.3696944598
 20
34.2409574079
 30
0.0
 10
38.3516864237
 20
34.2252490366
 30
0.0
 10
38.3456637499
 20
34.2166880199
 30
0.0
  0
SPLINE
  5
45A
100
AcDbEntity
  8
00_COMPONENTS
100
AcDbSpline
 62
7
  6
BYLAYER
 70
0
 71
3
 72
14
 73
10
 74
0
 42
0.0000001
 43
0.0000001
 44
0.0000000001
 40
0.0
 40
0.0
 40
0.0
 40
0.0
 40
0.0924492562
 40
0.1882479692
 40
0.2942763889
 40
0.4161613863
 40
0.5537157737
 40
0.7011050893
 40
1.0
 40
1.0
 40
1.0
 40
1.0
 10
41.6391089739
 20
34.2166880199
 30
0.0
 10
41.6405855436
 20
34.2207427667
 30
0.0
 10
41.6447206817
 20
34.2286625649
 30
0.0
 10
41.6548078225
 20
34.238362167
 30
0.0
 10
41.6688536789
 20
34.2446566344
 30
0.0
 10
41.6860177225
 20
34.246620398
 30
0.0
 10
41.7049945099
 20
34.2441588716
 30
0.0
 10
41.7310000184
 20
34.2356675152
 30
0.0
 10
41.7491949387
 20
34.2249564439
 30
0.0
 10
41.7604322008
 20
34.2166880199
 30
0.0
  0
SPLINE
  5
45B
100
AcDbEntity
  8
00_COMPONENTS
100
AcDbSpline
 62
7
  6
BYLAYER
 70
0
 71
3
 72
12
 73
8
 74
0
 42
0.0000001
 43
0.0000001
 44
0.0000000001
 40
0.0
 40
0.0
 40
0.0
 40
0.0
 40
0.0815496233
 40
0.1795254645
 40
0.4181419448
 40
0.6975378096
 40
1.0
 40
1.0
 40
1.0
 40
1.0
 10
47.3031880612
 20
33.8225486363
 30
0.0
 10
47.2982817628
 20
33.8225486363
 30
0.0
 10
47.2874857196
 20
33.8239175069
 30
0.0
 10
47.2632395402
 20
33.8307983755
 30
0.0
 10
47.2294495292
 20
33.84646798
 30
0.0
 10
47.1871203872
 20
33.8719201899
 30
0.0
 10
47.1585347249
 20
33.8921897397
 30
0.0
 10
47.1439886464
 20
33.9031235152
 30
0.0
  0
SPLINE
  5
45C
100
AcDbEntity
  8
00_COMPONENTS
100
AcDbSpline
 62
7
  6
BYLAYER
 70
0
 71
3
 72
14
 73
10
 74
0
 42
0.0000001
 43
0.0000001
 44
0.0000000001
 40
0.0
 40
0.0
 40
0.0
 40
0.0
 40
0.0946144344
 40
0.1945221303
 40
0.3051523481
 40
0.4301634265
 40
0.5680129367
 40
0.7127234179
 40
1.0
 40
1.0
 40
1.0
 40
1.0
 10
40.5818466002
 20
34.2166880199
 30
0.0
 10
40.5838232973
 20
34.2207956795
 30
0.0
 10
40.5890152368
 20
34.2287638295
 30
0.0
 10
40.6004508299
 20
34.2383528805
 30
0.0
 10
40.6156200378
 20
34.244611217
 30
0.0
 10
40.6337036991
 20
34.2466243106
 30
0.0
 10
40.6533405412
 20
34.2442070255
 30
0.0
 10
40.6795908731
 20
34.2357998651
 30
0.0
 10
40.697773975
 20
34.2250373865
 30
0.0
 10
40.7088130666
 20
34.2166880199
 30
0.0
  0
SPLINE
  5
45D
100
AcDbEntity
  8
00_COMPONENTS
100
AcDbSpline
 62
7
  6
BYLAYER
 70
0
 71
3
 72
12
 73
8
 74
0
 42
0.0000001
 43
0.0000001
 44
0.0000000001
 40
0.0
 40
0.0
 40
0.0
 40
0.0
 40
0.0882680011
 40
0.1908843284
 40
0.4323914371
 40
0.7073976717
 40
1.0
 40
1.0
 40
1.0
 40
1.0
 10
46.6883586596
 20
33.8225486363
 30
0.0
 10
46.6827637889
 20
33.8225486363
 30
0.0
 10
46.6706627227
 20
33.8238597842
 30
0.0
 10
46.6440498654
 20
33.830623987
 30
0.0
 10
46.6077923621
 20
33.8461561211
 30
0.0
 10
46.5632505406
 20
33.8716749134
 30
0.0
 10
46.5335921851
 20
33.892117709
 30
0.0
 10
46.5186640583
 20
33.9031235152
 30
0.0
  0
SPLINE
  5
45E
100
AcDbEntity
  8
00_COMPONENTS
100
AcDbSpline
 62
7
  6
BYLAYER
 70
0
 71
3
 72
14
 73
10
 74
0
 42
0.0000001
 43
0.0000001
 44
0.0000000001
 40
0.0
 40
0.0
 40
0.0
 40
0.0
 40
0.0975657789
 40
0.2017390298
 40
0.316630977
 40
0.444272719
 40
0.5820409968
 40
0.7239273166
 40
1.0
 40
1.0
 40
1.0
 40
1.0
 10
39.4812394305
 20
34.2166880199
 30
0.0
 10
39.4837053134
 20
34.2208349832
 30
0.0
 10
39.4898926321
 20
34.2288204712
 30
0.0
 10
39.5025722996
 20
34.2383280334
 30
0.0
 10
39.5187692298
 20
34.2445688373
 30
0.0
 10
39.5376510568
 20
34.2466271509
 30
0.0
 10
39.5578031464
 20
34.2442514875
 30
0.0
 10
39.5841108809
 20
34.235924202
 30
0.0
 10
39.6021401272
 20
34.2251125262
 30
0.0
 10
39.6128828449
 20
34.2166880199
 30
0.0
  0
SPLINE
  5
45F
100
AcDbEntity
  8
00_COMPONENTS
100
AcDbSpline
 62
7
  6
BYLAYER
 70
0
 71
3
 72
11
 73
7
 74
0
 42
0.0000001
 43
0.0000001
 44
0.0000000001
 40
0.0
 40
0.0
 40
0.0
 40
0.0
 40
0.2005996856
 40
0.4447999506
 40
0.7160288961
 40
1.0
 40
1.0
 40
1.0
 40
1.0
 10
45.983710218
 20
33.8225486363
 30
0.0
 10
45.9704281102
 20
33.8225486363
 30
0.0
 10
45.9410725965
 20
33.8282228076
 30
0.0
 10
45.8969649396
 20
33.8458540031
 30
0.0
 10
45.8505023922
 20
33.8714515009
 30
0.0
 10
45.8200067708
 20
33.8920491066
 30
0.0
 10
45.8048119085
 20
33.9031235152
 30
0.0
  0
SPLINE
  5
460
100
AcDbEntity
  8
00_COMPONENTS
100
AcDbSpline
 62
7
  6
BYLAYER
 70
0
 71
3
 72
14
 73
10
 74
0
 42
0.0000001
 43
0.0000001
 44
0.0000000001
 40
0.0
 40
0.0
 40
0.0
 40
0.0
 40
0.2504235718
 40
0.3755906037
 40
0.5003160042
 40
0.6248007773
 40
0.7494317047
 40
0.8745798254
 40
1.0
 40
1.0
 40
1.0
 40
1.0
 10
25.0491132522
 20
34.7791719731
 30
0.0
 10
25.0439285919
 20
34.9778113139
 30
0.0
 10
25.0022507678
 20
35.2764659018
 30
0.0
 10
24.8781205898
 20
35.654306259
 30
0.0
 10
24.7504676589
 20
35.9235084119
 30
0.0
 10
24.5888834632
 20
36.1733132891
 30
0.0
 10
24.3945262984
 20
36.3991286396
 30
0.0
 10
24.1701998256
 20
36.596245955
 30
0.0
 10
24.0037725481
 20
36.7063103441
 30
0.0
 10
23.9173105447
 20
36.7555883636
 30
0.0
  0
SPLINE
  5
461
100
AcDbEntity
  8
00_COMPONENTS
100
AcDbSpline
 62
7
  6
BYLAYER
 70
0
 71
3
 72
14
 73
10
 74
0
 42
0.0000001
 43
0.0000001
 44
0.0000000001
 40
0.0
 40
0.0
 40
0.0
 40
0.0
 40
0.1253895494
 40
0.2505291974
 40
0.3751866264
 40
0.499712384
 40
0.6244659257
 40
0.7496307734
 40
1.0
 40
1.0
 40
1.0
 40
1.0
 10
23.9173105447
 20
36.7425742639
 30
0.0
 10
24.0019675071
 20
36.6927889488
 30
0.0
 10
24.1647908966
 20
36.5820557697
 30
0.0
 10
24.3840088523
 20
36.3850440272
 30
0.0
 10
24.5738457543
 20
36.1604034083
 30
0.0
 10
24.7316571761
 20
35.9126792718
 30
0.0
 10
24.8563236283
 20
35.6462850384
 30
0.0
 10
24.9774996547
 20
35.2729196689
 30
0.0
 10
25.0180342465
 20
34.9781285622
 30
0.0
 10
25.022865356
 20
34.7820873317
 30
0.0
  0
SPLINE
  5
462
100
AcDbEntity
  8
00_COMPONENTS
100
AcDbSpline
 62
7
  6
BYLAYER
 70
0
 71
3
 72
12
 73
8
 74
0
 42
0.0000001
 43
0.0000001
 44
0.0000000001
 40
0.0
 40
0.0
 40
0.0
 40
0.0
 40
0.2494068017
 40
0.3744888085
 40
0.4996548002
 40
0.7497306046
 40
1.0
 40
1.0
 40
1.0
 40
1.0
 10
25.9694262434
 20
35.5297927514
 30
0.0
 10
25.8598176329
 20
35.7358072429
 30
0.0
 10
25.6494729474
 20
36.022936913
 30
0.0
 10
25.3067166359
 20
36.3418869166
 30
0.0
 10
24.9273747324
 20
36.6180308077
 30
0.0
 10
24.3959458426
 20
36.8761195683
 30
0.0
 10
23.9333924324
 20
36.9773219866
 30
0.0
 10
23.7001881652
 20
36.9985144501
 30
0.0
  0
SPLINE
  5
463
100
AcDbEntity
  8
00_COMPONENTS
100
AcDbSpline
 62
7
  6
BYLAYER
 70
0
 71
3
 72
16
 73
12
 74
0
 42
0.0000001
 43
0.0000001
 44
0.0000000001
 40
0.0
 40
0.0
 40
0.0
 40
0.0
 40
0.0934749776
 40
0.1787710186
 40
0.2219151421
 40
0.267717079
 40
0.3736997885
 40
0.5045931579
 40
0.6575605317
 40
0.8250742259
 40
1.0
 40
1.0
 40
1.0
 40
1.0
 10
43.3923828461
 20
34.6100283191
 30
0.0
 10
43.4011801869
 20
34.6100283191
 30
0.0
 10
43.418192941
 20
34.6117173915
 30
0.0
 10
43.4373601438
 20
34.6216940459
 30
0.0
 10
43.4483501782
 20
34.6340732091
 30
0.0
 10
43.4570448002
 20
34.6504130669
 30
0.0
 10
43.4611647239
 20
34.6773722436
 30
0.0
 10
43.4563016064
 20
34.7139874526
 30
0.0
 10
43.4432682302
 20
34.7545925431
 30
0.0
 10
43.4235425466
 20
34.796929737
 30
0.0
 10
43.407247224
 20
34.8247854728
 30
0.0
 10
43.3984086121
 20
34.8386746917
 30
0.0
  0
SPLINE
  5
464
100
AcDbEntity
  8
00_COMPONENTS
100
AcDbSpline
 62
7
  6
BYLAYER
 70
0
 71
3
 72
11
 73
7
 74
0
 42
0.0000001
 43
0.0000001
 44
0.0000000001
 40
0.0
 40
0.0
 40
0.0
 40
0.0
 40
0.2443726766
 40
0.4914718101
 40
0.7432989809
 40
1.0
 40
1.0
 40
1.0
 40
1.0
 10
31.9927312146
 20
50.4849486363
 30
0.0
 10
32.075897054
 20
50.4849486126
 30
0.0
 10
32.2433213819
 20
50.4747896027
 30
0.0
 10
32.4927900909
 20
50.4298052186
 30
0.0
 10
32.7397620894
 20
50.3565285372
 30
0.0
 10
32.9005043453
 20
50.2917741137
 30
0.0
 10
32.9803048126
 20
50.2562225809
 30
0.0
  0
SPLINE
  5
465
100
AcDbEntity
  8
00_COMPONENTS
100
AcDbSpline
 62
7
  6
BYLAYER
 70
0
 71
3
 72
9
 73
5
 74
0
 42
0.0000001
 43
0.0000001
 44
0.0000000001
 40
0.0
 40
0.0
 40
0.0
 40
0.0
 40
0.2475282814
 40
1.0
 40
1.0
 40
1.0
 40
1.0
 10
25.9694262434
 20
35.5297617497
 30
0.0
 10
25.9927023288
 20
35.4604573831
 30
0.0
 10
26.0761851753
 20
35.1770105557
 30
0.0
 10
26.1182108962
 20
34.8815747476
 30
0.0
 10
26.1266576952
 20
34.6594893062
 30
0.0
  0
SPLINE
  5
466
100
AcDbEntity
  8
00_COMPONENTS
100
AcDbSpline
 62
7
  6
BYLAYER
 70
0
 71
3
 72
15
 73
11
 74
0
 42
0.0000001
 43
0.0000001
 44
0.0000000001
 40
0.0
 40
0.0
 40
0.0
 40
0.0
 40
0.0707666077
 40
0.1515349496
 40
0.2485561274
 40
0.36462469
 40
0.5003091554
 40
0.6539662731
 40
0.8225343118
 40
1.0
 40
1.0
 40
1.0
 40
1.0
 10
29.9752405401
 20
34.6099486363
 30
0.0
 10
29.9688975287
 20
34.6099486363
 30
0.0
 10
29.9552194326
 20
34.6131203017
 30
0.0
 10
29.9366379368
 20
34.6260569288
 30
0.0
 10
29.919620615
 20
34.6464401471
 30
0.0
 10
29.9043331631
 20
34.6738576382
 30
0.0
 10
29.8912057008
 20
34.7078392523
 30
0.0
 10
29.8806870135
 20
34.7475850123
 30
0.0
 10
29.8733775659
 20
34.7918296267
 30
0.0
 10
29.8708445831
 20
34.8227816639
 30
0.0
 10
29.8701839552
 20
34.8386746917
 30
0.0
  0
SPLINE
  5
467
100
AcDbEntity
  8
00_COMPONENTS
100
AcDbSpline
 62
7
  6
BYLAYER
 70
0
 71
3
 72
11
 73
7
 74
0
 42
0.0000001
 43
0.0000001
 44
0.0000000001
 40
0.0
 40
0.0
 40
0.0
 40
0.0
 40
0.2502250449
 40
0.5003685477
 40
0.7503122004
 40
1.0
 40
1.0
 40
1.0
 40
1.0
 10
32.9803048126
 20
50.2562225809
 30
0.0
 10
33.0794526384
 20
50.212051697
 30
0.0
 10
33.272184426
 20
50.1105907356
 30
0.0
 10
33.5376189363
 20
49.9204476828
 30
0.0
 10
33.7729934984
 20
49.6943912407
 30
0.0
 10
33.9059736816
 20
49.5220234392
 30
0.0
 10
33.9653755668
 20
49.4314572291
 30
0.0
  0
SPLINE
  5
468
100
AcDbEntity
  8
00_COMPONENTS
100
AcDbSpline
 62
7
  6
BYLAYER
 70
0
 71
3
 72
15
 73
11
 74
0
 42
0.0000001
 43
0.0000001
 44
0.0000000001
 40
0.0
 40
0.0
 40
0.0
 40
0.0
 40
0.0707501766
 40
0.1514968189
 40
0.2485178759
 40
0.3645972841
 40
0.5002922
 40
0.6539567512
 40
0.8225297781
 40
1.0
 40
1.0
 40
1.0
 40
1.0
 10
30.2728200504
 20
34.6099486363
 30
0.0
 10
30.2791614251
 20
34.6099486363
 30
0.0
 10
30.2928361116
 20
34.6131198404
 30
0.0
 10
30.3114106055
 20
34.626059482
 30
0.0
 10
30.3284261108
 20
34.6464411366
 30
0.0
 10
30.3437181739
 20
34.6738572925
 30
0.0
 10
30.3568508222
 20
34.707838717
 30
0.0
 10
30.3673732613
 20
34.7475846061
 30
0.0
 10
30.3746833884
 20
34.791829556
 30
0.0
 10
30.3772160076
 20
34.8227816686
 30
0.0
 10
30.3778766353
 20
34.8386746917
 30
0.0
  0
SPLINE
  5
469
100
AcDbEntity
  8
00_COMPONENTS
100
AcDbSpline
 62
7
  6
BYLAYER
 70
0
 71
3
 72
11
 73
7
 74
0
 42
0.0000001
 43
0.0000001
 44
0.0000000001
 40
0.0
 40
0.0
 40
0.0
 40
0.0
 40
0.1323348084
 40
0.3450682006
 40
0.635480658
 40
1.0
 40
1.0
 40
1.0
 40
1.0
 10
34.7417096724
 20
49.5081325568
 30
0.0
 10
34.7075782158
 20
49.5037419316
 30
0.0
 10
34.61839371
 20
49.493755577
 30
0.0
 10
34.4538862369
 20
49.4780818753
 30
0.0
 10
34.229248256
 20
49.4569473417
 30
0.0
 10
34.0597376433
 20
49.4404603961
 30
0.0
 10
33.9653755808
 20
49.4314572075
 30
0.0
  0
ELLIPSE
  5
46A
100
AcDbEntity
  8
00_COMPONENTS
100
AcDbEllipse
 62
7
  6
BYLAYER
 10
30.2292405401
 20
34.8639486363
 30
0.0
 11
0.358354125
 21
0.0353113455
 31
0.0
 40
0.7019132665
 41
3.0725377984
 42
3.1017885141
  0
ELLIPSE
  5
46B
100
AcDbEntity
  8
00_COMPONENTS
100
AcDbEllipse
 62
7
  6
BYLAYER
 10
14.2490302952
 20
50.2309486363
 30
0.0
 11
0.1883289435
 21
0.1883289435
 31
0.0
 40
0.9049875621
 41
-0.7355638372
 42
-0.0
  0
ELLIPSE
  5
46C
100
AcDbEntity
  8
00_COMPONENTS
100
AcDbEllipse
 62
7
  6
BYLAYER
 10
30.1240302952
 20
50.2309486363
 30
0.0
 11
0.1883289435
 21
0.1883289435
 31
0.0
 40
0.9049875621
 41
-0.7355638372
 42
0.0
  0
ELLIPSE
  5
46D
100
AcDbEntity
  8
00_COMPONENTS
100
AcDbEllipse
 62
7
  6
BYLAYER
 10
30.1240302952
 20
50.2309486363
 30
0.0
 11
0.1883289435
 21
-0.1883289435
 31
0.0
 40
0.9049875621
 41
3.1415926536
 42
3.8771564907
  0
ELLIPSE
  5
46E
100
AcDbEntity
  8
00_COMPONENTS
100
AcDbEllipse
 62
7
  6
BYLAYER
 10
18.2177802952
 20
50.2309486363
 30
0.0
 11
0.1883289435
 21
-0.1883289435
 31
0.0
 40
0.9049875621
 41
3.1415926536
 42
3.8771564907
  0
ELLIPSE
  5
46F
100
AcDbEntity
  8
00_COMPONENTS
100
AcDbEllipse
 62
7
  6
BYLAYER
 10
-8.2633894643
 20
90.1724486363
 30
0.0
 11
-84.3078755843
 21
119.2040579043
 31
0.0
 40
0.0816447928
 41
-2.1103288417
 42
-1.976676581
  0
ELLIPSE
  5
470
100
AcDbEntity
  8
00_COMPONENTS
100
AcDbEllipse
 62
7
  6
BYLAYER
 10
30.0188200504
 20
34.8639486363
 30
0.0
 11
0.358354125
 21
-0.0353113455
 31
0.0
 40
0.7019132665
 41
0.0398041395
 42
0.0690548552
  0
ELLIPSE
  5
471
100
AcDbEntity
  8
00_COMPONENTS
100
AcDbEllipse
 62
7
  6
BYLAYER
 10
18.2177802952
 20
50.2309486363
 30
0.0
 11
0.1883289435
 21
0.1883289435
 31
0.0
 40
0.9049875621
 41
-0.7355638371
 42
0.0
  0
ELLIPSE
  5
472
100
AcDbEntity
  8
00_COMPONENTS
100
AcDbEllipse
 62
7
  6
BYLAYER
 10
26.2234262434
 20
50.2309486363
 30
0.0
 11
0.1883289435
 21
0.1883289435
 31
0.0
 40
0.9049875621
 41
-0.7355638371
 42
0.0
  0
ELLIPSE
  5
473
100
AcDbEntity
  8
00_COMPONENTS
100
AcDbEllipse
 62
7
  6
BYLAYER
 10
26.7314262434
 20
34.8639486363
 30
0.0
 11
0.1883289435
 21
0.1883289435
 31
0.0
 40
0.9049875621
 41
2.4060288164
 42
3.8771564907
  0
ELLIPSE
  5
474
100
AcDbEntity
  8
00_COMPONENTS
100
AcDbEllipse
 62
7
  6
BYLAYER
 10
26.2234262434
 20
50.2309486363
 30
0.0
 11
0.1883289435
 21
-0.1883289435
 31
0.0
 40
0.9049875621
 41
3.1415926536
 42
3.8771564907
  0
ELLIPSE
  5
475
100
AcDbEntity
  8
00_COMPONENTS
100
AcDbEllipse
 62
7
  6
BYLAYER
 10
10.2802802952
 20
50.2309486363
 30
0.0
 11
0.1883289435
 21
-0.1883289435
 31
0.0
 40
0.9049875621
 41
3.1415926536
 42
3.8771564907
  0
ELLIPSE
  5
476
100
AcDbEntity
  8
00_COMPONENTS
100
AcDbEllipse
 62
7
  6
BYLAYER
 10
10.2802802952
 20
50.2309486363
 30
0.0
 11
0.1883289435
 21
0.1883289435
 31
0.0
 40
0.9049875621
 41
-0.7355638371
 42
0.0
  0
ELLIPSE
  5
477
100
AcDbEntity
  8
00_COMPONENTS
100
AcDbEllipse
 62
7
  6
BYLAYER
 10
14.2490302952
 20
50.2309486363
 30
0.0
 11
0.1883289435
 21
-0.1883289435
 31
0.0
 40
0.9049875621
 41
3.1415926536
 42
3.8771564907
  0
ELLIPSE
  5
478
100
AcDbEntity
  8
00_COMPONENTS
100
AcDbEllipse
 62
7
  6
BYLAYER
 10
22.1865302952
 20
50.2309486363
 30
0.0
 11
0.1883289435
 21
-0.1883289435
 31
0.0
 40
0.9049875621
 41
3.1415926536
 42
3.8771564907
  0
ELLIPSE
  5
479
100
AcDbEntity
  8
00_COMPONENTS
100
AcDbEllipse
 62
7
  6
BYLAYER
 10
22.1865302952
 20
50.2309486363
 30
0.0
 11
0.1883289435
 21
0.1883289435
 31
0.0
 40
0.9049875621
 41
-0.7355638371
 42
0.0
  0
ENDSEC
  0
SECTION
  2
OBJECTS
  0
DICTIONARY
  5
C
100
AcDbDictionary
280
0
281
1
  3
ACAD_GROUP
350
D
  3
ACAD_MLINESTYLE
350
17
  3
ACAD_LAYOUT
350
1A
  3
ACAD_PLOTSETTINGS
350
19
  3
ACAD_PLOTSTYLENAME
350
E
  0
DICTIONARY
  5
D
102
{ACAD_REACTORS
330
C
102
}
100
AcDbDictionary
280
0
281
1
  0
ACDBDICTIONARYWDFLT
  5
E
102
{ACAD_REACTORS
330
C
102
}
100
AcDbDictionary
281
1
  3
Normal
350
F
100
AcDbDictionaryWithDefault
340
F
  0
DICTIONARY
  5
17
102
{ACAD_REACTORS
330
C
102
}
100
AcDbDictionary
280
0
281
1
  3
Standard
350
18
  0
DICTIONARY
  5
19
102
{ACAD_REACTORS
330
C
102
}
100
AcDbDictionary
281
1
  0
DICTIONARY
  5
1A
102
{ACAD_REACTORS
330
C
102
}
100
AcDbDictionary
281
1
  3
Model
350
47A
  3
Layout1
350
47B
  0
ACDBPLACEHOLDER
  5
F
102
{ACAD_REACTORS
330
E
102
}
  0
MLINESTYLE
  5
18
102
{ACAD_REACTORS
330
17
102
}
100
AcDbMlineStyle
  2
STANDARD
 70
0
  3

 62
256
 51
90.0
 52
90.0
 71
2
 49
0.5
 62
256
  6
BYLAYER
 49
-0.5
 62
256
  6
BYLAYER
  0
LAYOUT
  5
47A
102
{ACAD_REACTORS
330
1A
102
}
100
AcDbPlotSettings
  1

  2
none_device
  4

  6

 40
0.0
 41
0.0
 42
0.0
 43
0.0
 44
210.0
 45
297.0
 46
0.0
 47
0.0
 48
0.0
 49
0.0
140
0.0
141
0.0
142
1.0
143
1.0
 70
1024
 72
1
 73
0
 74
0
  7

 75
0
147
1.0
148
0.0
149
0.0
100
AcDbLayout
  1
Model
 70
0
 71
0
 10
0.0
 20
0.0
 11
210.0
 21
297.0
 12
0.0
 22
0.0
 32
0.0
 14
0.0
 24
0.0
 34
0.0
 15
0.0
 25
0.0
 35
0.0
146
0.0
 13
0.0
 23
0.0
 33
0.0
 16
1.0
 26
0.0
 36
0.0
 17
0.0
 27
1.0
 37
0.0
 76
0
330
21A
345
0
346
0
  0
LAYOUT
  5
47B
102
{ACAD_REACTORS
330
1A
102
}
100
AcDbPlotSettings
  1

  2
none_device
  4

  6

 40
0.0
 41
0.0
 42
0.0
 43
0.0
 44
210.0
 45
297.0
 46
0.0
 47
0.0
 48
0.0
 49
0.0
140
0.0
141
0.0
142
1.0
143
1.0
 70
0
 72
1
 73
0
 74
0
  7

 75
0
147
1.0
148
0.0
149
0.0
100
AcDbLayout
  1
Layout1
 70
0
 71
1
 10
0.0
 20
0.0
 11
210.0
 21
297.0
 12
0.0
 22
0.0
 32
0.0
 14
0.0
 24
0.0
 34
0.0
 15
0.0
 25
0.0
 35
0.0
146
0.0
 13
0.0
 23
0.0
 33
0.0
 16
1.0
 26
0.0
 36
0.0
 17
0.0
 27
1.0
 37
0.0
 76
0
330
21B
345
0
346
0
  0
ENDSEC
  0
EOF
