999
DXF file: C:\Users\sesa63760\Dev\_Creo\CAD\MCADPD0004093_3D-CAD\drw0001_3.dxf
999
Pro/ENGINEER 2019471 by Parametric Technology Corporation
  0
SECTION
  2
HEADER
  9
$ACADVER
  1
AC1024
  9
$DWGCODEPAGE
  3
ANSI_1252
  9
$EXTMAX
 10
75.8437769379
 20
107.2647702407
 30
0.0
  9
$EXTMIN
 10
0.0
 20
0.0
 30
0.0
  9
$LIMMIN
 10
0.0
 20
0.0
  9
$LIMMAX
 10
75.8437769379
 20
107.2647702407
  9
$VIEWCTR
 10
37.9218884689
 20
53.6323851204
  9
$VIEWSIZE
 40
107.2647702407
  9
$CLAYER
  8
0
  9
$LTSCALE
 40
6.992073912
  9
$CELTYPE
  6
BYLAYER
  9
$DIMSCALE
 40
1.0
  9
$DIMASZ
 40
0.9029021064
  9
$DIMEXO
 40
1.0
  9
$DIMDLI
 40
4.8308874301
  9
$DIMEXE
 40
1.0
  9
$DIMCEN
 40
1.1441575492
  9
$DIMLFAC
 40
1.0
  9
$DIMBLK
  1
_FILLED
  9
$DIMALT
 70
0
  9
$DIMALTF
 40
0.0393700787
  9
$DIMTXT
 40
1.264062949
  9
$DIMTOL
 70
1
  9
$DIMLIM
 70
0
  9
$DIMTFAC
 40
1.0
  9
$DIMTP
 40
0.01
  9
$DIMTM
 40
0.01
  9
$DIMGAP
 40
0.625
  9
$DIMDSEP
 70
46
  9
$AUNITS
 70
0
  9
$PDMODE
 70
3
  9
$PDSIZE
 40
0.3125
  9
$HANDSEED
  5
2CB
  9
$TILEMODE
 70
1
  9
$MEASUREMENT
 70
1
  9
$INSUNITS
 70
4
  0
ENDSEC
  0
SECTION
  2
CLASSES
  0
CLASS
  1
ACDBDICTIONARYWDFLT
  2
AcDbDictionaryWithDefault
  3
AutoCAD 2000
 90
0
 91
1
280
0
281
0
  0
CLASS
  1
ACDBPLACEHOLDER
  2
AcDbPlaceHolder
  3
AutoCAD 2000
 90
0
 91
1
280
0
281
0
  0
CLASS
  1
LAYOUT
  2
AcDbLayout
  3
AutoCAD 2000
 90
0
 91
0
280
0
281
0
  0
ENDSEC
  0
SECTION
  2
TABLES
  0
TABLE
  2
VPORT
  5
8
100
AcDbSymbolTable
 70
2
  0
VPORT
  5
1F4
100
AcDbSymbolTableRecord
100
AcDbViewportTableRecord
  2
*ACTIVE
 70
0
 10
0.0
 20
0.0
 11
1.0
 21
1.0
 12
37.9218884689
 22
53.6323851204
 13
0.0
 23
0.0
 14
1.0
 24
1.0
 15
0.0
 25
0.0
 16
0.0
 26
0.0
 36
1.0
 17
0.0
 27
0.0
 37
0.0
 40
107.2647702407
 41
0.7070707071
 42
50.0
 43
0.0
 44
0.0
 50
0.0
 51
0.0
 71
0
 72
100
 73
1
 74
1
 75
0
 76
0
 77
0
 78
0
  0
ENDTAB
  0
TABLE
  2
LTYPE
  5
5
100
AcDbSymbolTable
 70
6
  0
LTYPE
  5
14
100
AcDbSymbolTableRecord
100
AcDbLinetypeTableRecord
  2
BYBLOCK
 70
0
  3

 72
65
 73
0
 40
0.0
  0
LTYPE
  5
15
100
AcDbSymbolTableRecord
100
AcDbLinetypeTableRecord
  2
BYLAYER
 70
0
  3

 72
65
 73
0
 40
0.0
  0
LTYPE
  5
16
100
AcDbSymbolTableRecord
100
AcDbLinetypeTableRecord
  2
CONTINUOUS
 70
64
  3
Solid line
 72
65
 73
0
 40
0.0
  0
LTYPE
  5
1F5
100
AcDbSymbolTableRecord
100
AcDbLinetypeTableRecord
  2
CENTER
 70
64
  3
____ _ ____ _ ____ _ ____ _ ____ _ ____ _ ____
 72
65
 73
4
 40
0.6
 49
0.375
 74
0
 49
-0.075
 74
0
 49
0.075
 74
0
 49
-0.075
 74
0
  0
LTYPE
  5
1F6
100
AcDbSymbolTableRecord
100
AcDbLinetypeTableRecord
  2
HIDDEN
 70
64
  3
- - - - - - - - - - - - - - - - - - - -
 72
65
 73
2
 40
0.2
 49
0.1
 74
0
 49
-0.1
 74
0
  0
LTYPE
  5
1F7
100
AcDbSymbolTableRecord
100
AcDbLinetypeTableRecord
  2
PHANTOM
 70
64
  3
_____ _ _ _____ _ _ _____ _ _ _____
 72
65
 73
6
 40
0.8
 49
0.45
 74
0
 49
-0.05
 74
0
 49
0.1
 74
0
 49
-0.05
 74
0
 49
0.1
 74
0
 49
-0.05
 74
0
  0
LTYPE
  5
1F8
100
AcDbSymbolTableRecord
100
AcDbLinetypeTableRecord
  2
DOT
 70
64
  3
. . . . . . . . . . . . . . . . . . . .
 72
65
 73
2
 40
0.2
 49
0.1
 74
0
 49
-0.1
 74
0
  0
LTYPE
  5
1F9
100
AcDbSymbolTableRecord
100
AcDbLinetypeTableRecord
  2
DASHED
 70
64
  3
- - - - - - - - - - - - - - - - - - - -
 72
65
 73
2
 40
0.2
 49
0.1
 74
0
 49
-0.1
 74
0
  0
ENDTAB
  0
TABLE
  2
LAYER
  5
2
100
AcDbSymbolTable
 70
36
  0
LAYER
  5
10
100
AcDbSymbolTableRecord
100
AcDbLayerTableRecord
  2
0
 70
0
 62
7
  6
CONTINUOUS
370
-3
390
F
  0
LAYER
  5
1FA
100
AcDbSymbolTableRecord
100
AcDbLayerTableRecord
  2
DEFAULT_1
 70
0
 62
7
  6
CENTER
370
-3
390
F
  0
LAYER
  5
1FB
100
AcDbSymbolTableRecord
100
AcDbLayerTableRecord
  2
DEFAULT_2
 70
0
 62
7
  6
HIDDEN
370
-3
390
F
  0
LAYER
  5
1FC
100
AcDbSymbolTableRecord
100
AcDbLayerTableRecord
  2
DEFAULT_3
 70
0
 62
7
  6
PHANTOM
370
-3
390
F
  0
LAYER
  5
1FD
100
AcDbSymbolTableRecord
100
AcDbLayerTableRecord
  2
00_COMPONENTS
 70
0
 62
7
  6
CONTINUOUS
370
-3
390
F
  0
LAYER
  5
1FE
100
AcDbSymbolTableRecord
100
AcDbLayerTableRecord
  2
01_1_DEFAULT_DATUMS
 70
0
 62
7
  6
CONTINUOUS
370
-3
390
F
  0
LAYER
  5
1FF
100
AcDbSymbolTableRecord
100
AcDbLayerTableRecord
  2
01_PLANES
 70
0
 62
7
  6
CONTINUOUS
370
-3
390
F
  0
LAYER
  5
200
100
AcDbSymbolTableRecord
100
AcDbLayerTableRecord
  2
02_COORD_SYS
 70
0
 62
7
  6
CONTINUOUS
370
-3
390
F
  0
LAYER
  5
201
100
AcDbSymbolTableRecord
100
AcDbLayerTableRecord
  2
03_AXES
 70
0
 62
7
  6
CONTINUOUS
370
-3
390
F
  0
LAYER
  5
202
100
AcDbSymbolTableRecord
100
AcDbLayerTableRecord
  2
04_POINTS
 70
0
 62
7
  6
CONTINUOUS
370
-3
390
F
  0
LAYER
  5
203
100
AcDbSymbolTableRecord
100
AcDbLayerTableRecord
  2
05_CURVES
 70
0
 62
7
  6
CONTINUOUS
370
-3
390
F
  0
LAYER
  5
204
100
AcDbSymbolTableRecord
100
AcDbLayerTableRecord
  2
06_SURFS
 70
0
 62
7
  6
CONTINUOUS
370
-3
390
F
  0
LAYER
  5
205
100
AcDbSymbolTableRecord
100
AcDbLayerTableRecord
  2
07_COSMETICS
 70
0
 62
7
  6
CONTINUOUS
370
-3
390
F
  0
LAYER
  5
206
100
AcDbSymbolTableRecord
100
AcDbLayerTableRecord
  2
10_NOTES
 70
0
 62
7
  6
CONTINUOUS
370
-3
390
F
  0
LAYER
  5
207
100
AcDbSymbolTableRecord
100
AcDbLayerTableRecord
  2
11_NOTES_PUB
 70
0
 62
7
  6
CONTINUOUS
370
-3
390
F
  0
LAYER
  5
208
100
AcDbSymbolTableRecord
100
AcDbLayerTableRecord
  2
13_REF_GTOL
 70
0
 62
7
  6
CONTINUOUS
370
-3
390
F
  0
LAYER
  5
209
100
AcDbSymbolTableRecord
100
AcDbLayerTableRecord
  2
16_MISC
 70
0
 62
7
  6
CONTINUOUS
370
-3
390
F
  0
LAYER
  5
20A
100
AcDbSymbolTableRecord
100
AcDbLayerTableRecord
  2
17_NO_PRINT
 70
0
 62
7
  6
CONTINUOUS
370
-3
390
F
  0
LAYER
  5
20B
100
AcDbSymbolTableRecord
100
AcDbLayerTableRecord
  2
18_DATUM_CAMS_JOINTS
 70
0
 62
7
  6
CONTINUOUS
370
-3
390
F
  0
LAYER
  5
20C
100
AcDbSymbolTableRecord
100
AcDbLayerTableRecord
  2
19_DATUM_FUNCTIONAL
 70
0
 62
7
  6
CONTINUOUS
370
-3
390
F
  0
LAYER
  5
20D
100
AcDbSymbolTableRecord
100
AcDbLayerTableRecord
  2
20_DATUM_KINEMATIC_SCHEME
 70
0
 62
7
  6
CONTINUOUS
370
-3
390
F
  0
ENDTAB
  0
TABLE
  2
STYLE
  5
3
100
AcDbSymbolTable
 70
1
  0
STYLE
  5
11
100
AcDbSymbolTableRecord
100
AcDbTextStyleTableRecord
  2
STANDARD
 70
0
 40
0.0
 41
1.0
 50
0.0
 71
0
 42
0.2
  3
ARIAL.TTF
  4

  0
STYLE
  5
20E
100
AcDbSymbolTableRecord
100
AcDbTextStyleTableRecord
  2
TEXTSTYLE_1
 70
0
 40
0.0
 41
0.8
 50
0.0
 71
0
 42
0.2
  3
gdt
  4

  0
ENDTAB
  0
TABLE
  2
VIEW
  5
6
100
AcDbSymbolTable
 70
0
  0
ENDTAB
  0
TABLE
  2
UCS
  5
7
100
AcDbSymbolTable
 70
0
  0
ENDTAB
  0
TABLE
  2
APPID
  5
9
100
AcDbSymbolTable
 70
1
  0
APPID
  5
20F
100
AcDbSymbolTableRecord
100
AcDbRegAppTableRecord
  2
ACAD
 70
0
  0
ENDTAB
  0
TABLE
  2
BLOCK_RECORD
  5
1
100
AcDbSymbolTable
 70
0
  0
BLOCK_RECORD
  5
210
100
AcDbSymbolTableRecord
100
AcDbBlockTableRecord
  2
*Model_Space
  0
BLOCK_RECORD
  5
211
100
AcDbSymbolTableRecord
100
AcDbBlockTableRecord
  2
*Paper_Space
  0
BLOCK_RECORD
  5
212
100
AcDbSymbolTableRecord
100
AcDbBlockTableRecord
  2
_FILLED
  0
ENDTAB
  0
TABLE
  2
DIMSTYLE
  5
A
100
AcDbSymbolTable
 70
1
100
AcDbDimStyleTable
 71
0
  0
DIMSTYLE
105
213
100
AcDbSymbolTableRecord
100
AcDbDimStyleTableRecord
  2
STANDARD
 70
0
  3

  4

 40
1.0
 41
0.9029021064
 42
1.0
 43
0.38
 44
1.0
 45
0.0
 46
0.0
 47
0.01
 48
0.01
140
1.264062949
141
0.09
142
0.0
143
25.4
144
1.0
145
0.0
146
1.0
147
0.625
 71
1
 72
0
 73
0
 74
0
 75
0
 76
0
 77
1
 78
8
 79
2
170
0
171
1
172
0
173
0
174
0
175
0
176
0
177
0
178
0
270
2
179
2
271
2
272
2
273
2
274
2
275
0
280
0
281
0
282
0
283
1
284
8
285
0
286
0
287
3
288
0
340
11
278
46
341
212
342
212
343
212
344
212
  0
ENDTAB
  0
ENDSEC
  0
SECTION
  2
BLOCKS
  0
BLOCK
  5
20
100
AcDbEntity
  8
0
100
AcDbBlockBegin
  2
*Model_Space
 70
0
 10
0.0
 20
0.0
 30
0.0
  3
*Model_Space
  1

  0
ENDBLK
  5
21
100
AcDbEntity
  8
0
100
AcDbBlockEnd
  0
BLOCK
  5
1C
100
AcDbEntity
  8
0
100
AcDbBlockBegin
  2
*Paper_Space
 70
0
 10
0.0
 20
0.0
 30
0.0
  3
*Paper_Space
  1

  0
ENDBLK
  5
1D
100
AcDbEntity
  8
0
100
AcDbBlockEnd
  0
BLOCK
  5
214
100
AcDbEntity
  8
0
100
AcDbBlockBegin
  2
_FILLED
 70
64
 10
0.0
 20
0.0
  3
_FILLED
  1

  0
SOLID
  5
215
100
AcDbEntity
  8
0
  6
BYBLOCK
 62
0
100
AcDbTrace
 10
0.0
 20
0.0
 11
-1.0
 21
0.25
 12
-1.0
 22
-0.25
 13
-1.0
 23
-0.25
  0
ENDBLK
  5
216
100
AcDbEntity
  8
0
  6
BYBLOCK
 62
0
100
AcDbBlockEnd
  0
ENDSEC
  0
SECTION
  2
ENTITIES
  0
LINE
  5
217
100
AcDbEntity
  8
0
100
AcDbLine
 62
7
  6
BYLAYER
 10
17.2723276139
 20
18.3649671772
 11
60.6721324146
 21
18.3649671772
  0
LINE
  5
218
100
AcDbEntity
  8
0
100
AcDbLine
 62
7
  6
BYLAYER
 10
16.9722166965
 20
18.6649671772
 11
26.8461989885
 21
18.6649671772
  0
LINE
  5
219
100
AcDbEntity
  8
0
100
AcDbLine
 62
7
  6
BYLAYER
 10
51.2222166965
 20
18.6649671772
 11
60.9722166965
 21
18.6649671772
  0
LINE
  5
21A
100
AcDbEntity
  8
0
100
AcDbLine
 62
7
  6
BYLAYER
 10
26.8197559865
 20
19.6649671772
 11
51.2222166965
 21
19.6649671772
  0
LINE
  5
21B
100
AcDbEntity
  8
0
100
AcDbLine
 62
7
  6
BYLAYER
 10
60.9722166965
 20
19.7549671772
 11
51.2222166965
 21
19.7549671772
  0
LINE
  5
21C
100
AcDbEntity
  8
0
100
AcDbLine
 62
7
  6
BYLAYER
 10
26.8197559865
 20
19.7549671772
 11
16.9722166965
 21
19.7549671772
  0
LINE
  5
21D
100
AcDbEntity
  8
0
100
AcDbLine
 62
7
  6
BYLAYER
 10
17.9746360697
 20
21.4884125594
 11
26.8196439085
 21
21.4884125594
  0
LINE
  5
21E
100
AcDbEntity
  8
0
100
AcDbLine
 62
7
  6
BYLAYER
 10
51.2222166965
 20
21.4884125594
 11
59.9697973234
 21
21.4884125594
  0
LINE
  5
21F
100
AcDbEntity
  8
0
100
AcDbLine
 62
7
  6
BYLAYER
 10
51.2222166965
 20
22.1649671772
 11
26.8197557312
 21
22.1649671772
  0
LINE
  5
220
100
AcDbEntity
  8
0
100
AcDbLine
 62
7
  6
BYLAYER
 10
9.2122166965
 20
65.1026757276
 11
9.2122166965
 21
64.6431373673
  0
LINE
  5
221
100
AcDbEntity
  8
0
100
AcDbLine
 62
7
  6
BYLAYER
 10
9.2122166965
 20
65.3790225701
 11
9.2122166965
 21
66.9649671772
  0
LINE
  5
222
100
AcDbEntity
  8
0
100
AcDbLine
 62
7
  6
BYLAYER
 10
9.4689216773
 20
64.9900455356
 11
9.4689216773
 21
66.9649671772
  0
LINE
  5
223
100
AcDbEntity
  8
0
100
AcDbLine
 62
7
  6
BYLAYER
 10
9.2047271301
 20
65.3790755457
 11
8.9722166965
 21
43.4649671772
  0
LINE
  5
224
100
AcDbEntity
  8
0
100
AcDbLine
 62
7
  6
BYLAYER
 10
10.0557842237
 20
63.0857368979
 11
10.0771914214
 21
65.1033652788
  0
LINE
  5
225
100
AcDbEntity
  8
0
100
AcDbLine
 62
7
  6
BYLAYER
 10
9.9721604144
 20
43.4649671772
 11
10.1699801073
 21
62.1094732373
  0
LINE
  5
226
100
AcDbEntity
  8
0
100
AcDbLine
 62
7
  6
BYLAYER
 10
54.8956493873
 20
24.4085343763
 11
23.0487840057
 21
24.4085343763
  0
LINE
  5
227
100
AcDbEntity
  8
0
100
AcDbLine
 62
7
  6
BYLAYER
 10
10.0557842237
 20
63.0857368979
 11
10.1699801073
 21
62.1094732373
  0
LINE
  5
228
100
AcDbEntity
  8
0
100
AcDbLine
 62
7
  6
BYLAYER
 10
52.2522166965
 20
27.4149671772
 11
25.6922166965
 21
27.4149671772
  0
LINE
  5
229
100
AcDbEntity
  8
0
100
AcDbLine
 62
7
  6
BYLAYER
 10
21.4193234777
 20
35.9778603961
 11
20.0251099153
 21
37.3720739584
  0
LINE
  5
22A
100
AcDbEntity
  8
0
100
AcDbLine
 62
7
  6
BYLAYER
 10
15.1722166965
 20
43.4649671772
 11
15.1722166965
 21
42.6649671772
  0
LINE
  5
22B
100
AcDbEntity
  8
0
100
AcDbLine
 62
7
  6
BYLAYER
 10
16.9722166965
 20
19.7549671772
 11
16.9722166965
 21
18.6649671772
  0
LINE
  5
22C
100
AcDbEntity
  8
0
100
AcDbLine
 62
7
  6
BYLAYER
 10
19.7322166965
 20
38.0791807396
 11
19.7322166965
 21
39.1649671772
  0
LINE
  5
22D
100
AcDbEntity
  8
0
100
AcDbLine
 62
7
  6
BYLAYER
 10
25.6222166965
 20
33.6649671772
 11
52.3222166965
 21
33.6649671772
  0
LINE
  5
22E
100
AcDbEntity
  8
0
100
AcDbLine
 62
7
  6
BYLAYER
 10
22.1264302589
 20
35.6849671772
 11
55.8180031341
 21
35.6849671772
  0
LINE
  5
22F
100
AcDbEntity
  8
0
100
AcDbLine
 62
7
  6
BYLAYER
 10
21.3622166965
 20
42.6649671772
 11
21.3622166965
 21
40.8649671772
  0
LINE
  5
230
100
AcDbEntity
  8
0
100
AcDbLine
 62
7
  6
BYLAYER
 10
21.4193234777
 20
35.9778603961
 11
56.5251099153
 21
35.9778603961
  0
LINE
  5
231
100
AcDbEntity
  8
0
100
AcDbLine
 62
7
  6
BYLAYER
 10
57.9193234777
 20
37.3720739584
 11
20.0251099153
 21
37.3720739584
  0
LINE
  5
232
100
AcDbEntity
  8
0
100
AcDbLine
 62
7
  6
BYLAYER
 10
19.7322166965
 20
38.0791807396
 11
58.2122166965
 21
38.0791807396
  0
LINE
  5
233
100
AcDbEntity
  8
0
100
AcDbLine
 62
7
  6
BYLAYER
 10
59.9697973234
 20
21.4884125594
 11
54.8956493873
 21
24.4085343763
  0
LINE
  5
234
100
AcDbEntity
  8
0
100
AcDbLine
 62
7
  6
BYLAYER
 10
24.7622166965
 20
40.8649671772
 11
24.7622166965
 21
42.6649671772
  0
LINE
  5
235
100
AcDbEntity
  8
0
100
AcDbLine
 62
7
  6
BYLAYER
 10
26.2322166965
 20
27.4149671772
 11
26.2322166965
 21
33.6649671772
  0
LINE
  5
236
100
AcDbEntity
  8
0
100
AcDbLine
 62
7
  6
BYLAYER
 10
26.8196439085
 20
22.1649671772
 11
26.8196439085
 21
19.6649671772
  0
LINE
  5
237
100
AcDbEntity
  8
0
100
AcDbLine
 62
7
  6
BYLAYER
 10
26.8461989885
 20
19.6649671772
 11
26.8461989885
 21
18.3649671772
  0
LWPOLYLINE
  5
238
100
AcDbEntity
  8
0
100
AcDbPolyline
 62
7
  6
BYLAYER
 90
4
 70
0
 10
27.6406444103
 20
73.7849671772
 10
27.2944105684
 20
71.9284130007
 10
26.1900731091
 20
70.211406343
 10
24.5527731029
 20
69.1130982569
  0
LINE
  5
239
100
AcDbEntity
  8
0
100
AcDbLine
 62
7
  6
BYLAYER
 10
58.2122166965
 20
39.1649671772
 11
19.7322166965
 21
39.1649671772
  0
LINE
  5
23A
100
AcDbEntity
  8
0
100
AcDbLine
 62
7
  6
BYLAYER
 10
22.0622166965
 20
40.1649671772
 11
24.0622166965
 21
40.1649671772
  0
LINE
  5
23B
100
AcDbEntity
  8
0
100
AcDbLine
 62
7
  6
BYLAYER
 10
21.3622166965
 20
40.8649671772
 11
24.7622166965
 21
40.8649671772
  0
LINE
  5
23C
100
AcDbEntity
  8
0
100
AcDbLine
 62
7
  6
BYLAYER
 10
27.6406444103
 20
73.7849671772
 11
27.6406444103
 21
87.4249671772
  0
LINE
  5
23D
100
AcDbEntity
  8
0
100
AcDbLine
 62
7
  6
BYLAYER
 10
27.6432947575
 20
87.424967205
 11
27.6432947578
 21
73.7849671783
  0
LINE
  5
23E
100
AcDbEntity
  8
0
100
AcDbLine
 62
7
  6
BYLAYER
 10
28.559283699
 20
22.1649671772
 11
28.559283699
 21
19.6649671772
  0
LINE
  5
23F
100
AcDbEntity
  8
0
100
AcDbLine
 62
7
  6
BYLAYER
 10
28.9722166965
 20
42.6649671772
 11
28.9722166965
 21
39.1649671772
  0
LINE
  5
240
100
AcDbEntity
  8
0
100
AcDbLine
 62
7
  6
BYLAYER
 10
29.135266813
 20
64.9900455356
 11
29.135266813
 21
66.9649671772
  0
LINE
  5
241
100
AcDbEntity
  8
0
100
AcDbLine
 62
7
  6
BYLAYER
 10
29.7746534698
 20
73.7849671813
 11
29.7746534699
 21
87.4249671911
  0
LINE
  5
242
100
AcDbEntity
  8
0
100
AcDbLine
 62
7
  6
BYLAYER
 10
9.9722166965
 20
42.6649671772
 11
67.9722166965
 21
42.6649671772
  0
LINE
  5
243
100
AcDbEntity
  8
0
100
AcDbLine
 62
7
  6
BYLAYER
 10
8.9722166965
 20
43.4649671772
 11
68.9722166965
 21
43.4649671772
  0
LINE
  5
244
100
AcDbEntity
  8
0
100
AcDbLine
 62
7
  6
BYLAYER
 10
30.7167615756
 20
64.4899637273
 11
30.7167700096
 21
67.9649671772
  0
LINE
  5
245
100
AcDbEntity
  8
0
100
AcDbLine
 62
7
  6
BYLAYER
 10
31.1262440573
 20
73.7849671773
 11
31.1262440573
 21
87.4249671772
  0
LINE
  5
246
100
AcDbEntity
  8
0
100
AcDbLine
 62
7
  6
BYLAYER
 10
46.8181893357
 20
87.4249671772
 11
46.8181893357
 21
73.7849671773
  0
LINE
  5
247
100
AcDbEntity
  8
0
100
AcDbLine
 62
7
  6
BYLAYER
 10
48.169779923
 20
87.424967205
 11
48.1697799232
 21
73.7849671774
  0
LINE
  5
248
100
AcDbEntity
  8
0
100
AcDbLine
 62
7
  6
BYLAYER
 10
48.9722166965
 20
42.6649671772
 11
48.9722166965
 21
39.1649671772
  0
LINE
  5
249
100
AcDbEntity
  8
0
100
AcDbLine
 62
7
  6
BYLAYER
 10
49.1270009955
 20
66.9649671772
 11
49.1270009955
 21
67.9649671772
  0
LINE
  5
24A
100
AcDbEntity
  8
0
100
AcDbLine
 62
7
  6
BYLAYER
 10
49.484999379
 20
22.1649671772
 11
49.484999379
 21
19.6649671772
  0
LINE
  5
24B
100
AcDbEntity
  8
0
100
AcDbLine
 62
7
  6
BYLAYER
 10
50.3011386352
 20
73.7849671783
 11
50.3011386354
 21
87.4249671911
  0
LINE
  5
24C
100
AcDbEntity
  8
0
100
AcDbLine
 62
7
  6
BYLAYER
 10
50.3037889828
 20
87.4249671772
 11
50.3037889828
 21
73.7849674128
  0
LINE
  5
24D
100
AcDbEntity
  8
0
100
AcDbLine
 62
7
  6
BYLAYER
 10
51.0242767113
 20
64.9163168666
 11
51.0242767113
 21
66.9649671772
  0
LINE
  5
24E
100
AcDbEntity
  8
0
100
AcDbLine
 62
7
  6
BYLAYER
 10
51.2222166965
 20
22.1649671772
 11
51.2222166965
 21
18.3649671772
  0
LINE
  5
24F
100
AcDbEntity
  8
0
100
AcDbLine
 62
7
  6
BYLAYER
 10
51.7122166965
 20
27.4149671772
 11
51.7122166965
 21
33.6649671772
  0
LINE
  5
250
100
AcDbEntity
  8
0
100
AcDbLine
 62
7
  6
BYLAYER
 10
49.1230770143
 20
64.4622254554
 11
49.127000995
 21
66.9649671772
  0
LINE
  5
251
100
AcDbEntity
  8
0
100
AcDbLine
 62
7
  6
BYLAYER
 10
10.1699801073
 20
62.1094732373
 11
30.7167615756
 21
64.4899637273
  0
LINE
  5
252
100
AcDbEntity
  8
0
100
AcDbLine
 62
7
  6
BYLAYER
 10
27.4705857534
 20
65.1033652788
 11
10.0557842237
 21
63.0857368979
  0
LINE
  5
253
100
AcDbEntity
  8
0
100
AcDbLine
 62
7
  6
BYLAYER
 10
30.7167615756
 20
65.3790533047
 11
35.1385596751
 21
65.890602576
  0
LINE
  5
254
100
AcDbEntity
  8
0
100
AcDbLine
 62
7
  6
BYLAYER
 10
67.7427704908
 20
66.0849671772
 11
62.5665789513
 21
66.0849671772
  0
LINE
  5
255
100
AcDbEntity
  8
0
100
AcDbLine
 62
7
  6
BYLAYER
 10
67.8598633359
 20
65.7988016944
 11
59.8057502964
 21
65.7993539543
  0
LINE
  5
256
100
AcDbEntity
  8
0
100
AcDbLine
 62
7
  6
BYLAYER
 10
35.1385596751
 20
65.890602576
 11
67.7744532857
 21
62.1094732373
  0
LINE
  5
257
100
AcDbEntity
  8
0
100
AcDbLine
 62
7
  6
BYLAYER
 10
67.8886491693
 20
63.0857368979
 11
52.4563939599
 21
64.8736732137
  0
LINE
  5
258
100
AcDbEntity
  8
0
100
AcDbLine
 62
7
  6
BYLAYER
 10
63.2722166965
 20
66.7849671772
 11
59.8057502964
 21
66.7849671772
  0
LINE
  5
259
100
AcDbEntity
  8
0
100
AcDbLine
 62
7
  6
BYLAYER
 10
59.8057502964
 20
66.9649671772
 11
9.2122166974
 21
66.9649671772
  0
LINE
  5
25A
100
AcDbEntity
  8
0
100
AcDbLine
 62
7
  6
BYLAYER
 10
10.2122166965
 20
67.9649671772
 11
58.8057501164
 21
67.9649671772
  0
LINE
  5
25B
100
AcDbEntity
  8
0
100
AcDbLine
 62
7
  6
BYLAYER
 10
61.2721393663
 20
68.7849671772
 11
53.392781273
 21
68.7849671772
  0
LINE
  5
25C
100
AcDbEntity
  8
0
100
AcDbLine
 62
7
  6
BYLAYER
 10
24.55165212
 20
68.7849671772
 11
16.6722941329
 21
68.7849671772
  0
LINE
  5
25D
100
AcDbEntity
  8
0
100
AcDbLine
 62
7
  6
BYLAYER
 10
17.9746360697
 20
21.4884125594
 11
23.0487840057
 21
24.4085343763
  0
LINE
  5
25E
100
AcDbEntity
  8
0
100
AcDbLine
 62
7
  6
BYLAYER
 10
24.5527731029
 20
69.1130982569
 11
22.8794223562
 21
68.7849671694
  0
LWPOLYLINE
  5
25F
100
AcDbEntity
  8
0
100
AcDbPolyline
 62
7
  6
BYLAYER
 90
4
 70
0
 10
55.0649333576
 20
68.7849671761
 10
53.311107538
 20
69.1463970026
 10
52.4322022659
 20
69.6354935251
 10
51.1137819502
 20
71.0148977258
  0
LWPOLYLINE
  5
260
100
AcDbEntity
  8
0
100
AcDbPolyline
 62
7
  6
BYLAYER
 90
3
 70
0
 10
51.1137185651
 20
71.0149964616
 10
50.5096535142
 20
72.3429858865
 10
50.3037889828
 20
73.7849673803
  0
LINE
  5
261
100
AcDbEntity
  8
0
100
AcDbLine
 62
7
  6
BYLAYER
 10
58.2122166965
 20
38.0791807396
 11
58.2122166965
 21
39.1649671772
  0
LINE
  5
262
100
AcDbEntity
  8
0
100
AcDbLine
 62
7
  6
BYLAYER
 10
59.450502387
 20
64.7264023758
 11
59.450502387
 21
66.9649671772
  0
LINE
  5
263
100
AcDbEntity
  8
0
100
AcDbLine
 62
7
  6
BYLAYER
 10
59.8057502964
 20
66.9649671772
 11
59.8057502964
 21
64.7808453068
  0
LINE
  5
264
100
AcDbEntity
  8
0
100
AcDbLine
 62
7
  6
BYLAYER
 10
60.9722166965
 20
19.7549671772
 11
60.9722166965
 21
18.6649671772
  0
LINE
  5
265
100
AcDbEntity
  8
0
100
AcDbLine
 62
7
  6
BYLAYER
 10
59.8057502964
 20
64.7808468679
 11
59.8057475128
 21
64.7805326236
  0
LINE
  5
266
100
AcDbEntity
  8
0
100
AcDbLine
 62
7
  6
BYLAYER
 10
27.6406444103
 20
73.7849671772
 11
31.1262440573
 21
73.7849673718
  0
LINE
  5
267
100
AcDbEntity
  8
0
100
AcDbLine
 62
7
  6
BYLAYER
 10
46.8181893357
 20
73.7849671772
 11
50.3037889828
 21
73.7849674128
  0
LWPOLYLINE
  5
268
100
AcDbEntity
  8
0
100
AcDbPolyline
 62
7
  6
BYLAYER
 90
4
 70
0
 10
59.8349191436
 20
64.6930815696
 10
59.8463501437
 20
64.687230017
 10
59.8088080008
 20
64.7523507252
 10
59.8057305536
 20
64.7805406966
  0
LINE
  5
269
100
AcDbEntity
  8
0
100
AcDbLine
 62
7
  6
BYLAYER
 10
51.0987447718
 20
71.0346184346
 11
51.1137007303
 21
71.0150242131
  0
LINE
  5
26A
100
AcDbEntity
  8
0
100
AcDbLine
 62
7
  6
BYLAYER
 10
51.1137007303
 20
71.0150242131
 11
51.1137819502
 21
71.0148977258
  0
LINE
  5
26B
100
AcDbEntity
  8
0
100
AcDbLine
 62
7
  6
BYLAYER
 10
62.7722166965
 20
42.6649671772
 11
62.7722166965
 21
43.4649671772
  0
LINE
  5
26C
100
AcDbEntity
  8
0
100
AcDbLine
 62
7
  6
BYLAYER
 10
63.2722166965
 20
66.0849671772
 11
63.2722166965
 21
66.7849671772
  0
LINE
  5
26D
100
AcDbEntity
  8
0
100
AcDbLine
 62
7
  6
BYLAYER
 10
56.5251099153
 20
35.9778603961
 11
57.9193234777
 21
37.3720739584
  0
LINE
  5
26E
100
AcDbEntity
  8
0
100
AcDbLine
 62
7
  6
BYLAYER
 10
67.7744549665
 20
62.1094877428
 11
67.8886491693
 21
63.0857368979
  0
LINE
  5
26F
100
AcDbEntity
  8
0
100
AcDbLine
 62
7
  6
BYLAYER
 10
67.7744532857
 20
62.1094732373
 11
67.9722729787
 21
43.4649671772
  0
LINE
  5
270
100
AcDbEntity
  8
0
100
AcDbLine
 62
7
  6
BYLAYER
 10
67.8598633359
 20
65.7988016944
 11
67.8886491693
 21
63.0857368979
  0
LINE
  5
271
100
AcDbEntity
  8
0
100
AcDbLine
 62
7
  6
BYLAYER
 10
68.9722166965
 20
43.4649671772
 11
68.742714354
 21
65.0955629626
  0
LINE
  5
272
100
AcDbEntity
  8
0
100
AcDbLine
 62
7
  6
BYLAYER
 10
50.3037889828
 20
87.4249671772
 11
27.6406444103
 21
87.4249671772
  0
LINE
  5
273
100
AcDbEntity
  8
0
100
AcDbLine
 62
7
  6
BYLAYER
 10
48.303788982
 20
89.4249671772
 11
29.6406444106
 21
89.4249671772
  0
ARC
  5
274
100
AcDbEntity
  8
0
100
AcDbCircle
 62
7
  6
BYLAYER
 10
22.6722332528
 20
27.4049671772
 40
3.02
100
AcDbArc
 50
277.1626045531
 51
0.1897214709
  0
ARC
  5
275
100
AcDbEntity
  8
0
100
AcDbCircle
 62
7
  6
BYLAYER
 10
23.1687293825
 20
33.1849671772
 40
2.5
100
AcDbArc
 50
11.0695249734
 51
90.0
  0
ARC
  5
276
100
AcDbEntity
  8
0
100
AcDbCircle
 62
7
  6
BYLAYER
 10
18.9722166965
 20
19.7549671772
 40
2.0
100
AcDbArc
 50
119.92
 51
180.0
  0
ARC
  5
277
100
AcDbEntity
  8
0
100
AcDbCircle
 62
7
  6
BYLAYER
 10
22.1264302589
 20
36.6849671772
 40
1.0
100
AcDbArc
 50
225.0000000003
 51
270.0
  0
ARC
  5
278
100
AcDbEntity
  8
0
100
AcDbCircle
 62
7
  6
BYLAYER
 10
20.7322166965
 20
38.0791807396
 40
1.0
100
AcDbArc
 50
180.0
 51
224.9999999998
  0
ARC
  5
279
100
AcDbEntity
  8
0
100
AcDbCircle
 62
7
  6
BYLAYER
 10
9.9722166965
 20
43.4649671772
 40
0.8
100
AcDbArc
 50
180.0
 51
270.0
  0
ARC
  5
27A
100
AcDbEntity
  8
0
100
AcDbCircle
 62
7
  6
BYLAYER
 10
22.0622166965
 20
40.8649671772
 40
0.7
100
AcDbArc
 50
180.0
 51
270.0
  0
ARC
  5
27B
100
AcDbEntity
  8
0
100
AcDbCircle
 62
7
  6
BYLAYER
 10
24.0622166965
 20
40.8649671772
 40
0.7
100
AcDbArc
 50
270.0
 51
360.0
  0
ARC
  5
27C
100
AcDbEntity
  8
0
100
AcDbCircle
 62
7
  6
BYLAYER
 10
17.2722166965
 20
18.6649671772
 40
0.3
100
AcDbArc
 50
180.0
 51
270.0
  0
ARC
  5
27D
100
AcDbEntity
  8
0
100
AcDbCircle
 62
7
  6
BYLAYER
 10
22.4960512113
 20
73.7846751795
 40
5.1472430068
100
AcDbArc
 50
339.9289121996
 51
0.0032503541
  0
ARC
  5
27E
100
AcDbEntity
  8
0
100
AcDbCircle
 62
7
  6
BYLAYER
 10
22.5130778907
 20
73.779469324
 40
5.1294639126
100
AcDbArc
 50
337.5167710216
 51
339.9182602931
  0
ARC
  5
27F
100
AcDbEntity
  8
0
100
AcDbCircle
 62
7
  6
BYLAYER
 10
22.5837527169
 20
73.7465554636
 40
5.0515754198
100
AcDbArc
 50
315.5729481255
 51
337.5551660081
  0
ARC
  5
280
100
AcDbEntity
  8
0
100
AcDbCircle
 62
7
  6
BYLAYER
 10
22.8102453832
 20
73.4487152663
 40
4.6732432059
100
AcDbArc
 50
291.5609949943
 51
292.5309573948
  0
ARC
  5
281
100
AcDbEntity
  8
0
100
AcDbCircle
 62
7
  6
BYLAYER
 10
22.8147394938
 20
73.4373682249
 40
4.6610386049
100
AcDbArc
 50
290.8765163347
 51
291.5608757295
  0
ARC
  5
282
100
AcDbEntity
  8
0
100
AcDbCircle
 62
7
  6
BYLAYER
 10
29.6406444103
 20
87.4249671772
 40
2.0
100
AcDbArc
 50
90.0000016237
 51
179.9999993071
  0
ARC
  5
283
100
AcDbEntity
  8
0
100
AcDbCircle
 62
7
  6
BYLAYER
 10
16.6722166965
 20
66.7849671772
 40
2.0
100
AcDbArc
 50
90.0
 51
142.6234628196
  0
ARC
  5
284
100
AcDbEntity
  8
0
100
AcDbCircle
 62
7
  6
BYLAYER
 10
29.6421332201
 20
87.426432689
 40
1.9986761441
100
AcDbArc
 50
90.0426825276
 51
180.0420076113
  0
ARC
  5
285
100
AcDbEntity
  8
0
100
AcDbCircle
 62
7
  6
BYLAYER
 10
31.773491932
 20
87.426432689
 40
1.9986761441
100
AcDbArc
 50
90.0426825254
 51
180.0420076118
  0
ARC
  5
286
100
AcDbEntity
  8
0
100
AcDbCircle
 62
7
  6
BYLAYER
 10
10.2122166965
 20
66.9649671772
 40
1.0
100
AcDbArc
 50
90.0
 51
180.0
  0
ARC
  5
287
100
AcDbEntity
  8
0
100
AcDbCircle
 62
7
  6
BYLAYER
 10
55.2722001402
 20
27.4049671772
 40
3.02
100
AcDbArc
 50
179.8102785291
 51
262.8373954469
  0
ARC
  5
288
100
AcDbEntity
  8
0
100
AcDbCircle
 62
7
  6
BYLAYER
 10
54.7757040105
 20
33.1849671772
 40
2.5
100
AcDbArc
 50
90.0
 51
168.9304750266
  0
ARC
  5
289
100
AcDbEntity
  8
0
100
AcDbCircle
 62
7
  6
BYLAYER
 10
58.9722166965
 20
19.7549671772
 40
2.0
100
AcDbArc
 50
0.0
 51
60.08
  0
ARC
  5
28A
100
AcDbEntity
  8
0
100
AcDbCircle
 62
7
  6
BYLAYER
 10
55.8180031341
 20
36.6849671772
 40
1.0
100
AcDbArc
 50
270.0
 51
314.9999999997
  0
ARC
  5
28B
100
AcDbEntity
  8
0
100
AcDbCircle
 62
7
  6
BYLAYER
 10
57.2122166965
 20
38.0791807396
 40
1.0
100
AcDbArc
 50
315.0000000002
 51
360.0
  0
ARC
  5
28C
100
AcDbEntity
  8
0
100
AcDbCircle
 62
7
  6
BYLAYER
 10
67.9722166965
 20
43.4649671772
 40
0.8
100
AcDbArc
 50
270.0
 51
360.0
  0
ARC
  5
28D
100
AcDbEntity
  8
0
100
AcDbCircle
 62
7
  6
BYLAYER
 10
60.6722166965
 20
18.6649671772
 40
0.3
100
AcDbArc
 50
270.0
 51
360.0
  0
ARC
  5
28E
100
AcDbEntity
  8
0
100
AcDbCircle
 62
7
  6
BYLAYER
 10
55.4697985261
 20
73.7872094515
 40
5.1686598124
100
AcDbArc
 50
180.0248561188
 51
194.720706958
  0
ARC
  5
28F
100
AcDbEntity
  8
0
100
AcDbCircle
 62
7
  6
BYLAYER
 10
55.4307011647
 20
73.7818167454
 40
5.1296139767
100
AcDbArc
 50
197.874208895
 51
212.3816863595
  0
ARC
  5
290
100
AcDbEntity
  8
0
100
AcDbCircle
 62
7
  6
BYLAYER
 10
55.3745294203
 20
73.7627703673
 40
5.0703076991
100
AcDbArc
 50
194.7271673071
 51
197.8641927345
  0
ARC
  5
291
100
AcDbEntity
  8
0
100
AcDbCircle
 62
7
  6
BYLAYER
 10
55.3050388048
 20
73.7086434081
 40
4.9843067823
100
AcDbArc
 50
212.4449614717
 51
212.7370464529
  0
ARC
  5
292
100
AcDbEntity
  8
0
100
AcDbCircle
 62
7
  6
BYLAYER
 10
55.2148525176
 20
73.5968642034
 40
4.842217255
100
AcDbArc
 50
234.2656486505
 51
235.3464743926
  0
ARC
  5
293
100
AcDbEntity
  8
0
100
AcDbCircle
 62
7
  6
BYLAYER
 10
55.1890042079
 20
73.5581529731
 40
4.79567557
100
AcDbArc
 50
235.3375290784
 51
244.557148067
  0
ARC
  5
294
100
AcDbEntity
  8
0
100
AcDbCircle
 62
7
  6
BYLAYER
 10
55.1321737693
 20
73.4452813443
 40
4.6693367785
100
AcDbArc
 50
244.5918475446
 51
249.2998911753
  0
ARC
  5
295
100
AcDbEntity
  8
0
100
AcDbCircle
 62
7
  6
BYLAYER
 10
48.3005690951
 20
87.4254712414
 40
2.000546859
100
AcDbArc
 50
359.9855643328
 51
58.1856332411
  0
ARC
  5
296
100
AcDbEntity
  8
0
100
AcDbCircle
 62
7
  6
BYLAYER
 10
48.3037889828
 20
87.4249671772
 40
2.0
100
AcDbArc
 50
0.0
 51
90.0
  0
ARC
  5
297
100
AcDbEntity
  8
0
100
AcDbCircle
 62
7
  6
BYLAYER
 10
61.2722166965
 20
66.7849671772
 40
2.0
100
AcDbArc
 50
0.0
 51
90.0
  0
ARC
  5
298
100
AcDbEntity
  8
0
100
AcDbCircle
 62
7
  6
BYLAYER
 10
46.170941148
 20
87.4264321563
 40
1.9986761441
100
AcDbArc
 50
359.9580076641
 51
89.9573085129
  0
ARC
  5
299
100
AcDbEntity
  8
0
100
AcDbCircle
 62
7
  6
BYLAYER
 10
48.3036579784
 20
87.4294140738
 40
1.9955531077
100
AcDbArc
 50
62.0253939727
 51
89.9962386377
  0
ARC
  5
29A
100
AcDbEntity
  8
0
100
AcDbCircle
 62
7
  6
BYLAYER
 10
48.305629331
 20
87.4330767021
 40
1.9913937148
100
AcDbArc
 50
58.1939950586
 51
62.0260541298
  0
ARC
  5
29B
100
AcDbEntity
  8
0
100
AcDbCircle
 62
7
  6
BYLAYER
 10
58.8057502964
 20
66.9649671772
 40
1.0
100
AcDbArc
 50
0.0
 51
90.0
  0
ARC
  5
29C
100
AcDbEntity
  8
0
100
AcDbCircle
 62
7
  6
BYLAYER
 10
67.7427709343
 20
65.0849819075
 40
0.9999999878
100
AcDbArc
 50
0.6070463049
 51
90.0000254102
  0
SPLINE
  5
29D
100
AcDbEntity
  8
0
100
AcDbSpline
 62
7
  6
BYLAYER
 70
0
 71
3
 72
13
 73
9
 74
0
 42
0.0000001
 43
0.0000001
 44
0.0000000001
 40
0.0
 40
0.0
 40
0.0
 40
0.0
 40
0.2961557676
 40
0.5672296958
 40
0.6886181047
 40
0.7997326025
 40
0.9024154396
 40
1.0
 40
1.0
 40
1.0
 40
1.0
 10
59.4505023821
 20
66.9649671772
 30
0.0
 10
59.4505023821
 20
67.0935880494
 30
0.0
 10
59.4203789175
 20
67.340933311
 30
0.0
 10
59.3052925974
 20
67.6226154832
 30
0.0
 10
59.1710018289
 20
67.7968579576
 30
0.0
 10
59.0588848196
 20
67.8917923206
 30
0.0
 10
58.9355964898
 20
67.9511683926
 30
0.0
 10
58.8481314101
 20
67.9649671772
 30
0.0
 10
58.8057502964
 20
67.9649671772
 30
0.0
  0
SPLINE
  5
29E
100
AcDbEntity
  8
0
100
AcDbSpline
 62
7
  6
BYLAYER
 70
0
 71
3
 72
9
 73
5
 74
0
 42
0.0000001
 43
0.0000001
 44
0.0000000001
 40
0.0
 40
0.0
 40
0.0
 40
0.0
 40
0.4949246508
 40
1.0
 40
1.0
 40
1.0
 40
1.0
 10
49.0188012135
 20
71.0346188284
 30
0.0
 10
48.7487863682
 20
71.4317307412
 30
0.0
 10
48.3182664735
 20
72.3188432874
 30
0.0
 10
48.1697972866
 20
73.2949037615
 30
0.0
 10
48.1697797621
 20
73.7849671777
 30
0.0
  0
SPLINE
  5
29F
100
AcDbEntity
  8
0
100
AcDbSpline
 62
7
  6
BYLAYER
 70
0
 71
3
 72
11
 73
7
 74
0
 42
0.0000001
 43
0.0000001
 44
0.0000000001
 40
0.0
 40
0.0
 40
0.0
 40
0.0
 40
0.2122005742
 40
0.4266638148
 40
0.6838724634
 40
1.0
 40
1.0
 40
1.0
 40
1.0
 10
59.5300892155
 20
64.5783801231
 30
0.0
 10
59.5178256842
 20
64.5814894285
 30
0.0
 10
59.4949815218
 20
64.5952983149
 30
0.0
 10
59.4706104636
 20
64.6286629748
 30
0.0
 10
59.4540260941
 20
64.6731436612
 30
0.0
 10
59.4503027127
 20
64.7075558698
 30
0.0
 10
59.4505023439
 20
64.7264025778
 30
0.0
  0
SPLINE
  5
2A0
100
AcDbEntity
  8
0
100
AcDbSpline
 62
7
  6
BYLAYER
 70
0
 71
3
 72
19
 73
15
 74
0
 42
0.0000001
 43
0.0000001
 44
0.0000000001
 40
0.0
 40
0.0
 40
0.0
 40
0.0
 40
0.1214556153
 40
0.2443421818
 40
0.3684154223
 40
0.4934453717
 40
0.556139423
 40
0.6189698141
 40
0.6821895292
 40
0.7459878621
 40
0.8095563355
 40
0.8723863339
 40
0.9360660544
 40
1.0
 40
1.0
 40
1.0
 40
1.0
 10
29.1352668129
 20
64.9900455356
 30
0.0
 10
29.2015182037
 20
64.9742458085
 30
0.0
 10
29.3344155472
 20
64.9408523555
 30
0.0
 10
29.5344840814
 20
64.8893467934
 30
0.0
 10
29.7363322967
 20
64.8366190425
 30
0.0
 10
29.904067008
 20
64.7871951414
 30
0.0
 10
30.0400852501
 20
64.7518531544
 30
0.0
 10
30.1435816068
 20
64.7295800215
 30
0.0
 10
30.2482841798
 20
64.7101784124
 30
0.0
 10
30.3538759339
 20
64.6938132454
 30
0.0
 10
30.4587966027
 20
64.6738534676
 30
0.0
 10
30.5592392328
 20
64.6351309299
 30
0.0
 10
30.6461274182
 20
64.5712911342
 30
0.0
 10
30.6948713168
 20
64.518352283
 30
0.0
 10
30.7167700096
 20
64.4899647045
 30
0.0
  0
SPLINE
  5
2A1
100
AcDbEntity
  8
0
100
AcDbSpline
 62
7
  6
BYLAYER
 70
0
 71
3
 72
15
 73
11
 74
0
 42
0.0000001
 43
0.0000001
 44
0.0000000001
 40
0.0
 40
0.0
 40
0.0
 40
0.0
 40
0.1400098681
 40
0.2784153394
 40
0.4135871283
 40
0.5439181174
 40
0.668125854
 40
0.785506407
 40
0.8959535946
 40
1.0
 40
1.0
 40
1.0
 40
1.0
 10
29.7746540295
 20
73.7849671794
 30
0.0
 10
29.7746289179
 20
73.4103382808
 30
0.0
 10
29.6878467078
 20
72.6624969278
 30
0.0
 10
29.3097134328
 20
71.6127014719
 30
0.0
 10
28.7221530401
 20
70.6950690845
 30
0.0
 10
27.9804372641
 20
69.9513972824
 30
0.0
 10
27.1458066631
 20
69.398017446
 30
0.0
 10
26.2733331356
 20
69.0298606718
 30
0.0
 10
25.4049117634
 20
68.8270549615
 30
0.0
 10
24.8300442317
 20
68.7849763826
 30
0.0
 10
24.5516439244
 20
68.7849671772
 30
0.0
  0
SPLINE
  5
2A2
100
AcDbEntity
  8
0
100
AcDbSpline
 62
7
  6
BYLAYER
 70
0
 71
3
 72
9
 73
5
 74
0
 42
0.0000001
 43
0.0000001
 44
0.0000000001
 40
0.0
 40
0.0
 40
0.0
 40
0.0
 40
0.4784854194
 40
1.0
 40
1.0
 40
1.0
 40
1.0
 10
22.8795391683
 20
68.7849671772
 30
0.0
 10
23.1395822528
 20
68.78498225
 30
0.0
 10
23.6840311312
 20
68.8338431193
 30
0.0
 10
24.2109026867
 20
68.9813234912
 30
0.0
 10
24.4757242299
 20
69.0823239561
 30
0.0
  0
SPLINE
  5
2A3
100
AcDbEntity
  8
0
100
AcDbSpline
 62
7
  6
BYLAYER
 70
0
 71
3
 72
9
 73
5
 74
0
 42
0.0000001
 43
0.0000001
 44
0.0000000001
 40
0.0
 40
0.0
 40
0.0
 40
0.0
 40
0.4799292476
 40
1.0
 40
1.0
 40
1.0
 40
1.0
 10
24.6009506616
 20
69.1321684211
 30
0.0
 10
24.8863036531
 20
69.250544842
 30
0.0
 10
25.4575902698
 20
69.5569321105
 30
0.0
 10
25.956705849
 20
69.9716201762
 30
0.0
 10
26.1912961935
 20
70.2104496554
 30
0.0
  0
SPLINE
  5
2A4
100
AcDbEntity
  8
0
100
AcDbSpline
 62
7
  6
BYLAYER
 70
0
 71
3
 72
23
 73
19
 74
0
 42
0.0000001
 43
0.0000001
 44
0.0000000001
 40
0.0
 40
0.0
 40
0.0
 40
0.0
 40
0.1948818908
 40
0.3826393513
 40
0.555452511
 40
0.6342249825
 40
0.7069093733
 40
0.7728208375
 40
0.831278595
 40
0.8817081695
 40
0.9236732505
 40
0.9567477342
 40
0.9698333943
 40
0.9805859437
 40
0.9889879459
 40
0.9950234839
 40
0.9986821605
 40
1.0
 40
1.0
 40
1.0
 40
1.0
 10
10.1699801073
 20
62.1094732373
 30
0.0
 10
10.1050138091
 20
62.1101624573
 30
0.0
 10
9.9774547912
 20
62.1113840147
 30
0.0
 10
9.7922823949
 20
62.1127659851
 30
0.0
 10
9.6458153903
 20
62.113509851
 30
0.0
 10
9.5377102072
 20
62.1138123953
 30
0.0
 10
9.4652438084
 20
62.1138896716
 30
0.0
 10
9.3995494603
 20
62.1138263939
 30
0.0
 10
9.3412762271
 20
62.1136222182
 30
0.0
 10
9.2909825691
 20
62.1132825978
 30
0.0
 10
9.2491654364
 20
62.1128073482
 30
0.0
 10
9.2197685028
 20
62.1122924785
 30
0.0
 10
9.2008352701
 20
62.1117671558
 30
0.0
 10
9.1900226781
 20
62.111406728
 30
0.0
 10
9.1818185772
 20
62.1109431163
 30
0.0
 10
9.1753790137
 20
62.1106573502
 30
0.0
 10
9.1724795162
 20
62.1100133204
 30
0.0
 10
9.1700410507
 20
62.1099125554
 30
0.0
 10
9.1700363895
 20
62.1094732373
 30
0.0
  0
SPLINE
  5
2A5
100
AcDbEntity
  8
0
100
AcDbSpline
 62
7
  6
BYLAYER
 70
0
 71
3
 72
11
 73
7
 74
0
 42
0.0000001
 43
0.0000001
 44
0.0000000001
 40
0.0
 40
0.0
 40
0.0
 40
0.0
 40
0.2493190247
 40
0.4989761507
 40
0.7492180885
 40
1.0
 40
1.0
 40
1.0
 40
1.0
 10
9.1700363894
 20
62.1094732373
 30
0.0
 10
9.1712996709
 20
62.2285375094
 30
0.0
 10
9.2179210885
 20
62.4686075264
 30
0.0
 10
9.411179474
 20
62.7788070221
 30
0.0
 10
9.7017749908
 20
63.0015021337
 30
0.0
 10
9.9367859414
 20
63.0721658936
 30
0.0
 10
10.0557842237
 20
63.0857368979
 30
0.0
  0
SPLINE
  5
2A6
100
AcDbEntity
  8
0
100
AcDbSpline
 62
7
  6
BYLAYER
 70
0
 71
3
 72
23
 73
19
 74
0
 42
0.0000001
 43
0.0000001
 44
0.0000000001
 40
0.0
 40
0.0
 40
0.0
 40
0.0
 40
0.0013178395
 40
0.0049765161
 40
0.0110120541
 40
0.0194140563
 40
0.0301666057
 40
0.0432522658
 40
0.0763267495
 40
0.1182918305
 40
0.168721405
 40
0.2271791625
 40
0.2930906267
 40
0.3657750175
 40
0.444547489
 40
0.6173606487
 40
0.8051181092
 40
1.0
 40
1.0
 40
1.0
 40
1.0
 10
68.7743970036
 20
62.1094732373
 30
0.0
 10
68.7743923424
 20
62.1099125554
 30
0.0
 10
68.7719538769
 20
62.1100133204
 30
0.0
 10
68.7690543794
 20
62.1106573502
 30
0.0
 10
68.7626148158
 20
62.1109431163
 30
0.0
 10
68.7544107149
 20
62.111406728
 30
0.0
 10
68.7435981229
 20
62.1117671558
 30
0.0
 10
68.7246648902
 20
62.1122924785
 30
0.0
 10
68.6952679566
 20
62.1128073482
 30
0.0
 10
68.6534508239
 20
62.1132825978
 30
0.0
 10
68.6031571659
 20
62.1136222182
 30
0.0
 10
68.5448839327
 20
62.1138263939
 30
0.0
 10
68.4791895846
 20
62.1138896716
 30
0.0
 10
68.4067231858
 20
62.1138123953
 30
0.0
 10
68.2986180028
 20
62.113509851
 30
0.0
 10
68.1521509981
 20
62.1127659851
 30
0.0
 10
67.9669786018
 20
62.1113840147
 30
0.0
 10
67.839419584
 20
62.1101624573
 30
0.0
 10
67.7744532857
 20
62.1094732373
 30
0.0
  0
SPLINE
  5
2A7
100
AcDbEntity
  8
0
100
AcDbSpline
 62
7
  6
BYLAYER
 70
0
 71
3
 72
11
 73
7
 74
0
 42
0.0000001
 43
0.0000001
 44
0.0000000001
 40
0.0
 40
0.0
 40
0.0
 40
0.0
 40
0.2507819115
 40
0.5010238493
 40
0.7506809753
 40
1.0
 40
1.0
 40
1.0
 40
1.0
 10
67.8886491693
 20
63.0857368979
 30
0.0
 10
68.0076474516
 20
63.0721658936
 30
0.0
 10
68.2426584023
 20
63.0015021337
 30
0.0
 10
68.533253919
 20
62.7788070221
 30
0.0
 10
68.7265123045
 20
62.4686075264
 30
0.0
 10
68.7731337222
 20
62.2285375094
 30
0.0
 10
68.7743970036
 20
62.1094732373
 30
0.0
  0
SPLINE
  5
2A8
100
AcDbEntity
  8
0
100
AcDbSpline
 62
7
  6
BYLAYER
 70
0
 71
3
 72
18
 73
14
 74
0
 42
0.0000001
 43
0.0000001
 44
0.0000000001
 40
0.0
 40
0.0
 40
0.0
 40
0.0
 40
0.1335407087
 40
0.2394070107
 40
0.3075547523
 40
0.3486441053
 40
0.3817227417
 40
0.4176737729
 40
0.5103728146
 40
0.6254942532
 40
0.742923925
 40
0.8670949172
 40
1.0
 40
1.0
 40
1.0
 40
1.0
 10
9.1952935933
 20
64.4899647045
 30
0.0
 10
9.1955741245
 20
64.5164047691
 30
0.0
 10
9.198536893
 20
64.5638269097
 30
0.0
 10
9.2077108106
 20
64.6240461689
 30
0.0
 10
9.2167151841
 20
64.6657685816
 30
0.0
 10
9.2265020762
 20
64.6922842484
 30
0.0
 10
9.2363470237
 20
64.711752179
 30
0.0
 10
9.2504962456
 20
64.7404777042
 30
0.0
 10
9.2740107517
 20
64.7826623851
 30
0.0
 10
9.3088596698
 20
64.836948737
 30
0.0
 10
9.3543225426
 20
64.891244167
 30
0.0
 10
9.4077027229
 20
64.942853594
 30
0.0
 10
9.4475099964
 20
64.9747466532
 30
0.0
 10
9.4689216773
 20
64.9900455356
 30
0.0
  0
SPLINE
  5
2A9
100
AcDbEntity
  8
0
100
AcDbSpline
 62
7
  6
BYLAYER
 70
0
 71
3
 72
11
 73
7
 74
0
 42
0.0000001
 43
0.0000001
 44
0.0000000001
 40
0.0
 40
0.0
 40
0.0
 40
0.0
 40
0.2493087662
 40
0.4989223476
 40
0.7491689075
 40
1.0
 40
1.0
 40
1.0
 40
1.0
 10
68.7456111702
 20
64.822538034
 30
0.0
 10
68.7443479394
 20
64.9415975384
 30
0.0
 10
68.6977380564
 20
65.1816434506
 30
0.0
 10
68.5045022488
 20
65.4918255732
 30
0.0
 10
68.2139230991
 20
65.7145507812
 30
0.0
 10
67.9788850863
 20
65.7852280139
 30
0.0
 10
67.8598633359
 20
65.7988016946
 30
0.0
  0
SPLINE
  5
2AA
100
AcDbEntity
  8
0
100
AcDbSpline
 62
7
  6
BYLAYER
 70
0
 71
3
 72
13
 73
9
 74
0
 42
0.0000001
 43
0.0000001
 44
0.0000000001
 40
0.0
 40
0.0
 40
0.0
 40
0.0
 40
0.1064604357
 40
0.190193549
 40
0.2986530451
 40
0.4332645326
 40
0.5948236956
 40
1.0
 40
1.0
 40
1.0
 40
1.0
 10
67.7427707636
 20
66.0849671772
 30
0.0
 10
67.7540550423
 20
66.0850058277
 30
0.0
 10
67.7718293622
 20
66.0693857325
 30
0.0
 10
67.78769144
 20
66.0429556112
 30
0.0
 10
67.8022867781
 20
66.0111459745
 30
0.0
 10
67.8166470544
 20
65.9708109424
 30
0.0
 10
67.8377642986
 20
65.8994575725
 30
0.0
 10
67.8510979499
 20
65.8408458422
 30
0.0
 10
67.8598574411
 20
65.7988016948
 30
0.0
  0
SPLINE
  5
2AB
100
AcDbEntity
  8
0
100
AcDbSpline
 62
7
  6
BYLAYER
 70
0
 71
3
 72
11
 73
7
 74
0
 42
0.0000001
 43
0.0000001
 44
0.0000000001
 40
0.0
 40
0.0
 40
0.0
 40
0.0
 40
0.1816107963
 40
0.4098804614
 40
0.6832625745
 40
1.0
 40
1.0
 40
1.0
 40
1.0
 10
62.5665789513
 20
66.0849671772
 30
0.0
 10
62.4027243201
 20
66.0849671772
 30
0.0
 10
62.0330542948
 20
66.0678233561
 30
0.0
 10
61.4183504942
 20
66.0222516573
 30
0.0
 10
60.6821974033
 20
65.9646934049
 30
0.0
 10
60.1510244352
 20
65.9280471567
 30
0.0
 10
59.8657864179
 20
65.9106203574
 30
0.0
  0
SPLINE
  5
2AC
100
AcDbEntity
  8
0
100
AcDbSpline
 62
7
  6
BYLAYER
 70
0
 71
3
 72
9
 73
5
 74
0
 42
0.0000001
 43
0.0000001
 44
0.0000000001
 40
0.0
 40
0.0
 40
0.0
 40
0.0
 40
0.508177414
 40
1.0
 40
1.0
 40
1.0
 40
1.0
 10
48.1022166972
 20
69.9344807252
 30
0.0
 10
48.4018817941
 20
69.526259325
 30
0.0
 10
49.081562662
 20
68.7857008797
 30
0.0
 10
49.8945419895
 20
68.1979508617
 30
0.0
 10
50.3165746652
 20
67.9487692102
 30
0.0
  0
SPLINE
  5
2AD
100
AcDbEntity
  8
0
100
AcDbSpline
 62
7
  6
BYLAYER
 70
0
 71
3
 72
17
 73
13
 74
0
 42
0.0000001
 43
0.0000001
 44
0.0000000001
 40
0.0
 40
0.0
 40
0.0
 40
0.0
 40
0.1766500847
 40
0.3475407366
 40
0.5063352082
 40
0.6481091122
 40
0.7688550216
 40
0.8661071448
 40
0.9060957032
 40
0.9409057058
 40
0.9716390289
 40
1.0
 40
1.0
 40
1.0
 40
1.0
 10
29.1352668129
 20
66.9649671772
 30
0.0
 10
29.1352668129
 20
67.0299740585
 30
0.0
 10
29.1392133262
 20
67.1579034298
 30
0.0
 10
29.1566541138
 20
67.3435483544
 30
0.0
 10
29.1850090721
 20
67.5148711418
 30
0.0
 10
29.2231101934
 20
67.6654277763
 30
0.0
 10
29.2693087007
 20
67.7897584417
 30
0.0
 10
29.315979845
 20
67.8733459402
 30
0.0
 10
29.3575185697
 20
67.9214430354
 30
0.0
 10
29.3878775119
 20
67.9460814303
 30
0.0
 10
29.4192701643
 20
67.961379796
 30
0.0
 10
29.4411306711
 20
67.9649671772
 30
0.0
 10
29.4515674522
 20
67.9649671772
 30
0.0
  0
SPLINE
  5
2AE
100
AcDbEntity
  8
0
100
AcDbSpline
 62
7
  6
BYLAYER
 70
0
 71
3
 72
14
 73
10
 74
0
 42
0.0000001
 43
0.0000001
 44
0.0000000001
 40
0.0
 40
0.0
 40
0.0
 40
0.0
 40
0.0942269562
 40
0.1777557024
 40
0.28908118
 40
0.428225643
 40
0.5943376482
 40
0.785784386
 40
1.0
 40
1.0
 40
1.0
 40
1.0
 10
59.8057305557
 20
64.7805334056
 30
0.0
 10
59.8055188196
 20
64.7689402078
 30
0.0
 10
59.7824488811
 20
64.7533199805
 30
0.0
 10
59.7500423841
 20
64.7439617791
 30
0.0
 10
59.7089944128
 20
64.7359236405
 30
0.0
 10
59.6582327574
 20
64.7304647248
 30
0.0
 10
59.5971188325
 20
64.7268233552
 30
0.0
 10
59.5267874103
 20
64.7254032247
 30
0.0
 10
59.4768569804
 20
64.7258507863
 30
0.0
 10
59.4505023078
 20
64.7263991815
 30
0.0
  0
SPLINE
  5
2AF
100
AcDbEntity
  8
0
100
AcDbSpline
 62
7
  6
BYLAYER
 70
0
 71
3
 72
9
 73
5
 74
0
 42
0.0000001
 43
0.0000001
 44
0.0000000001
 40
0.0
 40
0.0
 40
0.0
 40
0.0
 40
0.5211544799
 40
1.0
 40
1.0
 40
1.0
 40
1.0
 10
52.4561444339
 20
64.873906564
 30
0.0
 10
53.6838635652
 20
64.7981303789
 30
0.0
 10
56.0409845293
 20
64.6736043353
 30
0.0
 10
58.4003080951
 20
64.5988839144
 30
0.0
 10
59.5303181286
 20
64.5784021486
 30
0.0
  0
SPLINE
  5
2B0
100
AcDbEntity
  8
0
100
AcDbSpline
 62
7
  6
BYLAYER
 70
0
 71
3
 72
20
 73
16
 74
0
 42
0.0000001
 43
0.0000001
 44
0.0000000001
 40
0.0
 40
0.0
 40
0.0
 40
0.0
 40
0.2440253228
 40
0.4506351418
 40
0.5380304674
 40
0.6141203601
 40
0.6787803635
 40
0.7319913022
 40
0.7739319416
 40
0.8053345552
 40
0.828294319
 40
0.8478647799
 40
0.8713982188
 40
0.9036275316
 40
1.0
 40
1.0
 40
1.0
 40
1.0
 10
59.5299056499
 20
64.5783675466
 30
0.0
 10
59.5708563202
 20
64.5776254879
 30
0.0
 10
59.6465024666
 20
64.5772976678
 30
0.0
 10
59.736795995
 20
64.5802575248
 30
0.0
 10
59.7987372553
 20
64.5850787041
 30
0.0
 10
59.8367842835
 20
64.5894940909
 30
0.0
 10
59.8689168109
 20
64.5948540713
 30
0.0
 10
59.8950236365
 20
64.6010899876
 30
0.0
 10
59.9151351613
 20
64.6082030049
 30
0.0
 10
59.9292726001
 20
64.6161264849
 30
0.0
 10
59.93807744
 20
64.6256643633
 30
0.0
 10
59.9390598652
 20
64.6375349319
 30
0.0
 10
59.9321280304
 20
64.6487249881
 30
0.0
 10
59.9129075183
 20
64.6656180094
 30
0.0
 10
59.8933184959
 20
64.6754522018
 30
0.0
 10
59.8786223603
 20
64.682209537
 30
0.0
  0
SPLINE
  5
2B1
100
AcDbEntity
  8
0
100
AcDbSpline
 62
7
  6
BYLAYER
 70
0
 71
3
 72
9
 73
5
 74
0
 42
0.0000001
 43
0.0000001
 44
0.0000000001
 40
0.0
 40
0.0
 40
0.0
 40
0.0
 40
0.2251507916
 40
1.0
 40
1.0
 40
1.0
 40
1.0
 10
59.8786223603
 20
64.682209537
 30
0.0
 10
59.8748109309
 20
64.6839620457
 30
0.0
 10
59.8577675462
 20
64.6914956533
 30
0.0
 10
59.8403495153
 20
64.6981580738
 30
0.0
 10
59.8267572799
 20
64.7030242749
 30
0.0
  0
SPLINE
  5
2B2
100
AcDbEntity
  8
0
100
AcDbSpline
 62
7
  6
BYLAYER
 70
0
 71
3
 72
11
 73
7
 74
0
 42
0.0000001
 43
0.0000001
 44
0.0000000001
 40
0.0
 40
0.0
 40
0.0
 40
0.0
 40
0.1766603741
 40
0.3913432058
 40
0.657434647
 40
1.0
 40
1.0
 40
1.0
 40
1.0
 10
52.4566006947
 20
64.8737765362
 30
0.0
 10
52.447639897
 20
64.8770422757
 30
0.0
 10
52.4318616156
 20
64.8934963354
 30
0.0
 10
52.4185974037
 20
64.9264404672
 30
0.0
 10
52.4100228969
 20
64.9703665586
 30
0.0
 10
52.409326195
 20
65.0033788444
 30
0.0
 10
52.4102798542
 20
65.0218482797
 30
0.0
  0
SPLINE
  5
2B3
100
AcDbEntity
  8
0
100
AcDbSpline
 62
7
  6
BYLAYER
 70
0
 71
3
 72
9
 73
5
 74
0
 42
0.0000001
 43
0.0000001
 44
0.0000000001
 40
0.0
 40
0.0
 40
0.0
 40
0.0
 40
0.4788459294
 40
1.0
 40
1.0
 40
1.0
 40
1.0
 10
59.4505924248
 20
64.7265645656
 30
0.0
 10
58.3260287064
 20
64.7470279303
 30
0.0
 10
55.9780826808
 20
64.8216855055
 30
0.0
 10
53.6323466192
 20
64.9461140291
 30
0.0
 10
52.4105640577
 20
65.0218306668
 30
0.0
  0
SPLINE
  5
2B4
100
AcDbEntity
  8
0
100
AcDbSpline
 62
7
  6
BYLAYER
 70
0
 71
3
 72
10
 73
6
 74
0
 42
0.0000001
 43
0.0000001
 44
0.0000000001
 40
0.0
 40
0.0
 40
0.0
 40
0.0
 40
0.2524101696
 40
0.5031662072
 40
1.0
 40
1.0
 40
1.0
 40
1.0
 10
51.0242767113
 20
64.9163168666
 30
0.0
 10
51.1384449677
 20
64.9433025529
 30
0.0
 10
51.3687581222
 20
64.9860128096
 30
0.0
 10
51.8312030452
 20
65.0348906534
 30
0.0
 10
52.1800277286
 20
65.0360195014
 30
0.0
 10
52.4104986056
 20
65.0216819406
 30
0.0
  0
SPLINE
  5
2B5
100
AcDbEntity
  8
0
100
AcDbSpline
 62
7
  6
BYLAYER
 70
0
 71
3
 72
9
 73
5
 74
0
 42
0.0000001
 43
0.0000001
 44
0.0000000001
 40
0.0
 40
0.0
 40
0.0
 40
0.0
 40
0.50149669
 40
1.0
 40
1.0
 40
1.0
 40
1.0
 10
51.0681394217
 20
64.8026024487
 30
0.0
 10
51.0566584299
 20
64.8195377175
 30
0.0
 10
51.0393148096
 20
64.8569860594
 30
0.0
 10
51.0282897604
 20
64.8963652726
 30
0.0
 10
51.0242799352
 20
64.916304063
 30
0.0
  0
SPLINE
  5
2B6
100
AcDbEntity
  8
0
100
AcDbSpline
 62
7
  6
BYLAYER
 70
0
 71
3
 72
13
 73
9
 74
0
 42
0.0000001
 43
0.0000001
 44
0.0000000001
 40
0.0
 40
0.0
 40
0.0
 40
0.0
 40
0.2042368188
 40
0.3159889003
 40
0.4358633165
 40
0.5646425739
 40
0.7020486481
 40
1.0
 40
1.0
 40
1.0
 40
1.0
 10
53.3927778104
 20
68.7849671773
 30
0.0
 10
53.4858979069
 20
68.7849671787
 30
0.0
 10
53.6310797294
 20
68.7597445407
 30
0.0
 10
53.81401173
 20
68.6807187559
 30
0.0
 10
53.95329307
 20
68.5921924085
 30
0.0
 10
54.0871052262
 20
68.4770195691
 30
0.0
 10
54.2596069125
 20
68.2854912029
 30
0.0
 10
54.3640717718
 20
68.1141329613
 30
0.0
 10
54.4236360792
 20
67.9920391483
 30
0.0
  0
SPLINE
  5
2B7
100
AcDbEntity
  8
0
100
AcDbSpline
 62
7
  6
BYLAYER
 70
0
 71
3
 72
11
 73
7
 74
0
 42
0.0000001
 43
0.0000001
 44
0.0000000001
 40
0.0
 40
0.0
 40
0.0
 40
0.0
 40
0.246977144
 40
0.4966088023
 40
0.7478906906
 40
1.0
 40
1.0
 40
1.0
 40
1.0
 10
48.1022166972
 20
69.9344807255
 30
0.0
 10
47.9013329242
 20
70.2081482568
 30
0.0
 10
47.5368376533
 20
70.7888799225
 30
0.0
 10
47.1299239145
 20
71.7373716355
 30
0.0
 10
46.875014839
 20
72.7450611541
 30
0.0
 10
46.8181961833
 20
73.4384304983
 30
0.0
 10
46.8181893357
 20
73.7849671773
 30
0.0
  0
SPLINE
  5
2B8
100
AcDbEntity
  8
0
100
AcDbSpline
 62
7
  6
BYLAYER
 70
0
 71
3
 72
16
 73
12
 74
0
 42
0.0000001
 43
0.0000001
 44
0.0000000001
 40
0.0
 40
0.0
 40
0.0
 40
0.0
 40
0.0489141306
 40
0.0803557837
 40
0.1177232102
 40
0.2121057082
 40
0.3326425077
 40
0.4772051544
 40
0.6407321273
 40
0.8171748116
 40
1.0
 40
1.0
 40
1.0
 40
1.0
 10
49.0188019801
 20
71.0346179516
 30
0.0
 10
49.0280657435
 20
71.0124427256
 30
0.0
 10
49.0298734397
 20
70.9707416503
 30
0.0
 10
49.016794134
 20
70.9145361642
 30
0.0
 10
48.9876986439
 20
70.8394592264
 30
0.0
 10
48.9238160523
 20
70.7325384064
 30
0.0
 10
48.8160448511
 20
70.5923584173
 30
0.0
 10
48.6737432866
 20
70.4368369566
 30
0.0
 10
48.5028334313
 20
70.2709784634
 30
0.0
 10
48.3099112313
 20
70.1012702531
 30
0.0
 10
48.1728970006
 20
69.9899144222
 30
0.0
 10
48.10221852
 20
69.9344782724
 30
0.0
  0
SPLINE
  5
2B9
100
AcDbEntity
  8
0
100
AcDbSpline
 62
7
  6
BYLAYER
 70
0
 71
3
 72
17
 73
13
 74
0
 42
0.0000001
 43
0.0000001
 44
0.0000000001
 40
0.0
 40
0.0
 40
0.0
 40
0.0
 40
0.1761993564
 40
0.3464874202
 40
0.5048777794
 40
0.6464507623
 40
0.767129776
 40
0.864609669
 40
0.9048302973
 40
0.9399720297
 40
0.9711305587
 40
1.0
 40
1.0
 40
1.0
 40
1.0
 10
46.8181893384
 20
87.4249671231
 30
0.0
 10
46.8181893382
 20
87.5550507544
 30
0.0
 10
46.8101734016
 20
87.8109285824
 30
0.0
 10
46.7745086497
 20
88.1822360391
 30
0.0
 10
46.7165839149
 20
88.5248721703
 30
0.0
 10
46.6388670317
 20
88.8261006105
 30
0.0
 10
46.5443613439
 20
89.0748426587
 30
0.0
 10
46.4490321655
 20
89.2419436766
 30
0.0
 10
46.3643254814
 20
89.3380134244
 30
0.0
 10
46.3023868043
 20
89.3873299691
 30
0.0
 10
46.2382889149
 20
89.4178502419
 30
0.0
 10
46.1937438381
 20
89.4249671774
 30
0.0
 10
46.1724302429
 20
89.4249671772
 30
0.0
  0
SPLINE
  5
2BA
100
AcDbEntity
  8
0
100
AcDbSpline
 62
7
  6
BYLAYER
 70
0
 71
3
 72
16
 73
12
 74
0
 42
0.0000001
 43
0.0000001
 44
0.0000000001
 40
0.0
 40
0.0
 40
0.0
 40
0.0
 40
0.1274152991
 40
0.254765281
 40
0.3813328044
 40
0.4444413051
 40
0.5073457248
 40
0.6324103248
 40
0.7563533932
 40
0.8789614458
 40
1.0
 40
1.0
 40
1.0
 40
1.0
 10
49.1230518523
 20
64.4619963488
 30
0.0
 10
49.2063479426
 20
64.4492631108
 30
0.0
 10
49.3757694474
 20
64.4407272585
 30
0.0
 10
49.6271007332
 20
64.4693711243
 30
0.0
 10
49.831460712
 20
64.5171243261
 30
0.0
 10
49.9931755253
 20
64.5588795729
 30
0.0
 10
50.1542129006
 20
64.5993832011
 30
0.0
 10
50.3549551163
 20
64.6468655786
 30
0.0
 10
50.5944235369
 20
64.7021215515
 30
0.0
 10
50.8315525186
 20
64.7556756617
 30
0.0
 10
50.9894486782
 20
64.7879295869
 30
0.0
 10
51.0681392978
 20
64.8026006739
 30
0.0
  0
SPLINE
  5
2BB
100
AcDbEntity
  8
0
100
AcDbSpline
 62
7
  6
BYLAYER
 70
0
 71
3
 72
9
 73
5
 74
0
 42
0.0000001
 43
0.0000001
 44
0.0000000001
 40
0.0
 40
0.0
 40
0.0
 40
0.0
 40
0.5016007124
 40
1.0
 40
1.0
 40
1.0
 40
1.0
 10
51.0681394059
 20
64.8026024457
 30
0.0
 10
51.2969155089
 20
64.8462274107
 30
0.0
 10
51.7604440156
 20
64.8951252976
 30
0.0
 10
52.2256807694
 20
64.8895197137
 30
0.0
 10
52.4565483876
 20
64.8736575025
 30
0.0
  0
SPLINE
  5
2BC
100
AcDbEntity
  8
0
100
AcDbSpline
 62
7
  6
BYLAYER
 70
0
 71
3
 72
15
 73
11
 74
0
 42
0.0000001
 43
0.0000001
 44
0.0000000001
 40
0.0
 40
0.0
 40
0.0
 40
0.0
 40
0.1279298131
 40
0.2555818544
 40
0.3826777219
 40
0.5089340913
 40
0.634094374
 40
0.7578707518
 40
0.8799458431
 40
1.0
 40
1.0
 40
1.0
 40
1.0
 10
49.1230770305
 20
64.4622254554
 30
0.0
 10
49.2065674392
 20
64.4577033503
 30
0.0
 10
49.3745563638
 20
64.467068355
 30
0.0
 10
49.619698318
 20
64.5182983802
 30
0.0
 10
49.8598847398
 20
64.5841943965
 30
0.0
 10
50.0969629787
 20
64.6548833668
 30
0.0
 10
50.3317652928
 20
64.7255907771
 30
0.0
 10
50.5642600929
 20
64.794512193
 30
0.0
 10
50.7949209707
 20
64.8577313428
 30
0.0
 10
50.9482196462
 20
64.8970259447
 30
0.0
 10
51.024276713
 20
64.9163168663
 30
0.0
  0
SPLINE
  5
2BD
100
AcDbEntity
  8
0
100
AcDbSpline
 62
7
  6
BYLAYER
 70
0
 71
3
 72
17
 73
13
 74
0
 42
0.0000001
 43
0.0000001
 44
0.0000000001
 40
0.0
 40
0.0
 40
0.0
 40
0.0
 40
0.0288694384
 40
0.0600279611
 40
0.0951696887
 40
0.1353903147
 40
0.2328702069
 40
0.3535492206
 40
0.4951222059
 40
0.6535125695
 40
0.8238006396
 40
1.0
 40
1.0
 40
1.0
 40
1.0
 10
31.7720031222
 20
89.4249671772
 30
0.0
 10
31.7506895299
 20
89.4249671772
 30
0.0
 10
31.7061444612
 20
89.4178502448
 30
0.0
 10
31.6420465846
 20
89.3873299738
 30
0.0
 10
31.5801079234
 20
89.3380134302
 30
0.0
 10
31.4954012434
 20
89.2419436936
 30
0.0
 10
31.4000720628
 20
89.074842687
 30
0.0
 10
31.3055663754
 20
88.8261006476
 30
0.0
 10
31.2278494884
 20
88.5248722149
 30
0.0
 10
31.1699247495
 20
88.1822360871
 30
0.0
 10
31.1342599949
 20
87.8109286333
 30
0.0
 10
31.1262440573
 20
87.5550508068
 30
0.0
 10
31.1262440573
 20
87.4249671772
 30
0.0
  0
SPLINE
  5
2BE
100
AcDbEntity
  8
0
100
AcDbSpline
 62
7
  6
BYLAYER
 70
0
 71
3
 72
15
 73
11
 74
0
 42
0.0000001
 43
0.0000001
 44
0.0000000001
 40
0.0
 40
0.0
 40
0.0
 40
0.0
 40
0.1287113412
 40
0.257098854
 40
0.3848269257
 40
0.5115220006
 40
0.6367864602
 40
0.760210677
 40
0.8813993126
 40
1.0
 40
1.0
 40
1.0
 40
1.0
 10
31.1262440573
 20
73.7849671773
 30
0.0
 10
31.1262275361
 20
73.4788665816
 30
0.0
 10
31.0813993336
 20
72.8665132788
 30
0.0
 10
30.8829095028
 20
71.970027952
 30
0.0
 10
30.5610825139
 20
71.1151667646
 30
0.0
 10
30.1285611483
 20
70.3194118697
 30
0.0
 10
29.6014154362
 20
69.5958634801
 30
0.0
 10
28.9967750948
 20
68.9539372161
 30
0.0
 10
28.3329531295
 20
68.3983551698
 30
0.0
 10
27.8561930754
 20
68.0830675824
 30
0.0
 10
27.6130366476
 20
67.9401331426
 30
0.0
  0
SPLINE
  5
2BF
100
AcDbEntity
  8
0
100
AcDbSpline
 62
7
  6
BYLAYER
 70
0
 71
3
 72
13
 73
9
 74
0
 42
0.0000001
 43
0.0000001
 44
0.0000000001
 40
0.0
 40
0.0
 40
0.0
 40
0.0
 40
0.2978727024
 40
0.4352424011
 40
0.5639980101
 40
0.6838683806
 40
0.7956467582
 40
1.0
 40
1.0
 40
1.0
 40
1.0
 10
23.5229710217
 20
67.9964902148
 30
0.0
 10
23.5825793876
 20
68.1179770156
 30
0.0
 10
23.6870383072
 20
68.2884235208
 30
0.0
 10
23.8592496514
 20
68.478871955
 30
0.0
 10
23.992759689
 20
68.5933727083
 30
0.0
 10
24.131676556
 20
68.6813554068
 30
0.0
 10
24.3140968839
 20
68.7599037061
 30
0.0
 10
24.4588151223
 20
68.7849671772
 30
0.0
 10
24.5516521202
 20
68.7849671772
 30
0.0
  0
SPLINE
  5
2C0
100
AcDbEntity
  8
0
100
AcDbSpline
 62
7
  6
BYLAYER
 70
0
 71
3
 72
15
 73
11
 74
0
 42
0.0000001
 43
0.0000001
 44
0.0000000001
 40
0.0
 40
0.0
 40
0.0
 40
0.0
 40
0.1249992783
 40
0.2499986385
 40
0.3749987392
 40
0.4999993381
 40
0.624998647
 40
0.749997947
 40
0.8749991565
 40
1.0
 40
1.0
 40
1.0
 40
1.0
 10
49.1230770143
 20
64.4622254554
 30
0.0
 10
48.5407749542
 20
64.5255461728
 30
0.0
 10
47.3760779295
 20
64.6513360978
 30
0.0
 10
45.6289374718
 20
64.8391704111
 30
0.0
 10
43.8819449075
 20
65.0284372715
 30
0.0
 10
42.135124379
 20
65.2192760245
 30
0.0
 10
40.3877740171
 20
65.4052307596
 30
0.0
 10
38.6392349166
 20
65.5797818629
 30
0.0
 10
36.889444942
 20
65.7413595618
 30
0.0
 10
35.7222743556
 20
65.8419027136
 30
0.0
 10
35.1385596751
 20
65.8905952831
 30
0.0
  0
SPLINE
  5
2C1
100
AcDbEntity
  8
0
100
AcDbSpline
 62
7
  6
BYLAYER
 70
0
 71
3
 72
11
 73
7
 74
0
 42
0.0000001
 43
0.0000001
 44
0.0000000001
 40
0.0
 40
0.0
 40
0.0
 40
0.0
 40
0.2560851952
 40
0.508601907
 40
0.7560841986
 40
1.0
 40
1.0
 40
1.0
 40
1.0
 10
9.4689216774
 20
66.9649671772
 30
0.0
 10
9.4689216774
 20
67.0947946758
 30
0.0
 10
9.5174064342
 20
67.3552763708
 30
0.0
 10
9.726681286
 20
67.687334046
 30
0.0
 10
10.0418675748
 20
67.9119418349
 30
0.0
 10
10.2939226996
 20
67.9649671772
 30
0.0
 10
10.4175806812
 20
67.9649671772
 30
0.0
  0
SPLINE
  5
2C2
100
AcDbEntity
  8
0
100
AcDbSpline
 62
7
  6
BYLAYER
 70
0
 71
3
 72
10
 73
6
 74
0
 42
0.0000001
 43
0.0000001
 44
0.0000000001
 40
0.0
 40
0.0
 40
0.0
 40
0.0
 40
0.2522543435
 40
0.503006137
 40
1.0
 40
1.0
 40
1.0
 40
1.0
 10
29.135266813
 20
64.9900455356
 30
0.0
 10
28.9983668019
 20
65.0226497175
 30
0.0
 10
28.7215637756
 20
65.072085061
 30
0.0
 10
28.1659142618
 20
65.1250341055
 30
0.0
 10
27.7471811257
 20
65.1226314446
 30
0.0
 10
27.4705857534
 20
65.1033652788
 30
0.0
  0
SPLINE
  5
2C3
100
AcDbEntity
  8
0
100
AcDbSpline
 62
7
  6
BYLAYER
 70
0
 71
3
 72
10
 73
6
 74
0
 42
0.0000001
 43
0.0000001
 44
0.0000000001
 40
0.0
 40
0.0
 40
0.0
 40
0.0
 40
0.5013699847
 40
0.7456748362
 40
1.0
 40
1.0
 40
1.0
 40
1.0
 10
10.0771914214
 20
65.1033652788
 30
0.0
 10
9.9729736181
 20
65.1216023859
 30
0.0
 10
9.8115953148
 20
65.1262628085
 30
0.0
 10
9.6065960947
 20
65.0714251263
 30
0.0
 10
9.512593573
 20
65.0212403159
 30
0.0
 10
9.4689216773
 20
64.9900455356
 30
0.0
  0
SPLINE
  5
2C4
100
AcDbEntity
  8
0
100
AcDbSpline
 62
7
  6
BYLAYER
 70
0
 71
3
 72
9
 73
5
 74
0
 42
0.0000001
 43
0.0000001
 44
0.0000000001
 40
0.0
 40
0.0
 40
0.0
 40
0.0
 40
0.5146683414
 40
1.0
 40
1.0
 40
1.0
 40
1.0
 10
51.1124328517
 20
71.0132084854
 30
0.0
 10
51.2852208384
 20
70.7444456828
 30
0.0
 10
51.6716908508
 20
70.2531241111
 30
0.0
 10
52.1422854689
 20
69.8422420268
 30
0.0
 10
52.3868621246
 20
69.6662741355
 30
0.0
  0
SPLINE
  5
2C5
100
AcDbEntity
  8
0
100
AcDbSpline
 62
7
  6
BYLAYER
 70
0
 71
3
 72
9
 73
5
 74
0
 42
0.0000001
 43
0.0000001
 44
0.0000000001
 40
0.0
 40
0.0
 40
0.0
 40
0.0
 40
0.5216231996
 40
1.0
 40
1.0
 40
1.0
 40
1.0
 10
53.4816723848
 20
69.0773812618
 30
0.0
 10
53.7446232035
 20
68.9780638038
 30
0.0
 10
54.2673197763
 20
68.833176425
 30
0.0
 10
54.8071161252
 20
68.7849721014
 30
0.0
 10
55.0648943599
 20
68.7849671772
 30
0.0
  0
SPLINE
  5
2C6
100
AcDbEntity
  8
0
100
AcDbSpline
 62
7
  6
BYLAYER
 70
0
 71
3
 72
12
 73
8
 74
0
 42
0.0000001
 43
0.0000001
 44
0.0000000001
 40
0.0
 40
0.0
 40
0.0
 40
0.0
 40
0.2219017438
 40
0.4625726778
 40
0.5904751185
 40
0.7230335238
 40
1.0
 40
1.0
 40
1.0
 40
1.0
 10
53.3927821496
 20
68.7849671772
 30
0.0
 10
53.0149032412
 20
68.7849728348
 30
0.0
 10
52.2250154453
 20
68.8638345679
 30
0.0
 10
51.2603424643
 20
69.1791860288
 30
0.0
 10
50.5075673507
 20
69.5857113525
 30
0.0
 10
49.7629171658
 20
70.1207927407
 30
0.0
 10
49.2840055558
 20
70.6445943521
 30
0.0
 10
49.0188009445
 20
71.0346193815
 30
0.0
  0
SPLINE
  5
2C7
100
AcDbEntity
  8
0
100
AcDbSpline
 62
7
  6
BYLAYER
 70
0
 71
3
 72
15
 73
11
 74
0
 42
0.0000001
 43
0.0000001
 44
0.0000000001
 40
0.0
 40
0.0
 40
0.0
 40
0.0
 40
0.1715418083
 40
0.3377864113
 40
0.492894134
 40
0.6324358956
 40
0.7529455052
 40
0.8525970101
 40
0.9327889302
 40
1.0
 40
1.0
 40
1.0
 40
1.0
 10
51.024276713
 20
66.9649671772
 30
0.0
 10
51.024276713
 20
67.0299879554
 30
0.0
 10
51.0195328472
 20
67.1580734487
 30
0.0
 10
50.998568687
 20
67.3439036753
 30
0.0
 10
50.9644608592
 20
67.5154852827
 30
0.0
 10
50.9185704808
 20
67.6663261372
 30
0.0
 10
50.8627538735
 20
67.7912530949
 30
0.0
 10
50.7984933519
 20
67.8861730884
 30
0.0
 10
50.7264845743
 20
67.9486490217
 30
0.0
 10
50.6702970854
 20
67.9649671772
 30
0.0
 10
50.6448215695
 20
67.9649671772
 30
0.0
  0
ELLIPSE
  5
2C8
100
AcDbEntity
  8
0
100
AcDbEllipse
 62
7
  6
BYLAYER
 10
38.9722166965
 20
69.7778585333
 30
0.0
 11
31.0972134117
 21
3.646583379
 31
0.0
 40
0.1141657201
 41
-2.7761561806
 42
-1.9630062565
  0
ENDSEC
  0
SECTION
  2
OBJECTS
  0
DICTIONARY
  5
C
100
AcDbDictionary
280
0
281
1
  3
ACAD_GROUP
350
D
  3
ACAD_MLINESTYLE
350
17
  3
ACAD_LAYOUT
350
1A
  3
ACAD_PLOTSETTINGS
350
19
  3
ACAD_PLOTSTYLENAME
350
E
  0
DICTIONARY
  5
D
102
{ACAD_REACTORS
330
C
102
}
100
AcDbDictionary
280
0
281
1
  0
ACDBDICTIONARYWDFLT
  5
E
102
{ACAD_REACTORS
330
C
102
}
100
AcDbDictionary
281
1
  3
Normal
350
F
100
AcDbDictionaryWithDefault
340
F
  0
DICTIONARY
  5
17
102
{ACAD_REACTORS
330
C
102
}
100
AcDbDictionary
280
0
281
1
  3
Standard
350
18
  0
DICTIONARY
  5
19
102
{ACAD_REACTORS
330
C
102
}
100
AcDbDictionary
281
1
  0
DICTIONARY
  5
1A
102
{ACAD_REACTORS
330
C
102
}
100
AcDbDictionary
281
1
  3
Model
350
2C9
  3
Layout1
350
2CA
  0
ACDBPLACEHOLDER
  5
F
102
{ACAD_REACTORS
330
E
102
}
  0
MLINESTYLE
  5
18
102
{ACAD_REACTORS
330
17
102
}
100
AcDbMlineStyle
  2
STANDARD
 70
0
  3

 62
256
 51
90.0
 52
90.0
 71
2
 49
0.5
 62
256
  6
BYLAYER
 49
-0.5
 62
256
  6
BYLAYER
  0
LAYOUT
  5
2C9
102
{ACAD_REACTORS
330
1A
102
}
100
AcDbPlotSettings
  1

  2
none_device
  4

  6

 40
0.0
 41
0.0
 42
0.0
 43
0.0
 44
210.0
 45
297.0
 46
0.0
 47
0.0
 48
0.0
 49
0.0
140
0.0
141
0.0
142
1.0
143
1.0
 70
1024
 72
1
 73
0
 74
0
  7

 75
0
147
1.0
148
0.0
149
0.0
100
AcDbLayout
  1
Model
 70
0
 71
0
 10
0.0
 20
0.0
 11
210.0
 21
297.0
 12
0.0
 22
0.0
 32
0.0
 14
0.0
 24
0.0
 34
0.0
 15
0.0
 25
0.0
 35
0.0
146
0.0
 13
0.0
 23
0.0
 33
0.0
 16
1.0
 26
0.0
 36
0.0
 17
0.0
 27
1.0
 37
0.0
 76
0
330
210
345
0
346
0
  0
LAYOUT
  5
2CA
102
{ACAD_REACTORS
330
1A
102
}
100
AcDbPlotSettings
  1

  2
none_device
  4

  6

 40
0.0
 41
0.0
 42
0.0
 43
0.0
 44
210.0
 45
297.0
 46
0.0
 47
0.0
 48
0.0
 49
0.0
140
0.0
141
0.0
142
1.0
143
1.0
 70
0
 72
1
 73
0
 74
0
  7

 75
0
147
1.0
148
0.0
149
0.0
100
AcDbLayout
  1
Layout1
 70
0
 71
1
 10
0.0
 20
0.0
 11
210.0
 21
297.0
 12
0.0
 22
0.0
 32
0.0
 14
0.0
 24
0.0
 34
0.0
 15
0.0
 25
0.0
 35
0.0
146
0.0
 13
0.0
 23
0.0
 33
0.0
 16
1.0
 26
0.0
 36
0.0
 17
0.0
 27
1.0
 37
0.0
 76
0
330
211
345
0
346
0
  0
ENDSEC
  0
EOF
