999
DXF file: C:\Users\sesa63760\Dev\_Creo\CAD\MCADPE0010450_3D-CAD\drw0001_1.dxf
999
Pro/ENGINEER 2019471 by Parametric Technology Corporation
  0
SECTION
  2
HEADER
  9
$ACADVER
  1
AC1024
  9
$DWGCODEPAGE
  3
ANSI_1252
  9
$EXTMAX
 10
30.7459130926
 20
43.4835056595
 30
0.0
  9
$EXTMIN
 10
0.0
 20
0.0
 30
0.0
  9
$LIMMIN
 10
0.0
 20
0.0
  9
$LIMMAX
 10
30.7459130926
 20
43.4835056595
  9
$VIEWCTR
 10
15.3729565463
 20
21.7417528298
  9
$VIEWSIZE
 40
43.4835056595
  9
$CLAYER
  8
0
  9
$LTSCALE
 40
2.8344803689
  9
$CELTYPE
  6
BYLAYER
  9
$DIMSCALE
 40
1.0
  9
$DIMASZ
 40
0.3660227749
  9
$DIMEXO
 40
1.0
  9
$DIMDLI
 40
1.9583682549
  9
$DIMEXE
 40
1.0
  9
$DIMCEN
 40
0.4638240604
  9
$DIMLFAC
 40
1.0
  9
$DIMBLK
  1
_FILLED
  9
$DIMALT
 70
0
  9
$DIMALTF
 40
0.0393700787
  9
$DIMTXT
 40
0.5124318849
  9
$DIMTOL
 70
1
  9
$DIMLIM
 70
0
  9
$DIMTFAC
 40
1.0
  9
$DIMTP
 40
0.01
  9
$DIMTM
 40
0.01
  9
$DIMGAP
 40
0.625
  9
$DIMDSEP
 70
46
  9
$AUNITS
 70
0
  9
$PDMODE
 70
3
  9
$PDSIZE
 40
0.3125
  9
$HANDSEED
  5
2BF
  9
$TILEMODE
 70
1
  9
$MEASUREMENT
 70
1
  9
$INSUNITS
 70
4
  0
ENDSEC
  0
SECTION
  2
CLASSES
  0
CLASS
  1
ACDBDICTIONARYWDFLT
  2
AcDbDictionaryWithDefault
  3
AutoCAD 2000
 90
0
 91
1
280
0
281
0
  0
CLASS
  1
ACDBPLACEHOLDER
  2
AcDbPlaceHolder
  3
AutoCAD 2000
 90
0
 91
1
280
0
281
0
  0
CLASS
  1
LAYOUT
  2
AcDbLayout
  3
AutoCAD 2000
 90
0
 91
0
280
0
281
0
  0
ENDSEC
  0
SECTION
  2
TABLES
  0
TABLE
  2
VPORT
  5
8
100
AcDbSymbolTable
 70
2
  0
VPORT
  5
1F4
100
AcDbSymbolTableRecord
100
AcDbViewportTableRecord
  2
*ACTIVE
 70
0
 10
0.0
 20
0.0
 11
1.0
 21
1.0
 12
15.3729565463
 22
21.7417528298
 13
0.0
 23
0.0
 14
1.0
 24
1.0
 15
0.0
 25
0.0
 16
0.0
 26
0.0
 36
1.0
 17
0.0
 27
0.0
 37
0.0
 40
43.4835056595
 41
0.7070707071
 42
50.0
 43
0.0
 44
0.0
 50
0.0
 51
0.0
 71
0
 72
100
 73
1
 74
1
 75
0
 76
0
 77
0
 78
0
  0
ENDTAB
  0
TABLE
  2
LTYPE
  5
5
100
AcDbSymbolTable
 70
6
  0
LTYPE
  5
14
100
AcDbSymbolTableRecord
100
AcDbLinetypeTableRecord
  2
BYBLOCK
 70
0
  3

 72
65
 73
0
 40
0.0
  0
LTYPE
  5
15
100
AcDbSymbolTableRecord
100
AcDbLinetypeTableRecord
  2
BYLAYER
 70
0
  3

 72
65
 73
0
 40
0.0
  0
LTYPE
  5
16
100
AcDbSymbolTableRecord
100
AcDbLinetypeTableRecord
  2
CONTINUOUS
 70
64
  3
Solid line
 72
65
 73
0
 40
0.0
  0
LTYPE
  5
1F5
100
AcDbSymbolTableRecord
100
AcDbLinetypeTableRecord
  2
CENTER
 70
64
  3
____ _ ____ _ ____ _ ____ _ ____ _ ____ _ ____
 72
65
 73
4
 40
0.6
 49
0.375
 74
0
 49
-0.075
 74
0
 49
0.075
 74
0
 49
-0.075
 74
0
  0
LTYPE
  5
1F6
100
AcDbSymbolTableRecord
100
AcDbLinetypeTableRecord
  2
HIDDEN
 70
64
  3
- - - - - - - - - - - - - - - - - - - -
 72
65
 73
2
 40
0.2
 49
0.1
 74
0
 49
-0.1
 74
0
  0
LTYPE
  5
1F7
100
AcDbSymbolTableRecord
100
AcDbLinetypeTableRecord
  2
PHANTOM
 70
64
  3
_____ _ _ _____ _ _ _____ _ _ _____
 72
65
 73
6
 40
0.8
 49
0.45
 74
0
 49
-0.05
 74
0
 49
0.1
 74
0
 49
-0.05
 74
0
 49
0.1
 74
0
 49
-0.05
 74
0
  0
LTYPE
  5
1F8
100
AcDbSymbolTableRecord
100
AcDbLinetypeTableRecord
  2
DOT
 70
64
  3
. . . . . . . . . . . . . . . . . . . .
 72
65
 73
2
 40
0.2
 49
0.1
 74
0
 49
-0.1
 74
0
  0
LTYPE
  5
1F9
100
AcDbSymbolTableRecord
100
AcDbLinetypeTableRecord
  2
DASHED
 70
64
  3
- - - - - - - - - - - - - - - - - - - -
 72
65
 73
2
 40
0.2
 49
0.1
 74
0
 49
-0.1
 74
0
  0
ENDTAB
  0
TABLE
  2
LAYER
  5
2
100
AcDbSymbolTable
 70
36
  0
LAYER
  5
10
100
AcDbSymbolTableRecord
100
AcDbLayerTableRecord
  2
0
 70
0
 62
7
  6
CONTINUOUS
370
-3
390
F
  0
LAYER
  5
1FA
100
AcDbSymbolTableRecord
100
AcDbLayerTableRecord
  2
DEFAULT_1
 70
0
 62
7
  6
CENTER
370
-3
390
F
  0
LAYER
  5
1FB
100
AcDbSymbolTableRecord
100
AcDbLayerTableRecord
  2
DEFAULT_2
 70
0
 62
7
  6
HIDDEN
370
-3
390
F
  0
LAYER
  5
1FC
100
AcDbSymbolTableRecord
100
AcDbLayerTableRecord
  2
DEFAULT_3
 70
0
 62
7
  6
PHANTOM
370
-3
390
F
  0
LAYER
  5
1FD
100
AcDbSymbolTableRecord
100
AcDbLayerTableRecord
  2
00_COMPONENTS
 70
0
 62
7
  6
CONTINUOUS
370
-3
390
F
  0
LAYER
  5
1FE
100
AcDbSymbolTableRecord
100
AcDbLayerTableRecord
  2
01_1_DEFAULT_DATUMS
 70
0
 62
7
  6
CONTINUOUS
370
-3
390
F
  0
LAYER
  5
1FF
100
AcDbSymbolTableRecord
100
AcDbLayerTableRecord
  2
01_PLANES
 70
0
 62
7
  6
CONTINUOUS
370
-3
390
F
  0
LAYER
  5
200
100
AcDbSymbolTableRecord
100
AcDbLayerTableRecord
  2
02_COORD_SYS
 70
0
 62
7
  6
CONTINUOUS
370
-3
390
F
  0
LAYER
  5
201
100
AcDbSymbolTableRecord
100
AcDbLayerTableRecord
  2
03_AXES
 70
0
 62
7
  6
CONTINUOUS
370
-3
390
F
  0
LAYER
  5
202
100
AcDbSymbolTableRecord
100
AcDbLayerTableRecord
  2
04_POINTS
 70
0
 62
7
  6
CONTINUOUS
370
-3
390
F
  0
LAYER
  5
203
100
AcDbSymbolTableRecord
100
AcDbLayerTableRecord
  2
05_CURVES
 70
0
 62
7
  6
CONTINUOUS
370
-3
390
F
  0
LAYER
  5
204
100
AcDbSymbolTableRecord
100
AcDbLayerTableRecord
  2
06_SURFS
 70
0
 62
7
  6
CONTINUOUS
370
-3
390
F
  0
LAYER
  5
205
100
AcDbSymbolTableRecord
100
AcDbLayerTableRecord
  2
07_COSMETICS
 70
0
 62
7
  6
CONTINUOUS
370
-3
390
F
  0
LAYER
  5
206
100
AcDbSymbolTableRecord
100
AcDbLayerTableRecord
  2
10_NOTES
 70
0
 62
7
  6
CONTINUOUS
370
-3
390
F
  0
LAYER
  5
207
100
AcDbSymbolTableRecord
100
AcDbLayerTableRecord
  2
11_NOTES_PUB
 70
0
 62
7
  6
CONTINUOUS
370
-3
390
F
  0
LAYER
  5
208
100
AcDbSymbolTableRecord
100
AcDbLayerTableRecord
  2
13_REF_GTOL
 70
0
 62
7
  6
CONTINUOUS
370
-3
390
F
  0
LAYER
  5
209
100
AcDbSymbolTableRecord
100
AcDbLayerTableRecord
  2
16_MISC
 70
0
 62
7
  6
CONTINUOUS
370
-3
390
F
  0
LAYER
  5
20A
100
AcDbSymbolTableRecord
100
AcDbLayerTableRecord
  2
17_NO_PRINT
 70
0
 62
7
  6
CONTINUOUS
370
-3
390
F
  0
LAYER
  5
20B
100
AcDbSymbolTableRecord
100
AcDbLayerTableRecord
  2
18_DATUM_CAMS_JOINTS
 70
0
 62
7
  6
CONTINUOUS
370
-3
390
F
  0
LAYER
  5
20C
100
AcDbSymbolTableRecord
100
AcDbLayerTableRecord
  2
19_DATUM_FUNCTIONAL
 70
0
 62
7
  6
CONTINUOUS
370
-3
390
F
  0
LAYER
  5
20D
100
AcDbSymbolTableRecord
100
AcDbLayerTableRecord
  2
20_DATUM_KINEMATIC_SCHEME
 70
0
 62
7
  6
CONTINUOUS
370
-3
390
F
  0
ENDTAB
  0
TABLE
  2
STYLE
  5
3
100
AcDbSymbolTable
 70
1
  0
STYLE
  5
11
100
AcDbSymbolTableRecord
100
AcDbTextStyleTableRecord
  2
STANDARD
 70
0
 40
0.0
 41
1.0
 50
0.0
 71
0
 42
0.2
  3
ARIAL.TTF
  4

  0
STYLE
  5
20E
100
AcDbSymbolTableRecord
100
AcDbTextStyleTableRecord
  2
TEXTSTYLE_1
 70
0
 40
0.0
 41
0.8
 50
0.0
 71
0
 42
0.2
  3
gdt
  4

  0
ENDTAB
  0
TABLE
  2
VIEW
  5
6
100
AcDbSymbolTable
 70
0
  0
ENDTAB
  0
TABLE
  2
UCS
  5
7
100
AcDbSymbolTable
 70
0
  0
ENDTAB
  0
TABLE
  2
APPID
  5
9
100
AcDbSymbolTable
 70
1
  0
APPID
  5
20F
100
AcDbSymbolTableRecord
100
AcDbRegAppTableRecord
  2
ACAD
 70
0
  0
ENDTAB
  0
TABLE
  2
BLOCK_RECORD
  5
1
100
AcDbSymbolTable
 70
0
  0
BLOCK_RECORD
  5
210
100
AcDbSymbolTableRecord
100
AcDbBlockTableRecord
  2
*Model_Space
  0
BLOCK_RECORD
  5
211
100
AcDbSymbolTableRecord
100
AcDbBlockTableRecord
  2
*Paper_Space
  0
BLOCK_RECORD
  5
212
100
AcDbSymbolTableRecord
100
AcDbBlockTableRecord
  2
_FILLED
  0
ENDTAB
  0
TABLE
  2
DIMSTYLE
  5
A
100
AcDbSymbolTable
 70
1
100
AcDbDimStyleTable
 71
0
  0
DIMSTYLE
105
213
100
AcDbSymbolTableRecord
100
AcDbDimStyleTableRecord
  2
STANDARD
 70
0
  3

  4

 40
1.0
 41
0.3660227749
 42
1.0
 43
0.38
 44
1.0
 45
0.0
 46
0.0
 47
0.01
 48
0.01
140
0.5124318849
141
0.09
142
0.0
143
25.4
144
1.0
145
0.0
146
1.0
147
0.625
 71
1
 72
0
 73
0
 74
0
 75
0
 76
0
 77
1
 78
8
 79
2
170
0
171
1
172
0
173
0
174
0
175
0
176
0
177
0
178
0
270
2
179
2
271
2
272
2
273
2
274
2
275
0
280
0
281
0
282
0
283
1
284
8
285
0
286
0
287
3
288
0
340
11
278
46
341
212
342
212
343
212
344
212
  0
ENDTAB
  0
ENDSEC
  0
SECTION
  2
BLOCKS
  0
BLOCK
  5
20
100
AcDbEntity
  8
0
100
AcDbBlockBegin
  2
*Model_Space
 70
0
 10
0.0
 20
0.0
 30
0.0
  3
*Model_Space
  1

  0
ENDBLK
  5
21
100
AcDbEntity
  8
0
100
AcDbBlockEnd
  0
BLOCK
  5
1C
100
AcDbEntity
  8
0
100
AcDbBlockBegin
  2
*Paper_Space
 70
0
 10
0.0
 20
0.0
 30
0.0
  3
*Paper_Space
  1

  0
ENDBLK
  5
1D
100
AcDbEntity
  8
0
100
AcDbBlockEnd
  0
BLOCK
  5
214
100
AcDbEntity
  8
0
100
AcDbBlockBegin
  2
_FILLED
 70
64
 10
0.0
 20
0.0
  3
_FILLED
  1

  0
SOLID
  5
215
100
AcDbEntity
  8
0
  6
BYBLOCK
 62
0
100
AcDbTrace
 10
0.0
 20
0.0
 11
-1.0
 21
0.25
 12
-1.0
 22
-0.25
 13
-1.0
 23
-0.25
  0
ENDBLK
  5
216
100
AcDbEntity
  8
0
  6
BYBLOCK
 62
0
100
AcDbBlockEnd
  0
ENDSEC
  0
SECTION
  2
ENTITIES
  0
LINE
  5
217
100
AcDbEntity
  8
0
100
AcDbLine
 62
7
  6
BYLAYER
 10
5.2324032576
 20
37.7452401226
 11
9.5103814706
 21
40.2151172524
  0
LINE
  5
218
100
AcDbEntity
  8
0
100
AcDbLine
 62
7
  6
BYLAYER
 10
5.4824021382
 20
37.7204779832
 11
9.7603803513
 21
40.1903551129
  0
LINE
  5
219
100
AcDbEntity
  8
0
100
AcDbLine
 62
7
  6
BYLAYER
 10
10.0785797275
 20
40.0066467734
 11
5.8006015144
 21
37.5367696437
  0
LINE
  5
21A
100
AcDbEntity
  8
0
100
AcDbLine
 62
7
  6
BYLAYER
 10
6.4479596574
 20
36.6750190085
 11
10.7259378711
 21
39.1448961386
  0
LINE
  5
21B
100
AcDbEntity
  8
0
100
AcDbLine
 62
7
  6
BYLAYER
 10
11.1201669434
 20
37.8814239469
 11
6.842188729
 21
35.4115468164
  0
LINE
  5
21C
100
AcDbEntity
  8
0
100
AcDbLine
 62
7
  6
BYLAYER
 10
11.0951964093
 20
37.741632865
 11
6.8172181963
 21
35.2717557352
  0
LINE
  5
21D
100
AcDbEntity
  8
0
100
AcDbLine
 62
7
  6
BYLAYER
 10
10.8210449385
 20
36.9855988083
 11
6.5430667254
 21
34.5157216785
  0
LINE
  5
21E
100
AcDbEntity
  8
0
100
AcDbLine
 62
7
  6
BYLAYER
 10
5.1288472758
 20
33.3888772219
 11
3.6456950685
 21
32.5325840071
  0
LINE
  5
21F
100
AcDbEntity
  8
0
100
AcDbLine
 62
7
  6
BYLAYER
 10
3.8206942852
 20
32.5152505095
 11
5.1288472758
 21
33.2705084825
  0
LINE
  5
220
100
AcDbEntity
  8
0
100
AcDbLine
 62
7
  6
BYLAYER
 10
5.1288472758
 20
32.9847375752
 11
4.8459969078
 21
32.8214348139
  0
LINE
  5
221
100
AcDbEntity
  8
0
100
AcDbLine
 62
7
  6
BYLAYER
 10
6.8172163524
 20
35.271758929
 11
6.85242723
 21
35.3495793453
  0
LINE
  5
222
100
AcDbEntity
  8
0
100
AcDbLine
 62
7
  6
BYLAYER
 10
17.6202977641
 20
4.0161587882
 11
16.8062970759
 21
4.4861116729
  0
LINE
  5
223
100
AcDbEntity
  8
0
100
AcDbLine
 62
7
  6
BYLAYER
 10
17.5676981777
 20
4.5538452345
 11
16.4956285949
 21
5.1727908943
  0
LINE
  5
224
100
AcDbEntity
  8
0
100
AcDbLine
 62
7
  6
BYLAYER
 10
20.5615015614
 20
3.3561094972
 11
20.4200796164
 21
3.4377576481
  0
LINE
  5
225
100
AcDbEntity
  8
0
100
AcDbLine
 62
7
  6
BYLAYER
 10
16.3541986968
 20
5.7851419866
 11
16.4956285949
 21
5.7034892441
  0
LINE
  5
226
100
AcDbEntity
  8
0
100
AcDbLine
 62
7
  6
BYLAYER
 10
3.5732058813
 20
23.0307505798
 11
3.5732058813
 21
32.3723589276
  0
LINE
  5
227
100
AcDbEntity
  8
0
100
AcDbLine
 62
7
  6
BYLAYER
 10
15.5359813976
 20
36.6167426973
 11
11.2580031846
 21
34.1468655675
  0
LINE
  5
228
100
AcDbEntity
  8
0
100
AcDbLine
 62
7
  6
BYLAYER
 10
15.9475904433
 20
36.6182485126
 11
11.6696122303
 21
34.1483713828
  0
LINE
  5
229
100
AcDbEntity
  8
0
100
AcDbLine
 62
7
  6
BYLAYER
 10
16.4956285949
 20
7.744773507
 11
14.9753426851
 21
8.6224911296
  0
LINE
  5
22A
100
AcDbEntity
  8
0
100
AcDbLine
 62
7
  6
BYLAYER
 10
17.9098480445
 20
6.9282919983
 11
19.3240674922
 21
6.1118104908
  0
LINE
  5
22B
100
AcDbEntity
  8
0
100
AcDbLine
 62
7
  6
BYLAYER
 10
5.1288472758
 20
31.7600051141
 11
5.1288472758
 21
37.5163471519
  0
LINE
  5
22C
100
AcDbEntity
  8
0
100
AcDbLine
 62
7
  6
BYLAYER
 10
11.1304054431
 20
37.819456475
 11
11.0951945654
 21
37.7416360587
  0
LINE
  5
22D
100
AcDbEntity
  8
0
100
AcDbLine
 62
7
  6
BYLAYER
 10
11.2580554702
 20
34.1467749598
 11
11.1106428029
 21
33.9830785391
  0
LINE
  5
22E
100
AcDbEntity
  8
0
100
AcDbLine
 62
7
  6
BYLAYER
 10
15.9299255068
 20
34.8525998567
 11
14.7278489835
 21
34.1585847951
  0
LINE
  5
22F
100
AcDbEntity
  8
0
100
AcDbLine
 62
7
  6
BYLAYER
 10
14.9753426851
 20
9.2348679422
 11
13.9853890703
 21
9.8064049983
  0
LINE
  5
230
100
AcDbEntity
  8
0
100
AcDbLine
 62
7
  6
BYLAYER
 10
19.3240674922
 20
6.7241873034
 11
20.4059453731
 21
6.0995789481
  0
LINE
  5
231
100
AcDbEntity
  8
0
100
AcDbLine
 62
7
  6
BYLAYER
 10
3.7057072312
 20
22.264114956
 11
4.7728398863
 21
19.0055102564
  0
LINE
  5
232
100
AcDbEntity
  8
0
100
AcDbLine
 62
7
  6
BYLAYER
 10
6.5430667254
 20
35.3893792644
 11
6.5430667254
 21
34.5157216785
  0
LINE
  5
233
100
AcDbEntity
  8
0
100
AcDbLine
 62
7
  6
BYLAYER
 10
11.1106428029
 20
33.9830785391
 11
10.7163329991
 21
33.1746470494
  0
LINE
  5
234
100
AcDbEntity
  8
0
100
AcDbLine
 62
7
  6
BYLAYER
 10
13.7732561527
 20
12.4737389126
 11
13.5788009694
 21
12.4563679499
  0
LINE
  5
235
100
AcDbEntity
  8
0
100
AcDbLine
 62
7
  6
BYLAYER
 10
23.283881953
 20
6.9829007663
 11
20.6761654763
 21
8.4884325164
  0
LINE
  5
236
100
AcDbEntity
  8
0
100
AcDbLine
 62
7
  6
BYLAYER
 10
13.2252506807
 20
13.1642735193
 11
22.7358764811
 21
7.6734353727
  0
LINE
  5
237
100
AcDbEntity
  8
0
100
AcDbLine
 62
7
  6
BYLAYER
 10
12.7126891814
 20
13.9501062469
 11
14.6925964118
 21
13.9501355183
  0
LINE
  5
238
100
AcDbEntity
  8
0
100
AcDbLine
 62
7
  6
BYLAYER
 10
5.4136989364
 20
18.1640848967
 11
12.7126891814
 21
13.9501062469
  0
LINE
  5
239
100
AcDbEntity
  8
0
100
AcDbLine
 62
7
  6
BYLAYER
 10
22.382324561
 20
9.5105693377
 11
14.6925964118
 21
13.9501355183
  0
LINE
  5
23A
100
AcDbEntity
  8
0
100
AcDbLine
 62
7
  6
BYLAYER
 10
19.9604609496
 20
31.1376032117
 11
21.1625374728
 21
31.8316182732
  0
LINE
  5
23B
100
AcDbEntity
  8
0
100
AcDbLine
 62
7
  6
BYLAYER
 10
13.547616776
 20
11.4853019648
 11
13.7732561527
 21
10.9740003178
  0
LINE
  5
23C
100
AcDbEntity
  8
0
100
AcDbLine
 62
7
  6
BYLAYER
 10
10.8210449385
 20
36.9855988083
 11
10.8210449385
 21
37.5833523843
  0
LINE
  5
23D
100
AcDbEntity
  8
0
100
AcDbLine
 62
7
  6
BYLAYER
 10
11.0155357348
 20
31.9335989075
 11
11.0155357348
 21
32.8072564934
  0
LINE
  5
23E
100
AcDbEntity
  8
0
100
AcDbLine
 62
7
  6
BYLAYER
 10
24.3975516554
 20
31.7397714988
 11
20.1195734417
 21
29.2698943687
  0
LINE
  5
23F
100
AcDbEntity
  8
0
100
AcDbLine
 62
7
  6
BYLAYER
 10
20.755964681
 20
8.3127242974
 11
20.676187603
 21
8.4119526991
  0
LINE
  5
240
100
AcDbEntity
  8
0
100
AcDbLine
 62
7
  6
BYLAYER
 10
6.842188729
 20
35.4115468164
 11
6.4479596574
 21
36.6750190085
  0
LINE
  5
241
100
AcDbEntity
  8
0
100
AcDbLine
 62
7
  6
BYLAYER
 10
11.6696122303
 20
34.1419673434
 11
11.6696122303
 21
34.1483713828
  0
LINE
  5
242
100
AcDbEntity
  8
0
100
AcDbLine
 62
7
  6
BYLAYER
 10
20.7051819085
 20
28.5729268059
 11
24.9831601229
 21
31.0428039364
  0
LINE
  5
243
100
AcDbEntity
  8
0
100
AcDbLine
 62
7
  6
BYLAYER
 10
24.3975575426
 20
30.3571043889
 11
21.6044973857
 21
28.7445399811
  0
LINE
  5
244
100
AcDbEntity
  8
0
100
AcDbLine
 62
7
  6
BYLAYER
 10
13.4087331279
 20
12.1218411401
 11
13.4651211346
 21
11.7598492388
  0
LINE
  5
245
100
AcDbEntity
  8
0
100
AcDbLine
 62
7
  6
BYLAYER
 10
13.2252506807
 20
13.9501138247
 11
13.2252506807
 21
13.1642735193
  0
LINE
  5
246
100
AcDbEntity
  8
0
100
AcDbLine
 62
7
  6
BYLAYER
 10
13.7732561527
 20
12.8478895701
 11
13.7732561527
 21
12.4737389126
  0
LINE
  5
247
100
AcDbEntity
  8
0
100
AcDbLine
 62
7
  6
BYLAYER
 10
13.7732561527
 20
10.9740003178
 11
13.7732561527
 21
10.1738279498
  0
LINE
  5
248
100
AcDbEntity
  8
0
100
AcDbLine
 62
7
  6
BYLAYER
 10
14.9399792465
 20
8.2346283299
 11
14.9399792465
 21
9.2552845711
  0
LINE
  5
249
100
AcDbEntity
  8
0
100
AcDbLine
 62
7
  6
BYLAYER
 10
14.9753426851
 20
9.2348679422
 11
14.9753426851
 21
8.6224911296
  0
LINE
  5
24A
100
AcDbEntity
  8
0
100
AcDbLine
 62
7
  6
BYLAYER
 10
22.6651619729
 20
26.3224489087
 11
25.4582221298
 21
27.9350133165
  0
LINE
  5
24B
100
AcDbEntity
  8
0
100
AcDbLine
 62
7
  6
BYLAYER
 10
15.9299255068
 20
34.8525998567
 11
15.9299255068
 21
33.4645812913
  0
LINE
  5
24C
100
AcDbEntity
  8
0
100
AcDbLine
 62
7
  6
BYLAYER
 10
16.4956285949
 20
7.744773507
 11
16.4956285949
 21
5.1727908943
  0
LINE
  5
24D
100
AcDbEntity
  8
0
100
AcDbLine
 62
7
  6
BYLAYER
 10
25.7101964262
 20
27.3596149291
 11
22.13932205
 21
25.2979819531
  0
LINE
  5
24E
100
AcDbEntity
  8
0
100
AcDbLine
 62
7
  6
BYLAYER
 10
22.382324561
 20
24.2424307384
 11
25.9531989372
 21
26.3040637144
  0
LINE
  5
24F
100
AcDbEntity
  8
0
100
AcDbLine
 62
7
  6
BYLAYER
 10
10.7259378704
 20
39.1448961382
 11
11.120166942
 21
37.8814239461
  0
LINE
  5
250
100
AcDbEntity
  8
0
100
AcDbLine
 62
7
  6
BYLAYER
 10
17.9098480445
 20
6.9282919983
 11
17.9098480445
 21
5.9141508927
  0
LINE
  5
251
100
AcDbEntity
  8
0
100
AcDbLine
 62
7
  6
BYLAYER
 10
27.4801546344
 20
25.3407675111
 11
26.7730507969
 21
24.932523357
  0
LINE
  5
252
100
AcDbEntity
  8
0
100
AcDbLine
 62
7
  6
BYLAYER
 10
19.0058601661
 20
5.8872439914
 11
19.0058601661
 21
6.2955234201
  0
LINE
  5
253
100
AcDbEntity
  8
0
100
AcDbLine
 62
7
  6
BYLAYER
 10
19.3240674922
 20
6.1118104908
 11
19.3240674922
 21
6.7241873034
  0
LINE
  5
254
100
AcDbEntity
  8
0
100
AcDbLine
 62
7
  6
BYLAYER
 10
26.9431525519
 20
24.1936375183
 11
27.6502563888
 21
24.6018816719
  0
LINE
  5
255
100
AcDbEntity
  8
0
100
AcDbLine
 62
7
  6
BYLAYER
 10
27.6502563888
 20
23.7037656988
 11
26.9431525519
 21
23.2955215452
  0
LINE
  5
256
100
AcDbEntity
  8
0
100
AcDbLine
 62
7
  6
BYLAYER
 10
27.5881227998
 20
23.5664299164
 11
26.8810189629
 21
23.1581857627
  0
LINE
  5
257
100
AcDbEntity
  8
0
100
AcDbLine
 62
7
  6
BYLAYER
 10
3.8206942852
 20
32.5152505095
 11
5.1288472758
 21
31.7600051141
  0
LINE
  5
258
100
AcDbEntity
  8
0
100
AcDbLine
 62
7
  6
BYLAYER
 10
4.8459969078
 20
32.8214348139
 11
5.1288472758
 21
32.6581347721
  0
LINE
  5
259
100
AcDbEntity
  8
0
100
AcDbLine
 62
7
  6
BYLAYER
 10
20.6761654763
 20
8.4884325164
 11
20.6761654763
 21
8.4119654737
  0
LINE
  5
25A
100
AcDbEntity
  8
0
100
AcDbLine
 62
7
  6
BYLAYER
 10
21.0211228828
 20
6.4547497289
 11
21.0211228828
 21
5.1320090496
  0
LINE
  5
25B
100
AcDbEntity
  8
0
100
AcDbLine
 62
7
  6
BYLAYER
 10
21.5868059525
 20
6.781345052
 11
21.5868059525
 21
5.4586043727
  0
LINE
  5
25C
100
AcDbEntity
  8
0
100
AcDbLine
 62
7
  6
BYLAYER
 10
22.382324561
 20
24.2424307384
 11
22.382324561
 21
9.5105693377
  0
LINE
  5
25D
100
AcDbEntity
  8
0
100
AcDbLine
 62
7
  6
BYLAYER
 10
22.7358764811
 20
7.6734353727
 11
22.7358764811
 21
9.7146914155
  0
LINE
  5
25E
100
AcDbEntity
  8
0
100
AcDbLine
 62
7
  6
BYLAYER
 10
20.4907985371
 20
6.4588412534
 11
20.5501722017
 21
7.0844430705
  0
LINE
  5
25F
100
AcDbEntity
  8
0
100
AcDbLine
 62
7
  6
BYLAYER
 10
13.5055795288
 20
12.4337651931
 11
13.7732561527
 21
12.5883074414
  0
LINE
  5
260
100
AcDbEntity
  8
0
100
AcDbLine
 62
7
  6
BYLAYER
 10
13.5788009769
 20
12.4563679502
 11
13.7732561527
 21
12.5686360281
  0
LINE
  5
261
100
AcDbEntity
  8
0
100
AcDbLine
 62
7
  6
BYLAYER
 10
6.5430667254
 20
34.5157216785
 11
11.0155357348
 21
31.9335989075
  0
LINE
  5
262
100
AcDbEntity
  8
0
100
AcDbLine
 62
7
  6
BYLAYER
 10
11.0155357348
 20
32.8072564934
 11
10.8263838834
 21
32.9164608951
  0
LINE
  5
263
100
AcDbEntity
  8
0
100
AcDbLine
 62
7
  6
BYLAYER
 10
6.7322185768
 20
35.2801748627
 11
6.5430667254
 21
35.3893792644
  0
LINE
  5
264
100
AcDbEntity
  8
0
100
AcDbLine
 62
7
  6
BYLAYER
 10
22.13932205
 20
25.297981953
 11
20.7051819003
 21
28.5729268254
  0
LINE
  5
265
100
AcDbEntity
  8
0
100
AcDbLine
 62
7
  6
BYLAYER
 10
23.283881953
 20
6.9829007663
 11
23.283881953
 21
7.9898245908
  0
LINE
  5
266
100
AcDbEntity
  8
0
100
AcDbLine
 62
7
  6
BYLAYER
 10
24.3975575421
 20
30.3571043892
 11
24.3975575423
 21
27.3226419867
  0
LINE
  5
267
100
AcDbEntity
  8
0
100
AcDbLine
 62
7
  6
BYLAYER
 10
20.869644519
 20
7.4849423349
 11
20.926032516
 21
7.7818244027
  0
LINE
  5
268
100
AcDbEntity
  8
0
100
AcDbLine
 62
7
  6
BYLAYER
 10
20.4059453731
 20
6.0995789481
 11
20.4907985371
 21
6.4588412534
  0
LINE
  5
269
100
AcDbEntity
  8
0
100
AcDbLine
 62
7
  6
BYLAYER
 10
17.5676981777
 20
4.5538452345
 11
17.794903014
 21
5.1851386995
  0
LINE
  5
26A
100
AcDbEntity
  8
0
100
AcDbLine
 62
7
  6
BYLAYER
 10
13.5788009694
 20
12.4563679499
 11
13.5055801322
 21
12.433764148
  0
LINE
  5
26B
100
AcDbEntity
  8
0
100
AcDbLine
 62
7
  6
BYLAYER
 10
5.4824021382
 20
37.7204779832
 11
5.8006015144
 21
37.5367696437
  0
LINE
  5
26C
100
AcDbEntity
  8
0
100
AcDbLine
 62
7
  6
BYLAYER
 10
11.6696122303
 20
34.1483713828
 11
20.1195734417
 21
29.2698943687
  0
LINE
  5
26D
100
AcDbEntity
  8
0
100
AcDbLine
 62
7
  6
BYLAYER
 10
21.6044973851
 20
28.7445399814
 11
22.6651619729
 21
26.3224489087
  0
LINE
  5
26E
100
AcDbEntity
  8
0
100
AcDbLine
 62
7
  6
BYLAYER
 10
25.7587453821
 20
8.4117553041
 11
25.7587453821
 21
9.4186791287
  0
LINE
  5
26F
100
AcDbEntity
  8
0
100
AcDbLine
 62
7
  6
BYLAYER
 10
25.9531989367
 20
26.3040637017
 11
25.9531989372
 21
23.6220711909
  0
LINE
  5
270
100
AcDbEntity
  8
0
100
AcDbLine
 62
7
  6
BYLAYER
 10
20.5615015614
 20
3.3561094972
 11
20.9439055504
 21
4.5798821782
  0
LINE
  5
271
100
AcDbEntity
  8
0
100
AcDbLine
 62
7
  6
BYLAYER
 10
14.7278489835
 20
34.1585847951
 11
19.9604609496
 21
31.1376032117
  0
LINE
  5
272
100
AcDbEntity
  8
0
100
AcDbLine
 62
7
  6
BYLAYER
 10
26.306750859
 20
9.7350683497
 11
26.306750859
 21
11.7763243925
  0
LINE
  5
273
100
AcDbEntity
  8
0
100
AcDbLine
 62
7
  6
BYLAYER
 10
26.6603027741
 20
23.2385367724
 11
26.6603027741
 21
11.9804464674
  0
LINE
  5
274
100
AcDbEntity
  8
0
100
AcDbLine
 62
7
  6
BYLAYER
 10
26.9431525519
 20
24.1936375183
 11
26.9431525519
 21
23.2955215452
  0
LINE
  5
275
100
AcDbEntity
  8
0
100
AcDbLine
 62
7
  6
BYLAYER
 10
21.5095886202
 20
4.9064775012
 11
21.1271846312
 21
3.6827048203
  0
LINE
  5
276
100
AcDbEntity
  8
0
100
AcDbLine
 62
7
  6
BYLAYER
 10
13.4979761274
 20
35.4401068295
 11
10.8210449385
 21
36.9855988083
  0
LINE
  5
277
100
AcDbEntity
  8
0
100
AcDbLine
 62
7
  6
BYLAYER
 10
21.1625374728
 20
31.8316182732
 11
15.9299255068
 21
34.8525998567
  0
LINE
  5
278
100
AcDbEntity
  8
0
100
AcDbLine
 62
7
  6
BYLAYER
 10
26.7730508025
 20
24.9325233452
 11
25.7101964262
 21
27.3596149291
  0
LINE
  5
279
100
AcDbEntity
  8
0
100
AcDbLine
 62
7
  6
BYLAYER
 10
25.4582221298
 20
27.9350133165
 11
24.3975575421
 21
30.3571043892
  0
LINE
  5
27A
100
AcDbEntity
  8
0
100
AcDbLine
 62
7
  6
BYLAYER
 10
27.6502563888
 20
23.7037656988
 11
27.6502563888
 21
24.6018816719
  0
LINE
  5
27B
100
AcDbEntity
  8
0
100
AcDbLine
 62
7
  6
BYLAYER
 10
6.7322185768
 20
35.2801748627
 11
6.8172163524
 21
35.271758929
  0
LINE
  5
27C
100
AcDbEntity
  8
0
100
AcDbLine
 62
7
  6
BYLAYER
 10
24.3975516554
 20
31.7397714988
 11
15.9475904433
 21
36.6182485126
  0
LINE
  5
27D
100
AcDbEntity
  8
0
100
AcDbLine
 62
7
  6
BYLAYER
 10
10.0785797275
 20
40.0066467734
 11
9.7603803513
 21
40.1903551129
  0
LINE
  5
27E
100
AcDbEntity
  8
0
100
AcDbLine
 62
7
  6
BYLAYER
 10
24.9831601134
 20
31.0428039551
 11
27.4801546446
 21
25.3407674868
  0
LINE
  5
27F
100
AcDbEntity
  8
0
100
AcDbLine
 62
7
  6
BYLAYER
 10
20.5501722017
 20
7.0844430705
 11
20.7700726725
 21
7.2883061337
  0
LINE
  5
280
100
AcDbEntity
  8
0
100
AcDbLine
 62
7
  6
BYLAYER
 10
22.382324561
 20
9.5105693377
 11
22.7358764811
 21
9.7146914155
  0
LINE
  5
281
100
AcDbEntity
  8
0
100
AcDbLine
 62
7
  6
BYLAYER
 10
26.306750859
 20
11.7763243925
 11
26.6603027748
 21
11.9804464678
  0
LINE
  5
282
100
AcDbEntity
  8
0
100
AcDbLine
 62
7
  6
BYLAYER
 10
20.7424069017
 20
8.4501888768
 11
20.6761931347
 21
8.4119605688
  0
LINE
  5
283
100
AcDbEntity
  8
0
100
AcDbLine
 62
7
  6
BYLAYER
 10
20.8682353676
 20
8.3775434216
 11
20.755964681
 21
8.3127242974
  0
LINE
  5
284
100
AcDbEntity
  8
0
100
AcDbLine
 62
7
  6
BYLAYER
 10
20.9260325297
 20
7.7818244716
 11
21.413049309
 21
8.0630020618
  0
LINE
  5
285
100
AcDbEntity
  8
0
100
AcDbLine
 62
7
  6
BYLAYER
 10
18.7881325608
 20
6.4212256678
 11
17.9098480445
 21
5.9141508927
  0
LINE
  5
286
100
AcDbEntity
  8
0
100
AcDbLine
 62
7
  6
BYLAYER
 10
21.6419662168
 20
7.9308398133
 11
20.869644519
 21
7.4849423349
  0
LINE
  5
287
100
AcDbEntity
  8
0
100
AcDbLine
 62
7
  6
BYLAYER
 10
20.770072658
 20
7.2883061211
 11
21.7624742627
 21
7.8612660345
  0
LINE
  5
288
100
AcDbEntity
  8
0
100
AcDbLine
 62
7
  6
BYLAYER
 10
21.8290762236
 20
7.8228142444
 11
20.5501722017
 21
7.0844430705
  0
LINE
  5
289
100
AcDbEntity
  8
0
100
AcDbLine
 62
7
  6
BYLAYER
 10
19.8544089502
 20
6.4180014467
 11
19.3240674922
 21
6.1118104908
  0
LINE
  5
28A
100
AcDbEntity
  8
0
100
AcDbLine
 62
7
  6
BYLAYER
 10
17.7945847687
 20
5.1842544483
 11
19.0074465211
 21
5.8844963276
  0
LINE
  5
28B
100
AcDbEntity
  8
0
100
AcDbLine
 62
7
  6
BYLAYER
 10
20.4907985371
 20
6.4588412534
 11
22.3411839558
 21
7.527155396
  0
LINE
  5
28C
100
AcDbEntity
  8
0
100
AcDbLine
 62
7
  6
BYLAYER
 10
26.306750859
 20
9.7350683497
 11
25.7587453821
 21
9.4186791287
  0
LINE
  5
28D
100
AcDbEntity
  8
0
100
AcDbLine
 62
7
  6
BYLAYER
 10
23.283881953
 20
7.9898245908
 11
22.7358764811
 21
7.6734353727
  0
LINE
  5
28E
100
AcDbEntity
  8
0
100
AcDbLine
 62
7
  6
BYLAYER
 10
22.6098917515
 20
7.3720203875
 11
20.4059453731
 21
6.0995789481
  0
LINE
  5
28F
100
AcDbEntity
  8
0
100
AcDbLine
 62
7
  6
BYLAYER
 10
18.263394075
 20
4.1521627454
 11
18.6169459935
 21
4.3562848222
  0
LINE
  5
290
100
AcDbEntity
  8
0
100
AcDbLine
 62
7
  6
BYLAYER
 10
23.283881953
 20
6.9829007663
 11
25.7587453821
 21
8.4117553041
  0
LINE
  5
291
100
AcDbEntity
  8
0
100
AcDbLine
 62
7
  6
BYLAYER
 10
21.5868059525
 20
5.4586043727
 11
21.0211228828
 21
5.1320090496
  0
LINE
  5
292
100
AcDbEntity
  8
0
100
AcDbLine
 62
7
  6
BYLAYER
 10
20.9439055504
 20
4.5798821781
 11
21.5095886202
 21
4.9064775012
  0
LINE
  5
293
100
AcDbEntity
  8
0
100
AcDbLine
 62
7
  6
BYLAYER
 10
21.1271846312
 20
3.6827048203
 11
20.5615015614
 21
3.3561094972
  0
SPLINE
  5
294
100
AcDbEntity
  8
0
100
AcDbSpline
 62
7
  6
BYLAYER
 70
0
 71
3
 72
12
 73
8
 74
0
 42
0.0000001
 43
0.0000001
 44
0.0000000001
 40
0.0
 40
0.0
 40
0.0
 40
0.0
 40
0.1122708941
 40
0.2259635662
 40
0.4625035151
 40
0.7190014465
 40
1.0
 40
1.0
 40
1.0
 40
1.0
 10
15.5359852522
 20
36.6167359832
 30
0.0
 10
15.5494672116
 20
36.6245174792
 30
0.0
 10
15.577744341
 20
36.6382910291
 30
0.0
 10
15.6388831607
 20
36.658196185
 30
0.0
 10
15.7234875538
 20
36.6676142897
 30
0.0
 10
15.8307359058
 20
36.6542515609
 30
0.0
 10
15.9019753441
 20
36.6308784345
 30
0.0
 10
15.9379533349
 20
36.6159277867
 30
0.0
  0
SPLINE
  5
295
100
AcDbEntity
  8
0
100
AcDbSpline
 62
7
  6
BYLAYER
 70
0
 71
3
 72
12
 73
8
 74
0
 42
0.0000001
 43
0.0000001
 44
0.0000000001
 40
0.0
 40
0.0
 40
0.0
 40
0.0
 40
0.1081665502
 40
0.2183379719
 40
0.4512998972
 40
0.7106798711
 40
1.0
 40
1.0
 40
1.0
 40
1.0
 10
9.5103954587
 20
40.2150930239
 30
0.0
 10
9.5185930165
 20
40.219825856
 30
0.0
 10
9.5359909203
 20
40.227985913
 30
0.0
 10
9.57420018
 20
40.2385832641
 30
0.0
 10
9.6277597901
 20
40.2400131773
 30
0.0
 10
9.6947869112
 20
40.2237460145
 30
0.0
 10
9.7384537194
 20
40.2030141733
 30
0.0
 10
9.7603803513
 20
40.1903551129
 30
0.0
  0
SPLINE
  5
296
100
AcDbEntity
  8
0
100
AcDbSpline
 62
7
  6
BYLAYER
 70
0
 71
3
 72
12
 73
8
 74
0
 42
0.0000001
 43
0.0000001
 44
0.0000000001
 40
0.0
 40
0.0
 40
0.0
 40
0.0
 40
0.1081660482
 40
0.2183370456
 40
0.4512985564
 40
0.7106788764
 40
1.0
 40
1.0
 40
1.0
 40
1.0
 10
5.2324172459
 20
37.7452158944
 30
0.0
 10
5.2242195093
 20
37.7404829532
 30
0.0
 10
5.2084533484
 20
37.7294957537
 30
0.0
 10
5.1801704705
 20
37.7017035685
 30
0.0
 10
5.1521518203
 20
37.6560331877
 30
0.0
 10
5.1327260324
 20
37.5898504006
 30
0.0
 10
5.1288472758
 20
37.541666467
 30
0.0
 10
5.1288472758
 20
37.5163471519
 30
0.0
  0
SPLINE
  5
297
100
AcDbEntity
  8
0
100
AcDbSpline
 62
7
  6
BYLAYER
 70
0
 71
3
 72
15
 73
11
 74
0
 42
0.0000001
 43
0.0000001
 44
0.0000000001
 40
0.0
 40
0.0
 40
0.0
 40
0.0
 40
0.1080106356
 40
0.2180643786
 40
0.3320000531
 40
0.4513362045
 40
0.5772431688
 40
0.710524282
 40
0.8515191002
 40
1.0
 40
1.0
 40
1.0
 40
1.0
 10
16.8063025889
 20
4.4861212219
 30
0.0
 10
16.7817097848
 20
4.500319564
 30
0.0
 10
16.7344155976
 20
4.5333015777
 30
0.0
 10
16.6719579441
 20
4.594808955
 30
0.0
 10
16.6182169579
 20
4.6677707552
 30
0.0
 10
16.5737241703
 20
4.7514061501
 30
0.0
 10
16.5388164121
 20
4.8448741288
 30
0.0
 10
16.5137696902
 20
4.9472860342
 30
0.0
 10
16.4987984648
 20
5.0575961312
 30
0.0
 10
16.4956285949
 20
5.13375366
 30
0.0
 10
16.4956285949
 20
5.1727908943
 30
0.0
  0
SPLINE
  5
298
100
AcDbEntity
  8
0
100
AcDbSpline
 62
7
  6
BYLAYER
 70
0
 71
3
 72
12
 73
8
 74
0
 42
0.0000001
 43
0.0000001
 44
0.0000000001
 40
0.0
 40
0.0
 40
0.0
 40
0.0
 40
0.1082042755
 40
0.218393868
 40
0.4513296902
 40
0.710520616
 40
1.0
 40
1.0
 40
1.0
 40
1.0
 10
13.5055801315
 20
12.4337641493
 30
0.0
 10
13.4973781026
 20
12.4290315318
 30
0.0
 10
13.4816186153
 20
12.4180234738
 30
0.0
 10
13.4533471808
 20
12.3902166434
 30
0.0
 10
13.425344633
 20
12.344559993
 30
0.0
 10
13.4058743384
 20
12.2783930102
 30
0.0
 10
13.402023547
 20
12.2302059497
 30
0.0
 10
13.402023547
 20
12.2048722223
 30
0.0
  0
SPLINE
  5
299
100
AcDbEntity
  8
0
100
AcDbSpline
 62
7
  6
BYLAYER
 70
0
 71
3
 72
11
 73
7
 74
0
 42
0.0000001
 43
0.0000001
 44
0.0000000001
 40
0.0
 40
0.0
 40
0.0
 40
0.0
 40
0.217745073
 40
0.4508830113
 40
0.7104597664
 40
1.0
 40
1.0
 40
1.0
 40
1.0
 10
3.6457048603
 20
32.5325670473
 30
0.0
 10
3.6341618097
 20
32.5259026982
 30
0.0
 10
3.6125429172
 20
32.5077694286
 30
0.0
 10
3.5895456734
 20
32.4701510024
 30
0.0
 10
3.5759120776
 20
32.4238072237
 30
0.0
 10
3.5732058813
 20
32.3900824482
 30
0.0
 10
3.5732058813
 20
32.3723589276
 30
0.0
  0
SPLINE
  5
29A
100
AcDbEntity
  8
0
100
AcDbSpline
 62
7
  6
BYLAYER
 70
0
 71
3
 72
11
 73
7
 74
0
 42
0.0000001
 43
0.0000001
 44
0.0000000001
 40
0.0
 40
0.0
 40
0.0
 40
0.0
 40
0.2894044452
 40
0.5491382798
 40
0.7823156625
 40
1.0
 40
1.0
 40
1.0
 40
1.0
 10
27.6502563888
 20
23.7037656988
 30
0.0
 10
27.6502563888
 20
23.6885814037
 30
0.0
 10
27.6479221029
 20
23.6596767822
 30
0.0
 10
27.6362591515
 20
23.6199419084
 30
0.0
 10
27.6165292981
 20
23.587702754
 30
0.0
 10
27.5980108902
 20
23.5721460063
 30
0.0
 10
27.5881154829
 20
23.5664427038
 30
0.0
  0
SPLINE
  5
29B
100
AcDbEntity
  8
0
100
AcDbSpline
 62
7
  6
BYLAYER
 70
0
 71
3
 72
11
 73
7
 74
0
 42
0.0000001
 43
0.0000001
 44
0.0000000001
 40
0.0
 40
0.0
 40
0.0
 40
0.0
 40
0.2662819292
 40
0.523861392
 40
0.7693350452
 40
1.0
 40
1.0
 40
1.0
 40
1.0
 10
27.4801546446
 20
25.3407674868
 30
0.0
 10
27.5073252964
 20
25.2787216768
 30
0.0
 10
27.5555099662
 20
25.1542611746
 30
0.0
 10
27.6092068359
 20
24.9657709278
 30
0.0
 10
27.6422084213
 20
24.7817512501
 30
0.0
 10
27.6502563888
 20
24.6605560054
 30
0.0
 10
27.6502563888
 20
24.6018816719
 30
0.0
  0
SPLINE
  5
29C
100
AcDbEntity
  8
0
100
AcDbSpline
 62
7
  6
BYLAYER
 70
0
 71
3
 72
13
 73
9
 74
0
 42
0.0000001
 43
0.0000001
 44
0.0000000001
 40
0.0
 40
0.0
 40
0.0
 40
0.0
 40
0.110853684
 40
0.2278802806
 40
0.350071974
 40
0.47642649
 40
0.7370737328
 40
1.0
 40
1.0
 40
1.0
 40
1.0
 10
24.3975516547
 20
31.7397714984
 30
0.0
 10
24.4271242366
 20
31.7226981466
 30
0.0
 10
24.4860333695
 20
31.6842709785
 30
0.0
 10
24.5705879162
 20
31.617134053
 30
0.0
 10
24.6525704178
 20
31.5397398275
 30
0.0
 10
24.757902008
 20
31.4233362217
 30
0.0
 10
24.8752284049
 20
31.260227959
 30
0.0
 10
24.9506714519
 20
31.1169937576
 30
0.0
 10
24.9831601134
 20
31.0428039551
 30
0.0
  0
SPLINE
  5
29D
100
AcDbEntity
  8
0
100
AcDbSpline
 62
7
  6
BYLAYER
 70
0
 71
3
 72
9
 73
5
 74
0
 42
0.0000001
 43
0.0000001
 44
0.0000000001
 40
0.0
 40
0.0
 40
0.0
 40
0.0
 40
0.2644528325
 40
1.0
 40
1.0
 40
1.0
 40
1.0
 10
11.120166942
 20
37.8814239461
 30
0.0
 10
11.1218249981
 20
37.8761296816
 30
0.0
 10
11.1274387509
 20
37.8559228342
 30
0.0
 10
11.1304054431
 20
37.8348871607
 30
0.0
 10
11.1304054431
 20
37.819456475
 30
0.0
  0
SPLINE
  5
29E
100
AcDbEntity
  8
0
100
AcDbSpline
 62
7
  6
BYLAYER
 70
0
 71
3
 72
14
 73
10
 74
0
 42
0.0000001
 43
0.0000001
 44
0.0000000001
 40
0.0
 40
0.0
 40
0.0
 40
0.0
 40
0.1109762688
 40
0.2289930532
 40
0.3526773949
 40
0.4806276694
 40
0.7422289783
 40
0.8725858761
 40
1.0
 40
1.0
 40
1.0
 40
1.0
 10
10.0785797275
 20
40.0066467734
 30
0.0
 10
10.1138221483
 20
39.9863000126
 30
0.0
 10
10.1838742565
 20
39.9395863605
 30
0.0
 10
10.2832429779
 20
39.8564965195
 30
0.0
 10
10.3783888373
 20
39.7596520476
 30
0.0
 10
10.4977692531
 20
39.6139275882
 30
0.0
 10
10.5994271428
 20
39.4513659423
 30
0.0
 10
10.6796559716
 20
39.2784729841
 30
0.0
 10
10.7120213986
 20
39.1894973014
 30
0.0
 10
10.7259378704
 20
39.1448961382
 30
0.0
  0
SPLINE
  5
29F
100
AcDbEntity
  8
0
100
AcDbSpline
 62
7
  6
BYLAYER
 70
0
 71
3
 72
14
 73
10
 74
0
 42
0.0000001
 43
0.0000001
 44
0.0000000001
 40
0.0
 40
0.0
 40
0.0
 40
0.0
 40
0.1279463785
 40
0.2585477976
 40
0.5200434017
 40
0.6477755027
 40
0.7712328511
 40
0.8890782711
 40
1.0
 40
1.0
 40
1.0
 40
1.0
 10
4.7728398863
 20
19.0055102564
 30
0.0
 10
4.7871585673
 20
18.9617866189
 30
0.0
 10
4.8200899647
 20
18.8746864633
 30
0.0
 10
4.9006437328
 20
18.7057666667
 30
0.0
 10
5.0015498229
 20
18.5471998162
 30
0.0
 10
5.1193372092
 20
18.4051523448
 30
0.0
 10
5.2129133017
 20
18.3107737051
 30
0.0
 10
5.3104766477
 20
18.2296998537
 30
0.0
 10
5.3791559649
 20
18.1840278395
 30
0.0
 10
5.4136989364
 20
18.1640848967
 30
0.0
  0
SPLINE
  5
2A0
100
AcDbEntity
  8
0
100
AcDbSpline
 62
7
  6
BYLAYER
 70
0
 71
3
 72
10
 73
6
 74
0
 42
0.0000001
 43
0.0000001
 44
0.0000000001
 40
0.0
 40
0.0
 40
0.0
 40
0.0
 40
0.2341554831
 40
0.4798663703
 40
1.0
 40
1.0
 40
1.0
 40
1.0
 10
3.5732058813
 20
23.0307505798
 30
0.0
 10
3.5732058813
 20
22.9698133654
 30
0.0
 10
3.5792477558
 20
22.8448685474
 30
0.0
 10
3.6138165894
 20
22.5867269769
 30
0.0
 10
3.6635804535
 20
22.3927536169
 30
0.0
 10
3.7057072312
 20
22.264114956
 30
0.0
  0
SPLINE
  5
2A1
100
AcDbEntity
  8
0
100
AcDbSpline
 62
7
  6
BYLAYER
 70
0
 71
3
 72
13
 73
9
 74
0
 42
0.0000001
 43
0.0000001
 44
0.0000000001
 40
0.0
 40
0.0
 40
0.0
 40
0.0
 40
0.1140633739
 40
0.2375591108
 40
0.5000010845
 40
0.7624424647
 40
0.8859375061
 40
1.0
 40
1.0
 40
1.0
 40
1.0
 10
10.7061752302
 20
33.1246672342
 30
0.0
 10
10.7061752302
 20
33.1151812525
 30
0.0
 10
10.7079403394
 20
33.095407932
 30
0.0
 10
10.7173459644
 20
33.0548020746
 30
0.0
 10
10.7393318763
 20
33.0050054558
 30
0.0
 10
10.7714642259
 20
32.9610669749
 30
0.0
 10
10.8019271677
 20
32.9326188514
 30
0.0
 10
10.8181687992
 20
32.9212037689
 30
0.0
 10
10.8263838834
 20
32.9164608951
 30
0.0
  0
SPLINE
  5
2A2
100
AcDbEntity
  8
0
100
AcDbSpline
 62
7
  6
BYLAYER
 70
0
 71
3
 72
9
 73
5
 74
0
 42
0.0000001
 43
0.0000001
 44
0.0000000001
 40
0.0
 40
0.0
 40
0.0
 40
0.0
 40
0.2290788693
 40
1.0
 40
1.0
 40
1.0
 40
1.0
 10
10.7163329991
 20
33.1746470494
 30
0.0
 10
10.7146171219
 20
33.1711290817
 30
0.0
 10
10.7082505047
 20
33.1552208533
 30
0.0
 10
10.7061752302
 20
33.1378394548
 30
0.0
 10
10.7061752302
 20
33.1246672342
 30
0.0
  0
SPLINE
  5
2A3
100
AcDbEntity
  8
0
100
AcDbSpline
 62
7
  6
BYLAYER
 70
0
 71
3
 72
13
 73
9
 74
0
 42
0.0000001
 43
0.0000001
 44
0.0000000001
 40
0.0
 40
0.0
 40
0.0
 40
0.0
 40
0.1141767831
 40
0.2375713001
 40
0.500001251
 40
0.7624305195
 40
0.8858241805
 40
1.0
 40
1.0
 40
1.0
 40
1.0
 10
13.7732561527
 20
10.1738279498
 30
0.0
 10
13.7732561527
 20
10.1570711592
 30
0.0
 10
13.7763445963
 20
10.1221718097
 30
0.0
 10
13.7929886382
 20
10.0505225463
 30
0.0
 10
13.8317698381
 20
9.9626611629
 30
0.0
 10
13.8884697352
 20
9.8851453388
 30
0.0
 10
13.9421978437
 20
9.8349071261
 30
0.0
 10
13.9708773043
 20
9.8147831807
 30
0.0
 10
13.9853890703
 20
9.8064049983
 30
0.0
  0
SPLINE
  5
2A4
100
AcDbEntity
  8
0
100
AcDbSpline
 62
7
  6
BYLAYER
 70
0
 71
3
 72
9
 73
5
 74
0
 42
0.0000001
 43
0.0000001
 44
0.0000000001
 40
0.0
 40
0.0
 40
0.0
 40
0.0
 40
0.4869568881
 40
1.0
 40
1.0
 40
1.0
 40
1.0
 10
13.4651211346
 20
11.7598492388
 30
0.0
 10
13.4722982317
 20
11.7137747035
 30
0.0
 10
13.4941930675
 20
11.6201983947
 30
0.0
 10
13.5277818869
 20
11.5302480708
 30
0.0
 10
13.547616776
 20
11.4853019648
 30
0.0
  0
SPLINE
  5
2A5
100
AcDbEntity
  8
0
100
AcDbSpline
 62
7
  6
BYLAYER
 70
0
 71
3
 72
9
 73
5
 74
0
 42
0.0000001
 43
0.0000001
 44
0.0000000001
 40
0.0
 40
0.0
 40
0.0
 40
0.0
 40
0.2418076304
 40
1.0
 40
1.0
 40
1.0
 40
1.0
 10
13.402023547
 20
12.2048722223
 30
0.0
 10
13.402023547
 20
12.1981540663
 30
0.0
 10
13.4026177477
 20
12.1703722791
 30
0.0
 10
13.405490917
 20
12.1426550359
 30
0.0
 10
13.4087331279
 20
12.1218411401
 30
0.0
  0
SPLINE
  5
2A6
100
AcDbEntity
  8
0
100
AcDbSpline
 62
7
  6
BYLAYER
 70
0
 71
3
 72
17
 73
13
 74
0
 42
0.0000001
 43
0.0000001
 44
0.0000000001
 40
0.0
 40
0.0
 40
0.0
 40
0.0
 40
0.0558177025
 40
0.1142133217
 40
0.2373816406
 40
0.3670003588
 40
0.5000010808
 40
0.6330016523
 40
0.7626199311
 40
0.8857875575
 40
0.944182755
 40
1.0
 40
1.0
 40
1.0
 40
1.0
 10
19.0058601661
 20
5.8872439914
 30
0.0
 10
19.0058601661
 20
5.8325726738
 30
0.0
 10
19.0107451795
 20
5.7206623823
 30
0.0
 10
19.0386939999
 20
5.4896647773
 30
0.0
 10
19.107976091
 20
5.1918128505
 30
0.0
 10
19.2387458493
 20
4.8364011698
 30
0.0
 10
19.4137406017
 20
4.4897360251
 30
0.0
 10
19.6264653542
 20
4.1648549179
 30
0.0
 10
19.868876748
 20
3.8739013774
 30
0.0
 10
20.0921832664
 20
3.6649778077
 30
0.0
 10
20.278258518
 20
3.5252769972
 30
0.0
 10
20.3727329867
 20
3.4650926191
 30
0.0
 10
20.4200796164
 20
3.4377576481
 30
0.0
  0
SPLINE
  5
2A7
100
AcDbEntity
  8
0
100
AcDbSpline
 62
7
  6
BYLAYER
 70
0
 71
3
 72
12
 73
8
 74
0
 42
0.0000001
 43
0.0000001
 44
0.0000000001
 40
0.0
 40
0.0
 40
0.0
 40
0.0
 40
0.1996621702
 40
0.3148807487
 40
0.4396041863
 40
0.7117449124
 40
1.0
 40
1.0
 40
1.0
 40
1.0
 10
26.400137436
 20
23.487167281
 30
0.0
 10
26.4153127342
 20
23.4872722188
 30
0.0
 10
26.4393225971
 20
23.4811815508
 30
0.0
 10
26.4689240196
 20
23.4656740936
 30
0.0
 10
26.5007261595
 20
23.4430032678
 30
0.0
 10
26.5372538202
 20
23.4053058342
 30
0.0
 10
26.5606287732
 20
23.3693600099
 30
0.0
 10
26.5707993296
 20
23.3499543949
 30
0.0
  0
SPLINE
  5
2A8
100
AcDbEntity
  8
0
100
AcDbSpline
 62
7
  6
BYLAYER
 70
0
 71
3
 72
9
 73
5
 74
0
 42
0.0000001
 43
0.0000001
 44
0.0000000001
 40
0.0
 40
0.0
 40
0.0
 40
0.0
 40
0.520686634
 40
1.0
 40
1.0
 40
1.0
 40
1.0
 10
21.5868059525
 20
5.4586043727
 30
0.0
 10
21.5868059525
 20
5.3615685331
 30
0.0
 10
21.5753886386
 20
5.1749346539
 30
0.0
 10
21.5362305871
 20
4.991737363
 30
0.0
 10
21.5095886202
 20
4.9064775012
 30
0.0
  0
SPLINE
  5
2A9
100
AcDbEntity
  8
0
100
AcDbSpline
 62
7
  6
BYLAYER
 70
0
 71
3
 72
15
 73
11
 74
0
 42
0.0000001
 43
0.0000001
 44
0.0000000001
 40
0.0
 40
0.0
 40
0.0
 40
0.0
 40
0.1538394344
 40
0.305267975
 40
0.4495962428
 40
0.5836152628
 40
0.7051231069
 40
0.8133720384
 40
0.9101283975
 40
1.0
 40
1.0
 40
1.0
 40
1.0
 10
26.5707993296
 20
23.3499543949
 30
0.0
 10
26.5802940529
 20
23.3318382823
 30
0.0
 10
26.6013019674
 20
23.2969829639
 30
0.0
 10
26.6380174355
 20
23.2496361112
 30
0.0
 10
26.6785940114
 20
23.2091596858
 30
0.0
 10
26.7213426688
 20
23.1772116045
 30
0.0
 10
26.7646207706
 20
23.1549999328
 30
0.0
 10
26.8069279105
 20
23.1435958342
 30
0.0
 10
26.8467046792
 20
23.1437354289
 30
0.0
 10
26.870659312
 20
23.1522318941
 30
0.0
 10
26.881011646
 20
23.1581985501
 30
0.0
  0
SPLINE
  5
2AA
100
AcDbEntity
  8
0
100
AcDbSpline
 62
7
  6
BYLAYER
 70
0
 71
3
 72
10
 73
6
 74
0
 42
0.0000001
 43
0.0000001
 44
0.0000000001
 40
0.0
 40
0.0
 40
0.0
 40
0.0
 40
0.2752543159
 40
0.6558077612
 40
1.0
 40
1.0
 40
1.0
 40
1.0
 10
25.9531989372
 20
23.6220711909
 30
0.0
 10
25.9906701441
 20
23.6004376689
 30
0.0
 10
26.0825438029
 20
23.5532507952
 30
0.0
 10
26.2317915488
 20
23.5012526958
 30
0.0
 10
26.3460344611
 20
23.486793157
 30
0.0
 10
26.400137436
 20
23.487167281
 30
0.0
  0
SPLINE
  5
2AB
100
AcDbEntity
  8
0
100
AcDbSpline
 62
7
  6
BYLAYER
 70
0
 71
3
 72
17
 73
13
 74
0
 42
0.0000001
 43
0.0000001
 44
0.0000000001
 40
0.0
 40
0.0
 40
0.0
 40
0.0
 40
0.0558177025
 40
0.1142133217
 40
0.2373816406
 40
0.3670003588
 40
0.5000010808
 40
0.6330016523
 40
0.7626199311
 40
0.8857875575
 40
0.944182755
 40
1.0
 40
1.0
 40
1.0
 40
1.0
 10
14.9399792465
 20
8.2346283299
 30
0.0
 10
14.9399792465
 20
8.1799570123
 30
0.0
 10
14.9448642599
 20
8.0680467208
 30
0.0
 10
14.9728130803
 20
7.8370491158
 30
0.0
 10
15.0420951714
 20
7.539197189
 30
0.0
 10
15.1728649297
 20
7.1837855083
 30
0.0
 10
15.3478596821
 20
6.8371203636
 30
0.0
 10
15.5605844346
 20
6.5122392564
 30
0.0
 10
15.8029958284
 20
6.2212857159
 30
0.0
 10
16.0263023468
 20
6.0123621462
 30
0.0
 10
16.2123775984
 20
5.8726613357
 30
0.0
 10
16.3068520671
 20
5.8124769576
 30
0.0
 10
16.3541986968
 20
5.7851419866
 30
0.0
  0
SPLINE
  5
2AC
100
AcDbEntity
  8
0
100
AcDbSpline
 62
7
  6
BYLAYER
 70
0
 71
3
 72
9
 73
5
 74
0
 42
0.0000001
 43
0.0000001
 44
0.0000000001
 40
0.0
 40
0.0
 40
0.0
 40
0.0
 40
0.479313366
 40
1.0
 40
1.0
 40
1.0
 40
1.0
 10
20.9439055504
 20
4.5798821782
 30
0.0
 10
20.9705475173
 20
4.6651420399
 30
0.0
 10
21.0097055689
 20
4.8483393308
 30
0.0
 10
21.0211228828
 20
5.03497321
 30
0.0
 10
21.0211228828
 20
5.1320090496
 30
0.0
  0
SPLINE
  5
2AD
100
AcDbEntity
  8
0
100
AcDbSpline
 62
7
  6
BYLAYER
 70
0
 71
3
 72
12
 73
8
 74
0
 42
0.0000001
 43
0.0000001
 44
0.0000000001
 40
0.0
 40
0.0
 40
0.0
 40
0.0
 40
0.2818248694
 40
0.5386075016
 40
0.7747887695
 40
0.8881333075
 40
1.0
 40
1.0
 40
1.0
 40
1.0
 10
11.6696122303
 20
34.1419673434
 30
0.0
 10
11.6328397108
 20
34.1578478568
 30
0.0
 10
11.5599812304
 20
34.1828247112
 30
0.0
 10
11.4500906703
 20
34.1978377559
 30
0.0
 10
11.3633112909
 20
34.1889173437
 30
0.0
 10
11.3006929278
 20
34.1688374305
 30
0.0
 10
11.2717772934
 20
34.1548067471
 30
0.0
 10
11.2580070391
 20
34.1468588535
 30
0.0
  0
SPLINE
  5
2AE
100
AcDbEntity
  8
0
100
AcDbSpline
 62
7
  6
BYLAYER
 70
0
 71
3
 72
13
 73
9
 74
0
 42
0.0000001
 43
0.0000001
 44
0.0000000001
 40
0.0
 40
0.0
 40
0.0
 40
0.0
 40
0.2629262672
 40
0.52357351
 40
0.649928026
 40
0.7721197194
 40
0.889146316
 40
1.0
 40
1.0
 40
1.0
 40
1.0
 10
20.7051819003
 20
28.5729268254
 30
0.0
 10
20.6726932388
 20
28.6471166279
 30
0.0
 10
20.5972501918
 20
28.7903508293
 30
0.0
 10
20.4799237949
 20
28.953459092
 30
0.0
 10
20.3745922047
 20
29.0698626978
 30
0.0
 10
20.2926097032
 20
29.1472569233
 30
0.0
 10
20.2080551564
 20
29.2143938488
 30
0.0
 10
20.1491460235
 20
29.2528210168
 30
0.0
 10
20.1195734417
 20
29.2698943687
 30
0.0
  0
SPLINE
  5
2AF
100
AcDbEntity
  8
0
100
AcDbSpline
 62
7
  6
BYLAYER
 70
0
 71
3
 72
11
 73
7
 74
0
 42
0.0000001
 43
0.0000001
 44
0.0000000001
 40
0.0
 40
0.0
 40
0.0
 40
0.0
 40
0.230664954
 40
0.4761386067
 40
0.7337180702
 40
1.0
 40
1.0
 40
1.0
 40
1.0
 10
22.3823245605
 20
24.2424307126
 30
0.0
 10
22.3823245605
 20
24.3262511949
 30
0.0
 10
22.3708274654
 20
24.4993872709
 30
0.0
 10
22.3236823409
 20
24.7622725441
 30
0.0
 10
22.2469725194
 20
25.0315443448
 30
0.0
 10
22.17813727
 20
25.2093450749
 30
0.0
 10
22.13932205
 20
25.297981953
 30
0.0
  0
SPLINE
  5
2B0
100
AcDbEntity
  8
0
100
AcDbSpline
 62
7
  6
BYLAYER
 70
0
 71
3
 72
11
 73
7
 74
0
 42
0.0000001
 43
0.0000001
 44
0.0000000001
 40
0.0
 40
0.0
 40
0.0
 40
0.0
 40
0.2306649546
 40
0.4761386078
 40
0.7337180708
 40
1.0
 40
1.0
 40
1.0
 40
1.0
 10
26.9431525519
 20
24.1936375183
 30
0.0
 10
26.9431525519
 20
24.2523118527
 30
0.0
 10
26.9351045842
 20
24.3735070994
 30
0.0
 10
26.9021029978
 20
24.5575267802
 30
0.0
 10
26.8484061262
 20
24.74601703
 30
0.0
 10
26.8002214547
 20
24.870477534
 30
0.0
 10
26.7730508025
 20
24.9325233452
 30
0.0
  0
SPLINE
  5
2B1
100
AcDbEntity
  8
0
100
AcDbSpline
 62
7
  6
BYLAYER
 70
0
 71
3
 72
11
 73
7
 74
0
 42
0.0000001
 43
0.0000001
 44
0.0000000001
 40
0.0
 40
0.0
 40
0.0
 40
0.0
 40
0.2662819295
 40
0.5238613927
 40
0.7693350457
 40
1.0
 40
1.0
 40
1.0
 40
1.0
 10
25.7101964262
 20
27.3596149291
 30
0.0
 10
25.7490116457
 20
27.2709780522
 30
0.0
 10
25.8178468944
 20
27.0931773244
 30
0.0
 10
25.8945567151
 20
26.8239055271
 30
0.0
 10
25.9417018402
 20
26.5610202572
 30
0.0
 10
25.9531989367
 20
26.3878841831
 30
0.0
 10
25.9531989367
 20
26.3040637017
 30
0.0
  0
SPLINE
  5
2B2
100
AcDbEntity
  8
0
100
AcDbSpline
 62
7
  6
BYLAYER
 70
0
 71
3
 72
10
 73
6
 74
0
 42
0.0000001
 43
0.0000001
 44
0.0000000001
 40
0.0
 40
0.0
 40
0.0
 40
0.0
 40
0.2328292914
 40
0.4770609263
 40
1.0
 40
1.0
 40
1.0
 40
1.0
 10
17.794903014
 20
5.1851386995
 30
0.0
 10
17.8143648273
 20
5.2392631985
 30
0.0
 10
17.8483073259
 20
5.3523718132
 30
0.0
 10
17.8969347131
 20
5.5948217387
 30
0.0
 10
17.9098480445
 20
5.7849554256
 30
0.0
 10
17.9098480445
 20
5.9141400727
 30
0.0
  0
SPLINE
  5
2B3
100
AcDbEntity
  8
0
100
AcDbSpline
 62
7
  6
BYLAYER
 70
0
 71
3
 72
11
 73
7
 74
0
 42
0.0000001
 43
0.0000001
 44
0.0000000001
 40
0.0
 40
0.0
 40
0.0
 40
0.0
 40
0.2176843375
 40
0.4508617202
 40
0.7105955548
 40
1.0
 40
1.0
 40
1.0
 40
1.0
 10
26.881011646
 20
23.1581985501
 30
0.0
 10
26.8909070533
 20
23.1639018526
 30
0.0
 10
26.9094254613
 20
23.1794586003
 30
0.0
 10
26.9291553146
 20
23.2116977548
 30
0.0
 10
26.9408182661
 20
23.2514326285
 30
0.0
 10
26.9431525519
 20
23.28033725
 30
0.0
 10
26.9431525519
 20
23.2955215452
 30
0.0
  0
SPLINE
  5
2B4
100
AcDbEntity
  8
0
100
AcDbSpline
 62
7
  6
BYLAYER
 70
0
 71
3
 72
11
 73
7
 74
0
 42
0.0000001
 43
0.0000001
 44
0.0000000001
 40
0.0
 40
0.0
 40
0.0
 40
0.0
 40
0.2895391947
 40
0.5491157948
 40
0.7822541181
 40
1.0
 40
1.0
 40
1.0
 40
1.0
 10
3.8206942862
 20
32.5152505088
 30
0.0
 10
3.8053456459
 20
32.52411185
 30
0.0
 10
3.7747867753
 20
32.5386298709
 30
0.0
 10
3.7278363101
 20
32.5499940447
 30
0.0
 10
3.6837603158
 20
32.5488868356
 30
0.0
 10
3.6572476452
 20
32.539231243
 30
0.0
 10
3.6457048603
 20
32.5325670473
 30
0.0
  0
SPLINE
  5
2B5
100
AcDbEntity
  8
0
100
AcDbSpline
 62
7
  6
BYLAYER
 70
0
 71
3
 72
12
 73
8
 74
0
 42
0.0000001
 43
0.0000001
 44
0.0000000001
 40
0.0
 40
0.0
 40
0.0
 40
0.0
 40
0.2893200915
 40
0.548700262
 40
0.7816621626
 40
0.8918335229
 40
1.0
 40
1.0
 40
1.0
 40
1.0
 10
5.4824021383
 20
37.7204779831
 30
0.0
 10
5.4604755094
 20
37.7331370418
 30
0.0
 10
5.4168086789
 20
37.7538688602
 30
0.0
 10
5.349781553
 20
37.7701360649
 30
0.0
 10
5.2962219363
 20
37.7687061149
 30
0.0
 10
5.2580126842
 20
37.7581087916
 30
0.0
 10
5.2406147957
 20
37.7499487276
 30
0.0
 10
5.2324172459
 20
37.7452158944
 30
0.0
  0
SPLINE
  5
2B6
100
AcDbEntity
  8
0
100
AcDbSpline
 62
7
  6
BYLAYER
 70
0
 71
3
 72
14
 73
10
 74
0
 42
0.0000001
 43
0.0000001
 44
0.0000000001
 40
0.0
 40
0.0
 40
0.0
 40
0.0
 40
0.1274141479
 40
0.2577710962
 40
0.5193724253
 40
0.6473226981
 40
0.7710070155
 40
0.8890237538
 40
1.0
 40
1.0
 40
1.0
 40
1.0
 10
6.4479596574
 20
36.6750190085
 30
0.0
 10
6.4340431829
 20
36.71962018
 30
0.0
 10
6.4016777394
 20
36.8085958858
 30
0.0
 10
6.3214489004
 20
36.9814888776
 30
0.0
 10
6.2197909835
 20
37.1440505373
 30
0.0
 10
6.1004105617
 20
37.2897749892
 30
0.0
 10
6.0052647125
 20
37.3866194334
 30
0.0
 10
5.9058960204
 20
37.4697092564
 30
0.0
 10
5.835843928
 20
37.516422887
 30
0.0
 10
5.8006015144
 20
37.5367696437
 30
0.0
  0
SPLINE
  5
2B7
100
AcDbEntity
  8
0
100
AcDbSpline
 62
7
  6
BYLAYER
 70
0
 71
3
 72
9
 73
5
 74
0
 42
0.0000001
 43
0.0000001
 44
0.0000000001
 40
0.0
 40
0.0
 40
0.0
 40
0.0
 40
0.2349224325
 40
1.0
 40
1.0
 40
1.0
 40
1.0
 10
6.85242723
 20
35.3495793453
 30
0.0
 10
6.85242723
 20
35.354508501
 30
0.0
 10
6.8514579583
 20
35.3754885716
 30
0.0
 10
6.8469863927
 20
35.3962276113
 30
0.0
 10
6.842188729
 20
35.4115468164
 30
0.0
  0
SPLINE
  5
2B8
100
AcDbEntity
  8
0
100
AcDbSpline
 62
7
  6
BYLAYER
 70
0
 71
3
 72
11
 73
7
 74
0
 42
0.0000001
 43
0.0000001
 44
0.0000000001
 40
0.0
 40
0.0
 40
0.0
 40
0.0
 40
0.2279732391
 40
0.4775442879
 40
0.7387722801
 40
1.0
 40
1.0
 40
1.0
 40
1.0
 10
20.9327421123
 20
7.857108191
 30
0.0
 10
20.9327421123
 20
7.8948618797
 30
0.0
 10
20.9233961502
 20
7.974034364
 30
0.0
 10
20.8877272129
 20
8.0915810756
 30
0.0
 10
20.831986801
 20
8.2071651103
 30
0.0
 10
20.7830686799
 20
8.2790067638
 30
0.0
 10
20.755964681
 20
8.3127242974
 30
0.0
  0
SPLINE
  5
2B9
100
AcDbEntity
  8
0
100
AcDbSpline
 62
7
  6
BYLAYER
 70
0
 71
3
 72
9
 73
5
 74
0
 42
0.0000001
 43
0.0000001
 44
0.0000000001
 40
0.0
 40
0.0
 40
0.0
 40
0.0
 40
0.240195029
 40
1.0
 40
1.0
 40
1.0
 40
1.0
 10
20.926032516
 20
7.7818244027
 30
0.0
 10
20.9271626658
 20
7.7877746247
 30
0.0
 10
20.9312121576
 20
7.8126702879
 30
0.0
 10
20.9327421123
 20
7.8379494544
 30
0.0
 10
20.9327421123
 20
7.857108191
 30
0.0
  0
SPLINE
  5
2BA
100
AcDbEntity
  8
0
100
AcDbSpline
 62
7
  6
BYLAYER
 70
0
 71
3
 72
11
 73
7
 74
0
 42
0.0000001
 43
0.0000001
 44
0.0000000001
 40
0.0
 40
0.0
 40
0.0
 40
0.0
 40
0.229636301
 40
0.4706387318
 40
0.7266630348
 40
1.0
 40
1.0
 40
1.0
 40
1.0
 10
20.7700726725
 20
7.2883061337
 30
0.0
 10
20.7826427805
 20
7.2999595003
 30
0.0
 10
20.8060948079
 20
7.3264396658
 30
0.0
 10
20.8343904408
 20
7.3730019857
 30
0.0
 10
20.8561493325
 20
7.4264566524
 30
0.0
 10
20.8658373937
 20
7.4648978698
 30
0.0
 10
20.869644519
 20
7.4849423349
 30
0.0
  0
ELLIPSE
  5
2BB
100
AcDbEntity
  8
0
100
AcDbEllipse
 62
7
  6
BYLAYER
 10
18.9819058514
 20
5.3703335418
 30
0.0
 11
1.0454448838
 21
1.1224778602
 31
0.0
 40
0.3621332547
 41
-2.2730241366
 42
-1.6905927984
  0
ELLIPSE
  5
2BC
100
AcDbEntity
  8
0
100
AcDbEllipse
 62
7
  6
BYLAYER
 10
18.628353933
 20
5.166211465
 30
0.0
 11
1.0454448838
 21
1.1224778602
 31
0.0
 40
0.3621332547
 41
-3.8438204634
 42
-2.2730241366
  0
ENDSEC
  0
SECTION
  2
OBJECTS
  0
DICTIONARY
  5
C
100
AcDbDictionary
280
0
281
1
  3
ACAD_GROUP
350
D
  3
ACAD_MLINESTYLE
350
17
  3
ACAD_LAYOUT
350
1A
  3
ACAD_PLOTSETTINGS
350
19
  3
ACAD_PLOTSTYLENAME
350
E
  0
DICTIONARY
  5
D
102
{ACAD_REACTORS
330
C
102
}
100
AcDbDictionary
280
0
281
1
  0
ACDBDICTIONARYWDFLT
  5
E
102
{ACAD_REACTORS
330
C
102
}
100
AcDbDictionary
281
1
  3
Normal
350
F
100
AcDbDictionaryWithDefault
340
F
  0
DICTIONARY
  5
17
102
{ACAD_REACTORS
330
C
102
}
100
AcDbDictionary
280
0
281
1
  3
Standard
350
18
  0
DICTIONARY
  5
19
102
{ACAD_REACTORS
330
C
102
}
100
AcDbDictionary
281
1
  0
DICTIONARY
  5
1A
102
{ACAD_REACTORS
330
C
102
}
100
AcDbDictionary
281
1
  3
Model
350
2BD
  3
Layout1
350
2BE
  0
ACDBPLACEHOLDER
  5
F
102
{ACAD_REACTORS
330
E
102
}
  0
MLINESTYLE
  5
18
102
{ACAD_REACTORS
330
17
102
}
100
AcDbMlineStyle
  2
STANDARD
 70
0
  3

 62
256
 51
90.0
 52
90.0
 71
2
 49
0.5
 62
256
  6
BYLAYER
 49
-0.5
 62
256
  6
BYLAYER
  0
LAYOUT
  5
2BD
102
{ACAD_REACTORS
330
1A
102
}
100
AcDbPlotSettings
  1

  2
none_device
  4

  6

 40
0.0
 41
0.0
 42
0.0
 43
0.0
 44
210.0
 45
297.0
 46
0.0
 47
0.0
 48
0.0
 49
0.0
140
0.0
141
0.0
142
1.0
143
1.0
 70
1024
 72
1
 73
0
 74
0
  7

 75
0
147
1.0
148
0.0
149
0.0
100
AcDbLayout
  1
Model
 70
0
 71
0
 10
0.0
 20
0.0
 11
210.0
 21
297.0
 12
0.0
 22
0.0
 32
0.0
 14
0.0
 24
0.0
 34
0.0
 15
0.0
 25
0.0
 35
0.0
146
0.0
 13
0.0
 23
0.0
 33
0.0
 16
1.0
 26
0.0
 36
0.0
 17
0.0
 27
1.0
 37
0.0
 76
0
330
210
345
0
346
0
  0
LAYOUT
  5
2BE
102
{ACAD_REACTORS
330
1A
102
}
100
AcDbPlotSettings
  1

  2
none_device
  4

  6

 40
0.0
 41
0.0
 42
0.0
 43
0.0
 44
210.0
 45
297.0
 46
0.0
 47
0.0
 48
0.0
 49
0.0
140
0.0
141
0.0
142
1.0
143
1.0
 70
0
 72
1
 73
0
 74
0
  7

 75
0
147
1.0
148
0.0
149
0.0
100
AcDbLayout
  1
Layout1
 70
0
 71
1
 10
0.0
 20
0.0
 11
210.0
 21
297.0
 12
0.0
 22
0.0
 32
0.0
 14
0.0
 24
0.0
 34
0.0
 15
0.0
 25
0.0
 35
0.0
146
0.0
 13
0.0
 23
0.0
 33
0.0
 16
1.0
 26
0.0
 36
0.0
 17
0.0
 27
1.0
 37
0.0
 76
0
330
211
345
0
346
0
  0
ENDSEC
  0
EOF
