999
DXF file: C:\Users\sesa63760\Dev\_Creo\CAD\MCADID0000673_3D-CAD\drw0001_6.dxf
999
Pro/ENGINEER 2019471 by Parametric Technology Corporation
  0
SECTION
  2
HEADER
  9
$ACADVER
  1
AC1024
  9
$DWGCODEPAGE
  3
ANSI_1252
  9
$EXTMAX
 10
299.2037000199
 20
423.1595185996
 30
0.0
  9
$EXTMIN
 10
0.0
 20
0.0
 30
0.0
  9
$LIMMIN
 10
0.0
 20
0.0
  9
$LIMMAX
 10
299.2037000199
 20
423.1595185996
  9
$VIEWCTR
 10
149.6018500099
 20
211.5797592998
  9
$VIEWSIZE
 40
423.1595185996
  9
$CLAYER
  8
0
  9
$LTSCALE
 40
27.5837315828
  9
$CELTYPE
  6
BYLAYER
  9
$DIMSCALE
 40
1.0
  9
$DIMASZ
 40
3.5619488098
  9
$DIMEXO
 40
1.0
  9
$DIMDLI
 40
19.0578509117
  9
$DIMEXE
 40
1.0
  9
$DIMCEN
 40
4.5137015317
  9
$DIMLFAC
 40
1.0
  9
$DIMBLK
  1
_FILLED
  9
$DIMALT
 70
0
  9
$DIMALTF
 40
0.0393700787
  9
$DIMTXT
 40
4.9867283337
  9
$DIMTOL
 70
1
  9
$DIMLIM
 70
0
  9
$DIMTFAC
 40
1.0
  9
$DIMTP
 40
0.01
  9
$DIMTM
 40
0.01
  9
$DIMGAP
 40
0.625
  9
$DIMDSEP
 70
46
  9
$AUNITS
 70
0
  9
$PDMODE
 70
3
  9
$PDSIZE
 40
0.3125
  9
$HANDSEED
  5
527
  9
$TILEMODE
 70
1
  9
$MEASUREMENT
 70
1
  9
$INSUNITS
 70
4
  0
ENDSEC
  0
SECTION
  2
CLASSES
  0
CLASS
  1
ACDBDICTIONARYWDFLT
  2
AcDbDictionaryWithDefault
  3
AutoCAD 2000
 90
0
 91
1
280
0
281
0
  0
CLASS
  1
ACDBPLACEHOLDER
  2
AcDbPlaceHolder
  3
AutoCAD 2000
 90
0
 91
1
280
0
281
0
  0
CLASS
  1
LAYOUT
  2
AcDbLayout
  3
AutoCAD 2000
 90
0
 91
0
280
0
281
0
  0
ENDSEC
  0
SECTION
  2
TABLES
  0
TABLE
  2
VPORT
  5
8
100
AcDbSymbolTable
 70
2
  0
VPORT
  5
1F4
100
AcDbSymbolTableRecord
100
AcDbViewportTableRecord
  2
*ACTIVE
 70
0
 10
0.0
 20
0.0
 11
1.0
 21
1.0
 12
149.6018500099
 22
211.5797592998
 13
0.0
 23
0.0
 14
1.0
 24
1.0
 15
0.0
 25
0.0
 16
0.0
 26
0.0
 36
1.0
 17
0.0
 27
0.0
 37
0.0
 40
423.1595185996
 41
0.7070707071
 42
50.0
 43
0.0
 44
0.0
 50
0.0
 51
0.0
 71
0
 72
100
 73
1
 74
1
 75
0
 76
0
 77
0
 78
0
  0
ENDTAB
  0
TABLE
  2
LTYPE
  5
5
100
AcDbSymbolTable
 70
6
  0
LTYPE
  5
14
100
AcDbSymbolTableRecord
100
AcDbLinetypeTableRecord
  2
BYBLOCK
 70
0
  3

 72
65
 73
0
 40
0.0
  0
LTYPE
  5
15
100
AcDbSymbolTableRecord
100
AcDbLinetypeTableRecord
  2
BYLAYER
 70
0
  3

 72
65
 73
0
 40
0.0
  0
LTYPE
  5
16
100
AcDbSymbolTableRecord
100
AcDbLinetypeTableRecord
  2
CONTINUOUS
 70
64
  3
Solid line
 72
65
 73
0
 40
0.0
  0
LTYPE
  5
1F5
100
AcDbSymbolTableRecord
100
AcDbLinetypeTableRecord
  2
CENTER
 70
64
  3
____ _ ____ _ ____ _ ____ _ ____ _ ____ _ ____
 72
65
 73
4
 40
0.6
 49
0.375
 74
0
 49
-0.075
 74
0
 49
0.075
 74
0
 49
-0.075
 74
0
  0
LTYPE
  5
1F6
100
AcDbSymbolTableRecord
100
AcDbLinetypeTableRecord
  2
HIDDEN
 70
64
  3
- - - - - - - - - - - - - - - - - - - -
 72
65
 73
2
 40
0.2
 49
0.1
 74
0
 49
-0.1
 74
0
  0
LTYPE
  5
1F7
100
AcDbSymbolTableRecord
100
AcDbLinetypeTableRecord
  2
PHANTOM
 70
64
  3
_____ _ _ _____ _ _ _____ _ _ _____
 72
65
 73
6
 40
0.8
 49
0.45
 74
0
 49
-0.05
 74
0
 49
0.1
 74
0
 49
-0.05
 74
0
 49
0.1
 74
0
 49
-0.05
 74
0
  0
LTYPE
  5
1F8
100
AcDbSymbolTableRecord
100
AcDbLinetypeTableRecord
  2
DOT
 70
64
  3
. . . . . . . . . . . . . . . . . . . .
 72
65
 73
2
 40
0.2
 49
0.1
 74
0
 49
-0.1
 74
0
  0
LTYPE
  5
1F9
100
AcDbSymbolTableRecord
100
AcDbLinetypeTableRecord
  2
DASHED
 70
64
  3
- - - - - - - - - - - - - - - - - - - -
 72
65
 73
2
 40
0.2
 49
0.1
 74
0
 49
-0.1
 74
0
  0
ENDTAB
  0
TABLE
  2
LAYER
  5
2
100
AcDbSymbolTable
 70
36
  0
LAYER
  5
10
100
AcDbSymbolTableRecord
100
AcDbLayerTableRecord
  2
0
 70
0
 62
7
  6
CONTINUOUS
370
-3
390
F
  0
LAYER
  5
1FA
100
AcDbSymbolTableRecord
100
AcDbLayerTableRecord
  2
DEFAULT_1
 70
0
 62
7
  6
CENTER
370
-3
390
F
  0
LAYER
  5
1FB
100
AcDbSymbolTableRecord
100
AcDbLayerTableRecord
  2
DEFAULT_2
 70
0
 62
8
  6
HIDDEN
370
-3
390
F
  0
LAYER
  5
1FC
100
AcDbSymbolTableRecord
100
AcDbLayerTableRecord
  2
DEFAULT_3
 70
0
 62
7
  6
PHANTOM
370
-3
390
F
  0
LAYER
  5
1FD
100
AcDbSymbolTableRecord
100
AcDbLayerTableRecord
  2
00_COMPONENTS
 70
0
 62
7
  6
CONTINUOUS
370
-3
390
F
  0
LAYER
  5
1FE
100
AcDbSymbolTableRecord
100
AcDbLayerTableRecord
  2
01_1_DEFAULT_DATUMS
 70
0
 62
7
  6
CONTINUOUS
370
-3
390
F
  0
LAYER
  5
1FF
100
AcDbSymbolTableRecord
100
AcDbLayerTableRecord
  2
01_PLANES
 70
0
 62
7
  6
CONTINUOUS
370
-3
390
F
  0
LAYER
  5
200
100
AcDbSymbolTableRecord
100
AcDbLayerTableRecord
  2
02_COORD_SYS
 70
0
 62
7
  6
CONTINUOUS
370
-3
390
F
  0
LAYER
  5
201
100
AcDbSymbolTableRecord
100
AcDbLayerTableRecord
  2
03_AXES
 70
0
 62
7
  6
CONTINUOUS
370
-3
390
F
  0
LAYER
  5
202
100
AcDbSymbolTableRecord
100
AcDbLayerTableRecord
  2
04_POINTS
 70
0
 62
7
  6
CONTINUOUS
370
-3
390
F
  0
LAYER
  5
203
100
AcDbSymbolTableRecord
100
AcDbLayerTableRecord
  2
05_CURVES
 70
0
 62
7
  6
CONTINUOUS
370
-3
390
F
  0
LAYER
  5
204
100
AcDbSymbolTableRecord
100
AcDbLayerTableRecord
  2
06_SURFS
 70
0
 62
7
  6
CONTINUOUS
370
-3
390
F
  0
LAYER
  5
205
100
AcDbSymbolTableRecord
100
AcDbLayerTableRecord
  2
07_COSMETICS
 70
0
 62
7
  6
CONTINUOUS
370
-3
390
F
  0
LAYER
  5
206
100
AcDbSymbolTableRecord
100
AcDbLayerTableRecord
  2
10_NOTES
 70
0
 62
7
  6
CONTINUOUS
370
-3
390
F
  0
LAYER
  5
207
100
AcDbSymbolTableRecord
100
AcDbLayerTableRecord
  2
11_NOTES_PUB
 70
0
 62
7
  6
CONTINUOUS
370
-3
390
F
  0
LAYER
  5
208
100
AcDbSymbolTableRecord
100
AcDbLayerTableRecord
  2
13_REF_GTOL
 70
0
 62
7
  6
CONTINUOUS
370
-3
390
F
  0
LAYER
  5
209
100
AcDbSymbolTableRecord
100
AcDbLayerTableRecord
  2
16_MISC
 70
0
 62
7
  6
CONTINUOUS
370
-3
390
F
  0
LAYER
  5
20A
100
AcDbSymbolTableRecord
100
AcDbLayerTableRecord
  2
17_NO_PRINT
 70
0
 62
7
  6
CONTINUOUS
370
-3
390
F
  0
LAYER
  5
20B
100
AcDbSymbolTableRecord
100
AcDbLayerTableRecord
  2
18_DATUM_CAMS_JOINTS
 70
0
 62
7
  6
CONTINUOUS
370
-3
390
F
  0
LAYER
  5
20C
100
AcDbSymbolTableRecord
100
AcDbLayerTableRecord
  2
19_DATUM_FUNCTIONAL
 70
0
 62
7
  6
CONTINUOUS
370
-3
390
F
  0
LAYER
  5
20D
100
AcDbSymbolTableRecord
100
AcDbLayerTableRecord
  2
20_DATUM_KINEMATIC_SCHEME
 70
0
 62
7
  6
CONTINUOUS
370
-3
390
F
  0
LAYER
  5
20E
100
AcDbSymbolTableRecord
100
AcDbLayerTableRecord
  2
_1
 70
0
 62
7
  6
CONTINUOUS
370
-3
390
F
  0
ENDTAB
  0
TABLE
  2
STYLE
  5
3
100
AcDbSymbolTable
 70
1
  0
STYLE
  5
11
100
AcDbSymbolTableRecord
100
AcDbTextStyleTableRecord
  2
STANDARD
 70
0
 40
0.0
 41
0.8
 50
0.0
 71
0
 42
0.2
  3
txt
  4

  0
STYLE
  5
20F
100
AcDbSymbolTableRecord
100
AcDbTextStyleTableRecord
  2
TEXTSTYLE_1
 70
0
 40
0.0
 41
0.8
 50
0.0
 71
0
 42
0.2
  3
gdt
  4

  0
ENDTAB
  0
TABLE
  2
VIEW
  5
6
100
AcDbSymbolTable
 70
0
  0
ENDTAB
  0
TABLE
  2
UCS
  5
7
100
AcDbSymbolTable
 70
0
  0
ENDTAB
  0
TABLE
  2
APPID
  5
9
100
AcDbSymbolTable
 70
1
  0
APPID
  5
210
100
AcDbSymbolTableRecord
100
AcDbRegAppTableRecord
  2
ACAD
 70
0
  0
ENDTAB
  0
TABLE
  2
BLOCK_RECORD
  5
1
100
AcDbSymbolTable
 70
0
  0
BLOCK_RECORD
  5
211
100
AcDbSymbolTableRecord
100
AcDbBlockTableRecord
  2
*Model_Space
  0
BLOCK_RECORD
  5
212
100
AcDbSymbolTableRecord
100
AcDbBlockTableRecord
  2
*Paper_Space
  0
BLOCK_RECORD
  5
213
100
AcDbSymbolTableRecord
100
AcDbBlockTableRecord
  2
_FILLED
  0
ENDTAB
  0
TABLE
  2
DIMSTYLE
  5
A
100
AcDbSymbolTable
 70
1
100
AcDbDimStyleTable
 71
0
  0
DIMSTYLE
105
214
100
AcDbSymbolTableRecord
100
AcDbDimStyleTableRecord
  2
STANDARD
 70
0
  3

  4

 40
1.0
 41
3.5619488098
 42
1.0
 43
0.38
 44
1.0
 45
0.0
 46
0.0
 47
0.01
 48
0.01
140
4.9867283337
141
0.09
142
0.0
143
25.4
144
1.0
145
0.0
146
1.0
147
0.625
 71
1
 72
0
 73
0
 74
0
 75
0
 76
0
 77
1
 78
8
 79
2
170
0
171
1
172
0
173
0
174
0
175
0
176
0
177
0
178
0
270
2
179
2
271
2
272
2
273
2
274
2
275
0
280
0
281
0
282
0
283
1
284
8
285
0
286
0
287
3
288
0
340
11
278
46
341
213
342
213
343
213
344
213
  0
ENDTAB
  0
ENDSEC
  0
SECTION
  2
BLOCKS
  0
BLOCK
  5
20
100
AcDbEntity
  8
0
100
AcDbBlockBegin
  2
*Model_Space
 70
0
 10
0.0
 20
0.0
 30
0.0
  3
*Model_Space
  1

  0
ENDBLK
  5
21
100
AcDbEntity
  8
0
100
AcDbBlockEnd
  0
BLOCK
  5
1C
100
AcDbEntity
  8
0
100
AcDbBlockBegin
  2
*Paper_Space
 70
0
 10
0.0
 20
0.0
 30
0.0
  3
*Paper_Space
  1

  0
ENDBLK
  5
1D
100
AcDbEntity
  8
0
100
AcDbBlockEnd
  0
BLOCK
  5
215
100
AcDbEntity
  8
0
100
AcDbBlockBegin
  2
_FILLED
 70
64
 10
0.0
 20
0.0
  3
_FILLED
  1

  0
SOLID
  5
216
100
AcDbEntity
  8
0
  6
BYBLOCK
 62
0
100
AcDbTrace
 10
0.0
 20
0.0
 11
-1.0
 21
0.25
 12
-1.0
 22
-0.25
 13
-1.0
 23
-0.25
  0
ENDBLK
  5
217
100
AcDbEntity
  8
0
  6
BYBLOCK
 62
0
100
AcDbBlockEnd
  0
ENDSEC
  0
SECTION
  2
ENTITIES
  0
LINE
  5
218
100
AcDbEntity
  8
_1
100
AcDbLine
 62
7
  6
CONTINUOUS
 10
62.3606033384
 20
314.2347592998
 11
62.3390655461
 21
314.2047592998
  0
LINE
  5
219
100
AcDbEntity
  8
_1
100
AcDbLine
 62
7
  6
CONTINUOUS
 10
62.7606033384
 20
314.2347592998
 11
62.7390655461
 21
314.2047592998
  0
LINE
  5
21A
100
AcDbEntity
  8
_1
100
AcDbLine
 62
7
  6
CONTINUOUS
 10
63.1606033384
 20
314.2347592998
 11
63.1390655461
 21
314.2047592998
  0
LINE
  5
21B
100
AcDbEntity
  8
_1
100
AcDbLine
 62
7
  6
CONTINUOUS
 10
63.5606033384
 20
314.2347592998
 11
63.5390655461
 21
314.2047592998
  0
LINE
  5
21C
100
AcDbEntity
  8
_1
100
AcDbLine
 62
7
  6
CONTINUOUS
 10
63.9606033384
 20
314.2347592998
 11
63.9390655461
 21
314.2047592998
  0
LINE
  5
21D
100
AcDbEntity
  8
_1
100
AcDbLine
 62
7
  6
CONTINUOUS
 10
64.3606033384
 20
314.2347592998
 11
64.3390655461
 21
314.2047592998
  0
LINE
  5
21E
100
AcDbEntity
  8
_1
100
AcDbLine
 62
7
  6
CONTINUOUS
 10
62.3606033384
 20
310.7347592998
 11
62.3390655461
 21
310.7047592998
  0
LINE
  5
21F
100
AcDbEntity
  8
_1
100
AcDbLine
 62
7
  6
CONTINUOUS
 10
62.7606033384
 20
310.7347592998
 11
62.7390655461
 21
310.7047592998
  0
LINE
  5
220
100
AcDbEntity
  8
_1
100
AcDbLine
 62
7
  6
CONTINUOUS
 10
47.8997776367
 20
301.4247592998
 11
43.7390655461
 21
298.5113973296
  0
LINE
  5
221
100
AcDbEntity
  8
_1
100
AcDbLine
 62
7
  6
CONTINUOUS
 10
44.5522773279
 20
298.3483495962
 11
48.945845714
 21
301.4247592998
  0
LINE
  5
222
100
AcDbEntity
  8
0
100
AcDbLine
 62
7
  6
CONTINUOUS
 10
57.9247061921
 20
317.1747592998
 11
56.5390655461
 21
316.3747592998
  0
LINE
  5
223
100
AcDbEntity
  8
0
100
AcDbLine
 62
7
  6
CONTINUOUS
 10
70.5415655461
 20
76.2297592998
 11
159.8308874274
 21
76.2297592998
  0
LINE
  5
224
100
AcDbEntity
  8
0
100
AcDbLine
 62
7
  6
CONTINUOUS
 10
266.5415655461
 20
76.2297592998
 11
270.5415655461
 21
76.2297592998
  0
LINE
  5
225
100
AcDbEntity
  8
0
100
AcDbLine
 62
7
  6
CONTINUOUS
 10
107.7915655461
 20
78.1347592998
 11
74.5415655461
 21
78.1347592998
  0
LINE
  5
226
100
AcDbEntity
  8
0
100
AcDbLine
 62
7
  6
CONTINUOUS
 10
74.5049099097
 20
78.3297592998
 11
107.7915655461
 21
78.3297592998
  0
LINE
  5
227
100
AcDbEntity
  8
0
100
AcDbLine
 62
7
  6
CONTINUOUS
 10
74.5049099097
 20
79.3297592998
 11
82.2978031285
 21
79.3297592998
  0
LINE
  5
228
100
AcDbEntity
  8
0
100
AcDbLine
 62
7
  6
CONTINUOUS
 10
82.2978031285
 20
80.8297592998
 11
87.7970803981
 21
80.8297592998
  0
LINE
  5
229
100
AcDbEntity
  8
0
100
AcDbLine
 62
7
  6
CONTINUOUS
 10
82.2978031285
 20
80.8322721351
 11
74.5049099097
 21
80.8322721351
  0
LINE
  5
22A
100
AcDbEntity
  8
0
100
AcDbLine
 62
7
  6
CONTINUOUS
 10
69.4415655461
 20
81.2297592998
 11
70.5415655461
 21
81.2297592998
  0
LINE
  5
22B
100
AcDbEntity
  8
0
100
AcDbLine
 62
7
  6
CONTINUOUS
 10
66.1051542966
 20
86.6915445822
 11
65.7677729096
 21
86.7270047949
  0
LINE
  5
22C
100
AcDbEntity
  8
_1
100
AcDbLine
 62
7
  6
CONTINUOUS
 10
33.8415655461
 20
142.2997592998
 11
33.8415655461
 21
111.7997592998
  0
LINE
  5
22D
100
AcDbEntity
  8
_1
100
AcDbLine
 62
7
  6
CONTINUOUS
 10
63.1606033384
 20
310.7347592998
 11
63.1390655461
 21
310.7047592998
  0
LINE
  5
22E
100
AcDbEntity
  8
_1
100
AcDbLine
 62
7
  6
CONTINUOUS
 10
63.5606033384
 20
310.7347592998
 11
63.5390655461
 21
310.7047592998
  0
LINE
  5
22F
100
AcDbEntity
  8
_1
100
AcDbLine
 62
7
  6
CONTINUOUS
 10
63.9606033384
 20
310.7347592998
 11
63.9390655461
 21
310.7047592998
  0
LINE
  5
230
100
AcDbEntity
  8
_1
100
AcDbLine
 62
7
  6
CONTINUOUS
 10
64.3606033384
 20
310.7347592998
 11
64.3390655461
 21
310.7047592998
  0
LINE
  5
231
100
AcDbEntity
  8
_1
100
AcDbLine
 62
7
  6
CONTINUOUS
 10
62.3606033384
 20
307.2347592998
 11
62.3390655461
 21
307.2047592998
  0
LINE
  5
232
100
AcDbEntity
  8
_1
100
AcDbLine
 62
7
  6
CONTINUOUS
 10
62.7606033384
 20
307.2347592998
 11
62.7390655461
 21
307.2047592998
  0
LINE
  5
233
100
AcDbEntity
  8
_1
100
AcDbLine
 62
7
  6
CONTINUOUS
 10
63.1606033384
 20
307.2347592998
 11
63.1390655461
 21
307.2047592998
  0
LINE
  5
234
100
AcDbEntity
  8
_1
100
AcDbLine
 62
7
  6
CONTINUOUS
 10
63.5606033384
 20
307.2347592998
 11
63.5390655461
 21
307.2047592998
  0
LINE
  5
235
100
AcDbEntity
  8
_1
100
AcDbLine
 62
7
  6
CONTINUOUS
 10
63.9606033384
 20
307.2347592998
 11
63.9390655461
 21
307.2047592998
  0
LINE
  5
236
100
AcDbEntity
  8
_1
100
AcDbLine
 62
7
  6
CONTINUOUS
 10
64.3606033384
 20
307.2347592998
 11
64.3390655461
 21
307.2047592998
  0
LINE
  5
237
100
AcDbEntity
  8
_1
100
AcDbLine
 62
7
  6
CONTINUOUS
 10
62.3606033384
 20
303.7347592998
 11
62.3390655461
 21
303.7047592998
  0
LINE
  5
238
100
AcDbEntity
  8
_1
100
AcDbLine
 62
7
  6
CONTINUOUS
 10
62.7606033384
 20
303.7347592998
 11
62.7390655461
 21
303.7047592998
  0
LINE
  5
239
100
AcDbEntity
  8
_1
100
AcDbLine
 62
7
  6
CONTINUOUS
 10
63.1606033384
 20
303.7347592998
 11
63.1390655461
 21
303.7047592998
  0
LINE
  5
23A
100
AcDbEntity
  8
_1
100
AcDbLine
 62
7
  6
CONTINUOUS
 10
63.5606033384
 20
303.7347592998
 11
63.5390655461
 21
303.7047592998
  0
LINE
  5
23B
100
AcDbEntity
  8
_1
100
AcDbLine
 62
7
  6
CONTINUOUS
 10
63.9606033384
 20
303.7347592998
 11
63.9390655461
 21
303.7047592998
  0
LINE
  5
23C
100
AcDbEntity
  8
_1
100
AcDbLine
 62
7
  6
CONTINUOUS
 10
64.3606033384
 20
303.7347592998
 11
64.3390655461
 21
303.7047592998
  0
LINE
  5
23D
100
AcDbEntity
  8
0
100
AcDbLine
 62
7
  6
CONTINUOUS
 10
112.0415655461
 20
83.9565745461
 11
110.7552323633
 21
83.7297592998
  0
LINE
  5
23E
100
AcDbEntity
  8
0
100
AcDbLine
 62
7
  6
CONTINUOUS
 10
69.4415655461
 20
81.4797592998
 11
67.2415655461
 21
81.4797592998
  0
LINE
  5
23F
100
AcDbEntity
  8
0
100
AcDbLine
 62
7
  6
CONTINUOUS
 10
67.2415655461
 20
81.5061483929
 11
67.0143242101
 21
81.5061483929
  0
LINE
  5
240
100
AcDbEntity
  8
0
100
AcDbLine
 62
7
  6
CONTINUOUS
 10
107.7970803981
 20
83.3193463875
 11
112.0415655461
 21
83.3193463875
  0
LINE
  5
241
100
AcDbEntity
  8
0
100
AcDbLine
 62
7
  6
CONTINUOUS
 10
112.0415655461
 20
83.3717182306
 11
111.7915655461
 21
83.3717182306
  0
LINE
  5
242
100
AcDbEntity
  8
0
100
AcDbLine
 62
7
  6
CONTINUOUS
 10
107.7970803981
 20
83.5306845223
 11
111.7915655461
 21
83.5306845223
  0
LINE
  5
243
100
AcDbEntity
  8
0
100
AcDbLine
 62
7
  6
CONTINUOUS
 10
74.5415655461
 20
83.7297592998
 11
87.7970803981
 21
83.7297592998
  0
LINE
  5
244
100
AcDbEntity
  8
0
100
AcDbLine
 62
7
  6
CONTINUOUS
 10
107.7970803981
 20
83.7297592998
 11
110.7552323633
 21
83.7297592998
  0
LINE
  5
245
100
AcDbEntity
  8
0
100
AcDbLine
 62
7
  6
CONTINUOUS
 10
74.5415655461
 20
88.7297592998
 11
87.7970803981
 21
88.7297592998
  0
LINE
  5
246
100
AcDbEntity
  8
0
100
AcDbLine
 62
7
  6
CONTINUOUS
 10
107.7970803981
 20
88.7297592998
 11
110.7552323633
 21
88.7297592998
  0
LINE
  5
247
100
AcDbEntity
  8
0
100
AcDbLine
 62
7
  6
CONTINUOUS
 10
111.7915655461
 20
88.7669293759
 11
107.7970803981
 21
88.7669293759
  0
LINE
  5
248
100
AcDbEntity
  8
0
100
AcDbLine
 62
7
  6
CONTINUOUS
 10
67.2415655461
 20
90.9533702067
 11
67.0143242101
 21
90.9533702067
  0
LINE
  5
249
100
AcDbEntity
  8
0
100
AcDbLine
 62
7
  6
CONTINUOUS
 10
69.4415655461
 20
90.9797592998
 11
67.2415655461
 21
90.9797592998
  0
LINE
  5
24A
100
AcDbEntity
  8
0
100
AcDbLine
 62
7
  6
CONTINUOUS
 10
69.4415655461
 20
91.2297592998
 11
70.5415655461
 21
91.2297592998
  0
LINE
  5
24B
100
AcDbEntity
  8
0
100
AcDbLine
 62
7
  6
CONTINUOUS
 10
111.7915655461
 20
91.2868606911
 11
112.0415655461
 21
91.2868606911
  0
LINE
  5
24C
100
AcDbEntity
  8
0
100
AcDbLine
 62
7
  6
CONTINUOUS
 10
82.2978031285
 20
91.6272464645
 11
74.5049099097
 21
91.6272464645
  0
LINE
  5
24D
100
AcDbEntity
  8
0
100
AcDbLine
 62
7
  6
CONTINUOUS
 10
87.7970803981
 20
91.6297592998
 11
82.2978031285
 21
91.6297592998
  0
LINE
  5
24E
100
AcDbEntity
  8
0
100
AcDbLine
 62
7
  6
CONTINUOUS
 10
107.7970803981
 20
92.0148011596
 11
112.0415655461
 21
92.0148011596
  0
LINE
  5
24F
100
AcDbEntity
  8
0
100
AcDbLine
 62
7
  6
CONTINUOUS
 10
74.5049099097
 20
93.1297592998
 11
82.2978031285
 21
93.1297592998
  0
LINE
  5
250
100
AcDbEntity
  8
0
100
AcDbLine
 62
7
  6
CONTINUOUS
 10
112.0415655461
 20
88.5029440535
 11
110.7552323633
 21
88.7297592998
  0
LINE
  5
251
100
AcDbEntity
  8
_1
100
AcDbLine
 62
7
  6
CONTINUOUS
 10
42.8915655461
 20
141.1138762506
 11
48.2387187064
 21
137.3697592998
  0
LINE
  5
252
100
AcDbEntity
  8
_1
100
AcDbLine
 62
7
  6
CONTINUOUS
 10
49.4591314633
 20
137.3697592998
 11
44.4047773279
 21
140.9088561662
  0
LINE
  5
253
100
AcDbEntity
  8
0
100
AcDbLine
 62
7
  6
CONTINUOUS
 10
54.262492576
 20
109.9660703053
 11
54.0255348554
 21
110.7297592998
  0
LINE
  5
254
100
AcDbEntity
  8
_1
100
AcDbLine
 62
7
  6
CONTINUOUS
 10
34.8415655461
 20
108.3997592998
 11
34.8415655461
 21
107.3497592998
  0
LINE
  5
255
100
AcDbEntity
  8
_1
100
AcDbLine
 62
7
  6
CONTINUOUS
 10
34.8415655461
 20
145.6997592998
 11
34.8415655461
 21
146.7497592998
  0
LINE
  5
256
100
AcDbEntity
  8
_1
100
AcDbLine
 62
7
  6
CONTINUOUS
 10
34.9715655461
 20
111.7997592998
 11
34.9715655461
 21
142.2997592998
  0
LINE
  5
257
100
AcDbEntity
  8
_1
100
AcDbLine
 62
7
  6
CONTINUOUS
 10
42.1915655461
 20
127.0697592998
 11
42.1915655461
 21
137.3697592998
  0
LINE
  5
258
100
AcDbEntity
  8
_1
100
AcDbLine
 62
7
  6
CONTINUOUS
 10
42.8915655461
 20
120.5697592998
 11
42.8915655461
 21
123.3256423489
  0
LINE
  5
259
100
AcDbEntity
  8
_1
100
AcDbLine
 62
7
  6
CONTINUOUS
 10
42.8915655461
 20
141.1138762506
 11
42.8915655461
 21
143.8697592998
  0
LINE
  5
25A
100
AcDbEntity
  8
_1
100
AcDbLine
 62
7
  6
CONTINUOUS
 10
43.0390655461
 20
301.4247592998
 11
43.0390655461
 21
316.1247592998
  0
LINE
  5
25B
100
AcDbEntity
  8
_1
100
AcDbLine
 62
7
  6
CONTINUOUS
 10
43.7390655461
 20
321.1247592998
 11
43.7390655461
 21
319.0381212699
  0
LINE
  5
25C
100
AcDbEntity
  8
_1
100
AcDbLine
 62
7
  6
CONTINUOUS
 10
43.7390655461
 20
298.5113973296
 11
43.7390655461
 21
296.4247592998
  0
LINE
  5
25D
100
AcDbEntity
  8
_1
100
AcDbLine
 62
7
  6
CONTINUOUS
 10
102.1656824969
 20
345.0277592998
 11
97.9215655461
 21
338.9665321361
  0
LINE
  5
25E
100
AcDbEntity
  8
_1
100
AcDbLine
 62
7
  6
CONTINUOUS
 10
97.9215655461
 20
337.7461193791
 11
101.9606624125
 21
343.514547518
  0
LINE
  5
25F
100
AcDbEntity
  8
0
100
AcDbLine
 62
7
  6
CONTINUOUS
 10
66.1051542966
 20
85.7679740174
 11
65.7677729096
 21
85.7325138047
  0
LINE
  5
260
100
AcDbEntity
  8
0
100
AcDbLine
 62
7
  6
CONTINUOUS
 10
74.5049099097
 20
94.1297592998
 11
107.7915655461
 21
94.1297592998
  0
LINE
  5
261
100
AcDbEntity
  8
0
100
AcDbLine
 62
7
  6
CONTINUOUS
 10
74.5415655461
 20
94.3247592998
 11
107.7915655461
 21
94.3247592998
  0
LINE
  5
262
100
AcDbEntity
  8
0
100
AcDbLine
 62
7
  6
CONTINUOUS
 10
270.5415655461
 20
96.2297592998
 11
53.5420144603
 21
96.2297592998
  0
LINE
  5
263
100
AcDbEntity
  8
0
100
AcDbLine
 62
7
  6
CONTINUOUS
 10
53.692257526
 20
98.9797592998
 11
54.8463459291
 21
98.9797592998
  0
LINE
  5
264
100
AcDbEntity
  8
0
100
AcDbLine
 62
7
  6
CONTINUOUS
 10
51.5415655461
 20
99.2297592998
 11
54.8463459291
 21
99.2297592998
  0
LINE
  5
265
100
AcDbEntity
  8
0
100
AcDbLine
 62
7
  6
CONTINUOUS
 10
50.4415655461
 20
99.7297592998
 11
51.5415655461
 21
99.7297592998
  0
LINE
  5
266
100
AcDbEntity
  8
0
100
AcDbLine
 62
7
  6
CONTINUOUS
 10
49.3415655461
 20
99.9797592998
 11
47.1415655461
 21
99.9797592998
  0
LINE
  5
267
100
AcDbEntity
  8
0
100
AcDbLine
 62
7
  6
CONTINUOUS
 10
47.1415655461
 20
100.0061483929
 11
46.9143242101
 21
100.0061483929
  0
LINE
  5
268
100
AcDbEntity
  8
0
100
AcDbLine
 62
7
  6
CONTINUOUS
 10
49.3415655461
 20
100.4797592998
 11
50.4415655461
 21
100.4797592998
  0
LINE
  5
269
100
AcDbEntity
  8
0
100
AcDbLine
 62
7
  6
CONTINUOUS
 10
51.5415655461
 20
104.7297592998
 11
54.8463459291
 21
104.7297592998
  0
LINE
  5
26A
100
AcDbEntity
  8
0
100
AcDbLine
 62
7
  6
CONTINUOUS
 10
45.6677729096
 20
105.2270047949
 11
46.0051542966
 21
105.1915445822
  0
LINE
  5
26B
100
AcDbEntity
  8
_1
100
AcDbLine
 62
7
  6
CONTINUOUS
 10
34.8415655461
 20
145.6997592998
 11
42.1328890758
 21
142.2997592998
  0
LINE
  5
26C
100
AcDbEntity
  8
_1
100
AcDbLine
 62
7
  6
CONTINUOUS
 10
42.8915655461
 20
142.9959826516
 11
38.1153203731
 21
145.223182353
  0
LINE
  5
26D
100
AcDbEntity
  8
_1
100
AcDbLine
 62
7
  6
CONTINUOUS
 10
43.5415655461
 20
145.6997592998
 11
46.0415655461
 21
143.9497592998
  0
LINE
  5
26E
100
AcDbEntity
  8
0
100
AcDbLine
 62
7
  6
CONTINUOUS
 10
52.7998200266
 20
258.1325854509
 11
52.7984270398
 21
258.1503481044
  0
LINE
  5
26F
100
AcDbEntity
  8
0
100
AcDbLine
 62
7
  6
CONTINUOUS
 10
53.542014473
 20
261.979758923
 11
53.569869535
 21
261.5572731762
  0
LINE
  5
270
100
AcDbEntity
  8
0
100
AcDbLine
 62
7
  6
CONTINUOUS
 10
53.5616955492
 20
261.6827866469
 11
53.5750654809
 21
261.4561604402
  0
LINE
  5
271
100
AcDbEntity
  8
0
100
AcDbLine
 62
7
  6
CONTINUOUS
 10
52.7998200266
 20
239.0534754179
 11
52.7951394454
 21
239.180245791
  0
LINE
  5
272
100
AcDbEntity
  8
0
100
AcDbLine
 62
7
  6
CONTINUOUS
 10
52.6631573892
 20
243.6769536425
 11
52.6604135578
 21
243.8029351513
  0
LINE
  5
273
100
AcDbEntity
  8
0
100
AcDbLine
 62
7
  6
CONTINUOUS
 10
53.3815655461
 20
239.0147737893
 11
53.3781193955
 21
242.3086404627
  0
LINE
  5
274
100
AcDbEntity
  8
0
100
AcDbLine
 62
7
  6
CONTINUOUS
 10
46.9143242101
 20
100.0061483929
 11
46.9143242101
 21
109.4533702067
  0
LINE
  5
275
100
AcDbEntity
  8
0
100
AcDbLine
 62
7
  6
CONTINUOUS
 10
47.1415655461
 20
99.9797621636
 11
47.1415655461
 21
100.0061483929
  0
LINE
  5
276
100
AcDbEntity
  8
0
100
AcDbLine
 62
7
  6
CONTINUOUS
 10
47.1415655461
 20
109.4533702067
 11
47.1415655461
 21
109.479756436
  0
LINE
  5
277
100
AcDbEntity
  8
_1
100
AcDbLine
 62
7
  6
CONTINUOUS
 10
49.1415655461
 20
146.7497592998
 11
49.1415655461
 21
143.9497592998
  0
LINE
  5
278
100
AcDbEntity
  8
_1
100
AcDbLine
 62
7
  6
CONTINUOUS
 10
49.1415655461
 20
109.4797592998
 11
49.1415655461
 21
110.1497592998
  0
LINE
  5
279
100
AcDbEntity
  8
0
100
AcDbLine
 62
7
  6
CONTINUOUS
 10
49.3415655461
 20
109.4791245744
 11
49.3415655461
 21
99.9803940252
  0
LINE
  5
27A
100
AcDbEntity
  8
0
100
AcDbLine
 62
7
  6
CONTINUOUS
 10
50.4415655461
 20
99.7304274318
 11
50.4415655461
 21
109.7290911678
  0
LINE
  5
27B
100
AcDbEntity
  8
0
100
AcDbLine
 62
7
  6
CONTINUOUS
 10
51.5415655461
 20
99.2297592998
 11
51.5415655461
 21
110.2297592998
  0
LINE
  5
27C
100
AcDbEntity
  8
0
100
AcDbLine
 62
7
  6
CONTINUOUS
 10
52.8254109375
 20
245.7020624636
 11
52.8254109375
 21
249.9984504731
  0
LINE
  5
27D
100
AcDbEntity
  8
0
100
AcDbLine
 62
7
  6
CONTINUOUS
 10
52.8254109375
 20
250.4610682892
 11
52.8254109375
 21
254.7574560726
  0
LINE
  5
27E
100
AcDbEntity
  8
0
100
AcDbLine
 62
7
  6
CONTINUOUS
 10
53.3779702954
 20
242.3163700711
 11
53.3778612618
 21
250.2297592998
  0
LINE
  5
27F
100
AcDbEntity
  8
0
100
AcDbLine
 62
7
  6
CONTINUOUS
 10
53.3815655461
 20
250.2297592998
 11
53.3797123212
 21
258.1506907058
  0
LINE
  5
280
100
AcDbEntity
  8
_1
100
AcDbLine
 62
7
  6
CONTINUOUS
 10
53.4115655461
 20
142.2997592998
 11
53.4115655461
 21
142.0147994627
  0
LINE
  5
281
100
AcDbEntity
  8
_1
100
AcDbLine
 62
7
  6
CONTINUOUS
 10
53.4115655461
 20
140.2885742225
 11
53.4115655461
 21
137.3697592998
  0
LINE
  5
282
100
AcDbEntity
  8
_1
100
AcDbLine
 62
7
  6
CONTINUOUS
 10
53.4115655461
 20
127.0697592998
 11
53.4115655461
 21
124.150944377
  0
LINE
  5
283
100
AcDbEntity
  8
_1
100
AcDbLine
 62
7
  6
CONTINUOUS
 10
53.4115655461
 20
122.4247191368
 11
53.4115655461
 21
111.7997592998
  0
LINE
  5
284
100
AcDbEntity
  8
0
100
AcDbLine
 62
7
  6
CONTINUOUS
 10
53.5420144603
 20
329.2293786564
 11
53.5420144603
 21
319.3962349157
  0
LINE
  5
285
100
AcDbEntity
  8
0
100
AcDbLine
 62
7
  6
CONTINUOUS
 10
53.5420144603
 20
318.5838936262
 11
53.5420144603
 21
316.1247592998
  0
LINE
  5
286
100
AcDbEntity
  8
0
100
AcDbLine
 62
7
  6
CONTINUOUS
 10
53.5420144603
 20
301.4247592998
 11
53.5420144603
 21
298.9656249734
  0
LINE
  5
287
100
AcDbEntity
  8
0
100
AcDbLine
 62
7
  6
CONTINUOUS
 10
53.5420144603
 20
298.1532836839
 11
53.5420144603
 21
285.7297592998
  0
LINE
  5
288
100
AcDbEntity
  8
0
100
AcDbLine
 62
7
  6
CONTINUOUS
 10
53.5420144603
 20
282.7297592998
 11
53.5420144603
 21
280.2297592998
  0
LINE
  5
289
100
AcDbEntity
  8
0
100
AcDbLine
 62
7
  6
CONTINUOUS
 10
53.5420144603
 20
270.2297592998
 11
53.542014473
 21
261.979758923
  0
LINE
  5
28A
100
AcDbEntity
  8
0
100
AcDbLine
 62
7
  6
CONTINUOUS
 10
53.5420144603
 20
238.4797592819
 11
53.5420144603
 21
173.6797592998
  0
LINE
  5
28B
100
AcDbEntity
  8
0
100
AcDbLine
 62
7
  6
CONTINUOUS
 10
53.5420144603
 20
154.7797592998
 11
53.5420144603
 21
148.2297592998
  0
LINE
  5
28C
100
AcDbEntity
  8
0
100
AcDbLine
 62
7
  6
CONTINUOUS
 10
53.5420144603
 20
99.2297592998
 11
53.5420144603
 21
96.2297592998
  0
LINE
  5
28D
100
AcDbEntity
  8
0
100
AcDbLine
 62
7
  6
CONTINUOUS
 10
53.5484431499
 20
282.7297592998
 11
53.5484431499
 21
285.7297592998
  0
LINE
  5
28E
100
AcDbEntity
  8
0
100
AcDbLine
 62
7
  6
CONTINUOUS
 10
53.5564793439
 20
155.7797592998
 11
53.5564793439
 21
172.6797592998
  0
LINE
  5
28F
100
AcDbEntity
  8
0
100
AcDbLine
 62
7
  6
CONTINUOUS
 10
53.5591653008
 20
148.2297592998
 11
53.5591653008
 21
142.2997592998
  0
LINE
  5
290
100
AcDbEntity
  8
0
100
AcDbLine
 62
7
  6
CONTINUOUS
 10
53.5591653008
 20
111.7997592998
 11
53.5591653008
 21
110.2297592998
  0
LINE
  5
291
100
AcDbEntity
  8
0
100
AcDbLine
 62
7
  6
CONTINUOUS
 10
53.5854770003
 20
296.7297592998
 11
53.5854770003
 21
298.1609473023
  0
LINE
  5
292
100
AcDbEntity
  8
0
100
AcDbLine
 62
7
  6
CONTINUOUS
 10
53.5854770003
 20
298.9732885918
 11
53.5854770003
 21
301.4247592998
  0
LINE
  5
293
100
AcDbEntity
  8
0
100
AcDbLine
 62
7
  6
CONTINUOUS
 10
53.5854770003
 20
316.1247592998
 11
53.5854770003
 21
318.5762300077
  0
LINE
  5
294
100
AcDbEntity
  8
0
100
AcDbLine
 62
7
  6
CONTINUOUS
 10
53.5854770003
 20
319.3885712972
 11
53.5854770003
 21
320.7297592998
  0
LINE
  5
295
100
AcDbEntity
  8
0
100
AcDbLine
 62
7
  6
CONTINUOUS
 10
53.6060223137
 20
121.4497592998
 11
53.6060223137
 21
118.9497592998
  0
LINE
  5
296
100
AcDbEntity
  8
0
100
AcDbLine
 62
7
  6
CONTINUOUS
 10
53.6811910364
 20
242.2957641379
 11
53.6811910364
 21
258.1637544617
  0
LINE
  5
297
100
AcDbEntity
  8
0
100
AcDbLine
 62
7
  6
CONTINUOUS
 10
53.692257526
 20
98.9797592998
 11
53.692257526
 21
99.2297592998
  0
LINE
  5
298
100
AcDbEntity
  8
0
100
AcDbLine
 62
7
  6
CONTINUOUS
 10
53.7028026113
 20
285.7297592998
 11
53.7028026113
 21
282.7297592998
  0
LINE
  5
299
100
AcDbEntity
  8
0
100
AcDbLine
 62
7
  6
CONTINUOUS
 10
53.7389538464
 20
181.8797592998
 11
53.7389538464
 21
214.3697592998
  0
LINE
  5
29A
100
AcDbEntity
  8
0
100
AcDbLine
 62
7
  6
CONTINUOUS
 10
53.7389538464
 20
216.8297592998
 11
53.7389538464
 21
233.6297592998
  0
LINE
  5
29B
100
AcDbEntity
  8
0
100
AcDbLine
 62
7
  6
CONTINUOUS
 10
53.7437307159
 20
125.0297592998
 11
53.7437307159
 21
127.0697592998
  0
LINE
  5
29C
100
AcDbEntity
  8
0
100
AcDbLine
 62
7
  6
CONTINUOUS
 10
53.7437307159
 20
137.3697592998
 11
53.7437307159
 21
139.4297592998
  0
LINE
  5
29D
100
AcDbEntity
  8
0
100
AcDbLine
 62
7
  6
CONTINUOUS
 10
53.7866497358
 20
177.6797592998
 11
53.7866497358
 21
179.0797592998
  0
LINE
  5
29E
100
AcDbEntity
  8
0
100
AcDbLine
 62
7
  6
CONTINUOUS
 10
53.8166299279
 20
121.7297592998
 11
53.8166299279
 21
122.4961429163
  0
LINE
  5
29F
100
AcDbEntity
  8
0
100
AcDbLine
 62
7
  6
CONTINUOUS
 10
53.8166299279
 20
124.2223681565
 11
53.8166299279
 21
125.0297592998
  0
LINE
  5
2A0
100
AcDbEntity
  8
0
100
AcDbLine
 62
7
  6
CONTINUOUS
 10
53.8166299279
 20
139.4297592998
 11
53.8166299279
 21
140.2171504431
  0
LINE
  5
2A1
100
AcDbEntity
  8
0
100
AcDbLine
 62
7
  6
CONTINUOUS
 10
53.8166299279
 20
141.9433756833
 11
53.8166299279
 21
142.7297592998
  0
LINE
  5
2A2
100
AcDbEntity
  8
0
100
AcDbLine
 62
7
  6
CONTINUOUS
 10
53.8572984718
 20
282.7297592998
 11
53.8572984718
 21
285.7297592998
  0
LINE
  5
2A3
100
AcDbEntity
  8
0
100
AcDbLine
 62
7
  6
CONTINUOUS
 10
53.9104666232
 20
179.0797592998
 11
53.9104666232
 21
177.6797592998
  0
LINE
  5
2A4
100
AcDbEntity
  8
0
100
AcDbLine
 62
7
  6
CONTINUOUS
 10
53.9504983434
 20
172.6797592998
 11
53.9504983434
 21
155.7797592998
  0
LINE
  5
2A5
100
AcDbEntity
  8
0
100
AcDbLine
 62
7
  6
CONTINUOUS
 10
54.0443425561
 20
177.6797592998
 11
54.0443425561
 21
179.0797592998
  0
LINE
  5
2A6
100
AcDbEntity
  8
0
100
AcDbLine
 62
7
  6
CONTINUOUS
 10
54.2165214881
 20
179.0797592998
 11
54.2165214881
 21
177.6797592998
  0
LINE
  5
2A7
100
AcDbEntity
  8
0
100
AcDbLine
 62
7
  6
CONTINUOUS
 10
54.262492576
 20
96.2297592998
 11
54.262492576
 21
98.9797592998
  0
LINE
  5
2A8
100
AcDbEntity
  8
0
100
AcDbLine
 62
7
  6
CONTINUOUS
 10
54.262492576
 20
109.9660703053
 11
54.262492576
 21
121.7297592998
  0
LINE
  5
2A9
100
AcDbEntity
  8
0
100
AcDbLine
 62
7
  6
CONTINUOUS
 10
54.262492576
 20
142.7297592998
 11
54.262492576
 21
181.8797592998
  0
LINE
  5
2AA
100
AcDbEntity
  8
0
100
AcDbLine
 62
7
  6
CONTINUOUS
 10
54.262492576
 20
214.3697592998
 11
54.262492576
 21
216.8297592998
  0
LINE
  5
2AB
100
AcDbEntity
  8
0
100
AcDbLine
 62
7
  6
CONTINUOUS
 10
54.262492576
 20
233.6297592998
 11
54.262492576
 21
270.2297592998
  0
LINE
  5
2AC
100
AcDbEntity
  8
0
100
AcDbLine
 62
7
  6
CONTINUOUS
 10
54.262492576
 20
280.2297592998
 11
54.262492576
 21
282.7297592998
  0
LINE
  5
2AD
100
AcDbEntity
  8
0
100
AcDbLine
 62
7
  6
CONTINUOUS
 10
54.262492576
 20
285.7297592998
 11
54.262492576
 21
296.7297592998
  0
LINE
  5
2AE
100
AcDbEntity
  8
0
100
AcDbLine
 62
7
  6
CONTINUOUS
 10
54.262492576
 20
320.7297592998
 11
54.262492576
 21
327.5327099335
  0
LINE
  5
2AF
100
AcDbEntity
  8
0
100
AcDbLine
 62
7
  6
CONTINUOUS
 10
54.2769997812
 20
280.2297592998
 11
54.2769997812
 21
270.2297592998
  0
LINE
  5
2B0
100
AcDbEntity
  8
0
100
AcDbLine
 62
7
  6
CONTINUOUS
 10
54.3409480944
 20
285.7297592998
 11
54.3409480944
 21
282.7297592998
  0
LINE
  5
2B1
100
AcDbEntity
  8
0
100
AcDbLine
 62
7
  6
CONTINUOUS
 10
54.8463459291
 20
104.9797592998
 11
54.8463459291
 21
98.9797592998
  0
LINE
  5
2B2
100
AcDbEntity
  8
0
100
AcDbLine
 62
7
  6
CONTINUOUS
 10
55.3921008926
 20
96.2297592998
 11
55.3921008926
 21
121.7297592998
  0
LINE
  5
2B3
100
AcDbEntity
  8
0
100
AcDbLine
 62
7
  6
CONTINUOUS
 10
55.3921008926
 20
142.7297592998
 11
55.3921008926
 21
181.8797592998
  0
LINE
  5
2B4
100
AcDbEntity
  8
0
100
AcDbLine
 62
7
  6
CONTINUOUS
 10
55.3921008926
 20
214.3697592998
 11
55.3921008926
 21
216.8297592998
  0
LINE
  5
2B5
100
AcDbEntity
  8
0
100
AcDbLine
 62
7
  6
CONTINUOUS
 10
55.3921008926
 20
233.6297592998
 11
55.3921008926
 21
296.7297592998
  0
LINE
  5
2B6
100
AcDbEntity
  8
0
100
AcDbLine
 62
7
  6
CONTINUOUS
 10
55.3921008926
 20
320.7297592998
 11
55.3921008926
 21
326.4467637787
  0
LINE
  5
2B7
100
AcDbEntity
  8
0
100
AcDbLine
 62
7
  6
CONTINUOUS
 10
55.7460654338
 20
139.4297592998
 11
55.7460654338
 21
137.3697592998
  0
LINE
  5
2B8
100
AcDbEntity
  8
0
100
AcDbLine
 62
7
  6
CONTINUOUS
 10
55.7460654338
 20
127.0697592998
 11
55.7460654338
 21
125.0297592998
  0
LINE
  5
2B9
100
AcDbEntity
  8
0
100
AcDbLine
 62
7
  6
CONTINUOUS
 10
55.7868119338
 20
125.0297592998
 11
55.7868119338
 21
127.0697592998
  0
LINE
  5
2BA
100
AcDbEntity
  8
0
100
AcDbLine
 62
7
  6
CONTINUOUS
 10
55.7868119338
 20
137.3697592998
 11
55.7868119338
 21
139.4297592998
  0
LINE
  5
2BB
100
AcDbEntity
  8
_1
100
AcDbLine
 62
7
  6
CONTINUOUS
 10
56.199834534
 20
298.6219290727
 11
56.199834534
 21
299.4342703622
  0
LINE
  5
2BC
100
AcDbEntity
  8
_1
100
AcDbLine
 62
7
  6
CONTINUOUS
 10
56.199834534
 20
318.1152482373
 11
56.199834534
 21
318.9275895268
  0
LINE
  5
2BD
100
AcDbEntity
  8
0
100
AcDbLine
 62
7
  6
CONTINUOUS
 10
56.5390655461
 20
301.0747592998
 11
56.5390655461
 21
316.3747592998
  0
LINE
  5
2BE
100
AcDbEntity
  8
0
100
AcDbLine
 62
7
  6
CONTINUOUS
 10
56.5415655461
 20
96.2297592998
 11
56.5415655461
 21
121.7297592998
  0
LINE
  5
2BF
100
AcDbEntity
  8
0
100
AcDbLine
 62
7
  6
CONTINUOUS
 10
56.5415655461
 20
142.7297592998
 11
56.5415655461
 21
181.8797592998
  0
LINE
  5
2C0
100
AcDbEntity
  8
0
100
AcDbLine
 62
7
  6
CONTINUOUS
 10
56.5415655461
 20
214.3697592998
 11
56.5415655461
 21
216.8297592998
  0
LINE
  5
2C1
100
AcDbEntity
  8
0
100
AcDbLine
 62
7
  6
CONTINUOUS
 10
56.5415655461
 20
233.6297592998
 11
56.5415655461
 21
296.7297592998
  0
LINE
  5
2C2
100
AcDbEntity
  8
0
100
AcDbLine
 62
7
  6
CONTINUOUS
 10
56.5415655461
 20
320.7297592998
 11
56.5415655461
 21
326.2297592998
  0
LINE
  5
2C3
100
AcDbEntity
  8
_1
100
AcDbLine
 62
7
  6
CONTINUOUS
 10
57.0039109571
 20
141.3813720427
 11
57.0039109571
 21
139.6551468025
  0
LINE
  5
2C4
100
AcDbEntity
  8
_1
100
AcDbLine
 62
7
  6
CONTINUOUS
 10
57.0039109571
 20
124.784371797
 11
57.0039109571
 21
123.0581465568
  0
LINE
  5
2C5
100
AcDbEntity
  8
0
100
AcDbLine
 62
7
  6
CONTINUOUS
 10
57.5390655461
 20
316.952109569
 11
57.5390655461
 21
316.1747592998
  0
LINE
  5
2C6
100
AcDbEntity
  8
0
100
AcDbLine
 62
7
  6
CONTINUOUS
 10
57.5390655461
 20
300.4974090306
 11
57.5390655461
 21
301.2747592998
  0
LINE
  5
2C7
100
AcDbEntity
  8
0
100
AcDbLine
 62
7
  6
CONTINUOUS
 10
57.5415655461
 20
126.5497592998
 11
57.5415655461
 21
127.0697592998
  0
LINE
  5
2C8
100
AcDbEntity
  8
_1
100
AcDbLine
 62
7
  6
CONTINUOUS
 10
57.5415655461
 20
127.0697592998
 11
57.5415655461
 21
137.3697592998
  0
LINE
  5
2C9
100
AcDbEntity
  8
0
100
AcDbLine
 62
7
  6
CONTINUOUS
 10
57.5415655461
 20
137.3697592998
 11
57.5415655461
 21
137.9097592998
  0
LINE
  5
2CA
100
AcDbEntity
  8
0
100
AcDbLine
 62
7
  6
CONTINUOUS
 10
53.3797123212
 20
258.1506907058
 11
53.3815655461
 21
261.4447448102
  0
LINE
  5
2CB
100
AcDbEntity
  8
0
100
AcDbLine
 62
7
  6
CONTINUOUS
 10
52.6604135606
 20
256.6565835584
 11
52.6631573885
 21
256.7825649225
  0
LINE
  5
2CC
100
AcDbEntity
  8
0
100
AcDbLine
 62
7
  6
CONTINUOUS
 10
52.7951394443
 20
261.279272773
 11
52.7998200257
 21
261.4060431809
  0
LINE
  5
2CD
100
AcDbEntity
  8
0
100
AcDbLine
 62
7
  6
CONTINUOUS
 10
53.5765809521
 20
239.0292417417
 11
53.5614469436
 21
238.7727696756
  0
LINE
  5
2CE
100
AcDbEntity
  8
0
100
AcDbLine
 62
7
  6
CONTINUOUS
 10
53.570793368
 20
238.9161705927
 11
53.5420144603
 21
238.4797592819
  0
LINE
  5
2CF
100
AcDbEntity
  8
0
100
AcDbLine
 62
7
  6
CONTINUOUS
 10
52.7984269998
 20
242.3091704961
 11
52.7998200257
 21
242.3269331475
  0
LINE
  5
2D0
100
AcDbEntity
  8
0
100
AcDbLine
 62
7
  6
CONTINUOUS
 10
58.3390655461
 20
316.1747592998
 11
58.4265542096
 21
317.1747592998
  0
LINE
  5
2D1
100
AcDbEntity
  8
0
100
AcDbLine
 62
7
  6
CONTINUOUS
 10
53.3781193955
 20
242.3086404627
 11
53.3804021091
 21
242.3329531666
  0
LINE
  5
2D2
100
AcDbEntity
  8
0
100
AcDbLine
 62
7
  6
CONTINUOUS
 10
53.3597802022
 20
261.2891945671
 11
53.3778612617
 21
261.4185507251
  0
LINE
  5
2D3
100
AcDbEntity
  8
0
100
AcDbLine
 62
7
  6
CONTINUOUS
 10
45.6677729096
 20
104.2325138047
 11
46.0051542966
 21
104.2679740174
  0
LINE
  5
2D4
100
AcDbEntity
  8
_1
100
AcDbLine
 62
7
  6
CONTINUOUS
 10
34.8415655461
 20
107.3497592998
 11
46.0536262532
 21
107.3497592998
  0
LINE
  5
2D5
100
AcDbEntity
  8
_1
100
AcDbLine
 62
7
  6
CONTINUOUS
 10
43.5415655461
 20
108.3997592998
 11
38.2209749385
 21
108.3997592998
  0
LINE
  5
2D6
100
AcDbEntity
  8
0
100
AcDbLine
 62
7
  6
CONTINUOUS
 10
49.3415655461
 20
108.9797592998
 11
50.4415655461
 21
108.9797592998
  0
LINE
  5
2D7
100
AcDbEntity
  8
0
100
AcDbLine
 62
7
  6
CONTINUOUS
 10
47.1415655461
 20
109.4533702067
 11
46.9143242101
 21
109.4533702067
  0
LINE
  5
2D8
100
AcDbEntity
  8
0
100
AcDbLine
 62
7
  6
CONTINUOUS
 10
49.3415655461
 20
109.4797592998
 11
47.1415655461
 21
109.4797592998
  0
LINE
  5
2D9
100
AcDbEntity
  8
0
100
AcDbLine
 62
7
  6
CONTINUOUS
 10
50.4415655461
 20
109.7297592998
 11
51.5415655461
 21
109.7297592998
  0
LINE
  5
2DA
100
AcDbEntity
  8
_1
100
AcDbLine
 62
7
  6
CONTINUOUS
 10
46.0415655461
 20
110.1497592998
 11
51.5415655461
 21
110.1497592998
  0
LINE
  5
2DB
100
AcDbEntity
  8
0
100
AcDbLine
 62
7
  6
CONTINUOUS
 10
51.5415655461
 20
110.2297592998
 11
54.1806750514
 21
110.2297592998
  0
LINE
  5
2DC
100
AcDbEntity
  8
_1
100
AcDbLine
 62
7
  6
CONTINUOUS
 10
33.8415655461
 20
111.7997592998
 11
53.4115655461
 21
111.7997592998
  0
LINE
  5
2DD
100
AcDbEntity
  8
0
100
AcDbLine
 62
7
  6
CONTINUOUS
 10
58.4265542096
 20
300.2747592998
 11
58.3390655461
 21
301.2747592998
  0
LINE
  5
2DE
100
AcDbEntity
  8
0
100
AcDbLine
 62
7
  6
CONTINUOUS
 10
58.5415655461
 20
326.2297592998
 11
58.5415655461
 21
96.2297592998
  0
LINE
  5
2DF
100
AcDbEntity
  8
_1
100
AcDbLine
 62
7
  6
CONTINUOUS
 10
62.3181720398
 20
314.3647592998
 11
62.3181720398
 21
314.2347592998
  0
LINE
  5
2E0
100
AcDbEntity
  8
_1
100
AcDbLine
 62
7
  6
CONTINUOUS
 10
62.3181720398
 20
310.8647592998
 11
62.3181720398
 21
310.7347592998
  0
LINE
  5
2E1
100
AcDbEntity
  8
_1
100
AcDbLine
 62
7
  6
CONTINUOUS
 10
62.3181720398
 20
307.3647592998
 11
62.3181720398
 21
307.2347592998
  0
LINE
  5
2E2
100
AcDbEntity
  8
_1
100
AcDbLine
 62
7
  6
CONTINUOUS
 10
62.3181720398
 20
303.8647592998
 11
62.3181720398
 21
303.7347592998
  0
LINE
  5
2E3
100
AcDbEntity
  8
_1
100
AcDbLine
 62
7
  6
CONTINUOUS
 10
62.3390655461
 20
314.3647592998
 11
62.3390655461
 21
314.2047592998
  0
LINE
  5
2E4
100
AcDbEntity
  8
_1
100
AcDbLine
 62
7
  6
CONTINUOUS
 10
62.3390655461
 20
310.8647592998
 11
62.3390655461
 21
310.7047592998
  0
LINE
  5
2E5
100
AcDbEntity
  8
_1
100
AcDbLine
 62
7
  6
CONTINUOUS
 10
62.3390655461
 20
307.3647592998
 11
62.3390655461
 21
307.2047592998
  0
LINE
  5
2E6
100
AcDbEntity
  8
_1
100
AcDbLine
 62
7
  6
CONTINUOUS
 10
62.3390655461
 20
303.8647592998
 11
62.3390655461
 21
303.7047592998
  0
LINE
  5
2E7
100
AcDbEntity
  8
_1
100
AcDbLine
 62
7
  6
CONTINUOUS
 10
62.3606033384
 20
314.3647592998
 11
62.3606033384
 21
314.2347592998
  0
LINE
  5
2E8
100
AcDbEntity
  8
_1
100
AcDbLine
 62
7
  6
CONTINUOUS
 10
62.3606033384
 20
310.8647592998
 11
62.3606033384
 21
310.7347592998
  0
LINE
  5
2E9
100
AcDbEntity
  8
_1
100
AcDbLine
 62
7
  6
CONTINUOUS
 10
62.3606033384
 20
307.3647592998
 11
62.3606033384
 21
307.2347592998
  0
LINE
  5
2EA
100
AcDbEntity
  8
_1
100
AcDbLine
 62
7
  6
CONTINUOUS
 10
62.3606033384
 20
303.8647592998
 11
62.3606033384
 21
303.7347592998
  0
LINE
  5
2EB
100
AcDbEntity
  8
_1
100
AcDbLine
 62
7
  6
CONTINUOUS
 10
62.7181720398
 20
314.3647592998
 11
62.7181720398
 21
314.2347592998
  0
LINE
  5
2EC
100
AcDbEntity
  8
_1
100
AcDbLine
 62
7
  6
CONTINUOUS
 10
62.7181720398
 20
310.8647592998
 11
62.7181720398
 21
310.7347592998
  0
LINE
  5
2ED
100
AcDbEntity
  8
_1
100
AcDbLine
 62
7
  6
CONTINUOUS
 10
62.7181720398
 20
307.3647592998
 11
62.7181720398
 21
307.2347592998
  0
LINE
  5
2EE
100
AcDbEntity
  8
_1
100
AcDbLine
 62
7
  6
CONTINUOUS
 10
62.7181720398
 20
303.8647592998
 11
62.7181720398
 21
303.7347592998
  0
LINE
  5
2EF
100
AcDbEntity
  8
_1
100
AcDbLine
 62
7
  6
CONTINUOUS
 10
62.7390655461
 20
314.3647592998
 11
62.7390655461
 21
314.2047592998
  0
LINE
  5
2F0
100
AcDbEntity
  8
_1
100
AcDbLine
 62
7
  6
CONTINUOUS
 10
62.7390655461
 20
310.8647592998
 11
62.7390655461
 21
310.7047592998
  0
LINE
  5
2F1
100
AcDbEntity
  8
_1
100
AcDbLine
 62
7
  6
CONTINUOUS
 10
62.7390655461
 20
307.3647592998
 11
62.7390655461
 21
307.2047592998
  0
LINE
  5
2F2
100
AcDbEntity
  8
_1
100
AcDbLine
 62
7
  6
CONTINUOUS
 10
62.7390655461
 20
303.8647592998
 11
62.7390655461
 21
303.7047592998
  0
LINE
  5
2F3
100
AcDbEntity
  8
_1
100
AcDbLine
 62
7
  6
CONTINUOUS
 10
62.7606033384
 20
314.3647592998
 11
62.7606033384
 21
314.2347592998
  0
LINE
  5
2F4
100
AcDbEntity
  8
_1
100
AcDbLine
 62
7
  6
CONTINUOUS
 10
62.7606033384
 20
310.8647592998
 11
62.7606033384
 21
310.7347592998
  0
LINE
  5
2F5
100
AcDbEntity
  8
_1
100
AcDbLine
 62
7
  6
CONTINUOUS
 10
62.7606033384
 20
307.3647592998
 11
62.7606033384
 21
307.2347592998
  0
LINE
  5
2F6
100
AcDbEntity
  8
_1
100
AcDbLine
 62
7
  6
CONTINUOUS
 10
62.7606033384
 20
303.8647592998
 11
62.7606033384
 21
303.7347592998
  0
LINE
  5
2F7
100
AcDbEntity
  8
_1
100
AcDbLine
 62
7
  6
CONTINUOUS
 10
63.1181720398
 20
314.3647592998
 11
63.1181720398
 21
314.2347592998
  0
LINE
  5
2F8
100
AcDbEntity
  8
_1
100
AcDbLine
 62
7
  6
CONTINUOUS
 10
63.1181720398
 20
310.8647592998
 11
63.1181720398
 21
310.7347592998
  0
LINE
  5
2F9
100
AcDbEntity
  8
_1
100
AcDbLine
 62
7
  6
CONTINUOUS
 10
63.1181720398
 20
307.3647592998
 11
63.1181720398
 21
307.2347592998
  0
LINE
  5
2FA
100
AcDbEntity
  8
_1
100
AcDbLine
 62
7
  6
CONTINUOUS
 10
63.1181720398
 20
303.8647592998
 11
63.1181720398
 21
303.7347592998
  0
LINE
  5
2FB
100
AcDbEntity
  8
_1
100
AcDbLine
 62
7
  6
CONTINUOUS
 10
63.1390655461
 20
314.3647592998
 11
63.1390655461
 21
314.2047592998
  0
LINE
  5
2FC
100
AcDbEntity
  8
_1
100
AcDbLine
 62
7
  6
CONTINUOUS
 10
63.1390655461
 20
310.8647592998
 11
63.1390655461
 21
310.7047592998
  0
LINE
  5
2FD
100
AcDbEntity
  8
_1
100
AcDbLine
 62
7
  6
CONTINUOUS
 10
63.1390655461
 20
307.3647592998
 11
63.1390655461
 21
307.2047592998
  0
LINE
  5
2FE
100
AcDbEntity
  8
_1
100
AcDbLine
 62
7
  6
CONTINUOUS
 10
63.1390655461
 20
303.8647592998
 11
63.1390655461
 21
303.7047592998
  0
LINE
  5
2FF
100
AcDbEntity
  8
_1
100
AcDbLine
 62
7
  6
CONTINUOUS
 10
63.1606033384
 20
314.3647592998
 11
63.1606033384
 21
314.2347592998
  0
LINE
  5
300
100
AcDbEntity
  8
_1
100
AcDbLine
 62
7
  6
CONTINUOUS
 10
63.1606033384
 20
310.8647592998
 11
63.1606033384
 21
310.7347592998
  0
LINE
  5
301
100
AcDbEntity
  8
_1
100
AcDbLine
 62
7
  6
CONTINUOUS
 10
63.1606033384
 20
307.3647592998
 11
63.1606033384
 21
307.2347592998
  0
LINE
  5
302
100
AcDbEntity
  8
_1
100
AcDbLine
 62
7
  6
CONTINUOUS
 10
63.1606033384
 20
303.8647592998
 11
63.1606033384
 21
303.7347592998
  0
LINE
  5
303
100
AcDbEntity
  8
0
100
AcDbLine
 62
7
  6
CONTINUOUS
 10
63.2415655461
 20
96.2297592998
 11
63.2415655461
 21
326.2297592998
  0
LINE
  5
304
100
AcDbEntity
  8
_1
100
AcDbLine
 62
7
  6
CONTINUOUS
 10
63.5181720398
 20
314.3647592998
 11
63.5181720398
 21
314.2347592998
  0
LINE
  5
305
100
AcDbEntity
  8
_1
100
AcDbLine
 62
7
  6
CONTINUOUS
 10
63.5181720398
 20
310.8647592998
 11
63.5181720398
 21
310.7347592998
  0
LINE
  5
306
100
AcDbEntity
  8
_1
100
AcDbLine
 62
7
  6
CONTINUOUS
 10
63.5181720398
 20
307.3647592998
 11
63.5181720398
 21
307.2347592998
  0
LINE
  5
307
100
AcDbEntity
  8
_1
100
AcDbLine
 62
7
  6
CONTINUOUS
 10
63.5181720398
 20
303.8647592998
 11
63.5181720398
 21
303.7347592998
  0
LINE
  5
308
100
AcDbEntity
  8
_1
100
AcDbLine
 62
7
  6
CONTINUOUS
 10
63.5390655461
 20
314.3647592998
 11
63.5390655461
 21
314.2047592998
  0
LINE
  5
309
100
AcDbEntity
  8
_1
100
AcDbLine
 62
7
  6
CONTINUOUS
 10
63.5390655461
 20
310.8647592998
 11
63.5390655461
 21
310.7047592998
  0
LINE
  5
30A
100
AcDbEntity
  8
_1
100
AcDbLine
 62
7
  6
CONTINUOUS
 10
63.5390655461
 20
307.3647592998
 11
63.5390655461
 21
307.2047592998
  0
LINE
  5
30B
100
AcDbEntity
  8
_1
100
AcDbLine
 62
7
  6
CONTINUOUS
 10
63.5390655461
 20
303.8647592998
 11
63.5390655461
 21
303.7047592998
  0
LINE
  5
30C
100
AcDbEntity
  8
_1
100
AcDbLine
 62
7
  6
CONTINUOUS
 10
63.5606033384
 20
314.3647592998
 11
63.5606033384
 21
314.2347592998
  0
LINE
  5
30D
100
AcDbEntity
  8
_1
100
AcDbLine
 62
7
  6
CONTINUOUS
 10
63.5606033384
 20
310.8647592998
 11
63.5606033384
 21
310.7347592998
  0
LINE
  5
30E
100
AcDbEntity
  8
_1
100
AcDbLine
 62
7
  6
CONTINUOUS
 10
63.5606033384
 20
307.3647592998
 11
63.5606033384
 21
307.2347592998
  0
LINE
  5
30F
100
AcDbEntity
  8
_1
100
AcDbLine
 62
7
  6
CONTINUOUS
 10
63.5606033384
 20
303.8647592998
 11
63.5606033384
 21
303.7347592998
  0
LINE
  5
310
100
AcDbEntity
  8
_1
100
AcDbLine
 62
7
  6
CONTINUOUS
 10
63.9181720398
 20
314.3647592998
 11
63.9181720398
 21
314.2347592998
  0
LINE
  5
311
100
AcDbEntity
  8
_1
100
AcDbLine
 62
7
  6
CONTINUOUS
 10
63.9181720398
 20
310.8647592998
 11
63.9181720398
 21
310.7347592998
  0
LINE
  5
312
100
AcDbEntity
  8
_1
100
AcDbLine
 62
7
  6
CONTINUOUS
 10
63.9181720398
 20
307.3647592998
 11
63.9181720398
 21
307.2347592998
  0
LINE
  5
313
100
AcDbEntity
  8
_1
100
AcDbLine
 62
7
  6
CONTINUOUS
 10
63.9181720398
 20
303.8647592998
 11
63.9181720398
 21
303.7347592998
  0
LINE
  5
314
100
AcDbEntity
  8
_1
100
AcDbLine
 62
7
  6
CONTINUOUS
 10
63.9390655461
 20
314.3647592998
 11
63.9390655461
 21
314.2047592998
  0
LINE
  5
315
100
AcDbEntity
  8
_1
100
AcDbLine
 62
7
  6
CONTINUOUS
 10
63.9390655461
 20
310.8647592998
 11
63.9390655461
 21
310.7047592998
  0
LINE
  5
316
100
AcDbEntity
  8
_1
100
AcDbLine
 62
7
  6
CONTINUOUS
 10
63.9390655461
 20
307.3647592998
 11
63.9390655461
 21
307.2047592998
  0
LINE
  5
317
100
AcDbEntity
  8
_1
100
AcDbLine
 62
7
  6
CONTINUOUS
 10
63.9390655461
 20
303.8647592998
 11
63.9390655461
 21
303.7047592998
  0
LINE
  5
318
100
AcDbEntity
  8
_1
100
AcDbLine
 62
7
  6
CONTINUOUS
 10
63.9606033384
 20
314.3647592998
 11
63.9606033384
 21
314.2347592998
  0
LINE
  5
319
100
AcDbEntity
  8
_1
100
AcDbLine
 62
7
  6
CONTINUOUS
 10
63.9606033384
 20
310.8647592998
 11
63.9606033384
 21
310.7347592998
  0
LINE
  5
31A
100
AcDbEntity
  8
_1
100
AcDbLine
 62
7
  6
CONTINUOUS
 10
63.9606033384
 20
307.3647592998
 11
63.9606033384
 21
307.2347592998
  0
LINE
  5
31B
100
AcDbEntity
  8
_1
100
AcDbLine
 62
7
  6
CONTINUOUS
 10
63.9606033384
 20
303.8647592998
 11
63.9606033384
 21
303.7347592998
  0
LINE
  5
31C
100
AcDbEntity
  8
_1
100
AcDbLine
 62
7
  6
CONTINUOUS
 10
64.3181720398
 20
314.3647592998
 11
64.3181720398
 21
314.2347592998
  0
LINE
  5
31D
100
AcDbEntity
  8
_1
100
AcDbLine
 62
7
  6
CONTINUOUS
 10
64.3181720398
 20
310.8647592998
 11
64.3181720398
 21
310.7347592998
  0
LINE
  5
31E
100
AcDbEntity
  8
_1
100
AcDbLine
 62
7
  6
CONTINUOUS
 10
64.3181720398
 20
307.3647592998
 11
64.3181720398
 21
307.2347592998
  0
LINE
  5
31F
100
AcDbEntity
  8
_1
100
AcDbLine
 62
7
  6
CONTINUOUS
 10
64.3181720398
 20
303.8647592998
 11
64.3181720398
 21
303.7347592998
  0
LINE
  5
320
100
AcDbEntity
  8
_1
100
AcDbLine
 62
7
  6
CONTINUOUS
 10
64.3390655461
 20
314.3647592998
 11
64.3390655461
 21
314.2047592998
  0
LINE
  5
321
100
AcDbEntity
  8
_1
100
AcDbLine
 62
7
  6
CONTINUOUS
 10
64.3390655461
 20
310.8647592998
 11
64.3390655461
 21
310.7047592998
  0
LINE
  5
322
100
AcDbEntity
  8
_1
100
AcDbLine
 62
7
  6
CONTINUOUS
 10
64.3390655461
 20
307.3647592998
 11
64.3390655461
 21
307.2047592998
  0
LINE
  5
323
100
AcDbEntity
  8
_1
100
AcDbLine
 62
7
  6
CONTINUOUS
 10
64.3390655461
 20
303.8647592998
 11
64.3390655461
 21
303.7047592998
  0
LINE
  5
324
100
AcDbEntity
  8
_1
100
AcDbLine
 62
7
  6
CONTINUOUS
 10
64.3606033384
 20
314.3647592998
 11
64.3606033384
 21
314.2347592998
  0
LINE
  5
325
100
AcDbEntity
  8
_1
100
AcDbLine
 62
7
  6
CONTINUOUS
 10
64.3606033384
 20
310.8647592998
 11
64.3606033384
 21
310.7347592998
  0
LINE
  5
326
100
AcDbEntity
  8
_1
100
AcDbLine
 62
7
  6
CONTINUOUS
 10
64.3606033384
 20
307.3647592998
 11
64.3606033384
 21
307.2347592998
  0
LINE
  5
327
100
AcDbEntity
  8
_1
100
AcDbLine
 62
7
  6
CONTINUOUS
 10
64.3606033384
 20
303.8647592998
 11
64.3606033384
 21
303.7347592998
  0
LINE
  5
328
100
AcDbEntity
  8
0
100
AcDbLine
 62
7
  6
CONTINUOUS
 10
67.0143242101
 20
81.5061483929
 11
67.0143242101
 21
90.9533702067
  0
LINE
  5
329
100
AcDbEntity
  8
0
100
AcDbLine
 62
7
  6
CONTINUOUS
 10
67.2415655461
 20
81.4797621636
 11
67.2415655461
 21
81.5061483929
  0
LINE
  5
32A
100
AcDbEntity
  8
0
100
AcDbLine
 62
7
  6
CONTINUOUS
 10
67.2415655461
 20
90.9533702067
 11
67.2415655461
 21
90.979756436
  0
LINE
  5
32B
100
AcDbEntity
  8
0
100
AcDbLine
 62
7
  6
CONTINUOUS
 10
68.5415655456
 20
329.2297592998
 11
68.5415655445
 21
326.2297592998
  0
LINE
  5
32C
100
AcDbEntity
  8
0
100
AcDbLine
 62
7
  6
CONTINUOUS
 10
69.4415655461
 20
81.2304274318
 11
69.4415655461
 21
91.2290911678
  0
LINE
  5
32D
100
AcDbEntity
  8
0
100
AcDbLine
 62
7
  6
CONTINUOUS
 10
53.8166299279
 20
121.7297592998
 11
58.5415655461
 21
121.7297592998
  0
LINE
  5
32E
100
AcDbEntity
  8
0
100
AcDbLine
 62
7
  6
CONTINUOUS
 10
53.7437307159
 20
125.0297592998
 11
58.3955726402
 21
125.0297592998
  0
LINE
  5
32F
100
AcDbEntity
  8
0
100
AcDbLine
 62
7
  6
CONTINUOUS
 10
58.5415655461
 20
126.5497592998
 11
57.5415655461
 21
126.5497592998
  0
LINE
  5
330
100
AcDbEntity
  8
_1
100
AcDbLine
 62
7
  6
CONTINUOUS
 10
42.1915655461
 20
127.0697592998
 11
57.5415655461
 21
127.0697592998
  0
LINE
  5
331
100
AcDbEntity
  8
_1
100
AcDbLine
 62
7
  6
CONTINUOUS
 10
44.7783896349
 20
141.8108360649
 11
58.5415655461
 21
139.3840168115
  0
LINE
  5
332
100
AcDbEntity
  8
_1
100
AcDbLine
 62
7
  6
CONTINUOUS
 10
58.5415655461
 20
141.1102420517
 11
42.8915655461
 21
143.8697592998
  0
LINE
  5
333
100
AcDbEntity
  8
_1
100
AcDbLine
 62
7
  6
CONTINUOUS
 10
53.5591653008
 20
146.7462393488
 11
53.5415655461
 21
146.7497592998
  0
LINE
  5
334
100
AcDbEntity
  8
0
100
AcDbLine
 62
7
  6
CONTINUOUS
 10
53.3778612617
 20
239.0409678745
 11
53.3597802443
 21
239.1703237301
  0
LINE
  5
335
100
AcDbEntity
  8
0
100
AcDbLine
 62
7
  6
CONTINUOUS
 10
70.5415655461
 20
96.2297592998
 11
70.5415655461
 21
76.2297592998
  0
LINE
  5
336
100
AcDbEntity
  8
0
100
AcDbLine
 62
7
  6
CONTINUOUS
 10
74.5049099097
 20
94.1297592998
 11
74.5049099097
 21
93.1297592998
  0
LINE
  5
337
100
AcDbEntity
  8
0
100
AcDbLine
 62
7
  6
CONTINUOUS
 10
74.5049099097
 20
79.3297592998
 11
74.5049099097
 21
78.3297592998
  0
LINE
  5
338
100
AcDbEntity
  8
0
100
AcDbLine
 62
7
  6
CONTINUOUS
 10
74.5415655461
 20
78.1347592998
 11
74.5415655461
 21
78.3297592998
  0
LINE
  5
339
100
AcDbEntity
  8
0
100
AcDbLine
 62
7
  6
CONTINUOUS
 10
74.5415655461
 20
79.3297592998
 11
74.5415655461
 21
93.1297592998
  0
LINE
  5
33A
100
AcDbEntity
  8
0
100
AcDbLine
 62
7
  6
CONTINUOUS
 10
74.5415655461
 20
94.1297592998
 11
74.5415655461
 21
94.3247592998
  0
LINE
  5
33B
100
AcDbEntity
  8
0
100
AcDbLine
 62
7
  6
CONTINUOUS
 10
76.7815655461
 20
329.1871169616
 11
76.7815655461
 21
329.7277592998
  0
LINE
  5
33C
100
AcDbEntity
  8
_1
100
AcDbLine
 62
7
  6
CONTINUOUS
 10
77.1215655461
 20
345.7277592998
 11
77.1215655461
 21
329.7277592998
  0
LINE
  5
33D
100
AcDbEntity
  8
0
100
AcDbLine
 62
7
  6
CONTINUOUS
 10
78.0049099097
 20
94.1297592998
 11
78.0049099097
 21
94.3247592998
  0
LINE
  5
33E
100
AcDbEntity
  8
0
100
AcDbLine
 62
7
  6
CONTINUOUS
 10
78.9215655461
 20
329.7277592998
 11
78.9215655461
 21
329.1760423738
  0
LINE
  5
33F
100
AcDbEntity
  8
0
100
AcDbLine
 62
7
  6
CONTINUOUS
 10
78.9415655461
 20
326.841019766
 11
78.9415655461
 21
326.2297592998
  0
LINE
  5
340
100
AcDbEntity
  8
0
100
AcDbLine
 62
7
  6
CONTINUOUS
 10
79.0049099097
 20
94.1297592998
 11
79.0049099097
 21
94.3247592998
  0
LINE
  5
341
100
AcDbEntity
  8
0
100
AcDbLine
 62
7
  6
CONTINUOUS
 10
80.176482785
 20
94.1297592998
 11
80.176482785
 21
93.1297592998
  0
LINE
  5
342
100
AcDbEntity
  8
0
100
AcDbLine
 62
7
  6
CONTINUOUS
 10
80.176482785
 20
78.3297592998
 11
80.176482785
 21
79.3297592998
  0
LINE
  5
343
100
AcDbEntity
  8
0
100
AcDbLine
 62
7
  6
CONTINUOUS
 10
80.4415655461
 20
326.2297592998
 11
80.4415655461
 21
327.2201413023
  0
LINE
  5
344
100
AcDbEntity
  8
0
100
AcDbLine
 62
7
  6
CONTINUOUS
 10
80.9215655461
 20
329.1656922917
 11
80.9215655461
 21
329.7277592998
  0
LINE
  5
345
100
AcDbEntity
  8
0
100
AcDbLine
 62
7
  6
CONTINUOUS
 10
81.5906963473
 20
94.1297592998
 11
81.5906963473
 21
93.1297592998
  0
LINE
  5
346
100
AcDbEntity
  8
0
100
AcDbLine
 62
7
  6
CONTINUOUS
 10
81.5906963473
 20
78.3297592998
 11
81.5906963473
 21
79.3297592998
  0
LINE
  5
347
100
AcDbEntity
  8
_1
100
AcDbLine
 62
7
  6
CONTINUOUS
 10
102.8626423111
 20
343.1409352109
 11
100.350225781
 21
328.8923130204
  0
LINE
  5
348
100
AcDbEntity
  8
_1
100
AcDbLine
 62
7
  6
CONTINUOUS
 10
42.8915655461
 20
120.5697592998
 11
58.5415655461
 21
123.3292765479
  0
LINE
  5
349
100
AcDbEntity
  8
_1
100
AcDbLine
 62
7
  6
CONTINUOUS
 10
42.1915655461
 20
137.3697592998
 11
57.5415655461
 21
137.3697592998
  0
LINE
  5
34A
100
AcDbEntity
  8
0
100
AcDbLine
 62
7
  6
CONTINUOUS
 10
58.5415655461
 20
137.9097592998
 11
57.5415655461
 21
137.9097592998
  0
LINE
  5
34B
100
AcDbEntity
  8
0
100
AcDbLine
 62
7
  6
CONTINUOUS
 10
53.8166299279
 20
139.4297592998
 11
58.2821470038
 21
139.4297592998
  0
LINE
  5
34C
100
AcDbEntity
  8
0
100
AcDbLine
 62
7
  6
CONTINUOUS
 10
82.2978031285
 20
79.3297592998
 11
82.2978031285
 21
80.8297592998
  0
LINE
  5
34D
100
AcDbEntity
  8
0
100
AcDbLine
 62
7
  6
CONTINUOUS
 10
82.2978031285
 20
91.6297592998
 11
82.2978031285
 21
93.1297592998
  0
LINE
  5
34E
100
AcDbEntity
  8
0
100
AcDbLine
 62
7
  6
CONTINUOUS
 10
83.0049099097
 20
78.3297592998
 11
83.0049099097
 21
80.8297592998
  0
LINE
  5
34F
100
AcDbEntity
  8
0
100
AcDbLine
 62
7
  6
CONTINUOUS
 10
83.0049099097
 20
91.6297592998
 11
83.0049099097
 21
94.1297592998
  0
LINE
  5
350
100
AcDbEntity
  8
0
100
AcDbLine
 62
7
  6
CONTINUOUS
 10
84.0015655461
 20
329.7277592998
 11
84.0015655461
 21
329.1497531653
  0
LINE
  5
351
100
AcDbEntity
  8
0
100
AcDbLine
 62
7
  6
CONTINUOUS
 10
85.2915655461
 20
329.1428967541
 11
85.2915655461
 21
329.1433106427
  0
LINE
  5
352
100
AcDbEntity
  8
0
100
AcDbLine
 62
7
  6
CONTINUOUS
 10
86.0015655461
 20
329.1310086839
 11
86.0015655461
 21
329.7277592998
  0
LINE
  5
353
100
AcDbEntity
  8
0
100
AcDbLine
 62
7
  6
CONTINUOUS
 10
87.7970803981
 20
94.3247592998
 11
87.7970803981
 21
78.1347592998
  0
LINE
  5
354
100
AcDbEntity
  8
0
100
AcDbLine
 62
7
  6
CONTINUOUS
 10
89.0815655461
 20
329.7277592998
 11
89.0815655461
 21
329.1030526522
  0
LINE
  5
355
100
AcDbEntity
  8
0
100
AcDbLine
 62
7
  6
CONTINUOUS
 10
89.7915655461
 20
329.0902160212
 11
89.7915655461
 21
329.0898142209
  0
LINE
  5
356
100
AcDbEntity
  8
0
100
AcDbLine
 62
7
  6
CONTINUOUS
 10
91.0815655461
 20
329.0658401494
 11
91.0815655461
 21
329.7277592998
  0
LINE
  5
357
100
AcDbEntity
  8
0
100
AcDbLine
 62
7
  6
CONTINUOUS
 10
92.8302070801
 20
327.4817211343
 11
92.8190468353
 21
327.1440595071
  0
LINE
  5
358
100
AcDbEntity
  8
_1
100
AcDbLine
 62
7
  6
CONTINUOUS
 10
102.0707711913
 20
328.8601011044
 11
104.9215655461
 21
345.0277592998
  0
LINE
  5
359
100
AcDbEntity
  8
_1
100
AcDbLine
 62
7
  6
CONTINUOUS
 10
58.5415655461
 20
125.0555017881
 11
44.7783896349
 21
122.6286825347
  0
LINE
  5
35A
100
AcDbEntity
  8
_1
100
AcDbLine
 62
7
  6
CONTINUOUS
 10
33.8415655461
 20
142.2997592998
 11
42.8915655461
 21
142.2997592998
  0
LINE
  5
35B
100
AcDbEntity
  8
_1
100
AcDbLine
 62
7
  6
CONTINUOUS
 10
51.7954780028
 20
142.2997592998
 11
53.4115655461
 21
142.2997592998
  0
LINE
  5
35C
100
AcDbEntity
  8
0
100
AcDbLine
 62
7
  6
CONTINUOUS
 10
53.8166299279
 20
142.7297592998
 11
58.5415655461
 21
142.7297592998
  0
LINE
  5
35D
100
AcDbEntity
  8
_1
100
AcDbLine
 62
7
  6
CONTINUOUS
 10
46.0415655461
 20
143.9497592998
 11
53.5591653008
 21
143.9497592998
  0
LINE
  5
35E
100
AcDbEntity
  8
_1
100
AcDbLine
 62
7
  6
CONTINUOUS
 10
43.5415655461
 20
145.6997592998
 11
38.2209749385
 21
145.6997592998
  0
LINE
  5
35F
100
AcDbEntity
  8
_1
100
AcDbLine
 62
7
  6
CONTINUOUS
 10
34.8415655461
 20
146.7497592998
 11
53.5415655461
 21
146.7497592998
  0
LINE
  5
360
100
AcDbEntity
  8
0
100
AcDbLine
 62
7
  6
CONTINUOUS
 10
94.1615655461
 20
329.7277592998
 11
94.1615655461
 21
329.0081766313
  0
LINE
  5
361
100
AcDbEntity
  8
0
100
AcDbLine
 62
7
  6
CONTINUOUS
 10
94.6415655461
 20
327.1241407129
 11
94.6415655461
 21
326.2297592998
  0
LINE
  5
362
100
AcDbEntity
  8
0
100
AcDbLine
 62
7
  6
CONTINUOUS
 10
96.1415655461
 20
326.2297592998
 11
96.1415655461
 21
326.7212511929
  0
LINE
  5
363
100
AcDbEntity
  8
0
100
AcDbLine
 62
7
  6
CONTINUOUS
 10
96.1615655461
 20
328.9514980095
 11
96.1615655461
 21
329.7277592998
  0
LINE
  5
364
100
AcDbEntity
  8
_1
100
AcDbLine
 62
7
  6
CONTINUOUS
 10
97.9215655461
 20
345.7277592998
 11
97.9215655461
 21
329.7277592998
  0
LINE
  5
365
100
AcDbEntity
  8
0
100
AcDbLine
 62
7
  6
CONTINUOUS
 10
98.3015655461
 20
329.7277592998
 11
98.3015655461
 21
328.9514980095
  0
LINE
  5
366
100
AcDbEntity
  8
0
100
AcDbLine
 62
7
  6
CONTINUOUS
 10
98.5415655461
 20
326.2297592998
 11
98.5415655461
 21
328.5393475372
  0
LINE
  5
367
100
AcDbEntity
  8
0
100
AcDbLine
 62
7
  6
CONTINUOUS
 10
99.2915655461
 20
326.2297592998
 11
99.2915655461
 21
328.5996871718
  0
LINE
  5
368
100
AcDbEntity
  8
0
100
AcDbLine
 62
7
  6
CONTINUOUS
 10
99.7915655461
 20
328.5905443539
 11
99.7915655461
 21
326.2297592998
  0
LINE
  5
369
100
AcDbEntity
  8
0
100
AcDbLine
 62
7
  6
CONTINUOUS
 10
100.5415655461
 20
326.2297592998
 11
100.5415655461
 21
328.5033010014
  0
LINE
  5
36A
100
AcDbEntity
  8
0
100
AcDbLine
 62
7
  6
CONTINUOUS
 10
102.5415655461
 20
326.2297592998
 11
102.5415655461
 21
328.4643793576
  0
LINE
  5
36B
100
AcDbEntity
  8
0
100
AcDbLine
 62
7
  6
CONTINUOUS
 10
103.2915655461
 20
326.2297592998
 11
103.2915655461
 21
328.5215837172
  0
LINE
  5
36C
100
AcDbEntity
  8
0
100
AcDbLine
 62
7
  6
CONTINUOUS
 10
103.7915655461
 20
328.5110282728
 11
103.7915655461
 21
326.2297592998
  0
LINE
  5
36D
100
AcDbEntity
  8
0
100
AcDbLine
 62
7
  6
CONTINUOUS
 10
104.5415655461
 20
326.2297592998
 11
104.5415655461
 21
328.4226091468
  0
LINE
  5
36E
100
AcDbEntity
  8
0
100
AcDbLine
 62
7
  6
CONTINUOUS
 10
53.5721956344
 20
154.7797592998
 11
53.8849290043
 21
154.7797592998
  0
LINE
  5
36F
100
AcDbEntity
  8
0
100
AcDbLine
 62
7
  6
CONTINUOUS
 10
53.9504983434
 20
155.7797592998
 11
53.5564793439
 21
155.7797592998
  0
LINE
  5
370
100
AcDbEntity
  8
_1
100
AcDbLine
 62
7
  6
CONTINUOUS
 10
70.1215655461
 20
345.0277592998
 11
72.9111664453
 21
329.2071464357
  0
LINE
  5
371
100
AcDbEntity
  8
_1
100
AcDbLine
 62
7
  6
CONTINUOUS
 10
74.6389683036
 20
329.1982049902
 11
72.180488781
 21
343.140935211
  0
LINE
  5
372
100
AcDbEntity
  8
0
100
AcDbLine
 62
7
  6
CONTINUOUS
 10
106.5415655461
 20
326.2297592998
 11
106.5415655461
 21
328.3780171949
  0
LINE
  5
373
100
AcDbEntity
  8
0
100
AcDbLine
 62
7
  6
CONTINUOUS
 10
107.2915655461
 20
326.2297592998
 11
107.2915655461
 21
328.4322676686
  0
LINE
  5
374
100
AcDbEntity
  8
0
100
AcDbLine
 62
7
  6
CONTINUOUS
 10
107.7915655461
 20
328.4203247579
 11
107.7915655461
 21
326.2297592998
  0
LINE
  5
375
100
AcDbEntity
  8
0
100
AcDbLine
 62
7
  6
CONTINUOUS
 10
107.7915655461
 20
94.3247592998
 11
107.7915655461
 21
94.1297592998
  0
LINE
  5
376
100
AcDbEntity
  8
0
100
AcDbLine
 62
7
  6
CONTINUOUS
 10
107.7915655461
 20
78.3297592998
 11
107.7915655461
 21
78.1347592998
  0
LINE
  5
377
100
AcDbEntity
  8
0
100
AcDbLine
 62
7
  6
CONTINUOUS
 10
107.7970803981
 20
92.0151126424
 11
107.7970803981
 21
83.3193239778
  0
LINE
  5
378
100
AcDbEntity
  8
0
100
AcDbLine
 62
7
  6
CONTINUOUS
 10
108.5415655461
 20
326.2297592998
 11
108.5415655461
 21
328.3306301995
  0
LINE
  5
379
100
AcDbEntity
  8
0
100
AcDbLine
 62
7
  6
CONTINUOUS
 10
110.5415655461
 20
328.2804722549
 11
110.5415655461
 21
326.2297592998
  0
LINE
  5
37A
100
AcDbEntity
  8
0
100
AcDbLine
 62
7
  6
CONTINUOUS
 10
110.7552323633
 20
88.7297592998
 11
110.7552323633
 21
83.7297592998
  0
LINE
  5
37B
100
AcDbEntity
  8
0
100
AcDbLine
 62
7
  6
CONTINUOUS
 10
111.2915655461
 20
326.2297592998
 11
111.2915655461
 21
328.3319383094
  0
LINE
  5
37C
100
AcDbEntity
  8
0
100
AcDbLine
 62
7
  6
CONTINUOUS
 10
111.7915655461
 20
328.3186322696
 11
111.7915655461
 21
326.2297592998
  0
LINE
  5
37D
100
AcDbEntity
  8
0
100
AcDbLine
 62
7
  6
CONTINUOUS
 10
111.7915655461
 20
91.2868606911
 11
111.7915655461
 21
88.5470257987
  0
LINE
  5
37E
100
AcDbEntity
  8
0
100
AcDbLine
 62
7
  6
CONTINUOUS
 10
111.7915655461
 20
84.071354022
 11
111.7915655461
 21
83.3717182306
  0
LINE
  5
37F
100
AcDbEntity
  8
0
100
AcDbLine
 62
7
  6
CONTINUOUS
 10
112.0415655461
 20
92.0148011596
 11
112.0415655461
 21
83.3193463875
  0
LINE
  5
380
100
AcDbEntity
  8
0
100
AcDbLine
 62
7
  6
CONTINUOUS
 10
112.5415655461
 20
326.2297592998
 11
112.5415655461
 21
328.2275659671
  0
LINE
  5
381
100
AcDbEntity
  8
0
100
AcDbLine
 62
7
  6
CONTINUOUS
 10
114.5415655461
 20
326.2297592998
 11
114.5415655461
 21
328.1719339506
  0
LINE
  5
382
100
AcDbEntity
  8
0
100
AcDbLine
 62
7
  6
CONTINUOUS
 10
115.2915655461
 20
326.2297592998
 11
115.2915655461
 21
328.2207797476
  0
LINE
  5
383
100
AcDbEntity
  8
0
100
AcDbLine
 62
7
  6
CONTINUOUS
 10
115.7915655461
 20
328.2061317249
 11
115.7915655461
 21
326.2297592998
  0
LINE
  5
384
100
AcDbEntity
  8
0
100
AcDbLine
 62
7
  6
CONTINUOUS
 10
116.5415655461
 20
326.2297592998
 11
116.5415655461
 21
328.1135987636
  0
LINE
  5
385
100
AcDbEntity
  8
_1
100
AcDbLine
 62
7
  6
CONTINUOUS
 10
187.0115655461
 20
337.2297592998
 11
185.2615655461
 21
334.7297592998
  0
LINE
  5
386
100
AcDbEntity
  8
0
100
AcDbLine
 62
7
  6
CONTINUOUS
 10
53.5564793439
 20
172.6797592998
 11
53.9504983434
 21
172.6797592998
  0
LINE
  5
387
100
AcDbEntity
  8
0
100
AcDbLine
 62
7
  6
CONTINUOUS
 10
53.8849290043
 20
173.6797592998
 11
53.5721956344
 21
173.6797592998
  0
LINE
  5
388
100
AcDbEntity
  8
0
100
AcDbLine
 62
7
  6
CONTINUOUS
 10
54.262492576
 20
327.5327099335
 11
53.5420144603
 21
329.2293786564
  0
LWPOLYLINE
  5
389
100
AcDbEntity
  8
0
100
AcDbPolyline
 62
7
  6
CONTINUOUS
 90
3
 70
0
 10
54.262492576
 20
327.5327099335
 10
53.8642958921
 20
328.4752116804
 10
53.5420144603
 20
329.2293786564
  0
LINE
  5
38A
100
AcDbEntity
  8
0
100
AcDbLine
 62
7
  6
CONTINUOUS
 10
118.5415655461
 20
326.2297592998
 11
118.5415655461
 21
328.0525827754
  0
LINE
  5
38B
100
AcDbEntity
  8
0
100
AcDbLine
 62
7
  6
CONTINUOUS
 10
119.2915655461
 20
326.2297592998
 11
119.2915655461
 21
328.0989544846
  0
LINE
  5
38C
100
AcDbEntity
  8
0
100
AcDbLine
 62
7
  6
CONTINUOUS
 10
119.7915655461
 20
328.0829838945
 11
119.7915655461
 21
326.2297592998
  0
LINE
  5
38D
100
AcDbEntity
  8
0
100
AcDbLine
 62
7
  6
CONTINUOUS
 10
120.5415655461
 20
326.2297592998
 11
120.5415655461
 21
327.9889065399
  0
LINE
  5
38E
100
AcDbEntity
  8
0
100
AcDbLine
 62
7
  6
CONTINUOUS
 10
122.5415655461
 20
327.9225886257
 11
122.5415655461
 21
326.2297592998
  0
LINE
  5
38F
100
AcDbEntity
  8
0
100
AcDbLine
 62
7
  6
CONTINUOUS
 10
123.2915655461
 20
326.2297592998
 11
123.2915655461
 21
327.9666126553
  0
LINE
  5
390
100
AcDbEntity
  8
0
100
AcDbLine
 62
7
  6
CONTINUOUS
 10
123.7915655461
 20
327.9493376163
 11
123.7915655461
 21
326.2297592998
  0
LINE
  5
391
100
AcDbEntity
  8
0
100
AcDbLine
 62
7
  6
CONTINUOUS
 10
124.5415655461
 20
326.2297592998
 11
124.5415655461
 21
327.853647485
  0
LINE
  5
392
100
AcDbEntity
  8
0
100
AcDbLine
 62
7
  6
CONTINUOUS
 10
126.5415655461
 20
327.7821010424
 11
126.5415655461
 21
326.2297592998
  0
LINE
  5
393
100
AcDbEntity
  8
0
100
AcDbLine
 62
7
  6
CONTINUOUS
 10
127.2915655461
 20
326.2297592998
 11
127.2915655461
 21
327.8238930651
  0
LINE
  5
394
100
AcDbEntity
  8
0
100
AcDbLine
 62
7
  6
CONTINUOUS
 10
127.7915655461
 20
327.8053296843
 11
127.7915655461
 21
326.2297592998
  0
LINE
  5
395
100
AcDbEntity
  8
0
100
AcDbLine
 62
7
  6
CONTINUOUS
 10
128.5415655461
 20
326.2297592998
 11
128.5415655461
 21
327.7079663576
  0
LINE
  5
396
100
AcDbEntity
  8
_1
100
AcDbLine
 62
7
  6
CONTINUOUS
 10
183.6115655461
 20
336.3867035035
 11
184.9152923428
 21
339.1825546416
  0
LINE
  5
397
100
AcDbEntity
  8
0
100
AcDbLine
 62
7
  6
CONTINUOUS
 10
53.7866497358
 20
177.6797592998
 11
53.9104666232
 21
177.6797592998
  0
LINE
  5
398
100
AcDbEntity
  8
0
100
AcDbLine
 62
7
  6
CONTINUOUS
 10
54.0443425561
 20
177.6797592998
 11
54.2165214881
 21
177.6797592998
  0
LINE
  5
399
100
AcDbEntity
  8
0
100
AcDbLine
 62
7
  6
CONTINUOUS
 10
54.2165214881
 20
179.0797592998
 11
54.0443425561
 21
179.0797592998
  0
LINE
  5
39A
100
AcDbEntity
  8
0
100
AcDbLine
 62
7
  6
CONTINUOUS
 10
53.9104666232
 20
179.0797592998
 11
53.7866497358
 21
179.0797592998
  0
LINE
  5
39B
100
AcDbEntity
  8
0
100
AcDbLine
 62
7
  6
CONTINUOUS
 10
53.7389538464
 20
181.8797592998
 11
58.5415655461
 21
181.8797592998
  0
LINE
  5
39C
100
AcDbEntity
  8
0
100
AcDbLine
 62
7
  6
CONTINUOUS
 10
130.5415655461
 20
327.6312604158
 11
130.5415655461
 21
326.2297592998
  0
LINE
  5
39D
100
AcDbEntity
  8
0
100
AcDbLine
 62
7
  6
CONTINUOUS
 10
131.2915655461
 20
326.2297592998
 11
131.2915655461
 21
327.6709203736
  0
LINE
  5
39E
100
AcDbEntity
  8
0
100
AcDbLine
 62
7
  6
CONTINUOUS
 10
131.7915655461
 20
327.6510838876
 11
131.7915655461
 21
326.2297592998
  0
LINE
  5
39F
100
AcDbEntity
  8
0
100
AcDbLine
 62
7
  6
CONTINUOUS
 10
132.5415655461
 20
326.2297592998
 11
132.5415655461
 21
327.5514643062
  0
LINE
  5
3A0
100
AcDbEntity
  8
0
100
AcDbLine
 62
7
  6
CONTINUOUS
 10
133.9915655491
 20
327.7966834872
 11
133.9915655491
 21
326.2297592998
  0
LINE
  5
3A1
100
AcDbEntity
  8
_1
100
AcDbLine
 62
7
  6
CONTINUOUS
 10
62.3181720398
 20
303.7347592998
 11
62.3390655461
 21
303.7047592998
  0
LINE
  5
3A2
100
AcDbEntity
  8
_1
100
AcDbLine
 62
7
  6
CONTINUOUS
 10
62.7181720398
 20
303.7347592998
 11
62.7390655461
 21
303.7047592998
  0
LINE
  5
3A3
100
AcDbEntity
  8
_1
100
AcDbLine
 62
7
  6
CONTINUOUS
 10
63.1181720398
 20
303.7347592998
 11
63.1390655461
 21
303.7047592998
  0
LINE
  5
3A4
100
AcDbEntity
  8
_1
100
AcDbLine
 62
7
  6
CONTINUOUS
 10
63.5181720398
 20
303.7347592998
 11
63.5390655461
 21
303.7047592998
  0
LINE
  5
3A5
100
AcDbEntity
  8
_1
100
AcDbLine
 62
7
  6
CONTINUOUS
 10
63.9181720398
 20
303.7347592998
 11
63.9390655461
 21
303.7047592998
  0
LINE
  5
3A6
100
AcDbEntity
  8
_1
100
AcDbLine
 62
7
  6
CONTINUOUS
 10
64.3181720398
 20
303.7347592998
 11
64.3390655461
 21
303.7047592998
  0
LINE
  5
3A7
100
AcDbEntity
  8
_1
100
AcDbLine
 62
7
  6
CONTINUOUS
 10
62.3181720398
 20
307.2347592998
 11
62.3390655461
 21
307.2047592998
  0
LINE
  5
3A8
100
AcDbEntity
  8
_1
100
AcDbLine
 62
7
  6
CONTINUOUS
 10
62.7181720398
 20
307.2347592998
 11
62.7390655461
 21
307.2047592998
  0
LINE
  5
3A9
100
AcDbEntity
  8
_1
100
AcDbLine
 62
7
  6
CONTINUOUS
 10
63.1181720398
 20
307.2347592998
 11
63.1390655461
 21
307.2047592998
  0
LINE
  5
3AA
100
AcDbEntity
  8
_1
100
AcDbLine
 62
7
  6
CONTINUOUS
 10
63.5181720398
 20
307.2347592998
 11
63.5390655461
 21
307.2047592998
  0
LINE
  5
3AB
100
AcDbEntity
  8
_1
100
AcDbLine
 62
7
  6
CONTINUOUS
 10
63.9181720398
 20
307.2347592998
 11
63.9390655461
 21
307.2047592998
  0
LINE
  5
3AC
100
AcDbEntity
  8
_1
100
AcDbLine
 62
7
  6
CONTINUOUS
 10
64.3181720398
 20
307.2347592998
 11
64.3390655461
 21
307.2047592998
  0
LINE
  5
3AD
100
AcDbEntity
  8
_1
100
AcDbLine
 62
7
  6
CONTINUOUS
 10
62.3181720398
 20
310.7347592998
 11
62.3390655461
 21
310.7047592998
  0
LINE
  5
3AE
100
AcDbEntity
  8
_1
100
AcDbLine
 62
7
  6
CONTINUOUS
 10
62.7181720398
 20
310.7347592998
 11
62.7390655461
 21
310.7047592998
  0
LINE
  5
3AF
100
AcDbEntity
  8
_1
100
AcDbLine
 62
7
  6
CONTINUOUS
 10
63.1181720398
 20
310.7347592998
 11
63.1390655461
 21
310.7047592998
  0
LINE
  5
3B0
100
AcDbEntity
  8
_1
100
AcDbLine
 62
7
  6
CONTINUOUS
 10
63.5181720398
 20
310.7347592998
 11
63.5390655461
 21
310.7047592998
  0
LINE
  5
3B1
100
AcDbEntity
  8
_1
100
AcDbLine
 62
7
  6
CONTINUOUS
 10
63.9181720398
 20
310.7347592998
 11
63.9390655461
 21
310.7047592998
  0
LINE
  5
3B2
100
AcDbEntity
  8
_1
100
AcDbLine
 62
7
  6
CONTINUOUS
 10
64.3181720398
 20
310.7347592998
 11
64.3390655461
 21
310.7047592998
  0
LINE
  5
3B3
100
AcDbEntity
  8
_1
100
AcDbLine
 62
7
  6
CONTINUOUS
 10
62.3181720398
 20
314.2347592998
 11
62.3390655461
 21
314.2047592998
  0
LINE
  5
3B4
100
AcDbEntity
  8
_1
100
AcDbLine
 62
7
  6
CONTINUOUS
 10
62.7181720398
 20
314.2347592998
 11
62.7390655461
 21
314.2047592998
  0
LINE
  5
3B5
100
AcDbEntity
  8
_1
100
AcDbLine
 62
7
  6
CONTINUOUS
 10
63.1181720398
 20
314.2347592998
 11
63.1390655461
 21
314.2047592998
  0
LINE
  5
3B6
100
AcDbEntity
  8
_1
100
AcDbLine
 62
7
  6
CONTINUOUS
 10
63.5181720398
 20
314.2347592998
 11
63.5390655461
 21
314.2047592998
  0
LINE
  5
3B7
100
AcDbEntity
  8
_1
100
AcDbLine
 62
7
  6
CONTINUOUS
 10
63.9181720398
 20
314.2347592998
 11
63.9390655461
 21
314.2047592998
  0
LINE
  5
3B8
100
AcDbEntity
  8
_1
100
AcDbLine
 62
7
  6
CONTINUOUS
 10
64.3181720398
 20
314.2347592998
 11
64.3390655461
 21
314.2047592998
  0
LINE
  5
3B9
100
AcDbEntity
  8
0
100
AcDbLine
 62
7
  6
CONTINUOUS
 10
146.7115655461
 20
326.7021297006
 11
146.7115655461
 21
326.7053028256
  0
LINE
  5
3BA
100
AcDbEntity
  8
_1
100
AcDbLine
 62
7
  6
CONTINUOUS
 10
148.6615655461
 20
327.2297592998
 11
148.6615655461
 21
345.9297592998
  0
LINE
  5
3BB
100
AcDbEntity
  8
_1
100
AcDbLine
 62
7
  6
CONTINUOUS
 10
149.7115655461
 20
337.2297592998
 11
149.7115655461
 21
342.5503499073
  0
LINE
  5
3BC
100
AcDbEntity
  8
_1
100
AcDbLine
 62
7
  6
CONTINUOUS
 10
151.4615655461
 20
326.2297592998
 11
151.4615655461
 21
334.7297592998
  0
LINE
  5
3BD
100
AcDbEntity
  8
_1
100
AcDbLine
 62
7
  6
CONTINUOUS
 10
153.1115655461
 20
326.2297592998
 11
153.1115655461
 21
346.9297592998
  0
LINE
  5
3BE
100
AcDbEntity
  8
0
100
AcDbLine
 62
7
  6
CONTINUOUS
 10
159.0415655461
 20
326.2297592998
 11
159.0415655461
 21
343.6842890911
  0
LINE
  5
3BF
100
AcDbEntity
  8
_1
100
AcDbLine
 62
7
  6
CONTINUOUS
 10
48.2387187064
 20
127.0697592998
 11
42.8915655461
 21
123.3256423489
  0
LINE
  5
3C0
100
AcDbEntity
  8
_1
100
AcDbLine
 62
7
  6
CONTINUOUS
 10
44.4047773279
 20
123.5306624334
 11
49.4591314633
 21
127.0697592998
  0
LINE
  5
3C1
100
AcDbEntity
  8
0
100
AcDbLine
 62
7
  6
CONTINUOUS
 10
53.7389538464
 20
214.3697592998
 11
58.5415655461
 21
214.3697592998
  0
LINE
  5
3C2
100
AcDbEntity
  8
0
100
AcDbLine
 62
7
  6
CONTINUOUS
 10
53.7389538464
 20
216.8297592998
 11
58.5415655461
 21
216.8297592998
  0
LINE
  5
3C3
100
AcDbEntity
  8
_1
100
AcDbLine
 62
7
  6
CONTINUOUS
 10
73.0824686796
 20
343.514547518
 11
77.1215655461
 21
337.7461193791
  0
LINE
  5
3C4
100
AcDbEntity
  8
_1
100
AcDbLine
 62
7
  6
CONTINUOUS
 10
77.1215655461
 20
338.9665321361
 11
72.8774485952
 21
345.0277592998
  0
LINE
  5
3C5
100
AcDbEntity
  8
_1
100
AcDbLine
 62
7
  6
CONTINUOUS
 10
46.0415655461
 20
110.1497592998
 11
43.5415655461
 21
108.3997592998
  0
LINE
  5
3C6
100
AcDbEntity
  8
0
100
AcDbLine
 62
7
  6
CONTINUOUS
 10
53.7389538464
 20
233.6297592998
 11
58.5415655461
 21
233.6297592998
  0
LINE
  5
3C7
100
AcDbEntity
  8
_1
100
AcDbLine
 62
7
  6
CONTINUOUS
 10
148.6615655461
 20
327.2297592998
 11
148.8627193922
 21
326.223990069
  0
LINE
  5
3C8
100
AcDbEntity
  8
_1
100
AcDbLine
 62
7
  6
CONTINUOUS
 10
183.6115655461
 20
346.9297592998
 11
183.6115655461
 21
345.7997592998
  0
LINE
  5
3C9
100
AcDbEntity
  8
_1
100
AcDbLine
 62
7
  6
CONTINUOUS
 10
183.6115655461
 20
336.5976492688
 11
183.6115655461
 21
336.1708172914
  0
LINE
  5
3CA
100
AcDbEntity
  8
_1
100
AcDbLine
 62
7
  6
CONTINUOUS
 10
185.2615655461
 20
333.3347775543
 11
185.2615655461
 21
334.7297592998
  0
LINE
  5
3CB
100
AcDbEntity
  8
_1
100
AcDbLine
 62
7
  6
CONTINUOUS
 10
187.0115655461
 20
337.2297592998
 11
187.0115655461
 21
340.1862978077
  0
LINE
  5
3CC
100
AcDbEntity
  8
_1
100
AcDbLine
 62
7
  6
CONTINUOUS
 10
188.0615655461
 20
340.1905377572
 11
188.0615655461
 21
332.5804691875
  0
LINE
  5
3CD
100
AcDbEntity
  8
0
100
AcDbLine
 62
7
  6
CONTINUOUS
 10
52.6631574892
 20
245.6694326522
 11
52.8601743929
 21
245.6740506692
  0
LINE
  5
3CE
100
AcDbEntity
  8
0
100
AcDbLine
 62
7
  6
CONTINUOUS
 10
52.6612111403
 20
245.7020625274
 11
52.8528649997
 21
245.7065407327
  0
LINE
  5
3CF
100
AcDbEntity
  8
0
100
AcDbLine
 62
7
  6
CONTINUOUS
 10
52.6604135566
 20
243.8029352041
 11
52.7237103096
 21
243.8043502688
  0
LINE
  5
3D0
100
AcDbEntity
  8
0
100
AcDbLine
 62
7
  6
CONTINUOUS
 10
52.6631573892
 20
243.6769536425
 11
52.7289210223
 21
243.6781092665
  0
LINE
  5
3D1
100
AcDbEntity
  8
0
100
AcDbLine
 62
7
  6
CONTINUOUS
 10
53.3597802309
 20
242.4904352779
 11
52.7951394413
 21
242.4912338379
  0
LINE
  5
3D2
100
AcDbEntity
  8
0
100
AcDbLine
 62
7
  6
CONTINUOUS
 10
52.7951395469
 20
250.1241735854
 11
53.3597802223
 21
250.1153808229
  0
LINE
  5
3D3
100
AcDbEntity
  8
0
100
AcDbLine
 62
7
  6
CONTINUOUS
 10
53.0774187697
 20
249.9922247781
 11
52.7207489427
 21
249.9984504731
  0
LINE
  5
3D4
100
AcDbEntity
  8
0
100
AcDbLine
 62
7
  6
CONTINUOUS
 10
52.7951394454
 20
239.180245791
 11
53.3597802443
 21
239.1703237301
  0
LINE
  5
3D5
100
AcDbEntity
  8
0
100
AcDbLine
 62
7
  6
CONTINUOUS
 10
52.7984293166
 20
242.309170442
 11
53.3722490392
 21
242.2957641379
  0
LINE
  5
3D6
100
AcDbEntity
  8
0
100
AcDbLine
 62
7
  6
CONTINUOUS
 10
56.5390655461
 20
301.0747592998
 11
57.9247061921
 21
300.2747592998
  0
LINE
  5
3D7
100
AcDbEntity
  8
_1
100
AcDbLine
 62
7
  6
CONTINUOUS
 10
43.7390655461
 20
319.0381212699
 11
47.8997776367
 21
316.1247592998
  0
LINE
  5
3D8
100
AcDbEntity
  8
_1
100
AcDbLine
 62
7
  6
CONTINUOUS
 10
48.945845714
 20
316.1247592998
 11
44.5522773279
 21
319.2011690034
  0
LINE
  5
3D9
100
AcDbEntity
  8
0
100
AcDbLine
 62
7
  6
CONTINUOUS
 10
196.0415655461
 20
343.6842890911
 11
196.0415655461
 21
326.2297592998
  0
LINE
  5
3DA
100
AcDbEntity
  8
_1
100
AcDbLine
 62
7
  6
CONTINUOUS
 10
42.1328890758
 20
111.7997592998
 11
34.8415655461
 21
108.3997592998
  0
LINE
  5
3DB
100
AcDbEntity
  8
_1
100
AcDbLine
 62
7
  6
CONTINUOUS
 10
38.1153203731
 20
108.8763362465
 11
44.3846213423
 21
111.7997592998
  0
LINE
  5
3DC
100
AcDbEntity
  8
0
100
AcDbLine
 62
7
  6
CONTINUOUS
 10
52.7984292832
 20
258.1503481568
 11
53.3722490392
 21
258.1637544617
  0
LINE
  5
3DD
100
AcDbEntity
  8
0
100
AcDbLine
 62
7
  6
CONTINUOUS
 10
52.7207582672
 20
250.4610682892
 11
53.0773994904
 21
250.4672934849
  0
LINE
  5
3DE
100
AcDbEntity
  8
0
100
AcDbLine
 62
7
  6
CONTINUOUS
 10
52.7951394454
 20
250.3353450174
 11
53.3597802443
 21
250.3441377579
  0
LINE
  5
3DF
100
AcDbEntity
  8
0
100
AcDbLine
 62
7
  6
CONTINUOUS
 10
52.7951395443
 20
257.9682848259
 11
53.3597802022
 21
257.9690831662
  0
LINE
  5
3E0
100
AcDbEntity
  8
0
100
AcDbLine
 62
7
  6
CONTINUOUS
 10
52.6631573885
 20
256.7825649225
 11
52.7289210207
 21
256.781409299
  0
LINE
  5
3E1
100
AcDbEntity
  8
0
100
AcDbLine
 62
7
  6
CONTINUOUS
 10
52.6604135606
 20
256.6565835584
 11
52.7237103141
 21
256.6551684494
  0
LINE
  5
3E2
100
AcDbEntity
  8
0
100
AcDbLine
 62
7
  6
CONTINUOUS
 10
52.6604135606
 20
256.6565835584
 11
52.7237104669
 21
256.6551752995
  0
LINE
  5
3E3
100
AcDbEntity
  8
0
100
AcDbLine
 62
7
  6
CONTINUOUS
 10
52.661211121
 20
254.7574560726
 11
52.8528649997
 21
254.7529778668
  0
LINE
  5
3E4
100
AcDbEntity
  8
0
100
AcDbLine
 62
7
  6
CONTINUOUS
 10
52.6631573885
 20
254.7900859277
 11
52.8601743906
 21
254.7854679144
  0
LINE
  5
3E5
100
AcDbEntity
  8
0
100
AcDbLine
 62
7
  6
CONTINUOUS
 10
204.0390655461
 20
326.2297592998
 11
204.0390655461
 21
322.2297592998
  0
LINE
  5
3E6
100
AcDbEntity
  8
0
100
AcDbLine
 62
7
  6
CONTINUOUS
 10
204.7890655461
 20
322.2297592998
 11
204.7890655461
 21
326.2297592998
  0
LINE
  5
3E7
100
AcDbEntity
  8
0
100
AcDbLine
 62
7
  6
CONTINUOUS
 10
208.6747989649
 20
326.2297592998
 11
208.6747989649
 21
322.2297592998
  0
LINE
  5
3E8
100
AcDbEntity
  8
0
100
AcDbLine
 62
7
  6
CONTINUOUS
 10
209.4243420852
 20
322.2297592998
 11
209.4243420852
 21
326.2297592998
  0
LINE
  5
3E9
100
AcDbEntity
  8
0
100
AcDbLine
 62
7
  6
CONTINUOUS
 10
210.0765284742
 20
326.2297592998
 11
210.0765284742
 21
322.2297592998
  0
LINE
  5
3EA
100
AcDbEntity
  8
0
100
AcDbLine
 62
7
  6
CONTINUOUS
 10
52.7951394443
 20
261.279272773
 11
53.3597802022
 21
261.2891945671
  0
LINE
  5
3EB
100
AcDbEntity
  8
0
100
AcDbLine
 62
7
  6
CONTINUOUS
 10
53.5420144603
 20
270.2297592998
 11
54.2769997812
 21
270.2297592998
  0
LINE
  5
3EC
100
AcDbEntity
  8
_1
100
AcDbLine
 62
7
  6
CONTINUOUS
 10
150.1881424928
 20
342.6560044728
 11
153.1115655461
 21
336.3867035035
  0
LINE
  5
3ED
100
AcDbEntity
  8
_1
100
AcDbLine
 62
7
  6
CONTINUOUS
 10
153.1115655461
 20
338.63843577
 11
149.7115655461
 21
345.9297592998
  0
LINE
  5
3EE
100
AcDbEntity
  8
0
100
AcDbLine
 62
7
  6
CONTINUOUS
 10
214.4366026179
 20
326.2297592998
 11
214.4366026179
 21
322.2297592998
  0
LINE
  5
3EF
100
AcDbEntity
  8
0
100
AcDbLine
 62
7
  6
CONTINUOUS
 10
215.0887890069
 20
326.2297592998
 11
215.0887890069
 21
322.2297592998
  0
LINE
  5
3F0
100
AcDbEntity
  8
0
100
AcDbLine
 62
7
  6
CONTINUOUS
 10
215.8383321272
 20
322.2297592998
 11
215.8383321272
 21
326.2297592998
  0
LINE
  5
3F1
100
AcDbEntity
  8
0
100
AcDbLine
 62
7
  6
CONTINUOUS
 10
219.6897989649
 20
326.2297592998
 11
219.6897989649
 21
322.2297592998
  0
LINE
  5
3F2
100
AcDbEntity
  8
0
100
AcDbLine
 62
7
  6
CONTINUOUS
 10
220.4393420852
 20
322.2297592998
 11
220.4393420852
 21
326.2297592998
  0
LINE
  5
3F3
100
AcDbEntity
  8
0
100
AcDbLine
 62
7
  6
CONTINUOUS
 10
221.0915284742
 20
326.2297592998
 11
221.0915284742
 21
322.2297592998
  0
LINE
  5
3F4
100
AcDbEntity
  8
0
100
AcDbLine
 62
7
  6
CONTINUOUS
 10
225.4516026179
 20
326.2297592998
 11
225.4516026179
 21
322.2297592998
  0
LINE
  5
3F5
100
AcDbEntity
  8
0
100
AcDbLine
 62
7
  6
CONTINUOUS
 10
54.2769997812
 20
280.2297592998
 11
53.5420144603
 21
280.2297592998
  0
LINE
  5
3F6
100
AcDbEntity
  8
0
100
AcDbLine
 62
7
  6
CONTINUOUS
 10
53.5484431499
 20
282.7297592998
 11
53.7028026113
 21
282.7297592998
  0
LINE
  5
3F7
100
AcDbEntity
  8
0
100
AcDbLine
 62
7
  6
CONTINUOUS
 10
53.8573035239
 20
282.7297592998
 11
54.3409480944
 21
282.7297592998
  0
LINE
  5
3F8
100
AcDbEntity
  8
_1
100
AcDbLine
 62
7
  6
CONTINUOUS
 10
151.4615655461
 20
334.7297592998
 11
149.7115655461
 21
337.2297592998
  0
LINE
  5
3F9
100
AcDbEntity
  8
0
100
AcDbLine
 62
7
  6
CONTINUOUS
 10
226.1037890069
 20
326.2297592998
 11
226.1037890069
 21
322.2297592998
  0
LINE
  5
3FA
100
AcDbEntity
  8
0
100
AcDbLine
 62
7
  6
CONTINUOUS
 10
226.8533321272
 20
322.2297592998
 11
226.8533321272
 21
326.2297592998
  0
LINE
  5
3FB
100
AcDbEntity
  8
0
100
AcDbLine
 62
7
  6
CONTINUOUS
 10
230.7047989649
 20
326.2297592998
 11
230.7047989649
 21
322.2297592998
  0
LINE
  5
3FC
100
AcDbEntity
  8
0
100
AcDbLine
 62
7
  6
CONTINUOUS
 10
231.4543420852
 20
322.2297592998
 11
231.4543420852
 21
326.2297592998
  0
LINE
  5
3FD
100
AcDbEntity
  8
0
100
AcDbLine
 62
7
  6
CONTINUOUS
 10
232.1065284742
 20
326.2297592998
 11
232.1065284742
 21
322.2297592998
  0
LINE
  5
3FE
100
AcDbEntity
  8
0
100
AcDbLine
 62
7
  6
CONTINUOUS
 10
236.4666026179
 20
326.2297592998
 11
236.4666026179
 21
322.2297592998
  0
LINE
  5
3FF
100
AcDbEntity
  8
0
100
AcDbLine
 62
7
  6
CONTINUOUS
 10
237.1187890069
 20
326.2297592998
 11
237.1187890069
 21
322.2297592998
  0
LINE
  5
400
100
AcDbEntity
  8
0
100
AcDbLine
 62
7
  6
CONTINUOUS
 10
54.3409480944
 20
285.7297592998
 11
53.8572984718
 21
285.7297592998
  0
LINE
  5
401
100
AcDbEntity
  8
0
100
AcDbLine
 62
7
  6
CONTINUOUS
 10
53.7028026113
 20
285.7297592998
 11
53.5484431499
 21
285.7297592998
  0
LINE
  5
402
100
AcDbEntity
  8
0
100
AcDbLine
 62
7
  6
CONTINUOUS
 10
53.5854770003
 20
296.7297592998
 11
58.5415655461
 21
296.7297592998
  0
LINE
  5
403
100
AcDbEntity
  8
0
100
AcDbLine
 62
7
  6
CONTINUOUS
 10
237.8683321272
 20
322.2297592998
 11
237.8683321272
 21
326.2297592998
  0
LINE
  5
404
100
AcDbEntity
  8
0
100
AcDbLine
 62
7
  6
CONTINUOUS
 10
241.7197989649
 20
326.2297592998
 11
241.7197989649
 21
322.2297592998
  0
LINE
  5
405
100
AcDbEntity
  8
0
100
AcDbLine
 62
7
  6
CONTINUOUS
 10
242.4693420852
 20
322.2297592998
 11
242.4693420852
 21
326.2297592998
  0
LINE
  5
406
100
AcDbEntity
  8
0
100
AcDbLine
 62
7
  6
CONTINUOUS
 10
243.1215284742
 20
326.2297592998
 11
243.1215284742
 21
322.2297592998
  0
LINE
  5
407
100
AcDbEntity
  8
0
100
AcDbLine
 62
7
  6
CONTINUOUS
 10
247.4816026179
 20
326.2297592998
 11
247.4816026179
 21
322.2297592998
  0
LINE
  5
408
100
AcDbEntity
  8
0
100
AcDbLine
 62
7
  6
CONTINUOUS
 10
248.1337890069
 20
326.2297592998
 11
248.1337890069
 21
322.2297592998
  0
LINE
  5
409
100
AcDbEntity
  8
0
100
AcDbLine
 62
7
  6
CONTINUOUS
 10
248.8833321272
 20
322.2297592998
 11
248.8833321272
 21
326.2297592998
  0
LINE
  5
40A
100
AcDbEntity
  8
0
100
AcDbLine
 62
7
  6
CONTINUOUS
 10
57.9247061921
 20
300.2747592998
 11
58.4265542096
 21
300.2747592998
  0
LINE
  5
40B
100
AcDbEntity
  8
0
100
AcDbLine
 62
7
  6
CONTINUOUS
 10
58.5415655461
 20
301.2747592998
 11
56.5390655461
 21
301.2747592998
  0
LINE
  5
40C
100
AcDbEntity
  8
_1
100
AcDbLine
 62
7
  6
CONTINUOUS
 10
43.0390655461
 20
301.4247592998
 11
56.5390655461
 21
301.4247592998
  0
LINE
  5
40D
100
AcDbEntity
  8
_1
100
AcDbLine
 62
7
  6
CONTINUOUS
 10
64.3606033384
 20
303.7347592998
 11
64.3181720398
 21
303.7347592998
  0
LINE
  5
40E
100
AcDbEntity
  8
_1
100
AcDbLine
 62
7
  6
CONTINUOUS
 10
63.9606033384
 20
303.7347592998
 11
63.9181720398
 21
303.7347592998
  0
LINE
  5
40F
100
AcDbEntity
  8
_1
100
AcDbLine
 62
7
  6
CONTINUOUS
 10
63.5606033384
 20
303.7347592998
 11
63.5181720398
 21
303.7347592998
  0
LINE
  5
410
100
AcDbEntity
  8
_1
100
AcDbLine
 62
7
  6
CONTINUOUS
 10
63.1606033384
 20
303.7347592998
 11
63.1181720398
 21
303.7347592998
  0
LINE
  5
411
100
AcDbEntity
  8
_1
100
AcDbLine
 62
7
  6
CONTINUOUS
 10
62.7606033384
 20
303.7347592998
 11
62.7181720398
 21
303.7347592998
  0
LINE
  5
412
100
AcDbEntity
  8
_1
100
AcDbLine
 62
7
  6
CONTINUOUS
 10
62.3606033384
 20
303.7347592998
 11
62.3181720398
 21
303.7347592998
  0
LINE
  5
413
100
AcDbEntity
  8
_1
100
AcDbLine
 62
7
  6
CONTINUOUS
 10
64.3606033384
 20
303.8647592998
 11
64.3181720398
 21
303.8647592998
  0
LINE
  5
414
100
AcDbEntity
  8
_1
100
AcDbLine
 62
7
  6
CONTINUOUS
 10
63.9606033384
 20
303.8647592998
 11
63.9181720398
 21
303.8647592998
  0
LINE
  5
415
100
AcDbEntity
  8
_1
100
AcDbLine
 62
7
  6
CONTINUOUS
 10
63.5606033384
 20
303.8647592998
 11
63.5181720398
 21
303.8647592998
  0
LINE
  5
416
100
AcDbEntity
  8
_1
100
AcDbLine
 62
7
  6
CONTINUOUS
 10
63.1606033384
 20
303.8647592998
 11
63.1181720398
 21
303.8647592998
  0
LINE
  5
417
100
AcDbEntity
  8
_1
100
AcDbLine
 62
7
  6
CONTINUOUS
 10
62.7606033384
 20
303.8647592998
 11
62.7181720398
 21
303.8647592998
  0
LINE
  5
418
100
AcDbEntity
  8
_1
100
AcDbLine
 62
7
  6
CONTINUOUS
 10
62.3606033384
 20
303.8647592998
 11
62.3181720398
 21
303.8647592998
  0
LINE
  5
419
100
AcDbEntity
  8
_1
100
AcDbLine
 62
7
  6
CONTINUOUS
 10
64.3606033384
 20
307.2347592998
 11
64.3181720398
 21
307.2347592998
  0
LINE
  5
41A
100
AcDbEntity
  8
_1
100
AcDbLine
 62
7
  6
CONTINUOUS
 10
63.9606033384
 20
307.2347592998
 11
63.9181720398
 21
307.2347592998
  0
LINE
  5
41B
100
AcDbEntity
  8
_1
100
AcDbLine
 62
7
  6
CONTINUOUS
 10
63.5606033384
 20
307.2347592998
 11
63.5181720398
 21
307.2347592998
  0
LINE
  5
41C
100
AcDbEntity
  8
_1
100
AcDbLine
 62
7
  6
CONTINUOUS
 10
63.1606033384
 20
307.2347592998
 11
63.1181720398
 21
307.2347592998
  0
LINE
  5
41D
100
AcDbEntity
  8
_1
100
AcDbLine
 62
7
  6
CONTINUOUS
 10
62.7606033384
 20
307.2347592998
 11
62.7181720398
 21
307.2347592998
  0
LINE
  5
41E
100
AcDbEntity
  8
_1
100
AcDbLine
 62
7
  6
CONTINUOUS
 10
62.3606033384
 20
307.2347592998
 11
62.3181720398
 21
307.2347592998
  0
LINE
  5
41F
100
AcDbEntity
  8
_1
100
AcDbLine
 62
7
  6
CONTINUOUS
 10
64.3606033384
 20
307.3647592998
 11
64.3181720398
 21
307.3647592998
  0
LINE
  5
420
100
AcDbEntity
  8
_1
100
AcDbLine
 62
7
  6
CONTINUOUS
 10
63.9606033384
 20
307.3647592998
 11
63.9181720398
 21
307.3647592998
  0
LINE
  5
421
100
AcDbEntity
  8
_1
100
AcDbLine
 62
7
  6
CONTINUOUS
 10
63.5606033384
 20
307.3647592998
 11
63.5181720398
 21
307.3647592998
  0
LINE
  5
422
100
AcDbEntity
  8
_1
100
AcDbLine
 62
7
  6
CONTINUOUS
 10
63.1606033384
 20
307.3647592998
 11
63.1181720398
 21
307.3647592998
  0
LINE
  5
423
100
AcDbEntity
  8
_1
100
AcDbLine
 62
7
  6
CONTINUOUS
 10
62.7606033384
 20
307.3647592998
 11
62.7181720398
 21
307.3647592998
  0
LINE
  5
424
100
AcDbEntity
  8
_1
100
AcDbLine
 62
7
  6
CONTINUOUS
 10
62.3606033384
 20
307.3647592998
 11
62.3181720398
 21
307.3647592998
  0
LINE
  5
425
100
AcDbEntity
  8
_1
100
AcDbLine
 62
7
  6
CONTINUOUS
 10
44.9258896349
 20
320.1031489021
 11
58.5415655461
 21
317.7023378783
  0
LINE
  5
426
100
AcDbEntity
  8
_1
100
AcDbLine
 62
7
  6
CONTINUOUS
 10
58.5415655461
 20
318.5146791678
 11
43.7390655461
 21
321.1247592998
  0
LINE
  5
427
100
AcDbEntity
  8
0
100
AcDbLine
 62
7
  6
CONTINUOUS
 10
252.7347989649
 20
326.2297592998
 11
252.7347989649
 21
322.2297592998
  0
LINE
  5
428
100
AcDbEntity
  8
0
100
AcDbLine
 62
7
  6
CONTINUOUS
 10
253.4843420852
 20
322.2297592998
 11
253.4843420852
 21
326.2297592998
  0
LINE
  5
429
100
AcDbEntity
  8
0
100
AcDbLine
 62
7
  6
CONTINUOUS
 10
254.1365284742
 20
326.2297592998
 11
254.1365284742
 21
322.2297592998
  0
LINE
  5
42A
100
AcDbEntity
  8
0
100
AcDbLine
 62
7
  6
CONTINUOUS
 10
258.4966026179
 20
326.2297592998
 11
258.4966026179
 21
322.2297592998
  0
LINE
  5
42B
100
AcDbEntity
  8
0
100
AcDbLine
 62
7
  6
CONTINUOUS
 10
259.1487890069
 20
326.2297592998
 11
259.1487890069
 21
322.2297592998
  0
LINE
  5
42C
100
AcDbEntity
  8
0
100
AcDbLine
 62
7
  6
CONTINUOUS
 10
259.8983321272
 20
322.2297592998
 11
259.8983321272
 21
326.2297592998
  0
LINE
  5
42D
100
AcDbEntity
  8
_1
100
AcDbLine
 62
7
  6
CONTINUOUS
 10
43.7390655461
 20
296.4247592998
 11
58.5415655461
 21
299.0348394317
  0
LINE
  5
42E
100
AcDbEntity
  8
_1
100
AcDbLine
 62
7
  6
CONTINUOUS
 10
58.5415655461
 20
299.8471807212
 11
44.9258896349
 21
297.4463696975
  0
LINE
  5
42F
100
AcDbEntity
  8
_1
100
AcDbLine
 62
7
  6
CONTINUOUS
 10
64.3606033384
 20
310.7347592998
 11
64.3181720398
 21
310.7347592998
  0
LINE
  5
430
100
AcDbEntity
  8
_1
100
AcDbLine
 62
7
  6
CONTINUOUS
 10
63.9606033384
 20
310.7347592998
 11
63.9181720398
 21
310.7347592998
  0
LINE
  5
431
100
AcDbEntity
  8
_1
100
AcDbLine
 62
7
  6
CONTINUOUS
 10
63.5606033384
 20
310.7347592998
 11
63.5181720398
 21
310.7347592998
  0
LINE
  5
432
100
AcDbEntity
  8
_1
100
AcDbLine
 62
7
  6
CONTINUOUS
 10
63.1606033384
 20
310.7347592998
 11
63.1181720398
 21
310.7347592998
  0
LINE
  5
433
100
AcDbEntity
  8
_1
100
AcDbLine
 62
7
  6
CONTINUOUS
 10
62.7606033384
 20
310.7347592998
 11
62.7181720398
 21
310.7347592998
  0
LINE
  5
434
100
AcDbEntity
  8
_1
100
AcDbLine
 62
7
  6
CONTINUOUS
 10
62.3606033384
 20
310.7347592998
 11
62.3181720398
 21
310.7347592998
  0
LINE
  5
435
100
AcDbEntity
  8
_1
100
AcDbLine
 62
7
  6
CONTINUOUS
 10
64.3606033384
 20
310.8647592998
 11
64.3181720398
 21
310.8647592998
  0
LINE
  5
436
100
AcDbEntity
  8
_1
100
AcDbLine
 62
7
  6
CONTINUOUS
 10
63.9606033384
 20
310.8647592998
 11
63.9181720398
 21
310.8647592998
  0
LINE
  5
437
100
AcDbEntity
  8
_1
100
AcDbLine
 62
7
  6
CONTINUOUS
 10
63.5606033384
 20
310.8647592998
 11
63.5181720398
 21
310.8647592998
  0
LINE
  5
438
100
AcDbEntity
  8
_1
100
AcDbLine
 62
7
  6
CONTINUOUS
 10
63.1606033384
 20
310.8647592998
 11
63.1181720398
 21
310.8647592998
  0
LINE
  5
439
100
AcDbEntity
  8
_1
100
AcDbLine
 62
7
  6
CONTINUOUS
 10
62.7606033384
 20
310.8647592998
 11
62.7181720398
 21
310.8647592998
  0
LINE
  5
43A
100
AcDbEntity
  8
_1
100
AcDbLine
 62
7
  6
CONTINUOUS
 10
62.3606033384
 20
310.8647592998
 11
62.3181720398
 21
310.8647592998
  0
LINE
  5
43B
100
AcDbEntity
  8
_1
100
AcDbLine
 62
7
  6
CONTINUOUS
 10
64.3606033384
 20
314.2347592998
 11
64.3181720398
 21
314.2347592998
  0
LINE
  5
43C
100
AcDbEntity
  8
_1
100
AcDbLine
 62
7
  6
CONTINUOUS
 10
63.9606033384
 20
314.2347592998
 11
63.9181720398
 21
314.2347592998
  0
LINE
  5
43D
100
AcDbEntity
  8
_1
100
AcDbLine
 62
7
  6
CONTINUOUS
 10
63.5606033384
 20
314.2347592998
 11
63.5181720398
 21
314.2347592998
  0
LINE
  5
43E
100
AcDbEntity
  8
_1
100
AcDbLine
 62
7
  6
CONTINUOUS
 10
63.1606033384
 20
314.2347592998
 11
63.1181720398
 21
314.2347592998
  0
LINE
  5
43F
100
AcDbEntity
  8
_1
100
AcDbLine
 62
7
  6
CONTINUOUS
 10
62.7606033384
 20
314.2347592998
 11
62.7181720398
 21
314.2347592998
  0
LINE
  5
440
100
AcDbEntity
  8
_1
100
AcDbLine
 62
7
  6
CONTINUOUS
 10
62.3606033384
 20
314.2347592998
 11
62.3181720398
 21
314.2347592998
  0
LINE
  5
441
100
AcDbEntity
  8
_1
100
AcDbLine
 62
7
  6
CONTINUOUS
 10
64.3606033384
 20
314.3647592998
 11
64.3181720398
 21
314.3647592998
  0
LINE
  5
442
100
AcDbEntity
  8
_1
100
AcDbLine
 62
7
  6
CONTINUOUS
 10
63.9606033384
 20
314.3647592998
 11
63.9181720398
 21
314.3647592998
  0
LINE
  5
443
100
AcDbEntity
  8
_1
100
AcDbLine
 62
7
  6
CONTINUOUS
 10
63.5606033384
 20
314.3647592998
 11
63.5181720398
 21
314.3647592998
  0
LINE
  5
444
100
AcDbEntity
  8
_1
100
AcDbLine
 62
7
  6
CONTINUOUS
 10
63.1606033384
 20
314.3647592998
 11
63.1181720398
 21
314.3647592998
  0
LINE
  5
445
100
AcDbEntity
  8
_1
100
AcDbLine
 62
7
  6
CONTINUOUS
 10
62.7606033384
 20
314.3647592998
 11
62.7181720398
 21
314.3647592998
  0
LINE
  5
446
100
AcDbEntity
  8
_1
100
AcDbLine
 62
7
  6
CONTINUOUS
 10
62.3606033384
 20
314.3647592998
 11
62.3181720398
 21
314.3647592998
  0
LINE
  5
447
100
AcDbEntity
  8
_1
100
AcDbLine
 62
7
  6
CONTINUOUS
 10
43.0390655461
 20
316.1247592998
 11
56.5390655461
 21
316.1247592998
  0
LINE
  5
448
100
AcDbEntity
  8
0
100
AcDbLine
 62
7
  6
CONTINUOUS
 10
58.5415655461
 20
316.1747592998
 11
56.5390655461
 21
316.1747592998
  0
LINE
  5
449
100
AcDbEntity
  8
0
100
AcDbLine
 62
7
  6
CONTINUOUS
 10
57.9247061921
 20
317.1747592998
 11
58.4265542096
 21
317.1747592998
  0
LINE
  5
44A
100
AcDbEntity
  8
0
100
AcDbLine
 62
7
  6
CONTINUOUS
 10
53.5854770003
 20
320.7297592998
 11
58.5415655461
 21
320.7297592998
  0
LINE
  5
44B
100
AcDbEntity
  8
0
100
AcDbLine
 62
7
  6
CONTINUOUS
 10
262.5940655461
 20
326.2297592998
 11
262.5940655461
 21
322.2297592998
  0
LINE
  5
44C
100
AcDbEntity
  8
0
100
AcDbLine
 62
7
  6
CONTINUOUS
 10
263.3440655461
 20
326.2297592998
 11
263.3440655461
 21
322.2297592998
  0
LINE
  5
44D
100
AcDbEntity
  8
0
100
AcDbLine
 62
7
  6
CONTINUOUS
 10
266.5415655461
 20
76.2297592998
 11
266.5415655461
 21
96.2297592998
  0
LINE
  5
44E
100
AcDbEntity
  8
0
100
AcDbLine
 62
7
  6
CONTINUOUS
 10
266.5415655461
 20
326.2297592998
 11
266.5415655461
 21
346.2287197996
  0
LINE
  5
44F
100
AcDbEntity
  8
0
100
AcDbLine
 62
7
  6
CONTINUOUS
 10
270.5415655461
 20
76.2297592998
 11
270.5415655461
 21
346.2287197996
  0
LINE
  5
450
100
AcDbEntity
  8
0
100
AcDbLine
 62
7
  6
CONTINUOUS
 10
195.1862264867
 20
90.8744202405
 11
200.5415655461
 21
96.2297592998
  0
LINE
  5
451
100
AcDbEntity
  8
0
100
AcDbLine
 62
7
  6
CONTINUOUS
 10
100.5415655461
 20
326.852408617
 11
102.5415630875
 21
326.9038797265
  0
LINE
  5
452
100
AcDbEntity
  8
0
100
AcDbLine
 62
7
  6
CONTINUOUS
 10
104.5415655461
 20
326.9554856204
 11
106.5415613213
 21
327.0070014457
  0
LINE
  5
453
100
AcDbEntity
  8
0
100
AcDbLine
 62
7
  6
CONTINUOUS
 10
108.5415655461
 20
327.0582019956
 11
110.5415666851
 21
327.1088607308
  0
LINE
  5
454
100
AcDbEntity
  8
0
100
AcDbLine
 62
7
  6
CONTINUOUS
 10
96.1400104561
 20
326.7407119143
 11
98.5415683614
 21
326.8012965835
  0
LINE
  5
455
100
AcDbEntity
  8
0
100
AcDbLine
 62
7
  6
CONTINUOUS
 10
112.5415655461
 20
327.1587503098
 11
114.5415643588
 21
327.2076419641
  0
LINE
  5
456
100
AcDbEntity
  8
0
100
AcDbLine
 62
7
  6
CONTINUOUS
 10
116.5415655461
 20
327.2553051841
 11
118.5415647444
 21
327.3015070933
  0
LINE
  5
457
100
AcDbEntity
  8
0
100
AcDbLine
 62
7
  6
CONTINUOUS
 10
120.5415655461
 20
327.3460123546
 11
122.5415644712
 21
327.3885821425
  0
LINE
  5
458
100
AcDbEntity
  8
0
100
AcDbLine
 62
7
  6
CONTINUOUS
 10
124.5415655461
 20
327.4289732671
 11
126.5415473695
 21
327.4669368533
  0
LINE
  5
459
100
AcDbEntity
  8
0
100
AcDbLine
 62
7
  6
CONTINUOUS
 10
128.5415655461
 20
327.5022177164
 11
130.5415599793
 21
327.534549337
  0
LINE
  5
45A
100
AcDbEntity
  8
0
100
AcDbLine
 62
7
  6
CONTINUOUS
 10
132.5325441254
 20
327.5635275822
 11
133.9915743104
 21
327.582559748
  0
LINE
  5
45B
100
AcDbEntity
  8
0
100
AcDbLine
 62
7
  6
CONTINUOUS
 10
139.0529774233
 20
327.6320529842
 11
139.9043079282
 21
327.6375167255
  0
LINE
  5
45C
100
AcDbEntity
  8
0
100
AcDbLine
 62
7
  6
CONTINUOUS
 10
263.3440655461
 20
322.2297592998
 11
258.4966026179
 21
322.2297592998
  0
LINE
  5
45D
100
AcDbEntity
  8
0
100
AcDbLine
 62
7
  6
CONTINUOUS
 10
254.1365284742
 20
322.2297592998
 11
247.4816026179
 21
322.2297592998
  0
LINE
  5
45E
100
AcDbEntity
  8
0
100
AcDbLine
 62
7
  6
CONTINUOUS
 10
243.1215284742
 20
322.2297592998
 11
236.4666026179
 21
322.2297592998
  0
LINE
  5
45F
100
AcDbEntity
  8
0
100
AcDbLine
 62
7
  6
CONTINUOUS
 10
232.1065284742
 20
322.2297592998
 11
225.4516026179
 21
322.2297592998
  0
LINE
  5
460
100
AcDbEntity
  8
0
100
AcDbLine
 62
7
  6
CONTINUOUS
 10
221.0915284742
 20
322.2297592998
 11
214.4366026179
 21
322.2297592998
  0
LINE
  5
461
100
AcDbEntity
  8
0
100
AcDbLine
 62
7
  6
CONTINUOUS
 10
210.0765284742
 20
322.2297592998
 11
204.0390655461
 21
322.2297592998
  0
LINE
  5
462
100
AcDbEntity
  8
0
100
AcDbLine
 62
7
  6
CONTINUOUS
 10
56.5415655461
 20
326.2297592998
 11
270.5415655461
 21
326.2297592998
  0
LINE
  5
463
100
AcDbEntity
  8
_1
100
AcDbLine
 62
7
  6
CONTINUOUS
 10
159.0415655461
 20
327.3597592998
 11
153.1115655461
 21
327.3597592998
  0
LINE
  5
464
100
AcDbEntity
  8
0
100
AcDbLine
 62
7
  6
CONTINUOUS
 10
68.5415655456
 20
329.2297592998
 11
53.5427410307
 21
329.2297592998
  0
LINE
  5
465
100
AcDbEntity
  8
0
100
AcDbLine
 62
7
  6
CONTINUOUS
 10
76.7815655461
 20
329.4277592998
 11
78.9215655461
 21
329.4277592998
  0
LINE
  5
466
100
AcDbEntity
  8
0
100
AcDbLine
 62
7
  6
CONTINUOUS
 10
80.9215655461
 20
329.4277592998
 11
84.0015655461
 21
329.4277592998
  0
LINE
  5
467
100
AcDbEntity
  8
0
100
AcDbLine
 62
7
  6
CONTINUOUS
 10
86.0015655461
 20
329.4277592998
 11
89.0815655461
 21
329.4277592998
  0
LINE
  5
468
100
AcDbEntity
  8
0
100
AcDbLine
 62
7
  6
CONTINUOUS
 10
91.0815655461
 20
329.4277592998
 11
94.1615655461
 21
329.4277592998
  0
LINE
  5
469
100
AcDbEntity
  8
0
100
AcDbLine
 62
7
  6
CONTINUOUS
 10
96.1615655461
 20
329.4277592998
 11
98.3015655461
 21
329.4277592998
  0
LINE
  5
46A
100
AcDbEntity
  8
0
100
AcDbLine
 62
7
  6
CONTINUOUS
 10
98.3015655461
 20
329.7277592998
 11
97.9215655461
 21
329.7277592998
  0
LINE
  5
46B
100
AcDbEntity
  8
0
100
AcDbLine
 62
7
  6
CONTINUOUS
 10
77.1215655461
 20
329.7277592998
 11
76.7815655461
 21
329.7277592998
  0
LINE
  5
46C
100
AcDbEntity
  8
_1
100
AcDbLine
 62
7
  6
CONTINUOUS
 10
77.1215655461
 20
329.7277592998
 11
97.9215655461
 21
329.7277592998
  0
LINE
  5
46D
100
AcDbEntity
  8
_1
100
AcDbLine
 62
7
  6
CONTINUOUS
 10
102.3371430711
 20
330.3707711033
 11
100.6109178309
 21
330.3707711033
  0
LINE
  5
46E
100
AcDbEntity
  8
_1
100
AcDbLine
 62
7
  6
CONTINUOUS
 10
74.4322132612
 20
330.3707711033
 11
72.705988021
 21
330.3707711033
  0
LINE
  5
46F
100
AcDbEntity
  8
_1
100
AcDbLine
 62
7
  6
CONTINUOUS
 10
148.6615655461
 20
331.6297592998
 11
151.4615655461
 21
331.6297592998
  0
LINE
  5
470
100
AcDbEntity
  8
0
100
AcDbLine
 62
7
  6
CONTINUOUS
 10
85.2915655461
 20
329.1430773624
 11
68.5415655282
 21
329.2297592998
  0
LINE
  5
471
100
AcDbEntity
  8
0
100
AcDbLine
 62
7
  6
CONTINUOUS
 10
107.291880696
 20
328.7623519023
 11
89.7915655461
 21
329.0899914281
  0
LINE
  5
472
100
AcDbEntity
  8
0
100
AcDbLine
 62
7
  6
CONTINUOUS
 10
111.2920505185
 20
328.6603178271
 11
107.2915655461
 21
328.7623595429
  0
LINE
  5
473
100
AcDbEntity
  8
0
100
AcDbLine
 62
7
  6
CONTINUOUS
 10
115.2920268538
 20
328.5481923002
 11
111.2915655461
 21
328.6603308097
  0
LINE
  5
474
100
AcDbEntity
  8
0
100
AcDbLine
 62
7
  6
CONTINUOUS
 10
119.2918813081
 20
328.4259892287
 11
115.2915655461
 21
328.548205813
  0
LINE
  5
475
100
AcDbEntity
  8
0
100
AcDbLine
 62
7
  6
CONTINUOUS
 10
123.2916340093
 20
328.2937307555
 11
119.2915655461
 21
328.4259992732
  0
LINE
  5
476
100
AcDbEntity
  8
0
100
AcDbLine
 62
7
  6
CONTINUOUS
 10
127.2912338052
 20
328.1514485675
 11
123.2915655461
 21
328.2937331053
  0
LINE
  5
477
100
AcDbEntity
  8
0
100
AcDbLine
 62
7
  6
CONTINUOUS
 10
127.7915655461
 20
327.8053296843
 11
127.2915655461
 21
327.8238930651
  0
LINE
  5
478
100
AcDbEntity
  8
0
100
AcDbLine
 62
7
  6
CONTINUOUS
 10
131.2921745057
 20
327.9991211461
 11
127.2915655461
 21
328.1514363511
  0
LINE
  5
479
100
AcDbEntity
  8
0
100
AcDbLine
 62
7
  6
CONTINUOUS
 10
127.2912338318
 20
328.1514492483
 11
127.2915655461
 21
328.1514363511
  0
LINE
  5
47A
100
AcDbEntity
  8
0
100
AcDbLine
 62
7
  6
CONTINUOUS
 10
131.7915655461
 20
327.6510838876
 11
131.2915655461
 21
327.6709203736
  0
LINE
  5
47B
100
AcDbEntity
  8
0
100
AcDbLine
 62
7
  6
CONTINUOUS
 10
131.2915655461
 20
327.9991450897
 11
135.7915655461
 21
327.8159246735
  0
LINE
  5
47C
100
AcDbEntity
  8
0
100
AcDbLine
 62
7
  6
CONTINUOUS
 10
135.7920559738
 20
327.8159040215
 11
139.9043343332
 21
327.6375166868
  0
LINE
  5
47D
100
AcDbEntity
  8
0
100
AcDbLine
 62
7
  6
CONTINUOUS
 10
142.6603134813
 20
327.4124180113
 11
139.9043079355
 21
327.6375167255
  0
LINE
  5
47E
100
AcDbEntity
  8
0
100
AcDbLine
 62
7
  6
CONTINUOUS
 10
143.2915132237
 20
327.3319140758
 11
142.6603134813
 21
327.4124180113
  0
LINE
  5
47F
100
AcDbEntity
  8
0
100
AcDbLine
 62
7
  6
CONTINUOUS
 10
143.2915133925
 20
327.3319152618
 11
143.2915655461
 21
327.3319078368
  0
LINE
  5
480
100
AcDbEntity
  8
0
100
AcDbLine
 62
7
  6
CONTINUOUS
 10
145.9073510516
 20
326.8808959461
 11
143.7904461417
 21
327.2605547699
  0
LINE
  5
481
100
AcDbEntity
  8
0
100
AcDbLine
 62
7
  6
CONTINUOUS
 10
146.7115655461
 20
326.7034886433
 11
145.9073510516
 21
326.8808959461
  0
LINE
  5
482
100
AcDbEntity
  8
0
100
AcDbLine
 62
7
  6
CONTINUOUS
 10
266.5415655461
 20
342.7297592998
 11
270.5415655461
 21
342.7297592998
  0
LINE
  5
483
100
AcDbEntity
  8
0
100
AcDbLine
 62
7
  6
CONTINUOUS
 10
270.5415655461
 20
343.9507062151
 11
266.5415655461
 21
343.9507062151
  0
LINE
  5
484
100
AcDbEntity
  8
_1
100
AcDbLine
 62
7
  6
CONTINUOUS
 10
70.1215655461
 20
345.0277592998
 11
72.8774485952
 21
345.0277592998
  0
LINE
  5
485
100
AcDbEntity
  8
_1
100
AcDbLine
 62
7
  6
CONTINUOUS
 10
102.1656824969
 20
345.0277592998
 11
104.9215655461
 21
345.0277592998
  0
LINE
  5
486
100
AcDbEntity
  8
_1
100
AcDbLine
 62
7
  6
CONTINUOUS
 10
77.1215655461
 20
345.7277592998
 11
97.9215655461
 21
345.7277592998
  0
LINE
  5
487
100
AcDbEntity
  8
_1
100
AcDbLine
 62
7
  6
CONTINUOUS
 10
153.1115655461
 20
345.7997592998
 11
174.4165384246
 21
345.7997592998
  0
LINE
  5
488
100
AcDbEntity
  8
_1
100
AcDbLine
 62
7
  6
CONTINUOUS
 10
149.7115655461
 20
345.9297592998
 11
148.6615655461
 21
345.9297592998
  0
LINE
  5
489
100
AcDbEntity
  8
_1
100
AcDbLine
 62
7
  6
CONTINUOUS
 10
187.0115655461
 20
345.9297592998
 11
188.0615655461
 21
345.9297592998
  0
LINE
  5
48A
100
AcDbEntity
  8
0
100
AcDbLine
 62
7
  6
CONTINUOUS
 10
270.5415655461
 20
346.2297592998
 11
266.5415655461
 21
346.2297592998
  0
LINE
  5
48B
100
AcDbEntity
  8
_1
100
AcDbLine
 62
7
  6
CONTINUOUS
 10
183.6115655461
 20
346.9297592998
 11
153.1115655461
 21
346.9297592998
  0
ARC
  5
48C
100
AcDbEntity
  8
0
100
AcDbCircle
 62
7
  6
CONTINUOUS
 10
67.2318062013
 20
-1294.246830578
 40
1623.4167755044
100
AcDbArc
 50
87.4997431928
 51
87.6431613727
  0
ARC
  5
48D
100
AcDbEntity
  8
0
100
AcDbCircle
 62
7
  6
CONTINUOUS
 10
-121.5045443447
 20
250.2144883318
 40
175.4414693377
100
AcDbArc
 50
0.0049872018
 51
3.7069189715
  0
ARC
  5
48E
100
AcDbEntity
  8
0
100
AcDbCircle
 62
7
  6
CONTINUOUS
 10
-121.247456109
 20
250.2363668217
 40
175.184380562
100
AcDbArc
 50
356.2950367176
 51
359.9978389448
  0
ARC
  5
48F
100
AcDbEntity
  8
0
100
AcDbCircle
 62
7
  6
CONTINUOUS
 10
75.2415655461
 20
86.2297592998
 40
9.4868329805
100
AcDbArc
 50
183.004493637
 51
209.8619752738
  0
ARC
  5
490
100
AcDbEntity
  8
0
100
AcDbCircle
 62
7
  6
CONTINUOUS
 10
75.2415655461
 20
86.2297592998
 40
9.4868329805
100
AcDbArc
 50
150.1380247262
 51
176.995506363
  0
ARC
  5
491
100
AcDbEntity
  8
0
100
AcDbCircle
 62
7
  6
CONTINUOUS
 10
55.1415655461
 20
104.7297592998
 40
9.4868329805
100
AcDbArc
 50
150.1380247262
 51
176.995506363
  0
ARC
  5
492
100
AcDbEntity
  8
0
100
AcDbCircle
 62
7
  6
CONTINUOUS
 10
55.1415655461
 20
104.7297592998
 40
9.4868329805
100
AcDbArc
 50
183.004493637
 51
209.8619752738
  0
ARC
  5
493
100
AcDbEntity
  8
0
100
AcDbCircle
 62
7
  6
CONTINUOUS
 10
75.5122362163
 20
86.2297925084
 40
9.4184110424
100
AcDbArc
 50
177.18945533
 51
182.81054467
  0
ARC
  5
494
100
AcDbEntity
  8
0
100
AcDbCircle
 62
7
  6
CONTINUOUS
 10
55.4122362163
 20
104.7297260912
 40
9.4184110424
100
AcDbArc
 50
177.18945533
 51
182.81054467
  0
ARC
  5
495
100
AcDbEntity
  8
_1
100
AcDbCircle
 62
7
  6
CONTINUOUS
 10
46.7415655461
 20
123.2397592998
 40
3.0
100
AcDbArc
 50
8.376843711
 51
61.1962626155
  0
ARC
  5
496
100
AcDbEntity
  8
_1
100
AcDbCircle
 62
7
  6
CONTINUOUS
 10
46.7415655461
 20
123.2397592998
 40
3.0
100
AcDbArc
 50
81.2910765665
 51
161.7183523914
  0
ARC
  5
497
100
AcDbEntity
  8
_1
100
AcDbCircle
 62
7
  6
CONTINUOUS
 10
46.7415655461
 20
123.2397592998
 40
3.0
100
AcDbArc
 50
227.6348216697
 51
329.15756628
  0
CIRCLE
  5
498
100
AcDbEntity
  8
_1
100
AcDbCircle
 62
7
  6
CONTINUOUS
 10
46.7415655461
 20
115.6197592998
 40
3.0
  0
ARC
  5
499
100
AcDbEntity
  8
_1
100
AcDbCircle
 62
7
  6
CONTINUOUS
 10
46.7415655461
 20
138.4797592998
 40
3.0
100
AcDbArc
 50
336.5236651416
 51
66.033327269
  0
ARC
  5
49A
100
AcDbEntity
  8
_1
100
AcDbCircle
 62
7
  6
CONTINUOUS
 10
46.7415655461
 20
138.4797592998
 40
3.0
100
AcDbArc
 50
91.7382367479
 51
135.2418827645
  0
ARC
  5
49B
100
AcDbEntity
  8
_1
100
AcDbCircle
 62
7
  6
CONTINUOUS
 10
46.7415655461
 20
138.4797592998
 40
3.0
100
AcDbArc
 50
146.5677680698
 51
203.3980757637
  0
ARC
  5
49C
100
AcDbEntity
  8
_1
100
AcDbCircle
 62
7
  6
CONTINUOUS
 10
44.6915655461
 20
141.3184321884
 40
0.5
100
AcDbArc
 50
80.0000000001
 51
235.0000000002
  0
ARC
  5
49D
100
AcDbEntity
  8
_1
100
AcDbCircle
 62
7
  6
CONTINUOUS
 10
44.6915655461
 20
123.1210864112
 40
0.5
100
AcDbArc
 50
124.9999999998
 51
280.0
  0
ARC
  5
49E
100
AcDbEntity
  8
_1
100
AcDbCircle
 62
7
  6
CONTINUOUS
 10
38.2209749385
 20
108.6497592998
 40
0.25
100
AcDbArc
 50
114.9999999997
 51
270.0000000001
  0
ARC
  5
49F
100
AcDbEntity
  8
_1
100
AcDbCircle
 62
7
  6
CONTINUOUS
 10
38.2209749385
 20
145.4497592998
 40
0.25
100
AcDbArc
 50
90.0000000001
 51
245.0000000002
  0
ARC
  5
4A0
100
AcDbEntity
  8
0
100
AcDbCircle
 62
7
  6
CONTINUOUS
 10
111.8743628474
 20
253.4778594737
 40
59.5279845617
100
AcDbArc
 50
187.6457681099
 51
188.4836427152
  0
ARC
  5
4A1
100
AcDbEntity
  8
0
100
AcDbCircle
 62
7
  6
CONTINUOUS
 10
110.0041312646
 20
247.2523338865
 40
57.6383816311
100
AcDbArc
 50
171.5082330566
 51
172.3735348019
  0
ARC
  5
4A2
100
AcDbEntity
  8
0
100
AcDbCircle
 62
7
  6
CONTINUOUS
 10
104.5179523941
 20
247.9933749236
 40
52.1023853145
100
AcDbArc
 50
172.3805640182
 51
172.5095752895
  0
ARC
  5
4A3
100
AcDbEntity
  8
0
100
AcDbCircle
 62
7
  6
CONTINUOUS
 10
103.5811500014
 20
252.3430132161
 40
51.1575171668
100
AcDbArc
 50
187.4904731046
 51
187.6218446263
  0
ARC
  5
4A4
100
AcDbEntity
  8
0
100
AcDbCircle
 62
7
  6
CONTINUOUS
 10
87.5415655461
 20
334.9797592998
 40
9.4472218138
100
AcDbArc
 50
235.2711141134
 51
247.0870452917
  0
ARC
  5
4A5
100
AcDbEntity
  8
0
100
AcDbCircle
 62
7
  6
CONTINUOUS
 10
87.5415655461
 20
334.9797592998
 40
9.4472218138
100
AcDbArc
 50
292.9135622083
 51
303.9609580242
  0
ARC
  5
4A6
100
AcDbEntity
  8
0
100
AcDbCircle
 62
7
  6
CONTINUOUS
 10
57.1844649146
 20
250.2014795519
 40
4.5241397503
100
AcDbArc
 50
179.0082867843
 51
179.6418465904
  0
ARC
  5
4A7
100
AcDbEntity
  8
0
100
AcDbCircle
 62
7
  6
CONTINUOUS
 10
52.7728732137
 20
250.8499733761
 40
0.9402585539
100
AcDbArc
 50
306.4859476137
 51
308.6233078668
  0
ARC
  5
4A8
100
AcDbEntity
  8
0
100
AcDbCircle
 62
7
  6
CONTINUOUS
 10
52.7739030775
 20
249.6108555412
 40
0.9385975507
100
AcDbArc
 50
51.3754682882
 51
53.5680276031
  0
ARC
  5
4A9
100
AcDbEntity
  8
_1
100
AcDbCircle
 62
7
  6
CONTINUOUS
 10
44.8390655461
 20
297.938773574
 40
0.5
100
AcDbArc
 50
124.9999999998
 51
279.9999999999
  0
ARC
  5
4AA
100
AcDbEntity
  8
_1
100
AcDbCircle
 62
7
  6
CONTINUOUS
 10
44.8390655461
 20
319.6107450256
 40
0.5
100
AcDbArc
 50
80.0000000001
 51
235.0000000002
  0
ARC
  5
4AB
100
AcDbEntity
  8
_1
100
AcDbCircle
 62
7
  6
CONTINUOUS
 10
102.3702384346
 20
343.2277592998
 40
0.5
100
AcDbArc
 50
349.9999999996
 51
144.9999999998
  0
ARC
  5
4AC
100
AcDbEntity
  8
_1
100
AcDbCircle
 62
7
  6
CONTINUOUS
 10
72.6728926575
 20
343.2277592998
 40
0.5
100
AcDbArc
 50
35.0000000002
 51
189.9999999996
  0
ARC
  5
4AD
100
AcDbEntity
  8
0
100
AcDbCircle
 62
7
  6
CONTINUOUS
 10
53.6811910364
 20
261.4297592998
 40
0.3
100
AcDbArc
 50
114.0377041623
 51
177.1367867757
  0
ARC
  5
4AE
100
AcDbEntity
  8
0
100
AcDbCircle
 62
7
  6
CONTINUOUS
 10
53.6811910364
 20
239.0297592998
 40
0.3
100
AcDbArc
 50
182.8632132243
 51
245.908801558
  0
ARC
  5
4AF
100
AcDbEntity
  8
0
100
AcDbCircle
 62
7
  6
CONTINUOUS
 10
366.3210734459
 20
257.1999709628
 40
313.8707667834
100
AcDbArc
 50
182.2802473654
 51
182.6860014105
  0
ARC
  5
4B0
100
AcDbEntity
  8
0
100
AcDbCircle
 62
7
  6
CONTINUOUS
 10
354.4674519007
 20
250.1759568315
 40
301.8765769776
100
AcDbArc
 50
177.8921297043
 51
178.4675909629
  0
ARC
  5
4B1
100
AcDbEntity
  8
0
100
AcDbCircle
 62
7
  6
CONTINUOUS
 10
354.4673937984
 20
250.283560019
 40
301.8765188504
100
AcDbArc
 50
181.532409009
 51
182.1078703763
  0
ARC
  5
4B2
100
AcDbEntity
  8
0
100
AcDbCircle
 62
7
  6
CONTINUOUS
 10
353.2085836449
 20
250.2570854571
 40
300.6174502219
100
AcDbArc
 50
181.2542315603
 51
181.5154447692
  0
ARC
  5
4B3
100
AcDbEntity
  8
0
100
AcDbCircle
 62
7
  6
CONTINUOUS
 10
353.2083906465
 20
250.2024375782
 40
300.6172571727
100
AcDbArc
 50
178.4845551238
 51
178.7457684863
  0
ARC
  5
4B4
100
AcDbEntity
  8
0
100
AcDbCircle
 62
7
  6
CONTINUOUS
 10
344.8139960602
 20
244.1922071283
 40
292.3436212364
100
AcDbArc
 50
177.2990567778
 51
177.7346892601
  0
ARC
  5
4B5
100
AcDbEntity
  8
0
100
AcDbCircle
 62
7
  6
CONTINUOUS
 10
274.6371658763
 20
253.4664854258
 40
222.1109271849
100
AcDbArc
 50
182.0480848561
 51
182.2589211906
  0
ARC
  5
4B6
100
AcDbEntity
  8
0
100
AcDbCircle
 62
7
  6
CONTINUOUS
 10
266.765786608
 20
247.2889990969
 40
214.2339995545
100
AcDbArc
 50
177.7371961431
 51
177.9557844849
  0
ARC
  5
4B7
100
AcDbEntity
  8
0
100
AcDbCircle
 62
7
  6
CONTINUOUS
 10
133.1585477547
 20
250.2920443426
 40
80.5700601494
100
AcDbArc
 50
185.7773182054
 51
187.93432303
  0
ARC
  5
4B8
100
AcDbEntity
  8
0
100
AcDbCircle
 62
7
  6
CONTINUOUS
 10
133.0862771039
 20
250.1738175457
 40
80.4976143428
100
AcDbArc
 50
172.0630492027
 51
174.222013958
  0
ARC
  5
4B9
100
AcDbEntity
  8
0
100
AcDbCircle
 62
7
  6
CONTINUOUS
 10
177.5415655461
 20
277.7297592998
 40
68.5
100
AcDbArc
 50
74.331389613
 51
105.668610387
  0
ARC
  5
4BA
100
AcDbEntity
  8
0
100
AcDbCircle
 62
7
  6
CONTINUOUS
 10
159.8308874274
 20
126.2297592998
 40
50.0
100
AcDbArc
 50
270.0
 51
315.0
  0
ARC
  5
4BB
100
AcDbEntity
  8
0
100
AcDbCircle
 62
7
  6
CONTINUOUS
 10
138.2238739646
 20
290.165345485
 40
37.509710469
100
AcDbArc
 50
74.0430926758
 51
75.0026769883
  0
ARC
  5
4BC
100
AcDbEntity
  8
0
100
AcDbCircle
 62
7
  6
CONTINUOUS
 10
138.2246543913
 20
290.1666315547
 40
37.5082695644
100
AcDbArc
 50
75.883851027
 51
76.9225633305
  0
ARC
  5
4BD
100
AcDbEntity
  8
0
100
AcDbCircle
 62
7
  6
CONTINUOUS
 10
138.2315638571
 20
290.1736434149
 40
37.5012021955
100
AcDbArc
 50
81.473782258
 51
82.2454828086
  0
ARC
  5
4BE
100
AcDbEntity
  8
0
100
AcDbCircle
 62
7
  6
CONTINUOUS
 10
138.2291132954
 20
290.1846597884
 40
37.4896982489
100
AcDbArc
 50
75.0027730124
 51
75.8837400468
  0
CIRCLE
  5
4BF
100
AcDbEntity
  8
0
100
AcDbCircle
 62
7
  6
CONTINUOUS
 10
167.5415655461
 20
336.3834036878
 40
4.0
  0
CIRCLE
  5
4C0
100
AcDbEntity
  8
0
100
AcDbCircle
 62
7
  6
CONTINUOUS
 10
177.5415655461
 20
337.2297592998
 40
4.0
  0
CIRCLE
  5
4C1
100
AcDbEntity
  8
0
100
AcDbCircle
 62
7
  6
CONTINUOUS
 10
187.5415655461
 20
336.3834036878
 40
4.0
  0
CIRCLE
  5
4C2
100
AcDbEntity
  8
0
100
AcDbCircle
 62
7
  6
CONTINUOUS
 10
139.7915655461
 20
84.2297592998
 40
4.0
  0
CIRCLE
  5
4C3
100
AcDbEntity
  8
0
100
AcDbCircle
 62
7
  6
CONTINUOUS
 10
171.7915655461
 20
85.9688330941
 40
4.0
  0
CIRCLE
  5
4C4
100
AcDbEntity
  8
0
100
AcDbCircle
 62
7
  6
CONTINUOUS
 10
155.7915655461
 20
84.2297592998
 40
4.0
  0
ARC
  5
4C5
100
AcDbEntity
  8
_1
100
AcDbCircle
 62
7
  6
CONTINUOUS
 10
172.1715655461
 20
334.0297592998
 40
3.0
100
AcDbArc
 50
7.5176549079
 51
57.9174874036
  0
ARC
  5
4C6
100
AcDbEntity
  8
_1
100
AcDbCircle
 62
7
  6
CONTINUOUS
 10
172.1715655461
 20
334.0297592998
 40
3.0
100
AcDbArc
 50
107.9069089411
 51
206.6049731959
  0
ARC
  5
4C7
100
AcDbEntity
  8
_1
100
AcDbCircle
 62
7
  6
CONTINUOUS
 10
164.5515655461
 20
334.0297592998
 40
3.0
100
AcDbArc
 50
325.3605105963
 51
109.221384904
  0
ARC
  5
4C8
100
AcDbEntity
  8
_1
100
AcDbCircle
 62
7
  6
CONTINUOUS
 10
156.9315655461
 20
334.0297592998
 40
3.0
100
AcDbArc
 50
46.7953498505
 51
313.1315148714
  0
ARC
  5
4C9
100
AcDbEntity
  8
_1
100
AcDbCircle
 62
7
  6
CONTINUOUS
 10
179.7915655461
 20
334.0297592998
 40
3.0
100
AcDbArc
 50
59.1006402742
 51
199.4891956149
  0
ARC
  5
4CA
100
AcDbEntity
  8
_1
100
AcDbCircle
 62
7
  6
CONTINUOUS
 10
149.9615655461
 20
342.5503499073
 40
0.25
100
AcDbArc
 50
24.9999999998
 51
180.0
  0
SPLINE
  5
4CB
100
AcDbEntity
  8
0
100
AcDbSpline
 62
7
  6
CONTINUOUS
 70
0
 71
3
 72
9
 73
5
 74
0
 42
0.0000001
 43
0.0000001
 44
0.0000000001
 40
0.0
 40
0.0
 40
0.0
 40
0.0
 40
0.2602116363
 40
1.0
 40
1.0
 40
1.0
 40
1.0
 10
52.7984292679
 20
258.1503469646
 30
0.0
 10
52.7955726754
 20
258.1502885662
 30
0.0
 10
52.799058106
 20
258.1328474282
 30
0.0
 10
52.7956152587
 20
258.1257146491
 30
0.0
 10
52.7951394413
 20
258.1176055341
 30
0.0
  0
SPLINE
  5
4CC
100
AcDbEntity
  8
0
100
AcDbSpline
 62
7
  6
CONTINUOUS
 70
0
 71
3
 72
9
 73
5
 74
0
 42
0.0000001
 43
0.0000001
 44
0.0000000001
 40
0.0
 40
0.0
 40
0.0
 40
0.0
 40
0.2575518169
 40
1.0
 40
1.0
 40
1.0
 40
1.0
 10
52.661209844
 20
245.7020700284
 30
0.0
 10
52.6597696751
 20
245.702007194
 30
0.0
 10
52.662164593
 20
245.6931081619
 30
0.0
 10
52.6604724073
 20
245.6894644377
 30
0.0
 10
52.660413562
 20
245.6853093101
 30
0.0
  0
SPLINE
  5
4CD
100
AcDbEntity
  8
0
100
AcDbSpline
 62
7
  6
CONTINUOUS
 70
0
 71
3
 72
9
 73
5
 74
0
 42
0.0000001
 43
0.0000001
 44
0.0000000001
 40
0.0
 40
0.0
 40
0.0
 40
0.0
 40
0.7429111325
 40
1.0
 40
1.0
 40
1.0
 40
1.0
 10
52.6604135566
 20
254.7742096322
 30
0.0
 10
52.6604724392
 20
254.7700517612
 30
0.0
 10
52.662164861
 20
254.7664204515
 30
0.0
 10
52.6597719117
 20
254.7575031304
 30
0.0
 10
52.6612098687
 20
254.7574483373
 30
0.0
  0
LINE
  5
4CE
100
AcDbEntity
  8
0
100
AcDbLine
 62
7
  6
CONTINUOUS
 10
52.7998200255
 20
261.406043189
 11
53.3778612617
 21
261.4185507251
  0
SPLINE
  5
4CF
100
AcDbEntity
  8
0
100
AcDbSpline
 62
7
  6
CONTINUOUS
 70
0
 71
3
 72
9
 73
5
 74
0
 42
0.0000001
 43
0.0000001
 44
0.0000000001
 40
0.0
 40
0.0
 40
0.0
 40
0.0
 40
0.7397858218
 40
1.0
 40
1.0
 40
1.0
 40
1.0
 10
52.7951394443
 20
242.3419130143
 30
0.0
 10
52.7956152595
 20
242.333803941
 30
0.0
 10
52.7990580991
 20
242.326671122
 30
0.0
 10
52.7955726529
 20
242.3092300669
 30
0.0
 10
52.7984292679
 20
242.3091716397
 30
0.0
  0
LINE
  5
4D0
100
AcDbEntity
  8
0
100
AcDbLine
 62
7
  6
CONTINUOUS
 10
52.7998200266
 20
239.0534754179
 11
53.3778612617
 21
239.0409678745
  0
SPLINE
  5
4D1
100
AcDbEntity
  8
0
100
AcDbSpline
 62
7
  6
CONTINUOUS
 70
0
 71
3
 72
9
 73
5
 74
0
 42
0.0000001
 43
0.0000001
 44
0.0000000001
 40
0.0
 40
0.0
 40
0.0
 40
0.0
 40
0.3106936997
 40
1.0
 40
1.0
 40
1.0
 40
1.0
 10
52.7207489427
 20
249.9984504731
 30
0.0
 10
52.7058514075
 20
249.9987105106
 30
0.0
 10
52.6765969193
 20
250.0519860708
 30
0.0
 10
52.6694127818
 20
250.0937699292
 30
0.0
 10
52.6631573884
 20
250.1262294405
 30
0.0
  0
SPLINE
  5
4D2
100
AcDbEntity
  8
0
100
AcDbSpline
 62
7
  6
CONTINUOUS
 70
0
 71
3
 72
9
 73
5
 74
0
 42
0.0000001
 43
0.0000001
 44
0.0000000001
 40
0.0
 40
0.0
 40
0.0
 40
0.0
 40
0.3026710072
 40
1.0
 40
1.0
 40
1.0
 40
1.0
 10
52.6604135606
 20
250.229757986
 30
0.0
 10
52.6604722561
 20
250.2211574148
 30
0.0
 10
52.6607469623
 20
250.1927433939
 30
0.0
 10
52.6611484986
 20
250.1643243769
 30
0.0
 10
52.6619191632
 20
250.1445239021
 30
0.0
  0
SPLINE
  5
4D3
100
AcDbEntity
  8
0
100
AcDbSpline
 62
7
  6
CONTINUOUS
 70
0
 71
3
 72
9
 73
5
 74
0
 42
0.0000001
 43
0.0000001
 44
0.0000000001
 40
0.0
 40
0.0
 40
0.0
 40
0.0
 40
0.3638341128
 40
1.0
 40
1.0
 40
1.0
 40
1.0
 10
52.6619191632
 20
250.1445239021
 30
0.0
 10
52.6620056649
 20
250.1423014381
 30
0.0
 10
52.6623334671
 20
250.1362064238
 30
0.0
 10
52.662421477
 20
250.1300481118
 30
0.0
 10
52.6631573884
 20
250.1262294431
 30
0.0
  0
SPLINE
  5
4D4
100
AcDbEntity
  8
0
100
AcDbSpline
 62
7
  6
CONTINUOUS
 70
0
 71
3
 72
9
 73
5
 74
0
 42
0.0000001
 43
0.0000001
 44
0.0000000001
 40
0.0
 40
0.0
 40
0.0
 40
0.0
 40
0.3106929797
 40
1.0
 40
1.0
 40
1.0
 40
1.0
 10
52.7207582672
 20
250.4610682892
 30
0.0
 10
52.7058604529
 20
250.4608082469
 30
0.0
 10
52.6766062316
 20
250.4075319173
 30
0.0
 10
52.6694129209
 20
250.3657493914
 30
0.0
 10
52.6631573892
 20
250.333289163
 30
0.0
  0
SPLINE
  5
4D5
100
AcDbEntity
  8
0
100
AcDbSpline
 62
7
  6
CONTINUOUS
 70
0
 71
3
 72
9
 73
5
 74
0
 42
0.0000001
 43
0.0000001
 44
0.0000000001
 40
0.0
 40
0.0
 40
0.0
 40
0.0
 40
0.1118999333
 40
1.0
 40
1.0
 40
1.0
 40
1.0
 10
52.6631573892
 20
250.3332891604
 30
0.0
 10
52.6627793203
 20
250.3313273522
 30
0.0
 10
52.6616872236
 20
250.3134487711
 30
0.0
 10
52.6612863728
 20
250.2956363982
 30
0.0
 10
52.6610028403
 20
250.2797824425
 30
0.0
  0
SPLINE
  5
4D6
100
AcDbEntity
  8
0
100
AcDbSpline
 62
7
  6
CONTINUOUS
 70
0
 71
3
 72
14
 73
10
 74
0
 42
0.0000001
 43
0.0000001
 44
0.0000000001
 40
0.0
 40
0.0
 40
0.0
 40
0.0
 40
0.3806547225
 40
0.5526875608
 40
0.7033922683
 40
0.827188593
 40
0.9196573312
 40
0.9773137659
 40
1.0
 40
1.0
 40
1.0
 40
1.0
 10
53.9504983434
 20
172.6797592998
 30
0.0
 10
53.9504983434
 20
172.8074489525
 30
0.0
 10
53.9480967067
 20
172.9929897414
 30
0.0
 10
53.9397747159
 20
173.2284967059
 30
0.0
 10
53.9318349676
 20
173.3788084675
 30
0.0
 10
53.9222634071
 20
173.4995411972
 30
0.0
 10
53.9119618984
 20
173.5957074054
 30
0.0
 10
53.9014041016
 20
173.6437785387
 30
0.0
 10
53.8925390435
 20
173.6797592998
 30
0.0
 10
53.8849290043
 20
173.6797592998
 30
0.0
  0
SPLINE
  5
4D7
100
AcDbEntity
  8
0
100
AcDbSpline
 62
7
  6
CONTINUOUS
 70
0
 71
3
 72
14
 73
10
 74
0
 42
0.0000001
 43
0.0000001
 44
0.0000000001
 40
0.0
 40
0.0
 40
0.0
 40
0.0
 40
0.022690026
 40
0.0803489144
 40
0.1728178085
 40
0.2966182663
 40
0.4473296106
 40
0.6193608104
 40
1.0
 40
1.0
 40
1.0
 40
1.0
 10
53.8849290043
 20
154.7797592998
 30
0.0
 10
53.8925403294
 20
154.7797592998
 30
0.0
 10
53.901404822
 20
154.8157440205
 30
0.0
 10
53.9119619727
 20
154.8638170934
 30
0.0
 10
53.9222505152
 20
154.9599873871
 30
0.0
 10
53.9318322102
 20
155.0807226567
 30
0.0
 10
53.9398265476
 20
155.2310347975
 30
0.0
 10
53.9481912718
 20
155.4665378903
 30
0.0
 10
53.9504983434
 20
155.6520746233
 30
0.0
 10
53.9504983434
 20
155.7797592998
 30
0.0
  0
SPLINE
  5
4D8
100
AcDbEntity
  8
0
100
AcDbSpline
 62
7
  6
CONTINUOUS
 70
0
 71
3
 72
11
 73
7
 74
0
 42
0.0000001
 43
0.0000001
 44
0.0000000001
 40
0.0
 40
0.0
 40
0.0
 40
0.0
 40
0.2500056218
 40
0.4374967399
 40
0.6250026259
 40
1.0
 40
1.0
 40
1.0
 40
1.0
 10
89.7915655461
 20
329.0898142209
 30
0.0
 10
89.4165517461
 20
329.0947675594
 30
0.0
 10
88.760487841
 20
329.114596083
 30
0.0
 10
87.8228606758
 20
329.1213361604
 30
0.0
 10
86.6977257064
 20
329.1100862357
 30
0.0
 10
85.8540883883
 20
329.137054711
 30
0.0
 10
85.2915655461
 20
329.1428967541
 30
0.0
  0
SPLINE
  5
4D9
100
AcDbEntity
  8
0
100
AcDbSpline
 62
7
  6
CONTINUOUS
 70
0
 71
3
 72
10
 73
6
 74
0
 42
0.0000001
 43
0.0000001
 44
0.0000000001
 40
0.0
 40
0.0
 40
0.0
 40
0.0
 40
0.575856927
 40
0.8153817662
 40
1.0
 40
1.0
 40
1.0
 40
1.0
 10
54.8463459291
 20
104.9797592998
 30
0.0
 10
54.8463459291
 20
105.9446011398
 30
0.0
 10
54.7355257332
 20
107.3126126174
 30
0.0
 10
54.4536856861
 20
108.9641262897
 30
0.0
 10
54.3163797366
 20
109.661474482
 30
0.0
 10
54.262492576
 20
109.9660703053
 30
0.0
  0
SPLINE
  5
4DA
100
AcDbEntity
  8
0
100
AcDbSpline
 62
7
  6
CONTINUOUS
 70
0
 71
3
 72
9
 73
5
 74
0
 42
0.0000001
 43
0.0000001
 44
0.0000000001
 40
0.0
 40
0.0
 40
0.0
 40
0.0
 40
0.3307647391
 40
1.0
 40
1.0
 40
1.0
 40
1.0
 10
52.7951391882
 20
250.1241735909
 30
0.0
 10
52.790908989
 20
250.1112306965
 30
0.0
 10
52.7771400263
 20
250.0727127965
 30
0.0
 10
52.7616696776
 20
250.0330762522
 30
0.0
 10
52.7437219917
 20
250.0121738172
 30
0.0
  0
SPLINE
  5
4DB
100
AcDbEntity
  8
0
100
AcDbSpline
 62
7
  6
CONTINUOUS
 70
0
 71
3
 72
8
 73
4
 74
0
 42
0.0000001
 43
0.0000001
 44
0.0000000001
 40
0.0
 40
0.0
 40
0.0
 40
0.0
 40
1.0
 40
1.0
 40
1.0
 40
1.0
 10
52.7437219917
 20
250.0121738172
 30
0.0
 10
52.7379111075
 20
250.00540628
 30
0.0
 10
52.7296675083
 20
249.998294799
 30
0.0
 10
52.7207488929
 20
249.998450474
 30
0.0
  0
SPLINE
  5
4DC
100
AcDbEntity
  8
0
100
AcDbSpline
 62
7
  6
CONTINUOUS
 70
0
 71
3
 72
9
 73
5
 74
0
 42
0.0000001
 43
0.0000001
 44
0.0000000001
 40
0.0
 40
0.0
 40
0.0
 40
0.0
 40
0.3288836233
 40
1.0
 40
1.0
 40
1.0
 40
1.0
 10
53.3597802223
 20
250.1153808229
 30
0.0
 10
53.3697557154
 20
250.1233436104
 30
0.0
 10
53.3714876715
 20
250.168331092
 30
0.0
 10
53.3769935201
 20
250.2037279376
 30
0.0
 10
53.3778612617
 20
250.2297592998
 30
0.0
  0
SPLINE
  5
4DD
100
AcDbEntity
  8
0
100
AcDbSpline
 62
7
  6
CONTINUOUS
 70
0
 71
3
 72
9
 73
5
 74
0
 42
0.0000001
 43
0.0000001
 44
0.0000000001
 40
0.0
 40
0.0
 40
0.0
 40
0.0
 40
0.6794299893
 40
1.0
 40
1.0
 40
1.0
 40
1.0
 10
52.7998200252
 20
250.229759315
 30
0.0
 10
52.7995502163
 20
250.2058147489
 30
0.0
 10
52.7970757363
 20
250.1710544203
 30
0.0
 10
52.7986495258
 20
250.1349128315
 30
0.0
 10
52.7951395469
 20
250.1241735854
 30
0.0
  0
SPLINE
  5
4DE
100
AcDbEntity
  8
0
100
AcDbSpline
 62
7
  6
CONTINUOUS
 70
0
 71
3
 72
9
 73
5
 74
0
 42
0.0000001
 43
0.0000001
 44
0.0000000001
 40
0.0
 40
0.0
 40
0.0
 40
0.0
 40
0.6707909401
 40
1.0
 40
1.0
 40
1.0
 40
1.0
 10
53.3778612617
 20
250.2297592998
 30
0.0
 10
53.376991849
 20
250.2557784749
 30
0.0
 10
53.3715129456
 20
250.2911810743
 30
0.0
 10
53.3697657627
 20
250.3361668868
 30
0.0
 10
53.3597802443
 20
250.3441377579
 30
0.0
  0
SPLINE
  5
4DF
100
AcDbEntity
  8
0
100
AcDbSpline
 62
7
  6
CONTINUOUS
 70
0
 71
3
 72
9
 73
5
 74
0
 42
0.0000001
 43
0.0000001
 44
0.0000000001
 40
0.0
 40
0.0
 40
0.0
 40
0.0
 40
0.4160692574
 40
1.0
 40
1.0
 40
1.0
 40
1.0
 10
53.3778612617
 20
258.1414295899
 30
0.0
 10
53.3776625963
 20
258.1446453773
 30
0.0
 10
53.3766055145
 20
258.150990826
 30
0.0
 10
53.376767703
 20
258.1638677728
 30
0.0
 10
53.3722471041
 20
258.1637640677
 30
0.0
  0
SPLINE
  5
4E0
100
AcDbEntity
  8
0
100
AcDbSpline
 62
7
  6
CONTINUOUS
 70
0
 71
3
 72
9
 73
5
 74
0
 42
0.0000001
 43
0.0000001
 44
0.0000000001
 40
0.0
 40
0.0
 40
0.0
 40
0.0
 40
0.3206366426
 40
1.0
 40
1.0
 40
1.0
 40
1.0
 10
52.7951394454
 20
250.3353450174
 30
0.0
 10
52.7986501567
 20
250.3246035571
 30
0.0
 10
52.7970734226
 20
250.2884617407
 30
0.0
 10
52.7995502431
 20
250.2537015613
 30
0.0
 10
52.7998200259
 20
250.2297593777
 30
0.0
  0
SPLINE
  5
4E1
100
AcDbEntity
  8
0
100
AcDbSpline
 62
7
  6
CONTINUOUS
 70
0
 71
3
 72
13
 73
9
 74
0
 42
0.0000001
 43
0.0000001
 44
0.0000000001
 40
0.0
 40
0.0
 40
0.0
 40
0.0
 40
0.0272407956
 40
0.0862403773
 40
0.1788103089
 40
0.3020031354
 40
0.6223365209
 40
1.0
 40
1.0
 40
1.0
 40
1.0
 10
104.5415655461
 20
328.4226091468
 30
0.0
 10
104.5415655461
 20
328.4295305014
 30
0.0
 10
104.5181569991
 20
328.4436572613
 30
0.0
 10
104.4778294733
 20
328.4546654728
 30
0.0
 10
104.4074779763
 20
328.4687145564
 30
0.0
 10
104.2733389066
 20
328.4860182608
 30
0.0
 10
104.0645433722
 20
328.5022549834
 30
0.0
 10
103.887500736
 20
328.5089862136
 30
0.0
 10
103.7915655461
 20
328.5110282728
 30
0.0
  0
LINE
  5
4E2
100
AcDbEntity
  8
0
100
AcDbLine
 62
7
  6
CONTINUOUS
 10
52.7998200266
 20
258.1325854509
 11
53.3778612617
 21
258.1414295899
  0
LINE
  5
4E3
100
AcDbEntity
  8
0
100
AcDbLine
 62
7
  6
CONTINUOUS
 10
52.7998200259
 20
250.2297593777
 11
53.3778612617
 21
250.2297592998
  0
SPLINE
  5
4E4
100
AcDbEntity
  8
0
100
AcDbSpline
 62
7
  6
CONTINUOUS
 70
0
 71
3
 72
9
 73
5
 74
0
 42
0.0000001
 43
0.0000001
 44
0.0000000001
 40
0.0
 40
0.0
 40
0.0
 40
0.0
 40
0.2964847496
 40
1.0
 40
1.0
 40
1.0
 40
1.0
 10
53.3313060751
 20
250.3660159615
 30
0.0
 10
53.309370651
 20
250.382191557
 30
0.0
 10
53.2335512428
 20
250.4330876257
 30
0.0
 10
53.1420242291
 20
250.4684215139
 30
0.0
 10
53.0773628933
 20
250.4672928461
 30
0.0
  0
LINE
  5
4E5
100
AcDbEntity
  8
0
100
AcDbLine
 62
7
  6
CONTINUOUS
 10
52.9896703218
 20
258.1987274875
 11
52.9976338815
 21
258.2778376401
  0
LINE
  5
4E6
100
AcDbEntity
  8
0
100
AcDbLine
 62
7
  6
CONTINUOUS
 10
52.6962796821
 20
258.152687497
 11
52.6988386024
 21
258.2488593922
  0
SPLINE
  5
4E7
100
AcDbEntity
  8
0
100
AcDbSpline
 62
7
  6
CONTINUOUS
 70
0
 71
3
 72
9
 73
5
 74
0
 42
0.0000001
 43
0.0000001
 44
0.0000000001
 40
0.0
 40
0.0
 40
0.0
 40
0.0
 40
0.4195391118
 40
1.0
 40
1.0
 40
1.0
 40
1.0
 10
132.5415655461
 20
327.5514643062
 30
0.0
 10
132.5415655461
 20
327.553634383
 30
0.0
 10
132.5392809982
 20
327.5587339814
 30
0.0
 10
132.535067917
 20
327.5618886874
 30
0.0
 10
132.5325511954
 20
327.563526006
 30
0.0
  0
SPLINE
  5
4E8
100
AcDbEntity
  8
0
100
AcDbSpline
 62
7
  6
CONTINUOUS
 70
0
 71
3
 72
9
 73
5
 74
0
 42
0.0000001
 43
0.0000001
 44
0.0000000001
 40
0.0
 40
0.0
 40
0.0
 40
0.0
 40
0.2729956448
 40
1.0
 40
1.0
 40
1.0
 40
1.0
 10
138.051515065
 20
327.6244947181
 30
0.0
 10
138.142646266
 20
327.625236438
 30
0.0
 10
138.4764659457
 20
327.6279001935
 30
0.0
 10
138.8102871871
 20
327.630367985
 30
0.0
 10
139.0529774233
 20
327.6320529842
 30
0.0
  0
SPLINE
  5
4E9
100
AcDbEntity
  8
0
100
AcDbSpline
 62
7
  6
CONTINUOUS
 70
0
 71
3
 72
11
 73
7
 74
0
 42
0.0000001
 43
0.0000001
 44
0.0000000001
 40
0.0
 40
0.0
 40
0.0
 40
0.0
 40
0.3480036441
 40
0.6533933571
 40
0.8794060694
 40
1.0
 40
1.0
 40
1.0
 40
1.0
 10
131.7915655461
 20
327.6510838876
 30
0.0
 10
131.8783056596
 20
327.6476289267
 30
0.0
 10
132.0407723415
 20
327.6383900091
 30
0.0
 10
132.2604950153
 20
327.6205023
 30
0.0
 10
132.4190805254
 20
327.5953351514
 30
0.0
 10
132.5073356069
 20
327.5799301939
 30
0.0
 10
132.5325511954
 20
327.563526006
 30
0.0
  0
SPLINE
  5
4EA
100
AcDbEntity
  8
0
100
AcDbSpline
 62
7
  6
CONTINUOUS
 70
0
 71
3
 72
10
 73
6
 74
0
 42
0.0000001
 43
0.0000001
 44
0.0000000001
 40
0.0
 40
0.0
 40
0.0
 40
0.0
 40
0.0898202938
 40
0.2832739061
 40
1.0
 40
1.0
 40
1.0
 40
1.0
 10
130.5415655461
 20
327.6312604158
 30
0.0
 10
130.5415655461
 20
327.6369922152
 30
0.0
 10
130.5609218289
 20
327.6486906856
 30
0.0
 10
130.6189992322
 20
327.6612672721
 30
0.0
 10
130.6796167954
 20
327.6672810356
 30
0.0
 10
130.7252579934
 20
327.6702431246
 30
0.0
  0
SPLINE
  5
4EB
100
AcDbEntity
  8
0
100
AcDbSpline
 62
7
  6
CONTINUOUS
 70
0
 71
3
 72
9
 73
5
 74
0
 42
0.0000001
 43
0.0000001
 44
0.0000000001
 40
0.0
 40
0.0
 40
0.0
 40
0.0
 40
0.2073908401
 40
1.0
 40
1.0
 40
1.0
 40
1.0
 10
130.7252579934
 20
327.6702431246
 30
0.0
 10
130.7643341729
 20
327.6727791474
 30
0.0
 10
130.9530454873
 20
327.6802319144
 30
0.0
 10
131.1420261887
 20
327.6768293758
 30
0.0
 10
131.2915655461
 20
327.6709203736
 30
0.0
  0
SPLINE
  5
4EC
100
AcDbEntity
  8
0
100
AcDbSpline
 62
7
  6
CONTINUOUS
 70
0
 71
3
 72
13
 73
9
 74
0
 42
0.0000001
 43
0.0000001
 44
0.0000000001
 40
0.0
 40
0.0
 40
0.0
 40
0.0
 40
0.3770922006
 40
0.6974309572
 40
0.8209455439
 40
0.9137872521
 40
0.9730226397
 40
1.0
 40
1.0
 40
1.0
 40
1.0
 10
127.7915655461
 20
327.8053296843
 30
0.0
 10
127.8873753652
 20
327.8017572422
 30
0.0
 10
128.0642501811
 20
327.7923288542
 30
0.0
 10
128.2729322759
 20
327.7732574017
 30
0.0
 10
128.4070232764
 20
327.7544491398
 30
0.0
 10
128.4776845262
 20
327.7398929211
 30
0.0
 10
128.5177162847
 20
327.7285149059
 30
0.0
 10
128.5415655461
 20
327.7148254021
 30
0.0
 10
128.5415655461
 20
327.7079663576
 30
0.0
  0
SPLINE
  5
4ED
100
AcDbEntity
  8
0
100
AcDbSpline
 62
7
  6
CONTINUOUS
 70
0
 71
3
 72
13
 73
9
 74
0
 42
0.0000001
 43
0.0000001
 44
0.0000000001
 40
0.0
 40
0.0
 40
0.0
 40
0.0
 40
0.0261229312
 40
0.0844162372
 40
0.1766813102
 40
0.3000654991
 40
0.6212464971
 40
1.0
 40
1.0
 40
1.0
 40
1.0
 10
126.5415655461
 20
327.7821010424
 30
0.0
 10
126.5415655461
 20
327.7887013394
 30
0.0
 10
126.5656710133
 20
327.8013103026
 30
0.0
 10
126.6055069441
 20
327.8091561706
 30
0.0
 10
126.6762216169
 20
327.818785764
 30
0.0
 10
126.8104883408
 20
327.8274775705
 30
0.0
 10
127.0193286102
 20
327.8310604666
 30
0.0
 10
127.1959338857
 20
327.8274282461
 30
0.0
 10
127.2915655461
 20
327.8238930651
 30
0.0
  0
SPLINE
  5
4EE
100
AcDbEntity
  8
0
100
AcDbSpline
 62
7
  6
CONTINUOUS
 70
0
 71
3
 72
13
 73
9
 74
0
 42
0.0000001
 43
0.0000001
 44
0.0000000001
 40
0.0
 40
0.0
 40
0.0
 40
0.0
 40
0.3771271398
 40
0.6974718345
 40
0.8209714993
 40
0.9137897279
 40
0.9730034154
 40
1.0
 40
1.0
 40
1.0
 40
1.0
 10
123.7915655461
 20
327.9493376163
 30
0.0
 10
123.8873735153
 20
327.9460119261
 30
0.0
 10
124.0642474622
 20
327.9370305696
 30
0.0
 10
124.2729338048
 20
327.9184532337
 30
0.0
 10
124.4070376403
 20
327.899946133
 30
0.0
 10
124.4776825122
 20
327.8855147712
 30
0.0
 10
124.5177451428
 20
327.8742246598
 30
0.0
 10
124.5415655461
 20
327.8605100135
 30
0.0
 10
124.5415655461
 20
327.853647485
 30
0.0
  0
SPLINE
  5
4EF
100
AcDbEntity
  8
0
100
AcDbSpline
 62
7
  6
CONTINUOUS
 70
0
 71
3
 72
10
 73
6
 74
0
 42
0.0000001
 43
0.0000001
 44
0.0000000001
 40
0.0
 40
0.0
 40
0.0
 40
0.0
 40
0.2500525878
 40
0.6250124053
 40
1.0
 40
1.0
 40
1.0
 40
1.0
 10
123.2915655461
 20
327.9666126553
 30
0.0
 10
123.3332508595
 20
327.9651791793
 30
0.0
 10
123.4371998914
 20
327.9554334271
 30
0.0
 10
123.6042574752
 20
327.9622800169
 30
0.0
 10
123.7290534929
 20
327.9515075373
 30
0.0
 10
123.7915655461
 20
327.9493376163
 30
0.0
  0
SPLINE
  5
4F0
100
AcDbEntity
  8
0
100
AcDbSpline
 62
7
  6
CONTINUOUS
 70
0
 71
3
 72
13
 73
9
 74
0
 42
0.0000001
 43
0.0000001
 44
0.0000000001
 40
0.0
 40
0.0
 40
0.0
 40
0.0
 40
0.0262096555
 40
0.0845464408
 40
0.1768258241
 40
0.3002017079
 40
0.6213271409
 40
1.0
 40
1.0
 40
1.0
 40
1.0
 10
122.5415655461
 20
327.9225886257
 30
0.0
 10
122.5415655461
 20
327.9292123439
 30
0.0
 10
122.5656155618
 20
327.9419374194
 30
0.0
 10
122.6055066887
 20
327.9499475024
 30
0.0
 10
122.6761968554
 20
327.9598047395
 30
0.0
 10
122.8104678787
 20
327.9689049246
 30
0.0
 10
123.0193006687
 20
327.9730678424
 30
0.0
 10
123.1959236714
 20
327.9699015914
 30
0.0
 10
123.2915655461
 20
327.9666126553
 30
0.0
  0
SPLINE
  5
4F1
100
AcDbEntity
  8
0
100
AcDbSpline
 62
7
  6
CONTINUOUS
 70
0
 71
3
 72
13
 73
9
 74
0
 42
0.0000001
 43
0.0000001
 44
0.0000000001
 40
0.0
 40
0.0
 40
0.0
 40
0.0
 40
0.3771535743
 40
0.6974969476
 40
0.8209797414
 40
0.9137746012
 40
0.9729705831
 40
1.0
 40
1.0
 40
1.0
 40
1.0
 10
119.7915655461
 20
328.0829838945
 30
0.0
 10
119.8873720879
 20
328.079907996
 30
0.0
 10
120.0642464901
 20
328.0713759346
 30
0.0
 10
120.2729362995
 20
328.0532860007
 30
0.0
 10
120.4070551364
 20
328.0350668659
 30
0.0
 10
120.4776795527
 20
328.0207465476
 30
0.0
 10
120.5177836737
 20
328.0095337826
 30
0.0
 10
120.5415655461
 20
327.9957762329
 30
0.0
 10
120.5415655461
 20
327.9889065399
 30
0.0
  0
SPLINE
  5
4F2
100
AcDbEntity
  8
0
100
AcDbSpline
 62
7
  6
CONTINUOUS
 70
0
 71
3
 72
10
 73
6
 74
0
 42
0.0000001
 43
0.0000001
 44
0.0000000001
 40
0.0
 40
0.0
 40
0.0
 40
0.0
 40
0.2500449502
 40
0.6250106148
 40
1.0
 40
1.0
 40
1.0
 40
1.0
 10
119.2915655461
 20
328.0989544846
 30
0.0
 10
119.3332481706
 20
328.0976299375
 30
0.0
 10
119.4372287857
 20
328.0886187494
 30
0.0
 10
119.6042295901
 20
328.0949490798
 30
0.0
 10
119.7290552735
 20
328.0849908059
 30
0.0
 10
119.7915655461
 20
328.0829838945
 30
0.0
  0
SPLINE
  5
4F3
100
AcDbEntity
  8
0
100
AcDbSpline
 62
7
  6
CONTINUOUS
 70
0
 71
3
 72
13
 73
9
 74
0
 42
0.0000001
 43
0.0000001
 44
0.0000000001
 40
0.0
 40
0.0
 40
0.0
 40
0.0
 40
0.0263114905
 40
0.0846961674
 40
0.1769891755
 40
0.3003537767
 40
0.6214136614
 40
1.0
 40
1.0
 40
1.0
 40
1.0
 10
118.5415655461
 20
328.0525827754
 30
0.0
 10
118.5415655461
 20
328.0592339921
 30
0.0
 10
118.5655492034
 20
328.0720951756
 30
0.0
 10
118.6055070548
 20
328.0802834624
 30
0.0
 10
118.6761676638
 20
328.0903870379
 30
0.0
 10
118.8104444193
 20
328.0999191849
 30
0.0
 10
119.0192690648
 20
328.1046852387
 30
0.0
 10
119.1959119223
 20
328.1019940658
 30
0.0
 10
119.2915655461
 20
328.0989544846
 30
0.0
  0
SPLINE
  5
4F4
100
AcDbEntity
  8
0
100
AcDbSpline
 62
7
  6
CONTINUOUS
 70
0
 71
3
 72
13
 73
9
 74
0
 42
0.0000001
 43
0.0000001
 44
0.0000000001
 40
0.0
 40
0.0
 40
0.0
 40
0.0
 40
0.3771709029
 40
0.6975051372
 40
0.8209688729
 40
0.9137403066
 40
0.9729228599
 40
1.0
 40
1.0
 40
1.0
 40
1.0
 10
115.7915655461
 20
328.2061317249
 30
0.0
 10
115.8873711541
 20
328.2033090541
 30
0.0
 10
116.0642475281
 20
328.1952281733
 30
0.0
 10
116.2729398387
 20
328.1776157581
 30
0.0
 10
116.4070760204
 20
328.1596700472
 30
0.0
 10
116.4776756605
 20
328.145446459
 30
0.0
 10
116.5178328081
 20
328.1342993529
 30
0.0
 10
116.5415655461
 20
328.1204796431
 30
0.0
 10
116.5415655461
 20
328.1135987636
 30
0.0
  0
SPLINE
  5
4F5
100
AcDbEntity
  8
0
100
AcDbSpline
 62
7
  6
CONTINUOUS
 70
0
 71
3
 72
10
 73
6
 74
0
 42
0.0000001
 43
0.0000001
 44
0.0000000001
 40
0.0
 40
0.0
 40
0.0
 40
0.0
 40
0.250037816
 40
0.6250089359
 40
1.0
 40
1.0
 40
1.0
 40
1.0
 10
115.2915655461
 20
328.2207797476
 30
0.0
 10
115.3332456573
 20
328.2195656265
 30
0.0
 10
115.4372557717
 20
328.2112993549
 30
0.0
 10
115.6042035453
 20
328.217105944
 30
0.0
 10
115.7290569336
 20
328.2079733836
 30
0.0
 10
115.7915655461
 20
328.2061317249
 30
0.0
  0
SPLINE
  5
4F6
100
AcDbEntity
  8
0
100
AcDbSpline
 62
7
  6
CONTINUOUS
 70
0
 71
3
 72
13
 73
9
 74
0
 42
0.0000001
 43
0.0000001
 44
0.0000000001
 40
0.0
 40
0.0
 40
0.0
 40
0.0
 40
0.0264300356
 40
0.0848674077
 40
0.1771732292
 40
0.3005232098
 40
0.6215064357
 40
1.0
 40
1.0
 40
1.0
 40
1.0
 10
114.5415655461
 20
328.1719339506
 30
0.0
 10
114.5415655461
 20
328.1786171806
 30
0.0
 10
114.5654708657
 20
328.1916361142
 30
0.0
 10
114.6055079687
 20
328.2000176519
 30
0.0
 10
114.6761334416
 20
328.2103878695
 30
0.0
 10
114.8104173848
 20
328.2203771151
 30
0.0
 10
115.0192331838
 20
328.2257713729
 30
0.0
 10
115.1958983639
 20
328.2235664855
 30
0.0
 10
115.2915655461
 20
328.2207797476
 30
0.0
  0
SPLINE
  5
4F7
100
AcDbEntity
  8
0
100
AcDbSpline
 62
7
  6
CONTINUOUS
 70
0
 71
3
 72
13
 73
9
 74
0
 42
0.0000001
 43
0.0000001
 44
0.0000000001
 40
0.0
 40
0.0
 40
0.0
 40
0.0
 40
0.3771776072
 40
0.6974933353
 40
0.8209351829
 40
0.9136827034
 40
0.9728564597
 40
1.0
 40
1.0
 40
1.0
 40
1.0
 10
111.7915655461
 20
328.3186322696
 30
0.0
 10
111.8873708168
 20
328.3160665042
 30
0.0
 10
112.0642510061
 20
328.3084390225
 30
0.0
 10
112.2729445394
 20
328.2912930847
 30
0.0
 10
112.4071011393
 20
328.2736053388
 30
0.0
 10
112.477670396
 20
328.2594625242
 30
0.0
 10
112.5178954847
 20
328.2483688291
 30
0.0
 10
112.5415655461
 20
328.2344630537
 30
0.0
 10
112.5415655461
 20
328.2275659671
 30
0.0
  0
SPLINE
  5
4F8
100
AcDbEntity
  8
0
100
AcDbSpline
 62
7
  6
CONTINUOUS
 70
0
 71
3
 72
10
 73
6
 74
0
 42
0.0000001
 43
0.0000001
 44
0.0000000001
 40
0.0
 40
0.0
 40
0.0
 40
0.0
 40
0.2500312051
 40
0.6250073751
 40
1.0
 40
1.0
 40
1.0
 40
1.0
 10
111.2915655461
 20
328.3319383094
 30
0.0
 10
111.3332433267
 20
328.3308362236
 30
0.0
 10
111.4372807761
 20
328.3233259538
 30
0.0
 10
111.6041794128
 20
328.3286008059
 30
0.0
 10
111.7290584688
 20
328.3203062745
 30
0.0
 10
111.7915655461
 20
328.3186322696
 30
0.0
  0
SPLINE
  5
4F9
100
AcDbEntity
  8
0
100
AcDbSpline
 62
7
  6
CONTINUOUS
 70
0
 71
3
 72
13
 73
9
 74
0
 42
0.0000001
 43
0.0000001
 44
0.0000000001
 40
0.0
 40
0.0
 40
0.0
 40
0.0
 40
0.026570734
 40
0.0850670042
 40
0.1773842506
 40
0.3007150912
 40
0.6216074063
 40
1.0
 40
1.0
 40
1.0
 40
1.0
 10
110.5415655461
 20
328.2804722549
 30
0.0
 10
110.5415655461
 20
328.287193466
 30
0.0
 10
110.5653767058
 20
328.3003983211
 30
0.0
 10
110.6055094475
 20
328.3089925565
 30
0.0
 10
110.6760928248
 20
328.3196518788
 30
0.0
 10
110.8103860036
 20
328.3301251852
 30
0.0
 10
111.0191919464
 20
328.3361750684
 30
0.0
 10
111.1958825362
 20
328.3344684559
 30
0.0
 10
111.2915655461
 20
328.3319383094
 30
0.0
  0
SPLINE
  5
4FA
100
AcDbEntity
  8
0
100
AcDbSpline
 62
7
  6
CONTINUOUS
 70
0
 71
3
 72
9
 73
5
 74
0
 42
0.0000001
 43
0.0000001
 44
0.0000000001
 40
0.0
 40
0.0
 40
0.0
 40
0.0
 40
0.2501999742
 40
1.0
 40
1.0
 40
1.0
 40
1.0
 10
146.7821969447
 20
326.2297592998
 30
0.0
 10
146.07134573
 20
326.4291502755
 30
0.0
 10
143.2078454711
 20
327.1442028954
 30
0.0
 10
140.2619123291
 20
327.5279785739
 30
0.0
 10
138.0515208269
 20
327.6244944689
 30
0.0
  0
SPLINE
  5
4FB
100
AcDbEntity
  8
0
100
AcDbSpline
 62
7
  6
CONTINUOUS
 70
0
 71
3
 72
13
 73
9
 74
0
 42
0.0000001
 43
0.0000001
 44
0.0000000001
 40
0.0
 40
0.0
 40
0.0
 40
0.0
 40
0.3771725289
 40
0.6974592936
 40
0.8208758314
 40
0.913598716
 40
0.9727693268
 40
1.0
 40
1.0
 40
1.0
 40
1.0
 10
107.7915655461
 20
328.4203247579
 30
0.0
 10
107.8873713973
 20
328.4180198955
 30
0.0
 10
108.0642578702
 20
328.4108478911
 30
0.0
 10
108.2729519956
 20
328.3941573203
 30
0.0
 10
108.4071323398
 20
328.3767075594
 30
0.0
 10
108.4776649195
 20
328.362625382
 30
0.0
 10
108.5179735163
 20
328.351567486
 30
0.0
 10
108.5415655461
 20
328.3375490827
 30
0.0
 10
108.5415655461
 20
328.3306301995
 30
0.0
  0
SPLINE
  5
4FC
100
AcDbEntity
  8
0
100
AcDbSpline
 62
7
  6
CONTINUOUS
 70
0
 71
3
 72
10
 73
6
 74
0
 42
0.0000001
 43
0.0000001
 44
0.0000000001
 40
0.0
 40
0.0
 40
0.0
 40
0.0
 40
0.2500251399
 40
0.6250059428
 40
1.0
 40
1.0
 40
1.0
 40
1.0
 10
107.2915655461
 20
328.4322676686
 30
0.0
 10
107.333241186
 20
328.4312793777
 30
0.0
 10
107.4373037285
 20
328.4245373472
 30
0.0
 10
107.6041572719
 20
328.4292716425
 30
0.0
 10
107.7290598753
 20
328.4218284967
 30
0.0
 10
107.7915655461
 20
328.4203247579
 30
0.0
  0
SPLINE
  5
4FD
100
AcDbEntity
  8
0
100
AcDbSpline
 62
7
  6
CONTINUOUS
 70
0
 71
3
 72
13
 73
9
 74
0
 42
0.0000001
 43
0.0000001
 44
0.0000000001
 40
0.0
 40
0.0
 40
0.0
 40
0.0
 40
0.0267324808
 40
0.0852944605
 40
0.1776221284
 40
0.3009292723
 40
0.6217154742
 40
1.0
 40
1.0
 40
1.0
 40
1.0
 10
106.5415655461
 20
328.3780171949
 30
0.0
 10
106.5415655461
 20
328.384782108
 30
0.0
 10
106.5652681823
 20
328.3981984438
 30
0.0
 10
106.6055105028
 20
328.4070279631
 30
0.0
 10
106.67604526
 20
328.4180031692
 30
0.0
 10
106.810348573
 20
328.4289955208
 30
0.0
 10
107.0191444348
 20
328.4357324867
 30
0.0
 10
107.1958638889
 20
328.4345371259
 30
0.0
 10
107.2915655461
 20
328.4322676686
 30
0.0
  0
LINE
  5
4FE
100
AcDbEntity
  8
0
100
AcDbLine
 62
7
  6
CONTINUOUS
 10
103.2915655461
 20
328.5215837172
 11
103.7915655461
 21
328.5110282728
  0
SPLINE
  5
4FF
100
AcDbEntity
  8
0
100
AcDbSpline
 62
7
  6
CONTINUOUS
 70
0
 71
3
 72
13
 73
9
 74
0
 42
0.0000001
 43
0.0000001
 44
0.0000000001
 40
0.0
 40
0.0
 40
0.0
 40
0.0
 40
0.0269173803
 40
0.0855518292
 40
0.1778886457
 40
0.3011673237
 40
0.6218315912
 40
1.0
 40
1.0
 40
1.0
 40
1.0
 10
102.5415655461
 20
328.4643793576
 30
0.0
 10
102.5415655461
 20
328.4711942659
 30
0.0
 10
102.5651439339
 20
328.484849287
 30
0.0
 10
102.6055113936
 20
328.4939352194
 30
0.0
 10
102.6759905935
 20
328.5052512065
 30
0.0
 10
102.8103050798
 20
328.5167963427
 30
0.0
 10
103.0190902655
 20
328.5242563227
 30
0.0
 10
103.1958423218
 20
328.5235877621
 30
0.0
 10
103.2915655461
 20
328.5215837172
 30
0.0
  0
LINE
  5
500
100
AcDbEntity
  8
0
100
AcDbLine
 62
7
  6
CONTINUOUS
 10
99.2915655461
 20
328.5996871718
 11
99.7915655461
 21
328.5905443539
  0
SPLINE
  5
501
100
AcDbEntity
  8
0
100
AcDbSpline
 62
7
  6
CONTINUOUS
 70
0
 71
3
 72
13
 73
9
 74
0
 42
0.0000001
 43
0.0000001
 44
0.0000000001
 40
0.0
 40
0.0
 40
0.0
 40
0.0
 40
0.0271277962
 40
0.0858430496
 40
0.1781877622
 40
0.3014324229
 40
0.6219566547
 40
1.0
 40
1.0
 40
1.0
 40
1.0
 10
98.5415655461
 20
328.5393475372
 30
0.0
 10
98.5415655461
 20
328.5462194045
 30
0.0
 10
98.5650030564
 20
328.5601417924
 30
0.0
 10
98.605511087
 20
328.5695114002
 30
0.0
 10
98.6759277547
 20
328.5811961697
 30
0.0
 10
98.8102541455
 20
328.5933307408
 30
0.0
 10
99.0190285364
 20
328.6015469314
 30
0.0
 10
99.1958173368
 20
328.6014209169
 30
0.0
 10
99.2915655461
 20
328.5996871718
 30
0.0
  0
SPLINE
  5
502
100
AcDbEntity
  8
0
100
AcDbSpline
 62
7
  6
CONTINUOUS
 70
0
 71
3
 72
12
 73
8
 74
0
 42
0.0000001
 43
0.0000001
 44
0.0000000001
 40
0.0
 40
0.0
 40
0.0
 40
0.0
 40
0.3554158999
 40
0.660217656
 40
0.7814211951
 40
0.8780119984
 40
1.0
 40
1.0
 40
1.0
 40
1.0
 10
94.6415655461
 20
327.1241407129
 30
0.0
 10
94.8304273832
 20
327.1219564278
 30
0.0
 10
95.1815754085
 20
327.1017745866
 30
0.0
 10
95.5918468111
 20
327.0380413092
 30
0.0
 10
95.8607341886
 20
326.9576501399
 30
0.0
 10
96.0215131504
 20
326.8879316165
 30
0.0
 10
96.129146397
 20
326.8046212401
 30
0.0
 10
96.1400105404
 20
326.7407114307
 30
0.0
  0
SPLINE
  5
503
100
AcDbEntity
  8
0
100
AcDbSpline
 62
7
  6
CONTINUOUS
 70
0
 71
3
 72
10
 73
6
 74
0
 42
0.0000001
 43
0.0000001
 44
0.0000000001
 40
0.0
 40
0.0
 40
0.0
 40
0.0
 40
0.2500052332
 40
0.6250011469
 40
1.0
 40
1.0
 40
1.0
 40
1.0
 10
92.8190468353
 20
327.1440595071
 30
0.0
 10
92.9709310642
 20
327.142495836
 30
0.0
 10
93.3505423805
 20
327.1311828263
 30
0.0
 10
93.9581902998
 20
327.1389805814
 30
0.0
 10
94.4137478314
 20
327.1267755429
 30
0.0
 10
94.6415655461
 20
327.1241407129
 30
0.0
  0
SPLINE
  5
504
100
AcDbEntity
  8
0
100
AcDbSpline
 62
7
  6
CONTINUOUS
 70
0
 71
3
 72
25
 73
21
 74
0
 42
0.0000001
 43
0.0000001
 44
0.0000000001
 40
0.0
 40
0.0
 40
0.0
 40
0.0
 40
0.011670927
 40
0.0219837316
 40
0.0461045588
 40
0.0628836482
 40
0.0833173488
 40
0.1350858805
 40
0.2001463124
 40
0.2760963559
 40
0.3601233303
 40
0.449278548
 40
0.540591244
 40
0.6311015821
 40
0.7178532711
 40
0.7978913807
 40
0.8683292455
 40
0.9265262457
 40
0.9704910153
 40
1.0
 40
1.0
 40
1.0
 40
1.0
 10
82.1595405465
 20
327.2154945629
 30
0.0
 10
82.1347754051
 20
327.2518738945
 30
0.0
 10
82.0959917078
 20
327.3277512923
 30
0.0
 10
82.0949721312
 20
327.5092875819
 30
0.0
 10
82.2421088598
 20
327.6644069202
 30
0.0
 10
82.4394240047
 20
327.7796488888
 30
0.0
 10
82.7504233447
 20
327.9109850466
 30
0.0
 10
83.2524042141
 20
328.0415826685
 30
0.0
 10
83.9701846966
 20
328.1604229519
 30
0.0
 10
84.8146734832
 20
328.2472291844
 30
0.0
 10
85.7526157025
 20
328.3035531063
 30
0.0
 10
86.7497733871
 20
328.3301908693
 30
0.0
 10
87.7717002657
 20
328.3283941946
 30
0.0
 10
88.784158078
 20
328.2987589002
 30
0.0
 10
89.7528030417
 20
328.2413768123
 30
0.0
 10
90.6436663562
 20
328.1556274824
 30
0.0
 10
91.4221295498
 20
328.0418182029
 30
0.0
 10
92.0596783791
 20
327.8987061156
 30
0.0
 10
92.5254154936
 20
327.7330858858
 30
0.0
 10
92.7667904023
 20
327.5731535507
 30
0.0
 10
92.8302070801
 20
327.4817211343
 30
0.0
  0
SPLINE
  5
505
100
AcDbEntity
  8
0
100
AcDbSpline
 62
7
  6
CONTINUOUS
 70
0
 71
3
 72
8
 73
4
 74
0
 42
0.0000001
 43
0.0000001
 44
0.0000000001
 40
0.0
 40
0.0
 40
0.0
 40
0.0
 40
1.0
 40
1.0
 40
1.0
 40
1.0
 10
80.4415655461
 20
327.2201413023
 30
0.0
 10
81.0142246124
 20
327.2188923963
 30
0.0
 10
81.5868831124
 20
327.217346371
 30
0.0
 10
82.1595405465
 20
327.2154945629
 30
0.0
  0
SPLINE
  5
506
100
AcDbEntity
  8
0
100
AcDbSpline
 62
7
  6
CONTINUOUS
 70
0
 71
3
 72
12
 73
8
 74
0
 42
0.0000001
 43
0.0000001
 44
0.0000000001
 40
0.0
 40
0.0
 40
0.0
 40
0.0
 40
0.115289764
 40
0.2092647223
 40
0.3295151618
 40
0.6373382232
 40
1.0
 40
1.0
 40
1.0
 40
1.0
 10
78.9415655461
 20
326.841019766
 30
0.0
 10
78.9415655461
 20
326.9027029595
 30
0.0
 10
79.0428797539
 20
326.9946441278
 30
0.0
 10
79.1989003079
 20
327.0621461762
 30
0.0
 10
79.4695623926
 20
327.1440403336
 30
0.0
 10
79.8882447687
 20
327.2041908109
 30
0.0
 10
80.2475319859
 20
327.220564468
 30
0.0
 10
80.4415655461
 20
327.2201413023
 30
0.0
  0
SPLINE
  5
507
100
AcDbEntity
  8
0
100
AcDbSpline
 62
7
  6
CONTINUOUS
 70
0
 71
3
 72
9
 73
5
 74
0
 42
0.0000001
 43
0.0000001
 44
0.0000000001
 40
0.0
 40
0.0
 40
0.0
 40
0.0
 40
0.2966856684
 40
1.0
 40
1.0
 40
1.0
 40
1.0
 10
53.3319750342
 20
250.0940029385
 30
0.0
 10
53.3099794216
 20
250.077750215
 30
0.0
 10
53.2340003021
 20
250.0266469847
 30
0.0
 10
53.1422408976
 20
249.9910933037
 30
0.0
 10
53.0774184607
 20
249.9922247835
 30
0.0
  0
SPLINE
  5
508
100
AcDbEntity
  8
0
100
AcDbSpline
 62
7
  6
CONTINUOUS
 70
0
 71
3
 72
9
 73
5
 74
0
 42
0.0000001
 43
0.0000001
 44
0.0000000001
 40
0.0
 40
0.0
 40
0.0
 40
0.0
 40
0.769097017
 40
1.0
 40
1.0
 40
1.0
 40
1.0
 10
53.3778612617
 20
242.3180890097
 30
0.0
 10
53.3761662335
 20
242.3624991937
 30
0.0
 10
53.3707336394
 20
242.4201536893
 30
0.0
 10
53.3621112003
 20
242.4772976606
 30
0.0
 10
53.3597802309
 20
242.4904352779
 30
0.0
  0
LINE
  5
509
100
AcDbEntity
  8
0
100
AcDbLine
 62
7
  6
CONTINUOUS
 10
52.7998200255
 20
242.3269331857
 11
53.3778612617
 21
242.3180890097
  0
SPLINE
  5
50A
100
AcDbEntity
  8
0
100
AcDbSpline
 62
7
  6
CONTINUOUS
 70
0
 71
3
 72
9
 73
5
 74
0
 42
0.0000001
 43
0.0000001
 44
0.0000000001
 40
0.0
 40
0.0
 40
0.0
 40
0.0
 40
0.7711191835
 40
1.0
 40
1.0
 40
1.0
 40
1.0
 10
52.7998200255
 20
242.3269331857
 30
0.0
 10
52.7993030587
 20
242.3691799674
 30
0.0
 10
52.7979251289
 20
242.4239603333
 30
0.0
 10
52.7957256418
 20
242.47870707
 30
0.0
 10
52.7951394413
 20
242.4912338379
 30
0.0
  0
LINE
  5
50B
100
AcDbEntity
  8
0
100
AcDbLine
 62
7
  6
CONTINUOUS
 10
52.668126249
 20
245.5286379934
 11
52.6631574892
 21
245.6694326542
  0
SPLINE
  5
50C
100
AcDbEntity
  8
0
100
AcDbSpline
 62
7
  6
CONTINUOUS
 70
0
 71
3
 72
8
 73
4
 74
0
 42
0.0000001
 43
0.0000001
 44
0.0000000001
 40
0.0
 40
0.0
 40
0.0
 40
0.0
 40
1.0
 40
1.0
 40
1.0
 40
1.0
 10
52.6631574892
 20
245.6694326522
 30
0.0
 10
52.6628539869
 20
245.6781242941
 30
0.0
 10
52.6625588556
 20
245.6868190585
 30
0.0
 10
52.6619881916
 20
245.695497255
 30
0.0
  0
SPLINE
  5
50D
100
AcDbEntity
  8
0
100
AcDbSpline
 62
7
  6
CONTINUOUS
 70
0
 71
3
 72
9
 73
5
 74
0
 42
0.0000001
 43
0.0000001
 44
0.0000000001
 40
0.0
 40
0.0
 40
0.0
 40
0.0
 40
0.7458431643
 40
1.0
 40
1.0
 40
1.0
 40
1.0
 10
52.6619881916
 20
245.695497255
 30
0.0
 10
52.6618800287
 20
245.6971421086
 30
0.0
 10
52.6612405018
 20
245.6985355929
 30
0.0
 10
52.6617710283
 20
245.7020945128
 30
0.0
 10
52.661209844
 20
245.7020700284
 30
0.0
  0
SPLINE
  5
50E
100
AcDbEntity
  8
0
100
AcDbSpline
 62
7
  6
CONTINUOUS
 70
0
 71
3
 72
10
 73
6
 74
0
 42
0.0000001
 43
0.0000001
 44
0.0000000001
 40
0.0
 40
0.0
 40
0.0
 40
0.0
 40
0.1741689497
 40
0.4093289567
 40
1.0
 40
1.0
 40
1.0
 40
1.0
 10
55.3921008926
 20
326.4467637787
 30
0.0
 10
55.4493841511
 20
326.4091884715
 30
0.0
 10
55.6000071166
 20
326.3467699597
 30
0.0
 10
55.9821934625
 20
326.2532880462
 30
0.0
 10
56.3092314401
 20
326.2297592998
 30
0.0
 10
56.5415655461
 20
326.2297592998
 30
0.0
  0
SPLINE
  5
50F
100
AcDbEntity
  8
0
100
AcDbSpline
 62
7
  6
CONTINUOUS
 70
0
 71
3
 72
9
 73
5
 74
0
 42
0.0000001
 43
0.0000001
 44
0.0000000001
 40
0.0
 40
0.0
 40
0.0
 40
0.0
 40
0.4155261547
 40
1.0
 40
1.0
 40
1.0
 40
1.0
 10
54.262640576
 20
327.5326992371
 30
0.0
 10
54.3555906683
 20
327.3346906077
 30
0.0
 10
54.711319007
 20
326.927434802
 30
0.0
 10
55.1348337109
 20
326.6155197752
 30
0.0
 10
55.3921008926
 20
326.4467637787
 30
0.0
  0
SPLINE
  5
510
100
AcDbEntity
  8
0
100
AcDbSpline
 62
7
  6
CONTINUOUS
 70
0
 71
3
 72
9
 73
5
 74
0
 42
0.0000001
 43
0.0000001
 44
0.0000000001
 40
0.0
 40
0.0
 40
0.0
 40
0.0
 40
0.100010618
 40
1.0
 40
1.0
 40
1.0
 40
1.0
 10
53.3722405696
 20
242.295754179
 30
0.0
 10
53.3730280788
 20
242.2957362903
 30
0.0
 10
53.3790017893
 20
242.30274117
 30
0.0
 10
53.3774175481
 20
242.3110143357
 30
0.0
 10
53.3778612617
 20
242.3180890097
 30
0.0
  0
SPLINE
  5
511
100
AcDbEntity
  8
0
100
AcDbSpline
 62
7
  6
CONTINUOUS
 70
0
 71
3
 72
9
 73
5
 74
0
 42
0.0000001
 43
0.0000001
 44
0.0000000001
 40
0.0
 40
0.0
 40
0.0
 40
0.0
 40
0.2629135298
 40
1.0
 40
1.0
 40
1.0
 40
1.0
 10
53.3597888563
 20
242.4904353055
 30
0.0
 10
53.325570644
 20
242.6832933883
 30
0.0
 10
53.1976330186
 20
243.4172229821
 30
0.0
 10
53.0786727932
 20
244.1527410856
 30
0.0
 10
52.9977322462
 20
244.6958713713
 30
0.0
  0
SPLINE
  5
512
100
AcDbEntity
  8
0
100
AcDbSpline
 62
7
  6
CONTINUOUS
 70
0
 71
3
 72
9
 73
5
 74
0
 42
0.0000001
 43
0.0000001
 44
0.0000000001
 40
0.0
 40
0.0
 40
0.0
 40
0.0
 40
0.7313143834
 40
1.0
 40
1.0
 40
1.0
 40
1.0
 10
52.8601743929
 20
245.6740506692
 30
0.0
 10
52.8591108737
 20
245.6821397095
 30
0.0
 10
52.8561693072
 20
245.6896932499
 30
0.0
 10
52.8558599203
 20
245.7066269855
 30
0.0
 10
52.8528634488
 20
245.7065485576
 30
0.0
  0
SPLINE
  5
513
100
AcDbEntity
  8
0
100
AcDbSpline
 62
7
  6
CONTINUOUS
 70
0
 71
3
 72
13
 73
9
 74
0
 42
0.0000001
 43
0.0000001
 44
0.0000000001
 40
0.0
 40
0.0
 40
0.0
 40
0.0
 40
0.017599045
 40
0.0670935612
 40
0.1484439917
 40
0.2611186191
 40
0.5764289962
 40
1.0
 40
1.0
 40
1.0
 40
1.0
 10
53.5721956344
 20
173.6797592998
 30
0.0
 10
53.5704715276
 20
173.6797592998
 30
0.0
 10
53.5705253279
 20
173.669878361
 30
0.0
 10
53.5678529655
 20
173.6585724332
 30
0.0
 10
53.5670172418
 20
173.6330040503
 30
0.0
 10
53.5644015637
 20
173.5842006227
 30
0.0
 10
53.5624688028
 20
173.5000284132
 30
0.0
 10
53.5610913418
 20
173.4279244502
 30
0.0
 10
53.5604856779
 20
173.3864333448
 30
0.0
  0
SPLINE
  5
514
100
AcDbEntity
  8
0
100
AcDbSpline
 62
7
  6
CONTINUOUS
 70
0
 71
3
 72
9
 73
5
 74
0
 42
0.0000001
 43
0.0000001
 44
0.0000000001
 40
0.0
 40
0.0
 40
0.0
 40
0.0
 40
0.2142821761
 40
1.0
 40
1.0
 40
1.0
 40
1.0
 10
53.5604856779
 20
173.3864333448
 30
0.0
 10
53.5597489223
 20
173.3359617807
 30
0.0
 10
53.5571454511
 20
173.100412077
 30
0.0
 10
53.5564793439
 20
172.8648453066
 30
0.0
 10
53.5564793439
 20
172.6797592998
 30
0.0
  0
SPLINE
  5
515
100
AcDbEntity
  8
0
100
AcDbSpline
 62
7
  6
CONTINUOUS
 70
0
 71
3
 72
10
 73
6
 74
0
 42
0.0000001
 43
0.0000001
 44
0.0000000001
 40
0.0
 40
0.0
 40
0.0
 40
0.0
 40
0.1125988225
 40
0.3059824679
 40
1.0
 40
1.0
 40
1.0
 40
1.0
 10
54.0255421355
 20
110.7297601859
 30
0.0
 10
54.0117395274
 20
110.7297423548
 30
0.0
 10
53.9785001132
 20
110.7026422944
 30
0.0
 10
53.9309621568
 20
110.5909844124
 30
0.0
 10
53.907985245
 20
110.4827863578
 30
0.0
 10
53.8930155506
 20
110.3990395028
 30
0.0
  0
SPLINE
  5
516
100
AcDbEntity
  8
0
100
AcDbSpline
 62
7
  6
CONTINUOUS
 70
0
 71
3
 72
9
 73
5
 74
0
 42
0.0000001
 43
0.0000001
 44
0.0000000001
 40
0.0
 40
0.0
 40
0.0
 40
0.0
 40
0.2255857822
 40
1.0
 40
1.0
 40
1.0
 40
1.0
 10
53.8930155506
 20
110.3990395028
 30
0.0
 10
53.8896776311
 20
110.3803657579
 30
0.0
 10
53.8756482401
 20
110.2974496353
 30
0.0
 10
53.8642437791
 20
110.2141064559
 30
0.0
 10
53.8562740551
 20
110.1494747407
 30
0.0
  0
LINE
  5
517
100
AcDbEntity
  8
0
100
AcDbLine
 62
7
  6
CONTINUOUS
 10
52.9977322498
 20
242.1816651859
 11
52.9897637108
 21
242.2607771176
  0
SPLINE
  5
518
100
AcDbEntity
  8
0
100
AcDbSpline
 62
7
  6
CONTINUOUS
 70
0
 71
3
 72
9
 73
5
 74
0
 42
0.0000001
 43
0.0000001
 44
0.0000000001
 40
0.0
 40
0.0
 40
0.0
 40
0.0
 40
0.2687192159
 40
1.0
 40
1.0
 40
1.0
 40
1.0
 10
52.8528639701
 20
254.7529703784
 30
0.0
 10
52.8558609024
 20
254.7528928405
 30
0.0
 10
52.8561822648
 20
254.7698203513
 30
0.0
 10
52.8591108978
 20
254.7773790768
 30
0.0
 10
52.8601743906
 20
254.7854679144
 30
0.0
  0
SPLINE
  5
519
100
AcDbEntity
  8
0
100
AcDbSpline
 62
7
  6
CONTINUOUS
 70
0
 71
3
 72
9
 73
5
 74
0
 42
0.0000001
 43
0.0000001
 44
0.0000000001
 40
0.0
 40
0.0
 40
0.0
 40
0.0
 40
0.2753666816
 40
1.0
 40
1.0
 40
1.0
 40
1.0
 10
53.5564793439
 20
155.7797592998
 30
0.0
 10
53.5564793439
 20
155.7148168456
 30
0.0
 10
53.5568062932
 20
155.478978105
 30
0.0
 10
53.5580067291
 20
155.2431329021
 30
0.0
 10
53.5604969494
 20
155.0722535874
 30
0.0
  0
SPLINE
  5
51A
100
AcDbEntity
  8
0
100
AcDbSpline
 62
7
  6
CONTINUOUS
 70
0
 71
3
 72
13
 73
9
 74
0
 42
0.0000001
 43
0.0000001
 44
0.0000000001
 40
0.0
 40
0.0
 40
0.0
 40
0.0
 40
0.4236085206
 40
0.7389143669
 40
0.8515789348
 40
0.9329156859
 40
0.9823998743
 40
1.0
 40
1.0
 40
1.0
 40
1.0
 10
53.5604969494
 20
155.0722535874
 30
0.0
 10
53.5610999463
 20
155.0308758429
 30
0.0
 10
53.5624667847
 20
154.9589717342
 30
0.0
 10
53.5643856193
 20
154.8750351713
 30
0.0
 10
53.5670016743
 20
154.8263713136
 30
0.0
 10
53.5678485457
 20
154.800881272
 30
0.0
 10
53.5705174057
 20
154.7896062323
 30
0.0
 10
53.5704762855
 20
154.7797592998
 30
0.0
 10
53.5721956344
 20
154.7797592998
 30
0.0
  0
LINE
  5
51B
100
AcDbEntity
  8
0
100
AcDbLine
 62
7
  6
CONTINUOUS
 10
52.6988386025
 20
242.2106591607
 11
52.696279684
 21
242.306830994
  0
SPLINE
  5
51C
100
AcDbEntity
  8
0
100
AcDbSpline
 62
7
  6
CONTINUOUS
 70
0
 71
3
 72
8
 73
4
 74
0
 42
0.0000001
 43
0.0000001
 44
0.0000000001
 40
0.0
 40
0.0
 40
0.0
 40
0.0
 40
1.0
 40
1.0
 40
1.0
 40
1.0
 10
96.1415655461
 20
326.7212511929
 30
0.0
 10
96.1415655461
 20
326.7277586151
 30
0.0
 10
96.1411010975
 20
326.7342960406
 30
0.0
 10
96.1400105404
 20
326.7407114307
 30
0.0
  0
SPLINE
  5
51D
100
AcDbEntity
  8
0
100
AcDbSpline
 62
7
  6
CONTINUOUS
 70
0
 71
3
 72
13
 73
9
 74
0
 42
0.0000001
 43
0.0000001
 44
0.0000000001
 40
0.0
 40
0.0
 40
0.0
 40
0.0
 40
0.027373049
 40
0.0863835909
 40
0.1789310452
 40
0.3020929341
 40
0.6223735701
 40
1.0
 40
1.0
 40
1.0
 40
1.0
 10
100.5415655461
 20
328.5033010014
 30
0.0
 10
100.5415655461
 20
328.5102562704
 30
0.0
 10
100.5182627254
 20
328.524547116
 30
0.0
 10
100.4778194152
 20
328.5355566463
 30
0.0
 10
100.407514189
 20
328.5495840931
 30
0.0
 10
100.2733446532
 20
328.5666940282
 30
0.0
 10
100.0645520795
 20
328.5825019318
 30
0.0
 10
99.8875009975
 20
328.5887730227
 30
0.0
 10
99.7915655461
 20
328.5905443539
 30
0.0
  0
SPLINE
  5
51E
100
AcDbEntity
  8
0
100
AcDbSpline
 62
7
  6
CONTINUOUS
 70
0
 71
3
 72
9
 73
5
 74
0
 42
0.0000001
 43
0.0000001
 44
0.0000000001
 40
0.0
 40
0.0
 40
0.0
 40
0.0
 40
0.2582976821
 40
1.0
 40
1.0
 40
1.0
 40
1.0
 10
52.6612098687
 20
254.7574483373
 30
0.0
 10
52.6640239411
 20
254.7573411075
 30
0.0
 10
52.6592074086
 20
254.7752523815
 30
0.0
 10
52.6628751897
 20
254.7820043742
 30
0.0
 10
52.6631573885
 20
254.7900859277
 30
0.0
  0
LINE
  5
51F
100
AcDbEntity
  8
0
100
AcDbLine
 62
7
  6
CONTINUOUS
 10
52.6631573884
 20
254.7900859257
 11
52.6681261545
 21
254.9308806346
  0
SPLINE
  5
520
100
AcDbEntity
  8
0
100
AcDbSpline
 62
7
  6
CONTINUOUS
 70
0
 71
3
 72
9
 73
5
 74
0
 42
0.0000001
 43
0.0000001
 44
0.0000000001
 40
0.0
 40
0.0
 40
0.0
 40
0.0
 40
0.2288789992
 40
1.0
 40
1.0
 40
1.0
 40
1.0
 10
52.7951395443
 20
257.9682848259
 30
0.0
 10
52.7957257396
 20
257.9808114896
 30
0.0
 10
52.797924961
 20
258.0355582161
 30
0.0
 10
52.7993030586
 20
258.0903385542
 30
0.0
 10
52.7998200264
 20
258.1325854193
 30
0.0
  0
SPLINE
  5
521
100
AcDbEntity
  8
0
100
AcDbSpline
 62
7
  6
CONTINUOUS
 70
0
 71
3
 72
9
 73
5
 74
0
 42
0.0000001
 43
0.0000001
 44
0.0000000001
 40
0.0
 40
0.0
 40
0.0
 40
0.0
 40
0.3293333478
 40
1.0
 40
1.0
 40
1.0
 40
1.0
 10
52.7951394454
 20
250.3353450174
 30
0.0
 10
52.7909592946
 20
250.3481347815
 30
0.0
 10
52.7773189059
 20
250.3863929634
 30
0.0
 10
52.7619419795
 20
250.4256191481
 30
0.0
 10
52.7443389304
 20
250.4466183851
 30
0.0
  0
SPLINE
  5
522
100
AcDbEntity
  8
0
100
AcDbSpline
 62
7
  6
CONTINUOUS
 70
0
 71
3
 72
8
 73
4
 74
0
 42
0.0000001
 43
0.0000001
 44
0.0000000001
 40
0.0
 40
0.0
 40
0.0
 40
0.0
 40
1.0
 40
1.0
 40
1.0
 40
1.0
 10
52.7443389304
 20
250.4466183851
 30
0.0
 10
52.7384164448
 20
250.4536835064
 30
0.0
 10
52.7299742776
 20
250.4612291553
 30
0.0
 10
52.7207565834
 20
250.4610682598
 30
0.0
  0
SPLINE
  5
523
100
AcDbEntity
  8
0
100
AcDbSpline
 62
7
  6
CONTINUOUS
 70
0
 71
3
 72
9
 73
5
 74
0
 42
0.0000001
 43
0.0000001
 44
0.0000000001
 40
0.0
 40
0.0
 40
0.0
 40
0.0
 40
0.2366846613
 40
1.0
 40
1.0
 40
1.0
 40
1.0
 10
52.9976338815
 20
255.7636377332
 30
0.0
 10
53.0236104113
 20
255.9380456947
 30
0.0
 10
53.1363945025
 20
256.6744725987
 30
0.0
 10
53.2604334634
 20
257.4091526061
 30
0.0
 10
53.3597802011
 20
257.9690831263
 30
0.0
  0
SPLINE
  5
524
100
AcDbEntity
  8
0
100
AcDbSpline
 62
7
  6
CONTINUOUS
 70
0
 71
3
 72
9
 73
5
 74
0
 42
0.0000001
 43
0.0000001
 44
0.0000000001
 40
0.0
 40
0.0
 40
0.0
 40
0.0
 40
0.2309068364
 40
1.0
 40
1.0
 40
1.0
 40
1.0
 10
53.3597802022
 20
257.9690831662
 30
0.0
 10
53.3621112085
 20
257.9822209752
 30
0.0
 10
53.3707114358
 20
258.0393682105
 30
0.0
 10
53.3761654058
 20
258.0970197518
 30
0.0
 10
53.3778612617
 20
258.1414295899
 30
0.0
  0
ENDSEC
  0
SECTION
  2
OBJECTS
  0
DICTIONARY
  5
C
100
AcDbDictionary
280
0
281
1
  3
ACAD_GROUP
350
D
  3
ACAD_MLINESTYLE
350
17
  3
ACAD_LAYOUT
350
1A
  3
ACAD_PLOTSETTINGS
350
19
  3
ACAD_PLOTSTYLENAME
350
E
  0
DICTIONARY
  5
D
102
{ACAD_REACTORS
330
C
102
}
100
AcDbDictionary
280
0
281
1
  0
ACDBDICTIONARYWDFLT
  5
E
102
{ACAD_REACTORS
330
C
102
}
100
AcDbDictionary
281
1
  3
Normal
350
F
100
AcDbDictionaryWithDefault
340
F
  0
DICTIONARY
  5
17
102
{ACAD_REACTORS
330
C
102
}
100
AcDbDictionary
280
0
281
1
  3
Standard
350
18
  0
DICTIONARY
  5
19
102
{ACAD_REACTORS
330
C
102
}
100
AcDbDictionary
281
1
  0
DICTIONARY
  5
1A
102
{ACAD_REACTORS
330
C
102
}
100
AcDbDictionary
281
1
  3
Model
350
525
  3
Layout1
350
526
  0
ACDBPLACEHOLDER
  5
F
102
{ACAD_REACTORS
330
E
102
}
  0
MLINESTYLE
  5
18
102
{ACAD_REACTORS
330
17
102
}
100
AcDbMlineStyle
  2
STANDARD
 70
0
  3

 62
256
 51
90.0
 52
90.0
 71
2
 49
0.5
 62
256
  6
BYLAYER
 49
-0.5
 62
256
  6
BYLAYER
  0
LAYOUT
  5
525
102
{ACAD_REACTORS
330
1A
102
}
100
AcDbPlotSettings
  1

  2
none_device
  4

  6

 40
0.0
 41
0.0
 42
0.0
 43
0.0
 44
210.0
 45
297.0
 46
0.0
 47
0.0
 48
0.0
 49
0.0
140
0.0
141
0.0
142
1.0
143
1.0
 70
1024
 72
1
 73
0
 74
0
  7

 75
0
147
1.0
148
0.0
149
0.0
100
AcDbLayout
  1
Model
 70
0
 71
0
 10
0.0
 20
0.0
 11
210.0
 21
297.0
 12
0.0
 22
0.0
 32
0.0
 14
0.0
 24
0.0
 34
0.0
 15
0.0
 25
0.0
 35
0.0
146
0.0
 13
0.0
 23
0.0
 33
0.0
 16
1.0
 26
0.0
 36
0.0
 17
0.0
 27
1.0
 37
0.0
 76
0
330
211
345
0
346
0
  0
LAYOUT
  5
526
102
{ACAD_REACTORS
330
1A
102
}
100
AcDbPlotSettings
  1

  2
none_device
  4

  6

 40
0.0
 41
0.0
 42
0.0
 43
0.0
 44
210.0
 45
297.0
 46
0.0
 47
0.0
 48
0.0
 49
0.0
140
0.0
141
0.0
142
1.0
143
1.0
 70
0
 72
1
 73
0
 74
0
  7

 75
0
147
1.0
148
0.0
149
0.0
100
AcDbLayout
  1
Layout1
 70
0
 71
1
 10
0.0
 20
0.0
 11
210.0
 21
297.0
 12
0.0
 22
0.0
 32
0.0
 14
0.0
 24
0.0
 34
0.0
 15
0.0
 25
0.0
 35
0.0
146
0.0
 13
0.0
 23
0.0
 33
0.0
 16
1.0
 26
0.0
 36
0.0
 17
0.0
 27
1.0
 37
0.0
 76
0
330
212
345
0
346
0
  0
ENDSEC
  0
EOF
