999
DXF file: C:\Users\sesa63760\Dev\_Creo\CAD\MCADID0004899_3D-CAD\drw0001_7.dxf
999
Pro/ENGINEER 2019471 by Parametric Technology Corporation
  0
SECTION
  2
HEADER
  9
$ACADVER
  1
AC1024
  9
$DWGCODEPAGE
  3
ANSI_1252
  9
$EXTMAX
 10
530.5272196817
 20
750.3170678355
 30
0.0
  9
$EXTMIN
 10
0.0
 20
0.0
 30
0.0
  9
$LIMMIN
 10
0.0
 20
0.0
  9
$LIMMAX
 10
530.5272196817
 20
750.3170678355
  9
$VIEWCTR
 10
265.2636098408
 20
375.1585339177
  9
$VIEWSIZE
 40
750.3170678355
  9
$CLAYER
  8
0
  9
$LTSCALE
 40
48.9095570145
  9
$CELTYPE
  6
BYLAYER
  9
$DIMSCALE
 40
1.0
  9
$DIMASZ
 40
6.3158002343
  9
$DIMEXO
 40
1.0
  9
$DIMDLI
 40
33.7920575736
  9
$DIMEXE
 40
1.0
  9
$DIMCEN
 40
8.0033820569
  9
$DIMLFAC
 40
1.0
  9
$DIMBLK
  1
_FILLED
  9
$DIMALT
 70
0
  9
$DIMALTF
 40
0.0393700787
  9
$DIMTXT
 40
8.842120328
  9
$DIMTOL
 70
1
  9
$DIMLIM
 70
0
  9
$DIMTFAC
 40
1.0
  9
$DIMTP
 40
0.01
  9
$DIMTM
 40
0.01
  9
$DIMGAP
 40
0.625
  9
$DIMDSEP
 70
46
  9
$AUNITS
 70
0
  9
$PDMODE
 70
3
  9
$PDSIZE
 40
0.3125
  9
$HANDSEED
  5
378
  9
$TILEMODE
 70
1
  9
$MEASUREMENT
 70
1
  9
$INSUNITS
 70
4
  0
ENDSEC
  0
SECTION
  2
CLASSES
  0
CLASS
  1
ACDBDICTIONARYWDFLT
  2
AcDbDictionaryWithDefault
  3
AutoCAD 2000
 90
0
 91
1
280
0
281
0
  0
CLASS
  1
ACDBPLACEHOLDER
  2
AcDbPlaceHolder
  3
AutoCAD 2000
 90
0
 91
1
280
0
281
0
  0
CLASS
  1
LAYOUT
  2
AcDbLayout
  3
AutoCAD 2000
 90
0
 91
0
280
0
281
0
  0
ENDSEC
  0
SECTION
  2
TABLES
  0
TABLE
  2
VPORT
  5
8
100
AcDbSymbolTable
 70
2
  0
VPORT
  5
1F4
100
AcDbSymbolTableRecord
100
AcDbViewportTableRecord
  2
*ACTIVE
 70
0
 10
0.0
 20
0.0
 11
1.0
 21
1.0
 12
265.2636098408
 22
375.1585339177
 13
0.0
 23
0.0
 14
1.0
 24
1.0
 15
0.0
 25
0.0
 16
0.0
 26
0.0
 36
1.0
 17
0.0
 27
0.0
 37
0.0
 40
750.3170678355
 41
0.7070707071
 42
50.0
 43
0.0
 44
0.0
 50
0.0
 51
0.0
 71
0
 72
100
 73
1
 74
1
 75
0
 76
0
 77
0
 78
0
  0
ENDTAB
  0
TABLE
  2
LTYPE
  5
5
100
AcDbSymbolTable
 70
6
  0
LTYPE
  5
14
100
AcDbSymbolTableRecord
100
AcDbLinetypeTableRecord
  2
BYBLOCK
 70
0
  3

 72
65
 73
0
 40
0.0
  0
LTYPE
  5
15
100
AcDbSymbolTableRecord
100
AcDbLinetypeTableRecord
  2
BYLAYER
 70
0
  3

 72
65
 73
0
 40
0.0
  0
LTYPE
  5
16
100
AcDbSymbolTableRecord
100
AcDbLinetypeTableRecord
  2
CONTINUOUS
 70
64
  3
Solid line
 72
65
 73
0
 40
0.0
  0
LTYPE
  5
1F5
100
AcDbSymbolTableRecord
100
AcDbLinetypeTableRecord
  2
CENTER
 70
64
  3
____ _ ____ _ ____ _ ____ _ ____ _ ____ _ ____
 72
65
 73
4
 40
0.6
 49
0.375
 74
0
 49
-0.075
 74
0
 49
0.075
 74
0
 49
-0.075
 74
0
  0
LTYPE
  5
1F6
100
AcDbSymbolTableRecord
100
AcDbLinetypeTableRecord
  2
HIDDEN
 70
64
  3
- - - - - - - - - - - - - - - - - - - -
 72
65
 73
2
 40
0.2
 49
0.1
 74
0
 49
-0.1
 74
0
  0
LTYPE
  5
1F7
100
AcDbSymbolTableRecord
100
AcDbLinetypeTableRecord
  2
PHANTOM
 70
64
  3
_____ _ _ _____ _ _ _____ _ _ _____
 72
65
 73
6
 40
0.8
 49
0.45
 74
0
 49
-0.05
 74
0
 49
0.1
 74
0
 49
-0.05
 74
0
 49
0.1
 74
0
 49
-0.05
 74
0
  0
LTYPE
  5
1F8
100
AcDbSymbolTableRecord
100
AcDbLinetypeTableRecord
  2
DOT
 70
64
  3
. . . . . . . . . . . . . . . . . . . .
 72
65
 73
2
 40
0.2
 49
0.1
 74
0
 49
-0.1
 74
0
  0
LTYPE
  5
1F9
100
AcDbSymbolTableRecord
100
AcDbLinetypeTableRecord
  2
DASHED
 70
64
  3
- - - - - - - - - - - - - - - - - - - -
 72
65
 73
2
 40
0.2
 49
0.1
 74
0
 49
-0.1
 74
0
  0
ENDTAB
  0
TABLE
  2
LAYER
  5
2
100
AcDbSymbolTable
 70
36
  0
LAYER
  5
10
100
AcDbSymbolTableRecord
100
AcDbLayerTableRecord
  2
0
 70
0
 62
7
  6
CONTINUOUS
370
-3
390
F
  0
LAYER
  5
1FA
100
AcDbSymbolTableRecord
100
AcDbLayerTableRecord
  2
DEFAULT_1
 70
0
 62
7
  6
CENTER
370
-3
390
F
  0
LAYER
  5
1FB
100
AcDbSymbolTableRecord
100
AcDbLayerTableRecord
  2
DEFAULT_2
 70
0
 62
7
  6
HIDDEN
370
-3
390
F
  0
LAYER
  5
1FC
100
AcDbSymbolTableRecord
100
AcDbLayerTableRecord
  2
DEFAULT_3
 70
0
 62
7
  6
PHANTOM
370
-3
390
F
  0
LAYER
  5
1FD
100
AcDbSymbolTableRecord
100
AcDbLayerTableRecord
  2
00_COMPONENTS
 70
0
 62
7
  6
CONTINUOUS
370
-3
390
F
  0
LAYER
  5
1FE
100
AcDbSymbolTableRecord
100
AcDbLayerTableRecord
  2
01_1_DEFAULT_DATUMS
 70
0
 62
7
  6
CONTINUOUS
370
-3
390
F
  0
LAYER
  5
1FF
100
AcDbSymbolTableRecord
100
AcDbLayerTableRecord
  2
01_PLANES
 70
0
 62
7
  6
CONTINUOUS
370
-3
390
F
  0
LAYER
  5
200
100
AcDbSymbolTableRecord
100
AcDbLayerTableRecord
  2
02_COORD_SYS
 70
0
 62
7
  6
CONTINUOUS
370
-3
390
F
  0
LAYER
  5
201
100
AcDbSymbolTableRecord
100
AcDbLayerTableRecord
  2
03_AXES
 70
0
 62
7
  6
CONTINUOUS
370
-3
390
F
  0
LAYER
  5
202
100
AcDbSymbolTableRecord
100
AcDbLayerTableRecord
  2
04_POINTS
 70
0
 62
7
  6
CONTINUOUS
370
-3
390
F
  0
LAYER
  5
203
100
AcDbSymbolTableRecord
100
AcDbLayerTableRecord
  2
05_CURVES
 70
0
 62
7
  6
CONTINUOUS
370
-3
390
F
  0
LAYER
  5
204
100
AcDbSymbolTableRecord
100
AcDbLayerTableRecord
  2
06_SURFS
 70
0
 62
7
  6
CONTINUOUS
370
-3
390
F
  0
LAYER
  5
205
100
AcDbSymbolTableRecord
100
AcDbLayerTableRecord
  2
07_COSMETICS
 70
0
 62
7
  6
CONTINUOUS
370
-3
390
F
  0
LAYER
  5
206
100
AcDbSymbolTableRecord
100
AcDbLayerTableRecord
  2
10_NOTES
 70
0
 62
7
  6
CONTINUOUS
370
-3
390
F
  0
LAYER
  5
207
100
AcDbSymbolTableRecord
100
AcDbLayerTableRecord
  2
11_NOTES_PUB
 70
0
 62
7
  6
CONTINUOUS
370
-3
390
F
  0
LAYER
  5
208
100
AcDbSymbolTableRecord
100
AcDbLayerTableRecord
  2
13_REF_GTOL
 70
0
 62
7
  6
CONTINUOUS
370
-3
390
F
  0
LAYER
  5
209
100
AcDbSymbolTableRecord
100
AcDbLayerTableRecord
  2
16_MISC
 70
0
 62
7
  6
CONTINUOUS
370
-3
390
F
  0
LAYER
  5
20A
100
AcDbSymbolTableRecord
100
AcDbLayerTableRecord
  2
17_NO_PRINT
 70
0
 62
7
  6
CONTINUOUS
370
-3
390
F
  0
LAYER
  5
20B
100
AcDbSymbolTableRecord
100
AcDbLayerTableRecord
  2
18_DATUM_CAMS_JOINTS
 70
0
 62
7
  6
CONTINUOUS
370
-3
390
F
  0
LAYER
  5
20C
100
AcDbSymbolTableRecord
100
AcDbLayerTableRecord
  2
19_DATUM_FUNCTIONAL
 70
0
 62
7
  6
CONTINUOUS
370
-3
390
F
  0
LAYER
  5
20D
100
AcDbSymbolTableRecord
100
AcDbLayerTableRecord
  2
20_DATUM_KINEMATIC_SCHEME
 70
0
 62
7
  6
CONTINUOUS
370
-3
390
F
  0
ENDTAB
  0
TABLE
  2
STYLE
  5
3
100
AcDbSymbolTable
 70
1
  0
STYLE
  5
11
100
AcDbSymbolTableRecord
100
AcDbTextStyleTableRecord
  2
STANDARD
 70
0
 40
0.0
 41
1.0
 50
0.0
 71
0
 42
0.2
  3
ARIAL.TTF
  4

  0
STYLE
  5
20E
100
AcDbSymbolTableRecord
100
AcDbTextStyleTableRecord
  2
TEXTSTYLE_1
 70
0
 40
0.0
 41
0.8
 50
0.0
 71
0
 42
0.2
  3
gdt
  4

  0
ENDTAB
  0
TABLE
  2
VIEW
  5
6
100
AcDbSymbolTable
 70
0
  0
ENDTAB
  0
TABLE
  2
UCS
  5
7
100
AcDbSymbolTable
 70
0
  0
ENDTAB
  0
TABLE
  2
APPID
  5
9
100
AcDbSymbolTable
 70
1
  0
APPID
  5
20F
100
AcDbSymbolTableRecord
100
AcDbRegAppTableRecord
  2
ACAD
 70
0
  0
ENDTAB
  0
TABLE
  2
BLOCK_RECORD
  5
1
100
AcDbSymbolTable
 70
0
  0
BLOCK_RECORD
  5
210
100
AcDbSymbolTableRecord
100
AcDbBlockTableRecord
  2
*Model_Space
  0
BLOCK_RECORD
  5
211
100
AcDbSymbolTableRecord
100
AcDbBlockTableRecord
  2
*Paper_Space
  0
BLOCK_RECORD
  5
212
100
AcDbSymbolTableRecord
100
AcDbBlockTableRecord
  2
_FILLED
  0
ENDTAB
  0
TABLE
  2
DIMSTYLE
  5
A
100
AcDbSymbolTable
 70
1
100
AcDbDimStyleTable
 71
0
  0
DIMSTYLE
105
213
100
AcDbSymbolTableRecord
100
AcDbDimStyleTableRecord
  2
STANDARD
 70
0
  3

  4

 40
1.0
 41
6.3158002343
 42
1.0
 43
0.38
 44
1.0
 45
0.0
 46
0.0
 47
0.01
 48
0.01
140
8.842120328
141
0.09
142
0.0
143
25.4
144
1.0
145
0.0
146
1.0
147
0.625
 71
1
 72
0
 73
0
 74
0
 75
0
 76
0
 77
1
 78
8
 79
2
170
0
171
1
172
0
173
0
174
0
175
0
176
0
177
0
178
0
270
2
179
2
271
2
272
2
273
2
274
2
275
0
280
0
281
0
282
0
283
1
284
8
285
0
286
0
287
3
288
0
340
11
278
46
341
212
342
212
343
212
344
212
  0
ENDTAB
  0
ENDSEC
  0
SECTION
  2
BLOCKS
  0
BLOCK
  5
20
100
AcDbEntity
  8
0
100
AcDbBlockBegin
  2
*Model_Space
 70
0
 10
0.0
 20
0.0
 30
0.0
  3
*Model_Space
  1

  0
ENDBLK
  5
21
100
AcDbEntity
  8
0
100
AcDbBlockEnd
  0
BLOCK
  5
1C
100
AcDbEntity
  8
0
100
AcDbBlockBegin
  2
*Paper_Space
 70
0
 10
0.0
 20
0.0
 30
0.0
  3
*Paper_Space
  1

  0
ENDBLK
  5
1D
100
AcDbEntity
  8
0
100
AcDbBlockEnd
  0
BLOCK
  5
214
100
AcDbEntity
  8
0
100
AcDbBlockBegin
  2
_FILLED
 70
64
 10
0.0
 20
0.0
  3
_FILLED
  1

  0
SOLID
  5
215
100
AcDbEntity
  8
0
  6
BYBLOCK
 62
0
100
AcDbTrace
 10
0.0
 20
0.0
 11
-1.0
 21
0.25
 12
-1.0
 22
-0.25
 13
-1.0
 23
-0.25
  0
ENDBLK
  5
216
100
AcDbEntity
  8
0
  6
BYBLOCK
 62
0
100
AcDbBlockEnd
  0
ENDSEC
  0
SECTION
  2
ENTITIES
  0
LINE
  5
217
100
AcDbEntity
  8
0
100
AcDbLine
 62
7
  6
BYLAYER
 10
56.649180071
 20
358.8452954057
 11
56.3319905837
 21
365.8452954057
  0
LINE
  5
218
100
AcDbEntity
  8
0
100
AcDbLine
 62
7
  6
BYLAYER
 10
59.6815414361
 20
358.8452954057
 11
59.5833163825
 21
365.8452954057
  0
LINE
  5
219
100
AcDbEntity
  8
0
100
AcDbLine
 62
7
  6
BYLAYER
 10
66.3101105323
 20
381.8452954057
 11
66.2675984373
 21
386.8452954057
  0
LINE
  5
21A
100
AcDbEntity
  8
0
100
AcDbLine
 62
7
  6
BYLAYER
 10
59.5319905843
 20
358.8452954057
 11
59.5319905843
 21
358.5452954057
  0
LINE
  5
21B
100
AcDbEntity
  8
0
100
AcDbLine
 62
7
  6
BYLAYER
 10
61.2969905843
 20
381.8452954057
 11
61.2969905843
 21
386.8452954057
  0
LINE
  5
21C
100
AcDbEntity
  8
0
100
AcDbLine
 62
7
  6
BYLAYER
 10
61.5340160363
 20
358.5452954057
 11
61.5340160363
 21
358.8452954057
  0
LINE
  5
21D
100
AcDbEntity
  8
0
100
AcDbLine
 62
7
  6
BYLAYER
 10
61.7946886603
 20
381.8452954057
 11
61.7946886603
 21
381.3452954057
  0
LINE
  5
21E
100
AcDbEntity
  8
0
100
AcDbLine
 62
7
  6
BYLAYER
 10
66.3394411273
 20
381.3452954057
 11
66.3394411273
 21
381.8452954057
  0
LINE
  5
21F
100
AcDbEntity
  8
0
100
AcDbLine
 62
7
  6
BYLAYER
 10
67.0291141043
 20
386.9452954057
 11
67.0291141043
 21
386.8452954057
  0
LINE
  5
220
100
AcDbEntity
  8
0
100
AcDbLine
 62
7
  6
BYLAYER
 10
66.3158733092
 20
365.8452954057
 11
66.4053678994
 21
381.3452954057
  0
LINE
  5
221
100
AcDbEntity
  8
0
100
AcDbLine
 62
7
  6
BYLAYER
 10
60.7534167331
 20
365.8452954057
 11
61.2946886595
 21
381.3452954057
  0
LINE
  5
222
100
AcDbEntity
  8
0
100
AcDbLine
 62
7
  6
BYLAYER
 10
78.7323894233
 20
386.9452954057
 11
78.7323894233
 21
386.8452954057
  0
LINE
  5
223
100
AcDbEntity
  8
0
100
AcDbLine
 62
7
  6
BYLAYER
 10
78.8766485493
 20
386.9452954057
 11
78.8766485493
 21
386.8452954057
  0
LINE
  5
224
100
AcDbEntity
  8
0
100
AcDbLine
 62
7
  6
BYLAYER
 10
78.9420159643
 20
386.9452954057
 11
78.9420159643
 21
386.8452954057
  0
LINE
  5
225
100
AcDbEntity
  8
0
100
AcDbLine
 62
7
  6
BYLAYER
 10
79.0073833813
 20
386.9452954057
 11
79.0073833813
 21
386.8452954057
  0
LINE
  5
226
100
AcDbEntity
  8
0
100
AcDbLine
 62
7
  6
BYLAYER
 10
89.1136333803
 20
386.9452954057
 11
89.1136333803
 21
386.8452954057
  0
LINE
  5
227
100
AcDbEntity
  8
0
100
AcDbLine
 62
7
  6
BYLAYER
 10
93.2319905843
 20
358.5452954057
 11
93.2319905843
 21
358.2452954057
  0
LINE
  5
228
100
AcDbEntity
  8
0
100
AcDbLine
 62
7
  6
BYLAYER
 10
96.2319905843
 20
358.2452954057
 11
96.2319905843
 21
358.5452954057
  0
LINE
  5
229
100
AcDbEntity
  8
0
100
AcDbLine
 62
7
  6
BYLAYER
 10
97.4480083803
 20
386.9452954057
 11
97.4480083803
 21
386.8452954057
  0
LINE
  5
22A
100
AcDbEntity
  8
0
100
AcDbLine
 62
7
  6
BYLAYER
 10
97.5319905843
 20
358.1452954057
 11
97.5319905843
 21
358.2452954057
  0
LINE
  5
22B
100
AcDbEntity
  8
0
100
AcDbLine
 62
7
  6
BYLAYER
 10
98.2538655843
 20
358.1452954057
 11
98.2538655843
 21
358.2452954057
  0
LINE
  5
22C
100
AcDbEntity
  8
0
100
AcDbLine
 62
7
  6
BYLAYER
 10
98.6136312093
 20
358.2452954057
 11
98.6136312093
 21
358.1452954057
  0
LINE
  5
22D
100
AcDbEntity
  8
0
100
AcDbLine
 62
7
  6
BYLAYER
 10
99.4608968333
 20
358.1452954057
 11
99.4608968333
 21
358.2452954057
  0
LINE
  5
22E
100
AcDbEntity
  8
0
100
AcDbLine
 62
7
  6
BYLAYER
 10
99.6382427563
 20
386.9452954057
 11
99.6382427563
 21
386.8452954057
  0
LINE
  5
22F
100
AcDbEntity
  8
0
100
AcDbLine
 62
7
  6
BYLAYER
 10
100.306990584
 20
358.1452954057
 11
100.306990584
 21
358.2452954057
  0
LINE
  5
230
100
AcDbEntity
  8
0
100
AcDbLine
 62
7
  6
BYLAYER
 10
101.142537459
 20
358.2452954057
 11
101.142537459
 21
358.1452954057
  0
LINE
  5
231
100
AcDbEntity
  8
0
100
AcDbLine
 62
7
  6
BYLAYER
 10
101.9944905843
 20
358.1452954057
 11
101.9944905843
 21
358.2452954057
  0
LINE
  5
232
100
AcDbEntity
  8
0
100
AcDbLine
 62
7
  6
BYLAYER
 10
102.3554280843
 20
358.2452954057
 11
102.3554280843
 21
358.1452954057
  0
LINE
  5
233
100
AcDbEntity
  8
0
100
AcDbLine
 62
7
  6
BYLAYER
 10
102.5749615053
 20
386.9452954057
 11
102.5749615053
 21
386.8452954057
  0
LINE
  5
234
100
AcDbEntity
  8
0
100
AcDbLine
 62
7
  6
BYLAYER
 10
103.0819905843
 20
358.1452954057
 11
103.0819905843
 21
358.2452954057
  0
LINE
  5
235
100
AcDbEntity
  8
0
100
AcDbLine
 62
7
  6
BYLAYER
 10
104.0569905843
 20
358.1452954057
 11
104.0569905843
 21
358.2452954057
  0
LINE
  5
236
100
AcDbEntity
  8
0
100
AcDbLine
 62
7
  6
BYLAYER
 10
104.2444905843
 20
358.1452954057
 11
104.2444905843
 21
358.2452954057
  0
LINE
  5
237
100
AcDbEntity
  8
0
100
AcDbLine
 62
7
  6
BYLAYER
 10
106.1206624583
 20
358.1452954057
 11
106.1206624583
 21
358.2452954057
  0
LINE
  5
238
100
AcDbEntity
  8
0
100
AcDbLine
 62
7
  6
BYLAYER
 10
107.9651937096
 20
358.1452954057
 11
107.9651937096
 21
358.2452954057
  0
LINE
  5
239
100
AcDbEntity
  8
0
100
AcDbLine
 62
7
  6
BYLAYER
 10
108.1585530843
 20
358.1452954057
 11
108.1585530843
 21
358.2452954057
  0
LINE
  5
23A
100
AcDbEntity
  8
0
100
AcDbLine
 62
7
  6
BYLAYER
 10
108.7819905833
 20
358.1452954057
 11
108.7819905833
 21
358.2452954057
  0
LINE
  5
23B
100
AcDbEntity
  8
0
100
AcDbLine
 62
7
  6
BYLAYER
 10
109.4573833803
 20
386.9452954057
 11
109.4573833803
 21
386.8452954057
  0
LINE
  5
23C
100
AcDbEntity
  8
0
100
AcDbLine
 62
7
  6
BYLAYER
 10
110.5562093343
 20
358.1452954057
 11
110.5562093343
 21
358.2452954057
  0
LINE
  5
23D
100
AcDbEntity
  8
0
100
AcDbLine
 62
7
  6
BYLAYER
 10
111.9718343353
 20
358.2452954057
 11
111.9718343353
 21
358.1452954057
  0
LINE
  5
23E
100
AcDbEntity
  8
0
100
AcDbLine
 62
7
  6
BYLAYER
 10
112.4651937093
 20
358.1452954057
 11
112.4651937093
 21
358.2452954057
  0
LINE
  5
23F
100
AcDbEntity
  8
0
100
AcDbLine
 62
7
  6
BYLAYER
 10
112.9819905843
 20
358.1452954057
 11
112.9819905843
 21
358.2452954057
  0
LINE
  5
240
100
AcDbEntity
  8
0
100
AcDbLine
 62
7
  6
BYLAYER
 10
113.0670159653
 20
386.9452954057
 11
113.0670159653
 21
386.8452954057
  0
LINE
  5
241
100
AcDbEntity
  8
0
100
AcDbLine
 62
7
  6
BYLAYER
 10
113.9569905843
 20
358.1452954057
 11
113.9569905843
 21
358.2452954057
  0
LINE
  5
242
100
AcDbEntity
  8
0
100
AcDbLine
 62
7
  6
BYLAYER
 10
116.0194905843
 20
358.1452954057
 11
116.0194905843
 21
358.2452954057
  0
LINE
  5
243
100
AcDbEntity
  8
0
100
AcDbLine
 62
7
  6
BYLAYER
 10
116.7584222153
 20
386.9452954057
 11
116.7584222153
 21
386.8452954057
  0
LINE
  5
244
100
AcDbEntity
  8
0
100
AcDbLine
 62
7
  6
BYLAYER
 10
118.0093343353
 20
358.1452954057
 11
118.0093343353
 21
358.2452954057
  0
LINE
  5
245
100
AcDbEntity
  8
0
100
AcDbLine
 62
7
  6
BYLAYER
 10
118.9819905844
 20
358.1452954057
 11
118.9819905844
 21
358.2452954057
  0
LINE
  5
246
100
AcDbEntity
  8
0
100
AcDbLine
 62
7
  6
BYLAYER
 10
119.5011312093
 20
358.1452954057
 11
119.5011312093
 21
358.2452954057
  0
LINE
  5
247
100
AcDbEntity
  8
0
100
AcDbLine
 62
7
  6
BYLAYER
 10
120.0319905843
 20
358.1452954057
 11
120.0319905843
 21
358.2452954057
  0
LINE
  5
248
100
AcDbEntity
  8
0
100
AcDbLine
 62
7
  6
BYLAYER
 10
120.4170159653
 20
386.9452954057
 11
120.4170159653
 21
386.8452954057
  0
LINE
  5
249
100
AcDbEntity
  8
0
100
AcDbLine
 62
7
  6
BYLAYER
 10
120.8766485493
 20
386.9452954057
 11
120.8766485493
 21
386.8452954057
  0
LINE
  5
24A
100
AcDbEntity
  8
0
100
AcDbLine
 62
7
  6
BYLAYER
 10
121.1569905853
 20
358.1452954057
 11
121.1569905853
 21
358.2452954057
  0
LINE
  5
24B
100
AcDbEntity
  8
0
100
AcDbLine
 62
7
  6
BYLAYER
 10
121.6878499603
 20
358.1452954057
 11
121.6878499603
 21
358.2452954057
  0
LINE
  5
24C
100
AcDbEntity
  8
0
100
AcDbLine
 62
7
  6
BYLAYER
 10
122.2069905833
 20
358.1452954057
 11
122.2069905833
 21
358.2452954057
  0
LINE
  5
24D
100
AcDbEntity
  8
0
100
AcDbLine
 62
7
  6
BYLAYER
 10
123.0601155853
 20
358.1452954057
 11
123.0601155853
 21
358.2452954057
  0
LINE
  5
24E
100
AcDbEntity
  8
0
100
AcDbLine
 62
7
  6
BYLAYER
 10
123.1069905853
 20
358.1452954057
 11
123.1069905853
 21
358.2452954057
  0
LINE
  5
24F
100
AcDbEntity
  8
0
100
AcDbLine
 62
7
  6
BYLAYER
 10
124.7933187093
 20
358.1452954057
 11
124.7933187093
 21
358.2452954057
  0
LINE
  5
250
100
AcDbEntity
  8
0
100
AcDbLine
 62
7
  6
BYLAYER
 10
126.5722249593
 20
358.1452954057
 11
126.5722249593
 21
358.2452954057
  0
LINE
  5
251
100
AcDbEntity
  8
0
100
AcDbLine
 62
7
  6
BYLAYER
 10
126.7819905843
 20
358.1452954057
 11
126.7819905843
 21
358.2452954057
  0
LINE
  5
252
100
AcDbEntity
  8
0
100
AcDbLine
 62
7
  6
BYLAYER
 10
128.2319905843
 20
358.5452954057
 11
128.2319905843
 21
358.2452954057
  0
LINE
  5
253
100
AcDbEntity
  8
0
100
AcDbLine
 62
7
  6
BYLAYER
 10
131.2319905843
 20
358.2452954057
 11
131.2319905843
 21
358.5452954057
  0
LINE
  5
254
100
AcDbEntity
  8
0
100
AcDbLine
 62
7
  6
BYLAYER
 10
138.1819905843
 20
386.9452954057
 11
138.1819905843
 21
386.8452954057
  0
LINE
  5
255
100
AcDbEntity
  8
0
100
AcDbLine
 62
7
  6
BYLAYER
 10
140.1819905843
 20
386.8452954057
 11
140.1819905843
 21
386.9452954057
  0
LINE
  5
256
100
AcDbEntity
  8
0
100
AcDbLine
 62
7
  6
BYLAYER
 10
146.1819905843
 20
393.8452954057
 11
146.1819905843
 21
386.9452954057
  0
LINE
  5
257
100
AcDbEntity
  8
0
100
AcDbLine
 62
7
  6
BYLAYER
 10
150.1819905843
 20
393.8452954057
 11
150.1819905843
 21
386.9452954057
  0
LINE
  5
258
100
AcDbEntity
  8
0
100
AcDbLine
 62
7
  6
BYLAYER
 10
187.6819905843
 20
386.9452954057
 11
187.6819905843
 21
386.8452954057
  0
LINE
  5
259
100
AcDbEntity
  8
0
100
AcDbLine
 62
7
  6
BYLAYER
 10
188.1819905843
 20
386.9452954057
 11
188.1819905843
 21
386.8452954057
  0
LINE
  5
25A
100
AcDbEntity
  8
0
100
AcDbLine
 62
7
  6
BYLAYER
 10
235.1819905843
 20
358.5452954057
 11
235.1819905843
 21
358.2452954057
  0
LINE
  5
25B
100
AcDbEntity
  8
0
100
AcDbLine
 62
7
  6
BYLAYER
 10
239.1819905843
 20
358.2452954057
 11
239.1819905843
 21
358.5452954057
  0
LINE
  5
25C
100
AcDbEntity
  8
0
100
AcDbLine
 62
7
  6
BYLAYER
 10
248.6670244617
 20
358.2452954057
 11
248.6670244617
 21
358.1452954057
  0
LINE
  5
25D
100
AcDbEntity
  8
0
100
AcDbLine
 62
7
  6
BYLAYER
 10
248.7797466082
 20
358.1452954057
 11
248.7797466082
 21
358.2452954057
  0
LINE
  5
25E
100
AcDbEntity
  8
0
100
AcDbLine
 62
7
  6
BYLAYER
 10
252.638488389
 20
358.1452954057
 11
252.638488389
 21
358.2452954057
  0
LINE
  5
25F
100
AcDbEntity
  8
0
100
AcDbLine
 62
7
  6
BYLAYER
 10
252.8889690475
 20
358.1452954057
 11
252.8889690475
 21
358.2452954057
  0
LINE
  5
260
100
AcDbEntity
  8
0
100
AcDbLine
 62
7
  6
BYLAYER
 10
253.1560380501
 20
358.2452954057
 11
253.1560380501
 21
358.1452954057
  0
LINE
  5
261
100
AcDbEntity
  8
0
100
AcDbLine
 62
7
  6
BYLAYER
 10
283.584234561
 20
358.1452954057
 11
280.4347175939
 21
358.1452954057
  0
LINE
  5
262
100
AcDbEntity
  8
0
100
AcDbLine
 62
7
  6
BYLAYER
 10
279.8549693251
 20
358.1452954057
 11
275.9667323032
 21
358.1452954057
  0
LINE
  5
263
100
AcDbEntity
  8
0
100
AcDbLine
 62
7
  6
BYLAYER
 10
275.6166568298
 20
358.1452954057
 11
271.2910911491
 21
358.1452954057
  0
LINE
  5
264
100
AcDbEntity
  8
0
100
AcDbLine
 62
7
  6
BYLAYER
 10
271.1309533719
 20
358.1452954057
 11
257.0572162291
 21
358.1452954057
  0
LINE
  5
265
100
AcDbEntity
  8
0
100
AcDbLine
 62
7
  6
BYLAYER
 10
256.5169923794
 20
358.1452954057
 11
253.1560082377
 21
358.1452954057
  0
LINE
  5
266
100
AcDbEntity
  8
0
100
AcDbLine
 62
7
  6
BYLAYER
 10
252.8893948855
 20
358.1452954057
 11
248.6668840292
 21
358.1452954057
  0
LINE
  5
267
100
AcDbEntity
  8
0
100
AcDbLine
 62
7
  6
BYLAYER
 10
126.7819905843
 20
358.1452954057
 11
123.0601155853
 21
358.1452954057
  0
LINE
  5
268
100
AcDbEntity
  8
0
100
AcDbLine
 62
7
  6
BYLAYER
 10
122.2069905833
 20
358.1452954057
 11
121.1569905853
 21
358.1452954057
  0
LINE
  5
269
100
AcDbEntity
  8
0
100
AcDbLine
 62
7
  6
BYLAYER
 10
120.0319905843
 20
358.1452954057
 11
118.9819905844
 21
358.1452954057
  0
LINE
  5
26A
100
AcDbEntity
  8
0
100
AcDbLine
 62
7
  6
BYLAYER
 10
118.0093343353
 20
358.1452954057
 11
113.9569905843
 21
358.1452954057
  0
LINE
  5
26B
100
AcDbEntity
  8
0
100
AcDbLine
 62
7
  6
BYLAYER
 10
112.9819905843
 20
358.1452954057
 11
108.7819905833
 21
358.1452954057
  0
LINE
  5
26C
100
AcDbEntity
  8
0
100
AcDbLine
 62
7
  6
BYLAYER
 10
108.1585530843
 20
358.1452954057
 11
104.0569905843
 21
358.1452954057
  0
LINE
  5
26D
100
AcDbEntity
  8
0
100
AcDbLine
 62
7
  6
BYLAYER
 10
103.0819905842
 20
358.1452954057
 11
97.5319905843
 21
358.1452954057
  0
LINE
  5
26E
100
AcDbEntity
  8
0
100
AcDbLine
 62
7
  6
BYLAYER
 10
297.1819905843
 20
358.2452954057
 11
235.1819905843
 21
358.2452954057
  0
LINE
  5
26F
100
AcDbEntity
  8
0
100
AcDbLine
 62
7
  6
BYLAYER
 10
131.2319905843
 20
358.2452954057
 11
93.2319905843
 21
358.2452954057
  0
LINE
  5
270
100
AcDbEntity
  8
0
100
AcDbLine
 62
7
  6
BYLAYER
 10
59.5319905843
 20
358.5452954057
 11
472.8319905843
 21
358.5452954057
  0
LINE
  5
271
100
AcDbEntity
  8
0
100
AcDbLine
 62
7
  6
BYLAYER
 10
56.6491800713
 20
358.8452954057
 11
475.7148010973
 21
358.8452954057
  0
LINE
  5
272
100
AcDbEntity
  8
0
100
AcDbLine
 62
7
  6
BYLAYER
 10
256.5169923794
 20
358.1452954057
 11
256.5169923794
 21
358.2452954057
  0
LINE
  5
273
100
AcDbEntity
  8
0
100
AcDbLine
 62
7
  6
BYLAYER
 10
256.5738939136
 20
358.1452954057
 11
256.5738939136
 21
358.2452954057
  0
LINE
  5
274
100
AcDbEntity
  8
0
100
AcDbLine
 62
7
  6
BYLAYER
 10
257.0572162291
 20
358.1452954057
 11
257.0572162291
 21
358.2452954057
  0
LINE
  5
275
100
AcDbEntity
  8
0
100
AcDbLine
 62
7
  6
BYLAYER
 10
258.2276160536
 20
358.1452954057
 11
258.2276160536
 21
358.2452954057
  0
LINE
  5
276
100
AcDbEntity
  8
0
100
AcDbLine
 62
7
  6
BYLAYER
 10
260.785970373
 20
358.1452954057
 11
260.785970373
 21
358.2452954057
  0
LINE
  5
277
100
AcDbEntity
  8
0
100
AcDbLine
 62
7
  6
BYLAYER
 10
261.3386307848
 20
358.1452954057
 11
261.3386307848
 21
358.2452954057
  0
LINE
  5
278
100
AcDbEntity
  8
0
100
AcDbLine
 62
7
  6
BYLAYER
 10
262.5088602468
 20
358.1452954057
 11
262.5088602468
 21
358.2452954057
  0
LINE
  5
279
100
AcDbEntity
  8
0
100
AcDbLine
 62
7
  6
BYLAYER
 10
263.7221917674
 20
358.1452954057
 11
263.7221917674
 21
358.2452954057
  0
LINE
  5
27A
100
AcDbEntity
  8
0
100
AcDbLine
 62
7
  6
BYLAYER
 10
265.0794807634
 20
358.1452954057
 11
265.0794807634
 21
358.2452954057
  0
LINE
  5
27B
100
AcDbEntity
  8
0
100
AcDbLine
 62
7
  6
BYLAYER
 10
265.539580768
 20
358.2452954057
 11
265.5395807679
 21
358.1452954057
  0
LINE
  5
27C
100
AcDbEntity
  8
0
100
AcDbLine
 62
7
  6
BYLAYER
 10
267.5080178093
 20
358.1452954057
 11
267.5080178093
 21
358.2452954057
  0
LINE
  5
27D
100
AcDbEntity
  8
0
100
AcDbLine
 62
7
  6
BYLAYER
 10
56.3319905843
 20
365.8452954057
 11
476.0319905853
 21
365.8452954057
  0
LINE
  5
27E
100
AcDbEntity
  8
0
100
AcDbLine
 62
7
  6
BYLAYER
 10
269.4293815971
 20
358.1452954057
 11
269.4293815971
 21
358.2452954057
  0
LINE
  5
27F
100
AcDbEntity
  8
0
100
AcDbLine
 62
7
  6
BYLAYER
 10
269.8013457136
 20
358.2452954057
 11
269.8013457136
 21
358.1452954057
  0
LINE
  5
280
100
AcDbEntity
  8
0
100
AcDbLine
 62
7
  6
BYLAYER
 10
270.268764413
 20
358.1452954057
 11
270.268764413
 21
358.2452954057
  0
LINE
  5
281
100
AcDbEntity
  8
0
100
AcDbLine
 62
7
  6
BYLAYER
 10
271.1061028605
 20
358.1452954057
 11
271.1061028605
 21
358.2452954057
  0
LINE
  5
282
100
AcDbEntity
  8
0
100
AcDbLine
 62
7
  6
BYLAYER
 10
271.1338986501
 20
358.1452954057
 11
271.1338986501
 21
358.2452954057
  0
LINE
  5
283
100
AcDbEntity
  8
0
100
AcDbLine
 62
7
  6
BYLAYER
 10
271.2907859001
 20
358.2452954057
 11
271.2907859001
 21
358.1452954057
  0
LINE
  5
284
100
AcDbEntity
  8
0
100
AcDbLine
 62
7
  6
BYLAYER
 10
271.5286719594
 20
358.2452954057
 11
271.5286719594
 21
358.1452954057
  0
LINE
  5
285
100
AcDbEntity
  8
0
100
AcDbLine
 62
7
  6
BYLAYER
 10
274.3055364442
 20
358.1452954057
 11
274.3055364442
 21
358.2452954057
  0
LINE
  5
286
100
AcDbEntity
  8
0
100
AcDbLine
 62
7
  6
BYLAYER
 10
275.0219905843
 20
393.6452954014
 11
275.0219905843
 21
386.8452954057
  0
LINE
  5
287
100
AcDbEntity
  8
0
100
AcDbLine
 62
7
  6
BYLAYER
 10
275.475084449
 20
358.1452954057
 11
275.475084449
 21
358.2452954057
  0
LINE
  5
288
100
AcDbEntity
  8
0
100
AcDbLine
 62
7
  6
BYLAYER
 10
275.6166568298
 20
358.1452954057
 11
275.6166568298
 21
358.2452954057
  0
LINE
  5
289
100
AcDbEntity
  8
0
100
AcDbLine
 62
7
  6
BYLAYER
 10
275.9665169468
 20
358.2452954057
 11
275.9665169468
 21
358.1452954057
  0
LINE
  5
28A
100
AcDbEntity
  8
0
100
AcDbLine
 62
7
  6
BYLAYER
 10
277.9330944461
 20
358.1452954057
 11
277.9330944461
 21
358.2452954057
  0
LINE
  5
28B
100
AcDbEntity
  8
0
100
AcDbLine
 62
7
  6
BYLAYER
 10
279.854969325
 20
358.1452954057
 11
279.854969325
 21
358.2452954057
  0
LINE
  5
28C
100
AcDbEntity
  8
0
100
AcDbLine
 62
7
  6
BYLAYER
 10
280.4347175938
 20
358.1452954057
 11
280.4347175938
 21
358.2452954057
  0
LINE
  5
28D
100
AcDbEntity
  8
0
100
AcDbLine
 62
7
  6
BYLAYER
 10
281.6056285106
 20
358.1452954057
 11
281.6056285106
 21
358.2452954057
  0
LINE
  5
28E
100
AcDbEntity
  8
0
100
AcDbLine
 62
7
  6
BYLAYER
 10
471.0692925073
 20
381.3452954057
 11
61.2946886603
 21
381.3452954057
  0
LINE
  5
28F
100
AcDbEntity
  8
0
100
AcDbLine
 62
7
  6
BYLAYER
 10
61.2969905843
 20
381.8452954057
 11
471.0669905843
 21
381.8452954057
  0
LINE
  5
290
100
AcDbEntity
  8
0
100
AcDbLine
 62
7
  6
BYLAYER
 10
61.2969905843
 20
386.8452954057
 11
471.0669905843
 21
386.8452954057
  0
LINE
  5
291
100
AcDbEntity
  8
0
100
AcDbLine
 62
7
  6
BYLAYER
 10
67.0291141043
 20
386.9452954057
 11
120.8766485493
 21
386.9452954057
  0
LINE
  5
292
100
AcDbEntity
  8
0
100
AcDbLine
 62
7
  6
BYLAYER
 10
138.1819905843
 20
386.9452954057
 11
188.1819905843
 21
386.9452954057
  0
LINE
  5
293
100
AcDbEntity
  8
0
100
AcDbLine
 62
7
  6
BYLAYER
 10
294.1820007557
 20
386.9452954057
 11
394.1819905843
 21
386.9452954057
  0
LINE
  5
294
100
AcDbEntity
  8
0
100
AcDbLine
 62
7
  6
BYLAYER
 10
409.1820007556
 20
386.9452954057
 11
440.1819905843
 21
386.9452954057
  0
LINE
  5
295
100
AcDbEntity
  8
0
100
AcDbLine
 62
7
  6
BYLAYER
 10
355.9642171461
 20
387.0452954057
 11
357.6507405836
 21
387.0452954057
  0
LINE
  5
296
100
AcDbEntity
  8
0
100
AcDbLine
 62
7
  6
BYLAYER
 10
357.9632405836
 20
387.0452954057
 11
359.7757405836
 21
387.0452954057
  0
LINE
  5
297
100
AcDbEntity
  8
0
100
AcDbLine
 62
7
  6
BYLAYER
 10
360.1507405849
 20
387.0452954057
 11
361.7132405849
 21
387.0452954057
  0
LINE
  5
298
100
AcDbEntity
  8
0
100
AcDbLine
 62
7
  6
BYLAYER
 10
361.9319905847
 20
387.0452954057
 11
363.7132405847
 21
387.0452954057
  0
LINE
  5
299
100
AcDbEntity
  8
0
100
AcDbLine
 62
7
  6
BYLAYER
 10
363.9934901652
 20
387.0452954057
 11
364.0466510136
 21
387.0452954057
  0
LINE
  5
29A
100
AcDbEntity
  8
0
100
AcDbLine
 62
7
  6
BYLAYER
 10
364.1092256629
 20
387.0452954057
 11
365.9944905834
 21
387.0452954057
  0
LINE
  5
29B
100
AcDbEntity
  8
0
100
AcDbLine
 62
7
  6
BYLAYER
 10
366.3069905843
 20
387.0452954057
 11
367.1436112391
 21
387.0452954057
  0
LINE
  5
29C
100
AcDbEntity
  8
0
100
AcDbLine
 62
7
  6
BYLAYER
 10
368.9933736565
 20
387.0452954057
 11
369.0145101163
 21
387.0452954057
  0
LINE
  5
29D
100
AcDbEntity
  8
0
100
AcDbLine
 62
7
  6
BYLAYER
 10
367.3069905843
 20
387.0452954057
 11
368.9632405843
 21
387.0452954057
  0
LINE
  5
29E
100
AcDbEntity
  8
0
100
AcDbLine
 62
7
  6
BYLAYER
 10
369.1917562103
 20
387.0452954057
 11
370.8226155853
 21
387.0452954057
  0
LINE
  5
29F
100
AcDbEntity
  8
0
100
AcDbLine
 62
7
  6
BYLAYER
 10
370.8472753153
 20
387.0452954057
 11
370.9007405853
 21
387.0452954057
  0
LINE
  5
2A0
100
AcDbEntity
  8
0
100
AcDbLine
 62
7
  6
BYLAYER
 10
371.2757405844
 20
387.0452954057
 11
371.7132405842
 21
387.0452954057
  0
LINE
  5
2A1
100
AcDbEntity
  8
0
100
AcDbLine
 62
7
  6
BYLAYER
 10
372.1194905843
 20
387.0452954057
 11
373.8694905843
 21
387.0452954057
  0
LINE
  5
2A2
100
AcDbEntity
  8
0
100
AcDbLine
 62
7
  6
BYLAYER
 10
374.2444905843
 20
387.0452954057
 11
375.7952718343
 21
387.0452954057
  0
LINE
  5
2A3
100
AcDbEntity
  8
0
100
AcDbLine
 62
7
  6
BYLAYER
 10
376.1507405853
 20
387.0452954057
 11
376.5882405853
 21
387.0452954057
  0
LINE
  5
2A4
100
AcDbEntity
  8
0
100
AcDbLine
 62
7
  6
BYLAYER
 10
377.0569905843
 20
387.0452954057
 11
378.8382405843
 21
387.0452954057
  0
LINE
  5
2A5
100
AcDbEntity
  8
0
100
AcDbLine
 62
7
  6
BYLAYER
 10
379.8025960523
 20
387.0452954057
 11
381.0257405844
 21
387.0452954057
  0
LINE
  5
2A6
100
AcDbEntity
  8
0
100
AcDbLine
 62
7
  6
BYLAYER
 10
381.4105062103
 20
387.0452954057
 11
383.0413655853
 21
387.0452954057
  0
LINE
  5
2A7
100
AcDbEntity
  8
0
100
AcDbLine
 62
7
  6
BYLAYER
 10
383.0660253153
 20
387.0452954057
 11
383.1194905853
 21
387.0452954057
  0
LINE
  5
2A8
100
AcDbEntity
  8
0
100
AcDbLine
 62
7
  6
BYLAYER
 10
383.4944905844
 20
387.0452954057
 11
383.9319905842
 21
387.0452954057
  0
LINE
  5
2A9
100
AcDbEntity
  8
0
100
AcDbLine
 62
7
  6
BYLAYER
 10
384.4007405843
 20
387.0452954057
 11
385.9944905843
 21
387.0452954057
  0
LINE
  5
2AA
100
AcDbEntity
  8
0
100
AcDbLine
 62
7
  6
BYLAYER
 10
386.4319905843
 20
387.0452954057
 11
388.2132405843
 21
387.0452954057
  0
LINE
  5
2AB
100
AcDbEntity
  8
0
100
AcDbLine
 62
7
  6
BYLAYER
 10
388.4632405843
 20
387.0452954057
 11
390.2444905843
 21
387.0452954057
  0
LINE
  5
2AC
100
AcDbEntity
  8
0
100
AcDbLine
 62
7
  6
BYLAYER
 10
390.6194905844
 20
387.0452954057
 11
392.9319905842
 21
387.0452954057
  0
LINE
  5
2AD
100
AcDbEntity
  8
0
100
AcDbLine
 62
7
  6
BYLAYER
 10
415.7122640223
 20
387.0452954057
 11
417.4007405843
 21
387.0452954057
  0
LINE
  5
2AE
100
AcDbEntity
  8
0
100
AcDbLine
 62
7
  6
BYLAYER
 10
417.7757405844
 20
387.0452954057
 11
418.2132405842
 21
387.0452954057
  0
LINE
  5
2AF
100
AcDbEntity
  8
0
100
AcDbLine
 62
7
  6
BYLAYER
 10
418.6819905843
 20
387.0452954057
 11
420.2757405843
 21
387.0452954057
  0
LINE
  5
2B0
100
AcDbEntity
  8
0
100
AcDbLine
 62
7
  6
BYLAYER
 10
420.7132405843
 20
387.0452954057
 11
422.4944905843
 21
387.0452954057
  0
LINE
  5
2B1
100
AcDbEntity
  8
0
100
AcDbLine
 62
7
  6
BYLAYER
 10
422.7444905843
 20
387.0452954057
 11
424.5257405843
 21
387.0452954057
  0
LINE
  5
2B2
100
AcDbEntity
  8
0
100
AcDbLine
 62
7
  6
BYLAYER
 10
424.9007405844
 20
387.0452954057
 11
427.2132405842
 21
387.0452954057
  0
LINE
  5
2B3
100
AcDbEntity
  8
0
100
AcDbLine
 62
7
  6
BYLAYER
 10
428.4993733963
 20
387.0452954057
 11
430.6507405833
 21
387.0452954057
  0
LINE
  5
2B4
100
AcDbEntity
  8
0
100
AcDbLine
 62
7
  6
BYLAYER
 10
430.9632405853
 20
387.0452954057
 11
433.0257405853
 21
387.0452954057
  0
LINE
  5
2B5
100
AcDbEntity
  8
0
100
AcDbLine
 62
7
  6
BYLAYER
 10
433.3382405843
 20
387.0452954057
 11
434.1748612391
 21
387.0452954057
  0
LINE
  5
2B6
100
AcDbEntity
  8
0
100
AcDbLine
 62
7
  6
BYLAYER
 10
434.4368733963
 20
387.0452954057
 11
436.5882405833
 21
387.0452954057
  0
LINE
  5
2B7
100
AcDbEntity
  8
0
100
AcDbLine
 62
7
  6
BYLAYER
 10
436.8694905833
 20
387.0452954057
 11
439.0882405833
 21
387.0452954057
  0
LINE
  5
2B8
100
AcDbEntity
  8
0
100
AcDbLine
 62
7
  6
BYLAYER
 10
283.0219905843
 20
393.6452954014
 11
283.0219905843
 21
386.8452954057
  0
LINE
  5
2B9
100
AcDbEntity
  8
0
100
AcDbLine
 62
7
  6
BYLAYER
 10
283.5842345608
 20
358.1452954057
 11
283.5842345608
 21
358.2452954057
  0
LINE
  5
2BA
100
AcDbEntity
  8
0
100
AcDbLine
 62
7
  6
BYLAYER
 10
293.1819905843
 20
358.5452954057
 11
293.1819905843
 21
358.2452954057
  0
LINE
  5
2BB
100
AcDbEntity
  8
0
100
AcDbLine
 62
7
  6
BYLAYER
 10
294.1819905843
 20
386.9452954057
 11
294.1819905843
 21
386.8452954057
  0
LINE
  5
2BC
100
AcDbEntity
  8
0
100
AcDbLine
 62
7
  6
BYLAYER
 10
294.6819905843
 20
386.8452954057
 11
294.6819905843
 21
386.9452954057
  0
LINE
  5
2BD
100
AcDbEntity
  8
0
100
AcDbLine
 62
7
  6
BYLAYER
 10
275.0219905843
 20
393.6452954014
 11
283.0219905843
 21
393.6452954014
  0
LINE
  5
2BE
100
AcDbEntity
  8
0
100
AcDbLine
 62
7
  6
BYLAYER
 10
146.1819905843
 20
393.8452954057
 11
150.1819905843
 21
393.8452954057
  0
LINE
  5
2BF
100
AcDbEntity
  8
0
100
AcDbLine
 62
7
  6
BYLAYER
 10
382.1819905843
 20
393.8452954057
 11
386.1819905843
 21
393.8452954057
  0
LINE
  5
2C0
100
AcDbEntity
  8
0
100
AcDbLine
 62
7
  6
BYLAYER
 10
297.1819905843
 20
358.2452954057
 11
297.1819905843
 21
358.5452954057
  0
LINE
  5
2C1
100
AcDbEntity
  8
0
100
AcDbLine
 62
7
  6
BYLAYER
 10
354.1819905843
 20
386.9452954057
 11
354.1819905843
 21
386.8452954057
  0
LINE
  5
2C2
100
AcDbEntity
  8
0
100
AcDbLine
 62
7
  6
BYLAYER
 10
355.9642171461
 20
387.0452954057
 11
355.9642171461
 21
386.9452954057
  0
LINE
  5
2C3
100
AcDbEntity
  8
0
100
AcDbLine
 62
7
  6
BYLAYER
 10
355.9871663648
 20
387.0452954057
 11
355.9871663648
 21
386.9452954057
  0
LINE
  5
2C4
100
AcDbEntity
  8
0
100
AcDbLine
 62
7
  6
BYLAYER
 10
356.1819905843
 20
386.8452954057
 11
356.1819905843
 21
386.9452954057
  0
LINE
  5
2C5
100
AcDbEntity
  8
0
100
AcDbLine
 62
7
  6
BYLAYER
 10
356.7635335529
 20
387.0452954057
 11
356.7635335529
 21
386.9452954057
  0
LINE
  5
2C6
100
AcDbEntity
  8
0
100
AcDbLine
 62
7
  6
BYLAYER
 10
357.6507405836
 20
387.0452954057
 11
357.6507405836
 21
386.9452954057
  0
LINE
  5
2C7
100
AcDbEntity
  8
0
100
AcDbLine
 62
7
  6
BYLAYER
 10
357.9632405836
 20
387.0452954057
 11
357.9632405836
 21
386.9452954057
  0
LINE
  5
2C8
100
AcDbEntity
  8
0
100
AcDbLine
 62
7
  6
BYLAYER
 10
358.4432210523
 20
387.0452954057
 11
358.4432210523
 21
386.9452954057
  0
LINE
  5
2C9
100
AcDbEntity
  8
0
100
AcDbLine
 62
7
  6
BYLAYER
 10
358.8611898023
 20
386.9452954057
 11
358.8611898023
 21
387.0452954057
  0
LINE
  5
2CA
100
AcDbEntity
  8
0
100
AcDbLine
 62
7
  6
BYLAYER
 10
359.4734944898
 20
387.0452954057
 11
359.4734944898
 21
386.9452954057
  0
LINE
  5
2CB
100
AcDbEntity
  8
0
100
AcDbLine
 62
7
  6
BYLAYER
 10
359.7757405836
 20
386.9452954057
 11
359.7757405836
 21
387.0452954057
  0
LINE
  5
2CC
100
AcDbEntity
  8
0
100
AcDbLine
 62
7
  6
BYLAYER
 10
360.1507405849
 20
387.0452954057
 11
360.1507405849
 21
386.9452954057
  0
LINE
  5
2CD
100
AcDbEntity
  8
0
100
AcDbLine
 62
7
  6
BYLAYER
 10
360.1946858974
 20
387.0452954057
 11
360.1946858974
 21
386.9452954057
  0
LINE
  5
2CE
100
AcDbEntity
  8
0
100
AcDbLine
 62
7
  6
BYLAYER
 10
360.3987874599
 20
387.0452954057
 11
360.3987874599
 21
386.9452954057
  0
LINE
  5
2CF
100
AcDbEntity
  8
0
100
AcDbLine
 62
7
  6
BYLAYER
 10
360.6487874601
 20
386.9452954057
 11
360.6487874601
 21
387.0452954057
  0
LINE
  5
2D0
100
AcDbEntity
  8
0
100
AcDbLine
 62
7
  6
BYLAYER
 10
360.9295491778
 20
387.0452954057
 11
360.9295491778
 21
386.9452954057
  0
LINE
  5
2D1
100
AcDbEntity
  8
0
100
AcDbLine
 62
7
  6
BYLAYER
 10
361.2186116786
 20
387.0452954057
 11
361.2186116786
 21
386.9452954057
  0
LINE
  5
2D2
100
AcDbEntity
  8
0
100
AcDbLine
 62
7
  6
BYLAYER
 10
361.4686116787
 20
387.0452954057
 11
361.4686116787
 21
386.9452954057
  0
LINE
  5
2D3
100
AcDbEntity
  8
0
100
AcDbLine
 62
7
  6
BYLAYER
 10
361.6692952724
 20
387.0452954057
 11
361.6692952724
 21
386.9452954057
  0
LINE
  5
2D4
100
AcDbEntity
  8
0
100
AcDbLine
 62
7
  6
BYLAYER
 10
361.7132405849
 20
387.0452954057
 11
361.7132405849
 21
386.9452954057
  0
LINE
  5
2D5
100
AcDbEntity
  8
0
100
AcDbLine
 62
7
  6
BYLAYER
 10
361.9319905847
 20
387.0452954057
 11
361.9319905847
 21
386.9452954057
  0
LINE
  5
2D6
100
AcDbEntity
  8
0
100
AcDbLine
 62
7
  6
BYLAYER
 10
362.8250569909
 20
387.0452954057
 11
362.8250569909
 21
386.9452954057
  0
LINE
  5
2D7
100
AcDbEntity
  8
0
100
AcDbLine
 62
7
  6
BYLAYER
 10
363.7132405847
 20
387.0452954057
 11
363.7132405847
 21
386.9452954057
  0
LINE
  5
2D8
100
AcDbEntity
  8
0
100
AcDbLine
 62
7
  6
BYLAYER
 10
363.9944905834
 20
387.0452954057
 11
363.9944905834
 21
386.9452954057
  0
LINE
  5
2D9
100
AcDbEntity
  8
0
100
AcDbLine
 62
7
  6
BYLAYER
 10
364.1092366772
 20
386.9452954057
 11
364.1092366772
 21
387.0452954057
  0
LINE
  5
2DA
100
AcDbEntity
  8
0
100
AcDbLine
 62
7
  6
BYLAYER
 10
364.3982991773
 20
387.0452954057
 11
364.3982991773
 21
386.9452954057
  0
LINE
  5
2DB
100
AcDbEntity
  8
0
100
AcDbLine
 62
7
  6
BYLAYER
 10
364.9222249584
 20
386.9452954057
 11
364.9222249584
 21
387.0452954057
  0
LINE
  5
2DC
100
AcDbEntity
  8
0
100
AcDbLine
 62
7
  6
BYLAYER
 10
365.6995687084
 20
387.0452954057
 11
365.6995687084
 21
386.9452954057
  0
LINE
  5
2DD
100
AcDbEntity
  8
0
100
AcDbLine
 62
7
  6
BYLAYER
 10
365.9944905834
 20
386.9452954057
 11
365.9944905834
 21
387.0452954057
  0
LINE
  5
2DE
100
AcDbEntity
  8
0
100
AcDbLine
 62
7
  6
BYLAYER
 10
366.3069905843
 20
387.0452954057
 11
366.3069905843
 21
386.9452954057
  0
LINE
  5
2DF
100
AcDbEntity
  8
0
100
AcDbLine
 62
7
  6
BYLAYER
 10
366.4734944903
 20
387.0452954057
 11
366.4734944903
 21
386.9452954057
  0
LINE
  5
2E0
100
AcDbEntity
  8
0
100
AcDbLine
 62
7
  6
BYLAYER
 10
366.6673421462
 20
386.9452954057
 11
366.6673421462
 21
387.0452954057
  0
LINE
  5
2E1
100
AcDbEntity
  8
0
100
AcDbLine
 62
7
  6
BYLAYER
 10
367.1185140213
 20
387.0452954057
 11
367.1185140213
 21
386.9452954057
  0
LINE
  5
2E2
100
AcDbEntity
  8
0
100
AcDbLine
 62
7
  6
BYLAYER
 10
367.1507405843
 20
387.0452954057
 11
367.1507405843
 21
386.9452954057
  0
LINE
  5
2E3
100
AcDbEntity
  8
0
100
AcDbLine
 62
7
  6
BYLAYER
 10
367.3069905843
 20
387.0452954057
 11
367.3069905843
 21
386.9452954057
  0
LINE
  5
2E4
100
AcDbEntity
  8
0
100
AcDbLine
 62
7
  6
BYLAYER
 10
367.5037679283
 20
387.0452954057
 11
367.5037679283
 21
386.9452954057
  0
LINE
  5
2E5
100
AcDbEntity
  8
0
100
AcDbLine
 62
7
  6
BYLAYER
 10
367.7649983973
 20
386.9452954057
 11
367.7649983973
 21
387.0452954057
  0
LINE
  5
2E6
100
AcDbEntity
  8
0
100
AcDbLine
 62
7
  6
BYLAYER
 10
368.1268148028
 20
387.0452954057
 11
368.1268148028
 21
386.9452954057
  0
LINE
  5
2E7
100
AcDbEntity
  8
0
100
AcDbLine
 62
7
  6
BYLAYER
 10
368.5086507403
 20
387.0452954057
 11
368.5086507403
 21
386.9452954057
  0
LINE
  5
2E8
100
AcDbEntity
  8
0
100
AcDbLine
 62
7
  6
BYLAYER
 10
368.7435140223
 20
387.0452954057
 11
368.7435140223
 21
386.9452954057
  0
LINE
  5
2E9
100
AcDbEntity
  8
0
100
AcDbLine
 62
7
  6
BYLAYER
 10
368.9632405843
 20
387.0452954057
 11
368.9632405843
 21
386.9452954057
  0
LINE
  5
2EA
100
AcDbEntity
  8
0
100
AcDbLine
 62
7
  6
BYLAYER
 10
369.0145101163
 20
387.0452954057
 11
369.0145101163
 21
386.9452954057
  0
LINE
  5
2EB
100
AcDbEntity
  8
0
100
AcDbLine
 62
7
  6
BYLAYER
 10
369.1917562103
 20
387.0452954057
 11
369.1917562103
 21
386.9452954057
  0
LINE
  5
2EC
100
AcDbEntity
  8
0
100
AcDbLine
 62
7
  6
BYLAYER
 10
369.2723226163
 20
387.0452954057
 11
369.2723226163
 21
386.9452954057
  0
LINE
  5
2ED
100
AcDbEntity
  8
0
100
AcDbLine
 62
7
  6
BYLAYER
 10
370.0408773033
 20
387.0452954057
 11
370.0408773033
 21
386.9452954057
  0
LINE
  5
2EE
100
AcDbEntity
  8
0
100
AcDbLine
 62
7
  6
BYLAYER
 10
370.8226155853
 20
387.0452954057
 11
370.8226155853
 21
386.9452954057
  0
LINE
  5
2EF
100
AcDbEntity
  8
0
100
AcDbLine
 62
7
  6
BYLAYER
 10
370.9007405853
 20
387.0452954057
 11
370.9007405853
 21
386.9452954057
  0
LINE
  5
2F0
100
AcDbEntity
  8
0
100
AcDbLine
 62
7
  6
BYLAYER
 10
371.2757405843
 20
387.0452954057
 11
371.2757405843
 21
386.9452954057
  0
LINE
  5
2F1
100
AcDbEntity
  8
0
100
AcDbLine
 62
7
  6
BYLAYER
 10
371.4969319913
 20
387.0452954057
 11
371.4969319913
 21
386.9452954057
  0
LINE
  5
2F2
100
AcDbEntity
  8
0
100
AcDbLine
 62
7
  6
BYLAYER
 10
371.7132405841
 20
386.9452954057
 11
371.7132405841
 21
387.0452954057
  0
LINE
  5
2F3
100
AcDbEntity
  8
0
100
AcDbLine
 62
7
  6
BYLAYER
 10
372.1194905843
 20
387.0452954057
 11
372.1194905843
 21
386.9452954057
  0
LINE
  5
2F4
100
AcDbEntity
  8
0
100
AcDbLine
 62
7
  6
BYLAYER
 10
372.8675374593
 20
387.0452954057
 11
372.8675374593
 21
386.9452954057
  0
LINE
  5
2F5
100
AcDbEntity
  8
0
100
AcDbLine
 62
7
  6
BYLAYER
 10
373.4319905843
 20
387.0452954057
 11
373.4319905843
 21
386.9452954057
  0
LINE
  5
2F6
100
AcDbEntity
  8
0
100
AcDbLine
 62
7
  6
BYLAYER
 10
373.6541585523
 20
387.0452954057
 11
373.6541585523
 21
386.9452954057
  0
LINE
  5
2F7
100
AcDbEntity
  8
0
100
AcDbLine
 62
7
  6
BYLAYER
 10
373.8694905843
 20
386.9452954057
 11
373.8694905843
 21
387.0452954057
  0
LINE
  5
2F8
100
AcDbEntity
  8
0
100
AcDbLine
 62
7
  6
BYLAYER
 10
374.2444905843
 20
387.0452954057
 11
374.2444905843
 21
386.9452954057
  0
LINE
  5
2F9
100
AcDbEntity
  8
0
100
AcDbLine
 62
7
  6
BYLAYER
 10
374.3318929283
 20
387.0452954057
 11
374.3318929283
 21
386.9452954057
  0
LINE
  5
2FA
100
AcDbEntity
  8
0
100
AcDbLine
 62
7
  6
BYLAYER
 10
375.0731038653
 20
387.0452954057
 11
375.0731038653
 21
386.9452954057
  0
LINE
  5
2FB
100
AcDbEntity
  8
0
100
AcDbLine
 62
7
  6
BYLAYER
 10
375.7757405843
 20
387.0452954057
 11
375.7757405843
 21
386.9452954057
  0
LINE
  5
2FC
100
AcDbEntity
  8
0
100
AcDbLine
 62
7
  6
BYLAYER
 10
375.7952718343
 20
387.0452954057
 11
375.7952718343
 21
386.9452954057
  0
LINE
  5
2FD
100
AcDbEntity
  8
0
100
AcDbLine
 62
7
  6
BYLAYER
 10
376.1507405853
 20
387.0452954057
 11
376.1507405853
 21
386.9452954057
  0
LINE
  5
2FE
100
AcDbEntity
  8
0
100
AcDbLine
 62
7
  6
BYLAYER
 10
376.3670491783
 20
387.0452954057
 11
376.3670491783
 21
386.9452954057
  0
LINE
  5
2FF
100
AcDbEntity
  8
0
100
AcDbLine
 62
7
  6
BYLAYER
 10
376.5882405853
 20
387.0452954057
 11
376.5882405853
 21
386.9452954057
  0
LINE
  5
300
100
AcDbEntity
  8
0
100
AcDbLine
 62
7
  6
BYLAYER
 10
377.0569905843
 20
387.0452954057
 11
377.0569905843
 21
386.9452954057
  0
LINE
  5
301
100
AcDbEntity
  8
0
100
AcDbLine
 62
7
  6
BYLAYER
 10
377.2757405843
 20
387.0452954057
 11
377.2757405843
 21
386.9452954057
  0
LINE
  5
302
100
AcDbEntity
  8
0
100
AcDbLine
 62
7
  6
BYLAYER
 10
377.4944905843
 20
386.9452954057
 11
377.4944905843
 21
387.0452954057
  0
LINE
  5
303
100
AcDbEntity
  8
0
100
AcDbLine
 62
7
  6
BYLAYER
 10
378.0857991783
 20
387.0452954057
 11
378.0857991783
 21
386.9452954057
  0
LINE
  5
304
100
AcDbEntity
  8
0
100
AcDbLine
 62
7
  6
BYLAYER
 10
378.8382405843
 20
387.0452954057
 11
378.8382405843
 21
386.9452954057
  0
LINE
  5
305
100
AcDbEntity
  8
0
100
AcDbLine
 62
7
  6
BYLAYER
 10
379.8025960523
 20
387.0452954057
 11
379.8025960523
 21
386.9452954057
  0
LINE
  5
306
100
AcDbEntity
  8
0
100
AcDbLine
 62
7
  6
BYLAYER
 10
380.2112874593
 20
387.0452954057
 11
380.2112874593
 21
386.9452954057
  0
LINE
  5
307
100
AcDbEntity
  8
0
100
AcDbLine
 62
7
  6
BYLAYER
 10
380.6028890213
 20
387.0452954057
 11
380.6028890213
 21
386.9452954057
  0
LINE
  5
308
100
AcDbEntity
  8
0
100
AcDbLine
 62
7
  6
BYLAYER
 10
380.8128499593
 20
387.0452954057
 11
380.8128499593
 21
386.9452954057
  0
LINE
  5
309
100
AcDbEntity
  8
0
100
AcDbLine
 62
7
  6
BYLAYER
 10
381.0257405845
 20
386.9452954057
 11
381.0257405845
 21
387.0452954057
  0
LINE
  5
30A
100
AcDbEntity
  8
0
100
AcDbLine
 62
7
  6
BYLAYER
 10
381.4105062103
 20
387.0452954057
 11
381.4105062103
 21
386.9452954057
  0
LINE
  5
30B
100
AcDbEntity
  8
0
100
AcDbLine
 62
7
  6
BYLAYER
 10
381.4910726163
 20
387.0452954057
 11
381.4910726163
 21
386.9452954057
  0
LINE
  5
30C
100
AcDbEntity
  8
0
100
AcDbLine
 62
7
  6
BYLAYER
 10
382.1819905843
 20
393.8452954057
 11
382.1819905843
 21
387.0452954057
  0
LINE
  5
30D
100
AcDbEntity
  8
0
100
AcDbLine
 62
7
  6
BYLAYER
 10
382.2596273033
 20
387.0452954057
 11
382.2596273033
 21
386.9452954057
  0
LINE
  5
30E
100
AcDbEntity
  8
0
100
AcDbLine
 62
7
  6
BYLAYER
 10
383.0413655853
 20
387.0452954057
 11
383.0413655853
 21
386.9452954057
  0
LINE
  5
30F
100
AcDbEntity
  8
0
100
AcDbLine
 62
7
  6
BYLAYER
 10
383.1194905853
 20
387.0452954057
 11
383.1194905853
 21
386.9452954057
  0
LINE
  5
310
100
AcDbEntity
  8
0
100
AcDbLine
 62
7
  6
BYLAYER
 10
383.4944905843
 20
387.0452954057
 11
383.4944905843
 21
386.9452954057
  0
LINE
  5
311
100
AcDbEntity
  8
0
100
AcDbLine
 62
7
  6
BYLAYER
 10
383.7156819913
 20
387.0452954057
 11
383.7156819913
 21
386.9452954057
  0
LINE
  5
312
100
AcDbEntity
  8
0
100
AcDbLine
 62
7
  6
BYLAYER
 10
383.9319905841
 20
386.9452954057
 11
383.9319905841
 21
387.0452954057
  0
LINE
  5
313
100
AcDbEntity
  8
0
100
AcDbLine
 62
7
  6
BYLAYER
 10
384.4007405843
 20
387.0452954057
 11
384.4007405843
 21
386.9452954057
  0
LINE
  5
314
100
AcDbEntity
  8
0
100
AcDbLine
 62
7
  6
BYLAYER
 10
384.6180257403
 20
387.0452954057
 11
384.6180257403
 21
386.9452954057
  0
LINE
  5
315
100
AcDbEntity
  8
0
100
AcDbLine
 62
7
  6
BYLAYER
 10
384.8382405843
 20
386.9452954057
 11
384.8382405843
 21
387.0452954057
  0
LINE
  5
316
100
AcDbEntity
  8
0
100
AcDbLine
 62
7
  6
BYLAYER
 10
384.8768148033
 20
387.0452954057
 11
384.8768148033
 21
386.9452954057
  0
LINE
  5
317
100
AcDbEntity
  8
0
100
AcDbLine
 62
7
  6
BYLAYER
 10
385.2444905843
 20
387.0452954057
 11
385.2444905843
 21
386.9452954057
  0
LINE
  5
318
100
AcDbEntity
  8
0
100
AcDbLine
 62
7
  6
BYLAYER
 10
385.5569905843
 20
387.0452954057
 11
385.5569905843
 21
386.9452954057
  0
LINE
  5
319
100
AcDbEntity
  8
0
100
AcDbLine
 62
7
  6
BYLAYER
 10
385.7781819903
 20
387.0452954057
 11
385.7781819903
 21
386.9452954057
  0
LINE
  5
31A
100
AcDbEntity
  8
0
100
AcDbLine
 62
7
  6
BYLAYER
 10
385.9944905843
 20
386.9452954057
 11
385.9944905843
 21
387.0452954057
  0
LINE
  5
31B
100
AcDbEntity
  8
0
100
AcDbLine
 62
7
  6
BYLAYER
 10
386.1819905843
 20
393.8452954057
 11
386.1819905843
 21
386.9452954057
  0
LINE
  5
31C
100
AcDbEntity
  8
0
100
AcDbLine
 62
7
  6
BYLAYER
 10
386.4319905843
 20
387.0452954057
 11
386.4319905843
 21
386.9452954057
  0
LINE
  5
31D
100
AcDbEntity
  8
0
100
AcDbLine
 62
7
  6
BYLAYER
 10
386.6507405843
 20
387.0452954057
 11
386.6507405843
 21
386.9452954057
  0
LINE
  5
31E
100
AcDbEntity
  8
0
100
AcDbLine
 62
7
  6
BYLAYER
 10
386.8694905843
 20
386.9452954057
 11
386.8694905843
 21
387.0452954057
  0
LINE
  5
31F
100
AcDbEntity
  8
0
100
AcDbLine
 62
7
  6
BYLAYER
 10
387.4607991783
 20
387.0452954057
 11
387.4607991783
 21
386.9452954057
  0
LINE
  5
320
100
AcDbEntity
  8
0
100
AcDbLine
 62
7
  6
BYLAYER
 10
388.2132405843
 20
387.0452954057
 11
388.2132405843
 21
386.9452954057
  0
LINE
  5
321
100
AcDbEntity
  8
0
100
AcDbLine
 62
7
  6
BYLAYER
 10
388.4632405843
 20
387.0452954057
 11
388.4632405843
 21
386.9452954057
  0
LINE
  5
322
100
AcDbEntity
  8
0
100
AcDbLine
 62
7
  6
BYLAYER
 10
389.3563069913
 20
387.0452954057
 11
389.3563069913
 21
386.9452954057
  0
LINE
  5
323
100
AcDbEntity
  8
0
100
AcDbLine
 62
7
  6
BYLAYER
 10
390.2444905843
 20
387.0452954057
 11
390.2444905843
 21
386.9452954057
  0
LINE
  5
324
100
AcDbEntity
  8
0
100
AcDbLine
 62
7
  6
BYLAYER
 10
390.6194905843
 20
387.0452954057
 11
390.6194905843
 21
386.9452954057
  0
LINE
  5
325
100
AcDbEntity
  8
0
100
AcDbLine
 62
7
  6
BYLAYER
 10
390.9222249593
 20
386.9452954057
 11
390.9222249593
 21
387.0452954057
  0
LINE
  5
326
100
AcDbEntity
  8
0
100
AcDbLine
 62
7
  6
BYLAYER
 10
391.0726155843
 20
387.0452954057
 11
391.0726155843
 21
386.9452954057
  0
LINE
  5
327
100
AcDbEntity
  8
0
100
AcDbLine
 62
7
  6
BYLAYER
 10
391.4275960536
 20
386.9452954057
 11
391.4275960536
 21
387.0452954057
  0
LINE
  5
328
100
AcDbEntity
  8
0
100
AcDbLine
 62
7
  6
BYLAYER
 10
391.7757405842
 20
387.0452954057
 11
391.7757405842
 21
386.9452954057
  0
LINE
  5
329
100
AcDbEntity
  8
0
100
AcDbLine
 62
7
  6
BYLAYER
 10
392.1282796473
 20
387.0452954057
 11
392.1282796473
 21
386.9452954057
  0
LINE
  5
32A
100
AcDbEntity
  8
0
100
AcDbLine
 62
7
  6
BYLAYER
 10
392.1819905843
 20
386.9452954057
 11
392.1819905843
 21
386.8452954057
  0
LINE
  5
32B
100
AcDbEntity
  8
0
100
AcDbLine
 62
7
  6
BYLAYER
 10
392.4813069913
 20
386.9452954057
 11
392.4813069913
 21
387.0452954057
  0
LINE
  5
32C
100
AcDbEntity
  8
0
100
AcDbLine
 62
7
  6
BYLAYER
 10
392.6312093343
 20
387.0452954057
 11
392.6312093343
 21
386.9452954057
  0
LINE
  5
32D
100
AcDbEntity
  8
0
100
AcDbLine
 62
7
  6
BYLAYER
 10
392.9319905841
 20
386.9452954057
 11
392.9319905842
 21
387.0452954057
  0
LINE
  5
32E
100
AcDbEntity
  8
0
100
AcDbLine
 62
7
  6
BYLAYER
 10
394.1819905843
 20
386.8452954057
 11
394.1819905843
 21
386.9452954057
  0
LINE
  5
32F
100
AcDbEntity
  8
0
100
AcDbLine
 62
7
  6
BYLAYER
 10
409.1819905843
 20
386.9452954057
 11
409.1819905843
 21
386.8452954057
  0
LINE
  5
330
100
AcDbEntity
  8
0
100
AcDbLine
 62
7
  6
BYLAYER
 10
409.6819905843
 20
386.8452954057
 11
409.6819905843
 21
386.9452954057
  0
LINE
  5
331
100
AcDbEntity
  8
0
100
AcDbLine
 62
7
  6
BYLAYER
 10
415.1819905843
 20
386.9452954057
 11
415.1819905843
 21
386.8452954057
  0
LINE
  5
332
100
AcDbEntity
  8
0
100
AcDbLine
 62
7
  6
BYLAYER
 10
415.7122640223
 20
387.0452954057
 11
415.7122640223
 21
386.9452954057
  0
LINE
  5
333
100
AcDbEntity
  8
0
100
AcDbLine
 62
7
  6
BYLAYER
 10
416.5413655843
 20
387.0452954057
 11
416.5413655843
 21
386.9452954057
  0
LINE
  5
334
100
AcDbEntity
  8
0
100
AcDbLine
 62
7
  6
BYLAYER
 10
417.1819905843
 20
386.8452954057
 11
417.1819905843
 21
386.9452954057
  0
LINE
  5
335
100
AcDbEntity
  8
0
100
AcDbLine
 62
7
  6
BYLAYER
 10
417.4007405843
 20
387.0452954057
 11
417.4007405843
 21
386.9452954057
  0
LINE
  5
336
100
AcDbEntity
  8
0
100
AcDbLine
 62
7
  6
BYLAYER
 10
417.7757405843
 20
387.0452954057
 11
417.7757405843
 21
386.9452954057
  0
LINE
  5
337
100
AcDbEntity
  8
0
100
AcDbLine
 62
7
  6
BYLAYER
 10
417.9969319913
 20
387.0452954057
 11
417.9969319913
 21
386.9452954057
  0
LINE
  5
338
100
AcDbEntity
  8
0
100
AcDbLine
 62
7
  6
BYLAYER
 10
418.2132405841
 20
386.9452954057
 11
418.2132405841
 21
387.0452954057
  0
LINE
  5
339
100
AcDbEntity
  8
0
100
AcDbLine
 62
7
  6
BYLAYER
 10
418.6819905843
 20
387.0452954057
 11
418.6819905843
 21
386.9452954057
  0
LINE
  5
33A
100
AcDbEntity
  8
0
100
AcDbLine
 62
7
  6
BYLAYER
 10
418.8992757403
 20
387.0452954057
 11
418.8992757403
 21
386.9452954057
  0
LINE
  5
33B
100
AcDbEntity
  8
0
100
AcDbLine
 62
7
  6
BYLAYER
 10
419.1194905843
 20
386.9452954057
 11
419.1194905843
 21
387.0452954057
  0
LINE
  5
33C
100
AcDbEntity
  8
0
100
AcDbLine
 62
7
  6
BYLAYER
 10
419.1580648033
 20
387.0452954057
 11
419.1580648033
 21
386.9452954057
  0
LINE
  5
33D
100
AcDbEntity
  8
0
100
AcDbLine
 62
7
  6
BYLAYER
 10
419.5257405843
 20
387.0452954057
 11
419.5257405843
 21
386.9452954057
  0
LINE
  5
33E
100
AcDbEntity
  8
0
100
AcDbLine
 62
7
  6
BYLAYER
 10
419.8382405843
 20
387.0452954057
 11
419.8382405843
 21
386.9452954057
  0
LINE
  5
33F
100
AcDbEntity
  8
0
100
AcDbLine
 62
7
  6
BYLAYER
 10
420.0594319903
 20
387.0452954057
 11
420.0594319903
 21
386.9452954057
  0
LINE
  5
340
100
AcDbEntity
  8
0
100
AcDbLine
 62
7
  6
BYLAYER
 10
420.2757405843
 20
386.9452954057
 11
420.2757405843
 21
387.0452954057
  0
LINE
  5
341
100
AcDbEntity
  8
0
100
AcDbLine
 62
7
  6
BYLAYER
 10
420.7132405843
 20
387.0452954057
 11
420.7132405843
 21
386.9452954057
  0
LINE
  5
342
100
AcDbEntity
  8
0
100
AcDbLine
 62
7
  6
BYLAYER
 10
420.9319905843
 20
387.0452954057
 11
420.9319905843
 21
386.9452954057
  0
LINE
  5
343
100
AcDbEntity
  8
0
100
AcDbLine
 62
7
  6
BYLAYER
 10
421.1507405843
 20
386.9452954057
 11
421.1507405843
 21
387.0452954057
  0
LINE
  5
344
100
AcDbEntity
  8
0
100
AcDbLine
 62
7
  6
BYLAYER
 10
421.7420491783
 20
387.0452954057
 11
421.7420491783
 21
386.9452954057
  0
LINE
  5
345
100
AcDbEntity
  8
0
100
AcDbLine
 62
7
  6
BYLAYER
 10
422.4944905843
 20
387.0452954057
 11
422.4944905843
 21
386.9452954057
  0
LINE
  5
346
100
AcDbEntity
  8
0
100
AcDbLine
 62
7
  6
BYLAYER
 10
422.7444905843
 20
387.0452954057
 11
422.7444905843
 21
386.9452954057
  0
LINE
  5
347
100
AcDbEntity
  8
0
100
AcDbLine
 62
7
  6
BYLAYER
 10
423.6375569913
 20
387.0452954057
 11
423.6375569913
 21
386.9452954057
  0
LINE
  5
348
100
AcDbEntity
  8
0
100
AcDbLine
 62
7
  6
BYLAYER
 10
424.5257405843
 20
387.0452954057
 11
424.5257405843
 21
386.9452954057
  0
LINE
  5
349
100
AcDbEntity
  8
0
100
AcDbLine
 62
7
  6
BYLAYER
 10
424.9007405843
 20
387.0452954057
 11
424.9007405843
 21
386.9452954057
  0
LINE
  5
34A
100
AcDbEntity
  8
0
100
AcDbLine
 62
7
  6
BYLAYER
 10
425.2034749593
 20
386.9452954057
 11
425.2034749593
 21
387.0452954057
  0
LINE
  5
34B
100
AcDbEntity
  8
0
100
AcDbLine
 62
7
  6
BYLAYER
 10
425.3538655843
 20
387.0452954057
 11
425.3538655843
 21
386.9452954057
  0
LINE
  5
34C
100
AcDbEntity
  8
0
100
AcDbLine
 62
7
  6
BYLAYER
 10
425.7088460536
 20
386.9452954057
 11
425.7088460536
 21
387.0452954057
  0
LINE
  5
34D
100
AcDbEntity
  8
0
100
AcDbLine
 62
7
  6
BYLAYER
 10
426.0569905842
 20
387.0452954057
 11
426.0569905842
 21
386.9452954057
  0
LINE
  5
34E
100
AcDbEntity
  8
0
100
AcDbLine
 62
7
  6
BYLAYER
 10
426.4095296473
 20
387.0452954057
 11
426.4095296473
 21
386.9452954057
  0
LINE
  5
34F
100
AcDbEntity
  8
0
100
AcDbLine
 62
7
  6
BYLAYER
 10
426.7625569913
 20
386.9452954057
 11
426.7625569913
 21
387.0452954057
  0
LINE
  5
350
100
AcDbEntity
  8
0
100
AcDbLine
 62
7
  6
BYLAYER
 10
426.9124593343
 20
387.0452954057
 11
426.9124593343
 21
386.9452954057
  0
LINE
  5
351
100
AcDbEntity
  8
0
100
AcDbLine
 62
7
  6
BYLAYER
 10
427.2132405841
 20
386.9452954057
 11
427.2132405842
 21
387.0452954057
  0
LINE
  5
352
100
AcDbEntity
  8
0
100
AcDbLine
 62
7
  6
BYLAYER
 10
428.4930257393
 20
387.0452954057
 11
428.4930257393
 21
386.9452954057
  0
LINE
  5
353
100
AcDbEntity
  8
0
100
AcDbLine
 62
7
  6
BYLAYER
 10
429.4949788643
 20
387.0452954057
 11
429.4949788643
 21
386.9452954057
  0
LINE
  5
354
100
AcDbEntity
  8
0
100
AcDbLine
 62
7
  6
BYLAYER
 10
430.6507405833
 20
387.0452954057
 11
430.6507405833
 21
386.9452954057
  0
LINE
  5
355
100
AcDbEntity
  8
0
100
AcDbLine
 62
7
  6
BYLAYER
 10
430.9632405853
 20
387.0452954057
 11
430.9632405853
 21
386.9452954057
  0
LINE
  5
356
100
AcDbEntity
  8
0
100
AcDbLine
 62
7
  6
BYLAYER
 10
431.3436116793
 20
387.0452954057
 11
431.3436116793
 21
386.9452954057
  0
LINE
  5
357
100
AcDbEntity
  8
0
100
AcDbLine
 62
7
  6
BYLAYER
 10
432.0975179293
 20
386.9452954057
 11
432.0975179293
 21
387.0452954057
  0
LINE
  5
358
100
AcDbEntity
  8
0
100
AcDbLine
 62
7
  6
BYLAYER
 10
432.7386312103
 20
387.0452954057
 11
432.7386312103
 21
386.9452954057
  0
LINE
  5
359
100
AcDbEntity
  8
0
100
AcDbLine
 62
7
  6
BYLAYER
 10
433.0257405853
 20
386.9452954057
 11
433.0257405853
 21
387.0452954057
  0
LINE
  5
35A
100
AcDbEntity
  8
0
100
AcDbLine
 62
7
  6
BYLAYER
 10
433.3382405843
 20
387.0452954057
 11
433.3382405843
 21
386.9452954057
  0
LINE
  5
35B
100
AcDbEntity
  8
0
100
AcDbLine
 62
7
  6
BYLAYER
 10
433.5047444903
 20
387.0452954057
 11
433.5047444903
 21
386.9452954057
  0
LINE
  5
35C
100
AcDbEntity
  8
0
100
AcDbLine
 62
7
  6
BYLAYER
 10
433.6985921462
 20
386.9452954057
 11
433.6985921462
 21
387.0452954057
  0
LINE
  5
35D
100
AcDbEntity
  8
0
100
AcDbLine
 62
7
  6
BYLAYER
 10
434.1497640213
 20
387.0452954057
 11
434.1497640213
 21
386.9452954057
  0
LINE
  5
35E
100
AcDbEntity
  8
0
100
AcDbLine
 62
7
  6
BYLAYER
 10
434.1819905843
 20
387.0452954057
 11
434.1819905843
 21
386.9452954057
  0
LINE
  5
35F
100
AcDbEntity
  8
0
100
AcDbLine
 62
7
  6
BYLAYER
 10
434.4305257393
 20
387.0452954057
 11
434.4305257393
 21
386.9452954057
  0
LINE
  5
360
100
AcDbEntity
  8
0
100
AcDbLine
 62
7
  6
BYLAYER
 10
435.4324788643
 20
387.0452954057
 11
435.4324788643
 21
386.9452954057
  0
LINE
  5
361
100
AcDbEntity
  8
0
100
AcDbLine
 62
7
  6
BYLAYER
 10
436.5882405833
 20
387.0452954057
 11
436.5882405833
 21
386.9452954057
  0
LINE
  5
362
100
AcDbEntity
  8
0
100
AcDbLine
 62
7
  6
BYLAYER
 10
436.8694905833
 20
387.0452954057
 11
436.8694905833
 21
386.9452954057
  0
LINE
  5
363
100
AcDbEntity
  8
0
100
AcDbLine
 62
7
  6
BYLAYER
 10
436.9427327715
 20
386.9452954057
 11
436.9427327715
 21
387.0452954057
  0
LINE
  5
364
100
AcDbEntity
  8
0
100
AcDbLine
 62
7
  6
BYLAYER
 10
437.5677327713
 20
387.0452954057
 11
437.5677327713
 21
386.9452954057
  0
LINE
  5
365
100
AcDbEntity
  8
0
100
AcDbLine
 62
7
  6
BYLAYER
 10
437.9886312083
 20
387.0452954057
 11
437.9886312083
 21
386.9452954057
  0
LINE
  5
366
100
AcDbEntity
  8
0
100
AcDbLine
 62
7
  6
BYLAYER
 10
438.1819905843
 20
386.9452954057
 11
438.1819905843
 21
386.8452954057
  0
LINE
  5
367
100
AcDbEntity
  8
0
100
AcDbLine
 62
7
  6
BYLAYER
 10
438.406111677
 20
386.9452954057
 11
438.406111677
 21
387.0452954057
  0
LINE
  5
368
100
AcDbEntity
  8
0
100
AcDbLine
 62
7
  6
BYLAYER
 10
439.0179280833
 20
387.0452954057
 11
439.0179280833
 21
386.9452954057
  0
LINE
  5
369
100
AcDbEntity
  8
0
100
AcDbLine
 62
7
  6
BYLAYER
 10
439.0882405833
 20
387.0452954057
 11
439.0882405833
 21
386.9452954057
  0
LINE
  5
36A
100
AcDbEntity
  8
0
100
AcDbLine
 62
7
  6
BYLAYER
 10
440.1819905843
 20
386.8452954057
 11
440.1819905843
 21
386.9452954057
  0
LINE
  5
36B
100
AcDbEntity
  8
0
100
AcDbLine
 62
7
  6
BYLAYER
 10
471.6105644353
 20
365.8452954057
 11
471.0692925074
 21
381.3452954057
  0
LINE
  5
36C
100
AcDbEntity
  8
0
100
AcDbLine
 62
7
  6
BYLAYER
 10
466.0843277263
 20
381.8452954057
 11
466.0234000123
 21
386.8452954057
  0
LINE
  5
36D
100
AcDbEntity
  8
0
100
AcDbLine
 62
7
  6
BYLAYER
 10
470.5692925073
 20
381.3452954057
 11
470.5692925073
 21
381.8452954057
  0
LINE
  5
36E
100
AcDbEntity
  8
0
100
AcDbLine
 62
7
  6
BYLAYER
 10
470.8402231763
 20
358.8452954057
 11
470.8402231763
 21
358.5452954057
  0
LINE
  5
36F
100
AcDbEntity
  8
0
100
AcDbLine
 62
7
  6
BYLAYER
 10
471.0669905843
 20
381.8452954057
 11
471.0669905843
 21
386.8452954057
  0
LINE
  5
370
100
AcDbEntity
  8
0
100
AcDbLine
 62
7
  6
BYLAYER
 10
472.8319905843
 20
358.5452954057
 11
472.8319905843
 21
358.8452954057
  0
LINE
  5
371
100
AcDbEntity
  8
0
100
AcDbLine
 62
7
  6
BYLAYER
 10
465.8931390993
 20
365.8452954057
 11
465.9362064963
 21
381.8452954057
  0
LINE
  5
372
100
AcDbEntity
  8
0
100
AcDbLine
 62
7
  6
BYLAYER
 10
472.7482548363
 20
358.8452954057
 11
472.8056886043
 21
365.8452954057
  0
LINE
  5
373
100
AcDbEntity
  8
0
100
AcDbLine
 62
7
  6
BYLAYER
 10
475.7148010975
 20
358.8452954057
 11
476.0319905851
 21
365.8452954057
  0
ARC
  5
374
100
AcDbEntity
  8
0
100
AcDbCircle
 62
7
  6
BYLAYER
 10
384.1819905843
 20
393.8452954057
 40
2.0
100
AcDbArc
 50
0.0
 51
180.0
  0
ARC
  5
375
100
AcDbEntity
  8
0
100
AcDbCircle
 62
7
  6
BYLAYER
 10
148.1819905843
 20
393.8452954057
 40
2.0
100
AcDbArc
 50
0.0
 51
180.0
  0
ENDSEC
  0
SECTION
  2
OBJECTS
  0
DICTIONARY
  5
C
100
AcDbDictionary
280
0
281
1
  3
ACAD_GROUP
350
D
  3
ACAD_MLINESTYLE
350
17
  3
ACAD_LAYOUT
350
1A
  3
ACAD_PLOTSETTINGS
350
19
  3
ACAD_PLOTSTYLENAME
350
E
  0
DICTIONARY
  5
D
102
{ACAD_REACTORS
330
C
102
}
100
AcDbDictionary
280
0
281
1
  0
ACDBDICTIONARYWDFLT
  5
E
102
{ACAD_REACTORS
330
C
102
}
100
AcDbDictionary
281
1
  3
Normal
350
F
100
AcDbDictionaryWithDefault
340
F
  0
DICTIONARY
  5
17
102
{ACAD_REACTORS
330
C
102
}
100
AcDbDictionary
280
0
281
1
  3
Standard
350
18
  0
DICTIONARY
  5
19
102
{ACAD_REACTORS
330
C
102
}
100
AcDbDictionary
281
1
  0
DICTIONARY
  5
1A
102
{ACAD_REACTORS
330
C
102
}
100
AcDbDictionary
281
1
  3
Model
350
376
  3
Layout1
350
377
  0
ACDBPLACEHOLDER
  5
F
102
{ACAD_REACTORS
330
E
102
}
  0
MLINESTYLE
  5
18
102
{ACAD_REACTORS
330
17
102
}
100
AcDbMlineStyle
  2
STANDARD
 70
0
  3

 62
256
 51
90.0
 52
90.0
 71
2
 49
0.5
 62
256
  6
BYLAYER
 49
-0.5
 62
256
  6
BYLAYER
  0
LAYOUT
  5
376
102
{ACAD_REACTORS
330
1A
102
}
100
AcDbPlotSettings
  1

  2
none_device
  4

  6

 40
0.0
 41
0.0
 42
0.0
 43
0.0
 44
210.0
 45
297.0
 46
0.0
 47
0.0
 48
0.0
 49
0.0
140
0.0
141
0.0
142
1.0
143
1.0
 70
1024
 72
1
 73
0
 74
0
  7

 75
0
147
1.0
148
0.0
149
0.0
100
AcDbLayout
  1
Model
 70
0
 71
0
 10
0.0
 20
0.0
 11
210.0
 21
297.0
 12
0.0
 22
0.0
 32
0.0
 14
0.0
 24
0.0
 34
0.0
 15
0.0
 25
0.0
 35
0.0
146
0.0
 13
0.0
 23
0.0
 33
0.0
 16
1.0
 26
0.0
 36
0.0
 17
0.0
 27
1.0
 37
0.0
 76
0
330
210
345
0
346
0
  0
LAYOUT
  5
377
102
{ACAD_REACTORS
330
1A
102
}
100
AcDbPlotSettings
  1

  2
none_device
  4

  6

 40
0.0
 41
0.0
 42
0.0
 43
0.0
 44
210.0
 45
297.0
 46
0.0
 47
0.0
 48
0.0
 49
0.0
140
0.0
141
0.0
142
1.0
143
1.0
 70
0
 72
1
 73
0
 74
0
  7

 75
0
147
1.0
148
0.0
149
0.0
100
AcDbLayout
  1
Layout1
 70
0
 71
1
 10
0.0
 20
0.0
 11
210.0
 21
297.0
 12
0.0
 22
0.0
 32
0.0
 14
0.0
 24
0.0
 34
0.0
 15
0.0
 25
0.0
 35
0.0
146
0.0
 13
0.0
 23
0.0
 33
0.0
 16
1.0
 26
0.0
 36
0.0
 17
0.0
 27
1.0
 37
0.0
 76
0
330
211
345
0
346
0
  0
ENDSEC
  0
EOF
