999
DXF file: C:\Users\sesa63760\Dev\_Creo\CAD\MCADPP0003709_3D-CAD\drw0001_6.dxf
999
Pro/ENGINEER 2019471 by Parametric Technology Corporation
  0
SECTION
  2
HEADER
  9
$ACADVER
  1
AC1024
  9
$DWGCODEPAGE
  3
ANSI_1252
  9
$EXTMAX
 10
127.9863608166
 20
181.0092817263
 30
0.0
  9
$EXTMIN
 10
0.0
 20
0.0
 30
0.0
  9
$LIMMIN
 10
0.0
 20
0.0
  9
$LIMMAX
 10
127.9863608166
 20
181.0092817263
  9
$VIEWCTR
 10
63.9931804083
 20
90.5046408632
  9
$VIEWSIZE
 40
181.0092817263
  9
$CLAYER
  8
0
  9
$LTSCALE
 40
11.7991235496
  9
$CELTYPE
  6
BYLAYER
  9
$DIMSCALE
 40
1.0
  9
$DIMASZ
 40
1.5236471526
  9
$DIMEXO
 40
1.0
  9
$DIMDLI
 40
8.1521217252
  9
$DIMEXE
 40
1.0
  9
$DIMCEN
 40
1.9307656717
  9
$DIMLFAC
 40
1.0
  9
$DIMBLK
  1
_FILLED
  9
$DIMALT
 70
0
  9
$DIMALTF
 40
0.0393700787
  9
$DIMTXT
 40
2.1331060136
  9
$DIMTOL
 70
1
  9
$DIMLIM
 70
0
  9
$DIMTFAC
 40
1.0
  9
$DIMTP
 40
0.01
  9
$DIMTM
 40
0.01
  9
$DIMGAP
 40
0.625
  9
$DIMDSEP
 70
46
  9
$AUNITS
 70
0
  9
$PDMODE
 70
3
  9
$PDSIZE
 40
0.3125
  9
$HANDSEED
  5
287
  9
$TILEMODE
 70
1
  9
$MEASUREMENT
 70
1
  9
$INSUNITS
 70
4
  0
ENDSEC
  0
SECTION
  2
CLASSES
  0
CLASS
  1
ACDBDICTIONARYWDFLT
  2
AcDbDictionaryWithDefault
  3
AutoCAD 2000
 90
0
 91
1
280
0
281
0
  0
CLASS
  1
ACDBPLACEHOLDER
  2
AcDbPlaceHolder
  3
AutoCAD 2000
 90
0
 91
1
280
0
281
0
  0
CLASS
  1
LAYOUT
  2
AcDbLayout
  3
AutoCAD 2000
 90
0
 91
0
280
0
281
0
  0
ENDSEC
  0
SECTION
  2
TABLES
  0
TABLE
  2
VPORT
  5
8
100
AcDbSymbolTable
 70
2
  0
VPORT
  5
1F4
100
AcDbSymbolTableRecord
100
AcDbViewportTableRecord
  2
*ACTIVE
 70
0
 10
0.0
 20
0.0
 11
1.0
 21
1.0
 12
63.9931804083
 22
90.5046408632
 13
0.0
 23
0.0
 14
1.0
 24
1.0
 15
0.0
 25
0.0
 16
0.0
 26
0.0
 36
1.0
 17
0.0
 27
0.0
 37
0.0
 40
181.0092817263
 41
0.7070707071
 42
50.0
 43
0.0
 44
0.0
 50
0.0
 51
0.0
 71
0
 72
100
 73
1
 74
1
 75
0
 76
0
 77
0
 78
0
  0
ENDTAB
  0
TABLE
  2
LTYPE
  5
5
100
AcDbSymbolTable
 70
6
  0
LTYPE
  5
14
100
AcDbSymbolTableRecord
100
AcDbLinetypeTableRecord
  2
BYBLOCK
 70
0
  3

 72
65
 73
0
 40
0.0
  0
LTYPE
  5
15
100
AcDbSymbolTableRecord
100
AcDbLinetypeTableRecord
  2
BYLAYER
 70
0
  3

 72
65
 73
0
 40
0.0
  0
LTYPE
  5
16
100
AcDbSymbolTableRecord
100
AcDbLinetypeTableRecord
  2
CONTINUOUS
 70
64
  3
Solid line
 72
65
 73
0
 40
0.0
  0
LTYPE
  5
1F5
100
AcDbSymbolTableRecord
100
AcDbLinetypeTableRecord
  2
CENTER
 70
64
  3
____ _ ____ _ ____ _ ____ _ ____ _ ____ _ ____
 72
65
 73
4
 40
0.6
 49
0.375
 74
0
 49
-0.075
 74
0
 49
0.075
 74
0
 49
-0.075
 74
0
  0
LTYPE
  5
1F6
100
AcDbSymbolTableRecord
100
AcDbLinetypeTableRecord
  2
HIDDEN
 70
64
  3
- - - - - - - - - - - - - - - - - - - -
 72
65
 73
2
 40
0.2
 49
0.1
 74
0
 49
-0.1
 74
0
  0
LTYPE
  5
1F7
100
AcDbSymbolTableRecord
100
AcDbLinetypeTableRecord
  2
PHANTOM
 70
64
  3
_____ _ _ _____ _ _ _____ _ _ _____
 72
65
 73
6
 40
0.8
 49
0.45
 74
0
 49
-0.05
 74
0
 49
0.1
 74
0
 49
-0.05
 74
0
 49
0.1
 74
0
 49
-0.05
 74
0
  0
LTYPE
  5
1F8
100
AcDbSymbolTableRecord
100
AcDbLinetypeTableRecord
  2
DOT
 70
64
  3
. . . . . . . . . . . . . . . . . . . .
 72
65
 73
2
 40
0.2
 49
0.1
 74
0
 49
-0.1
 74
0
  0
LTYPE
  5
1F9
100
AcDbSymbolTableRecord
100
AcDbLinetypeTableRecord
  2
DASHED
 70
64
  3
- - - - - - - - - - - - - - - - - - - -
 72
65
 73
2
 40
0.2
 49
0.1
 74
0
 49
-0.1
 74
0
  0
ENDTAB
  0
TABLE
  2
LAYER
  5
2
100
AcDbSymbolTable
 70
36
  0
LAYER
  5
10
100
AcDbSymbolTableRecord
100
AcDbLayerTableRecord
  2
0
 70
0
 62
7
  6
CONTINUOUS
370
-3
390
F
  0
LAYER
  5
1FA
100
AcDbSymbolTableRecord
100
AcDbLayerTableRecord
  2
DEFAULT_1
 70
0
 62
7
  6
CENTER
370
-3
390
F
  0
LAYER
  5
1FB
100
AcDbSymbolTableRecord
100
AcDbLayerTableRecord
  2
DEFAULT_2
 70
0
 62
8
  6
HIDDEN
370
-3
390
F
  0
LAYER
  5
1FC
100
AcDbSymbolTableRecord
100
AcDbLayerTableRecord
  2
DEFAULT_3
 70
0
 62
7
  6
PHANTOM
370
-3
390
F
  0
LAYER
  5
1FD
100
AcDbSymbolTableRecord
100
AcDbLayerTableRecord
  2
00_COMPONENTS
 70
0
 62
7
  6
CONTINUOUS
370
-3
390
F
  0
LAYER
  5
1FE
100
AcDbSymbolTableRecord
100
AcDbLayerTableRecord
  2
01_1_DEFAULT_DATUMS
 70
0
 62
7
  6
CONTINUOUS
370
-3
390
F
  0
LAYER
  5
1FF
100
AcDbSymbolTableRecord
100
AcDbLayerTableRecord
  2
01_PLANES
 70
0
 62
7
  6
CONTINUOUS
370
-3
390
F
  0
LAYER
  5
200
100
AcDbSymbolTableRecord
100
AcDbLayerTableRecord
  2
02_COORD_SYS
 70
0
 62
7
  6
CONTINUOUS
370
-3
390
F
  0
LAYER
  5
201
100
AcDbSymbolTableRecord
100
AcDbLayerTableRecord
  2
03_AXES
 70
0
 62
7
  6
CONTINUOUS
370
-3
390
F
  0
LAYER
  5
202
100
AcDbSymbolTableRecord
100
AcDbLayerTableRecord
  2
04_POINTS
 70
0
 62
7
  6
CONTINUOUS
370
-3
390
F
  0
LAYER
  5
203
100
AcDbSymbolTableRecord
100
AcDbLayerTableRecord
  2
05_CURVES
 70
0
 62
7
  6
CONTINUOUS
370
-3
390
F
  0
LAYER
  5
204
100
AcDbSymbolTableRecord
100
AcDbLayerTableRecord
  2
06_SURFS
 70
0
 62
7
  6
CONTINUOUS
370
-3
390
F
  0
LAYER
  5
205
100
AcDbSymbolTableRecord
100
AcDbLayerTableRecord
  2
07_COSMETICS
 70
0
 62
7
  6
CONTINUOUS
370
-3
390
F
  0
LAYER
  5
206
100
AcDbSymbolTableRecord
100
AcDbLayerTableRecord
  2
10_NOTES
 70
0
 62
7
  6
CONTINUOUS
370
-3
390
F
  0
LAYER
  5
207
100
AcDbSymbolTableRecord
100
AcDbLayerTableRecord
  2
11_NOTES_PUB
 70
0
 62
7
  6
CONTINUOUS
370
-3
390
F
  0
LAYER
  5
208
100
AcDbSymbolTableRecord
100
AcDbLayerTableRecord
  2
13_REF_GTOL
 70
0
 62
7
  6
CONTINUOUS
370
-3
390
F
  0
LAYER
  5
209
100
AcDbSymbolTableRecord
100
AcDbLayerTableRecord
  2
16_MISC
 70
0
 62
7
  6
CONTINUOUS
370
-3
390
F
  0
LAYER
  5
20A
100
AcDbSymbolTableRecord
100
AcDbLayerTableRecord
  2
17_NO_PRINT
 70
0
 62
7
  6
CONTINUOUS
370
-3
390
F
  0
LAYER
  5
20B
100
AcDbSymbolTableRecord
100
AcDbLayerTableRecord
  2
18_DATUM_CAMS_JOINTS
 70
0
 62
7
  6
CONTINUOUS
370
-3
390
F
  0
LAYER
  5
20C
100
AcDbSymbolTableRecord
100
AcDbLayerTableRecord
  2
19_DATUM_FUNCTIONAL
 70
0
 62
7
  6
CONTINUOUS
370
-3
390
F
  0
LAYER
  5
20D
100
AcDbSymbolTableRecord
100
AcDbLayerTableRecord
  2
20_DATUM_KINEMATIC_SCHEME
 70
0
 62
7
  6
CONTINUOUS
370
-3
390
F
  0
ENDTAB
  0
TABLE
  2
STYLE
  5
3
100
AcDbSymbolTable
 70
1
  0
STYLE
  5
11
100
AcDbSymbolTableRecord
100
AcDbTextStyleTableRecord
  2
STANDARD
 70
0
 40
0.0
 41
0.8
 50
0.0
 71
0
 42
0.2
  3
txt
  4

  0
STYLE
  5
20E
100
AcDbSymbolTableRecord
100
AcDbTextStyleTableRecord
  2
TEXTSTYLE_1
 70
0
 40
0.0
 41
0.8
 50
0.0
 71
0
 42
0.2
  3
gdt
  4

  0
ENDTAB
  0
TABLE
  2
VIEW
  5
6
100
AcDbSymbolTable
 70
0
  0
ENDTAB
  0
TABLE
  2
UCS
  5
7
100
AcDbSymbolTable
 70
0
  0
ENDTAB
  0
TABLE
  2
APPID
  5
9
100
AcDbSymbolTable
 70
1
  0
APPID
  5
20F
100
AcDbSymbolTableRecord
100
AcDbRegAppTableRecord
  2
ACAD
 70
0
  0
ENDTAB
  0
TABLE
  2
BLOCK_RECORD
  5
1
100
AcDbSymbolTable
 70
0
  0
BLOCK_RECORD
  5
210
100
AcDbSymbolTableRecord
100
AcDbBlockTableRecord
  2
*Model_Space
  0
BLOCK_RECORD
  5
211
100
AcDbSymbolTableRecord
100
AcDbBlockTableRecord
  2
*Paper_Space
  0
BLOCK_RECORD
  5
212
100
AcDbSymbolTableRecord
100
AcDbBlockTableRecord
  2
_FILLED
  0
ENDTAB
  0
TABLE
  2
DIMSTYLE
  5
A
100
AcDbSymbolTable
 70
1
100
AcDbDimStyleTable
 71
0
  0
DIMSTYLE
105
213
100
AcDbSymbolTableRecord
100
AcDbDimStyleTableRecord
  2
STANDARD
 70
0
  3

  4

 40
1.0
 41
1.5236471526
 42
1.0
 43
0.38
 44
1.0
 45
0.0
 46
0.0
 47
0.01
 48
0.01
140
2.1331060136
141
0.09
142
0.0
143
25.4
144
1.0
145
0.0
146
1.0
147
0.625
 71
1
 72
0
 73
0
 74
0
 75
0
 76
0
 77
1
 78
8
 79
2
170
0
171
1
172
0
173
0
174
0
175
0
176
0
177
0
178
0
270
2
179
2
271
2
272
2
273
2
274
2
275
0
280
0
281
0
282
0
283
1
284
8
285
0
286
0
287
3
288
0
340
11
278
46
341
212
342
212
343
212
344
212
  0
ENDTAB
  0
ENDSEC
  0
SECTION
  2
BLOCKS
  0
BLOCK
  5
20
100
AcDbEntity
  8
0
100
AcDbBlockBegin
  2
*Model_Space
 70
0
 10
0.0
 20
0.0
 30
0.0
  3
*Model_Space
  1

  0
ENDBLK
  5
21
100
AcDbEntity
  8
0
100
AcDbBlockEnd
  0
BLOCK
  5
1C
100
AcDbEntity
  8
0
100
AcDbBlockBegin
  2
*Paper_Space
 70
0
 10
0.0
 20
0.0
 30
0.0
  3
*Paper_Space
  1

  0
ENDBLK
  5
1D
100
AcDbEntity
  8
0
100
AcDbBlockEnd
  0
BLOCK
  5
214
100
AcDbEntity
  8
0
100
AcDbBlockBegin
  2
_FILLED
 70
64
 10
0.0
 20
0.0
  3
_FILLED
  1

  0
SOLID
  5
215
100
AcDbEntity
  8
0
  6
BYBLOCK
 62
0
100
AcDbTrace
 10
0.0
 20
0.0
 11
-1.0
 21
0.25
 12
-1.0
 22
-0.25
 13
-1.0
 23
-0.25
  0
ENDBLK
  5
216
100
AcDbEntity
  8
0
  6
BYBLOCK
 62
0
100
AcDbBlockEnd
  0
ENDSEC
  0
SECTION
  2
ENTITIES
  0
LINE
  5
217
100
AcDbEntity
  8
0
100
AcDbLine
 62
7
  6
CONTINUOUS
 10
14.4759433007
 20
75.8046408632
 11
14.4759433007
 21
105.1108650436
  0
LINE
  5
218
100
AcDbEntity
  8
0
100
AcDbLine
 62
7
  6
CONTINUOUS
 10
16.4469987414
 20
75.8046408632
 11
16.4469987414
 21
105.1624789467
  0
LINE
  5
219
100
AcDbEntity
  8
0
100
AcDbLine
 62
7
  6
CONTINUOUS
 10
22.1259433007
 20
116.3046408632
 11
22.1259433007
 21
105.3111874825
  0
LINE
  5
21A
100
AcDbEntity
  8
0
100
AcDbLine
 62
7
  6
CONTINUOUS
 10
22.1259433007
 20
64.7046408632
 11
22.1259433007
 21
75.8046408632
  0
LINE
  5
21B
100
AcDbEntity
  8
0
100
AcDbLine
 62
7
  6
CONTINUOUS
 10
23.9259433007
 20
65.204640839
 11
23.9259433007
 21
75.8046408632
  0
LINE
  5
21C
100
AcDbEntity
  8
0
100
AcDbLine
 62
7
  6
CONTINUOUS
 10
23.9259433007
 20
105.3583220024
 11
23.9259433007
 21
115.8046408874
  0
LINE
  5
21D
100
AcDbEntity
  8
0
100
AcDbLine
 62
7
  6
CONTINUOUS
 10
67.6299311543
 20
48.4844470379
 11
70.4759433007
 21
48.9862757667
  0
LINE
  5
21E
100
AcDbEntity
  8
0
100
AcDbLine
 62
7
  6
CONTINUOUS
 10
36.5759433007
 20
48.1046408632
 11
63.2887267122
 21
48.1046408632
  0
LINE
  5
21F
100
AcDbEntity
  8
0
100
AcDbLine
 62
7
  6
CONTINUOUS
 10
115.7259433007
 20
52.0046408627
 11
108.7259433007
 21
52.0046408627
  0
LINE
  5
220
100
AcDbEntity
  8
0
100
AcDbLine
 62
7
  6
CONTINUOUS
 10
115.7259433007
 20
52.2183026347
 11
108.7259433007
 21
52.2183026347
  0
LINE
  5
221
100
AcDbEntity
  8
0
100
AcDbLine
 62
7
  6
CONTINUOUS
 10
115.7259433007
 20
53.1755702803
 11
108.7259433007
 21
53.1755702803
  0
LINE
  5
222
100
AcDbEntity
  8
0
100
AcDbLine
 62
7
  6
CONTINUOUS
 10
115.7259433007
 20
53.504640863
 11
108.7259433007
 21
53.504640863
  0
LINE
  5
223
100
AcDbEntity
  8
0
100
AcDbLine
 62
7
  6
CONTINUOUS
 10
70.5259433007
 20
54.6046408632
 11
77.7259433007
 21
54.6046408632
  0
LINE
  5
224
100
AcDbEntity
  8
0
100
AcDbLine
 62
7
  6
CONTINUOUS
 10
34.6959439581
 20
65.2046408632
 11
34.6960413179
 21
64.7047311257
  0
LINE
  5
225
100
AcDbEntity
  8
0
100
AcDbLine
 62
7
  6
CONTINUOUS
 10
34.6960292272
 20
116.3045503703
 11
34.6959444844
 21
115.8046408632
  0
LINE
  5
226
100
AcDbEntity
  8
0
100
AcDbLine
 62
7
  6
CONTINUOUS
 10
115.7259433007
 20
56.704640863
 11
108.7259433007
 21
56.704640863
  0
LINE
  5
227
100
AcDbEntity
  8
0
100
AcDbLine
 62
7
  6
CONTINUOUS
 10
77.7259433007
 20
57.5046408632
 11
108.7259433007
 21
57.5046408632
  0
LINE
  5
228
100
AcDbEntity
  8
0
100
AcDbLine
 62
7
  6
CONTINUOUS
 10
108.7259433007
 20
60.2046408632
 11
77.7259433007
 21
60.2046408632
  0
LINE
  5
229
100
AcDbEntity
  8
0
100
AcDbLine
 62
7
  6
CONTINUOUS
 10
38.2814219003
 20
63.7303051058
 11
34.6960408216
 21
64.7046843086
  0
LINE
  5
22A
100
AcDbEntity
  8
0
100
AcDbLine
 62
7
  6
CONTINUOUS
 10
36.5759433007
 20
64.1937920782
 11
36.5759433007
 21
48.1046408632
  0
LINE
  5
22B
100
AcDbEntity
  8
0
100
AcDbLine
 62
7
  6
CONTINUOUS
 10
36.5759433007
 20
116.815466332
 11
36.5759433007
 21
132.9046408632
  0
LINE
  5
22C
100
AcDbEntity
  8
0
100
AcDbLine
 62
7
  6
CONTINUOUS
 10
38.3759433007
 20
117.0520564245
 11
38.3759433007
 21
116.3046408632
  0
LINE
  5
22D
100
AcDbEntity
  8
0
100
AcDbLine
 62
7
  6
CONTINUOUS
 10
38.3759433007
 20
64.7046408632
 11
38.3759433007
 21
63.9572403315
  0
LINE
  5
22E
100
AcDbEntity
  8
0
100
AcDbLine
 62
7
  6
CONTINUOUS
 10
38.5759433007
 20
48.1046408632
 11
38.5759433007
 21
64.7046408632
  0
LINE
  5
22F
100
AcDbEntity
  8
0
100
AcDbLine
 62
7
  6
CONTINUOUS
 10
38.5759433007
 20
116.3046408632
 11
38.5759433007
 21
132.9046408632
  0
LINE
  5
230
100
AcDbEntity
  8
0
100
AcDbLine
 62
7
  6
CONTINUOUS
 10
70.4759433007
 20
60.3046408632
 11
65.1759433007
 21
60.3046408632
  0
LINE
  5
231
100
AcDbEntity
  8
0
100
AcDbLine
 62
7
  6
CONTINUOUS
 10
65.1759433007
 20
60.7046408632
 11
70.5259433007
 21
60.7046408632
  0
LINE
  5
232
100
AcDbEntity
  8
0
100
AcDbLine
 62
7
  6
CONTINUOUS
 10
34.6959439581
 20
65.2046408175
 11
38.3759433007
 21
64.6784463441
  0
LINE
  5
233
100
AcDbEntity
  8
0
100
AcDbLine
 62
7
  6
CONTINUOUS
 10
22.1259481464
 20
64.7046408632
 11
34.6960412988
 21
64.7046408632
  0
LINE
  5
234
100
AcDbEntity
  8
0
100
AcDbLine
 62
7
  6
CONTINUOUS
 10
38.3759433007
 20
64.7046408632
 11
38.5759433007
 21
64.7046408632
  0
LINE
  5
235
100
AcDbEntity
  8
0
100
AcDbLine
 62
7
  6
CONTINUOUS
 10
34.6959439581
 20
65.2046408175
 11
23.9259433007
 21
65.204640839
  0
LINE
  5
236
100
AcDbEntity
  8
0
100
AcDbLine
 62
7
  6
CONTINUOUS
 10
111.5259433007
 20
73.0046408632
 11
110.2259433007
 21
73.0046408632
  0
LINE
  5
237
100
AcDbEntity
  8
0
100
AcDbLine
 62
7
  6
CONTINUOUS
 10
112.2259433007
 20
74.0046408632
 11
111.9259433007
 21
74.0046408632
  0
LINE
  5
238
100
AcDbEntity
  8
0
100
AcDbLine
 62
7
  6
CONTINUOUS
 10
14.4759504134
 20
75.8046408632
 11
23.9259433007
 21
75.8046408632
  0
LINE
  5
239
100
AcDbEntity
  8
0
100
AcDbLine
 62
7
  6
CONTINUOUS
 10
65.1759433007
 20
60.3046408632
 11
65.1759433007
 21
60.7046408632
  0
LINE
  5
23A
100
AcDbEntity
  8
0
100
AcDbLine
 62
7
  6
CONTINUOUS
 10
65.1759433007
 20
120.3046408632
 11
65.1759433007
 21
120.7046408632
  0
LINE
  5
23B
100
AcDbEntity
  8
0
100
AcDbLine
 62
7
  6
CONTINUOUS
 10
70.4759433007
 20
48.9862757667
 11
70.4759433007
 21
60.3046408632
  0
LINE
  5
23C
100
AcDbEntity
  8
0
100
AcDbLine
 62
7
  6
CONTINUOUS
 10
70.4759433007
 20
120.7046408632
 11
70.4759433007
 21
132.0230059596
  0
LINE
  5
23D
100
AcDbEntity
  8
0
100
AcDbLine
 62
7
  6
CONTINUOUS
 10
70.5259433007
 20
126.4046408632
 11
70.5259433007
 21
120.3046408632
  0
LINE
  5
23E
100
AcDbEntity
  8
0
100
AcDbLine
 62
7
  6
CONTINUOUS
 10
70.5259433007
 20
60.7046408632
 11
70.5259433007
 21
54.6046408632
  0
LINE
  5
23F
100
AcDbEntity
  8
0
100
AcDbLine
 62
7
  6
CONTINUOUS
 10
77.7259433007
 20
54.6046408632
 11
77.7259433007
 21
60.2046408632
  0
LINE
  5
240
100
AcDbEntity
  8
0
100
AcDbLine
 62
7
  6
CONTINUOUS
 10
77.7259433007
 20
120.8046408632
 11
77.7259433007
 21
126.4046408632
  0
LINE
  5
241
100
AcDbEntity
  8
0
100
AcDbLine
 62
7
  6
CONTINUOUS
 10
115.7259433007
 20
71.5539144794
 11
112.2259433007
 21
74.0046408632
  0
LINE
  5
242
100
AcDbEntity
  8
0
100
AcDbLine
 62
7
  6
CONTINUOUS
 10
23.9259433007
 20
105.3583220024
 11
14.475943364
 21
105.1108650452
  0
LINE
  5
243
100
AcDbEntity
  8
0
100
AcDbLine
 62
7
  6
CONTINUOUS
 10
111.3259433007
 20
106.3046408632
 11
114.5259433007
 21
106.3046408632
  0
LINE
  5
244
100
AcDbEntity
  8
0
100
AcDbLine
 62
7
  6
CONTINUOUS
 10
109.5259433007
 20
110.2046408632
 11
111.3259433007
 21
110.2046408632
  0
LINE
  5
245
100
AcDbEntity
  8
0
100
AcDbLine
 62
7
  6
CONTINUOUS
 10
114.5259433007
 20
106.3046408632
 11
115.7259433007
 21
107.5046408632
  0
LINE
  5
246
100
AcDbEntity
  8
0
100
AcDbLine
 62
7
  6
CONTINUOUS
 10
23.9259433007
 20
115.8046408874
 11
34.6959444844
 21
115.8046409667
  0
LINE
  5
247
100
AcDbEntity
  8
0
100
AcDbLine
 62
7
  6
CONTINUOUS
 10
22.1259481503
 20
116.3046408632
 11
34.6960292096
 21
116.3046408632
  0
LINE
  5
248
100
AcDbEntity
  8
0
100
AcDbLine
 62
7
  6
CONTINUOUS
 10
38.3759433007
 20
116.3046408632
 11
38.5759433007
 21
116.3046408632
  0
LINE
  5
249
100
AcDbEntity
  8
0
100
AcDbLine
 62
7
  6
CONTINUOUS
 10
38.3759433006
 20
116.3308353913
 11
34.6959444844
 21
115.8046409667
  0
LINE
  5
24A
100
AcDbEntity
  8
0
100
AcDbLine
 62
7
  6
CONTINUOUS
 10
70.5259433007
 20
120.3046408632
 11
65.1759433007
 21
120.3046408632
  0
LINE
  5
24B
100
AcDbEntity
  8
0
100
AcDbLine
 62
7
  6
CONTINUOUS
 10
65.1759433007
 20
120.7046408632
 11
70.4759433007
 21
120.7046408632
  0
LINE
  5
24C
100
AcDbEntity
  8
0
100
AcDbLine
 62
7
  6
CONTINUOUS
 10
108.7259433007
 20
120.8046408632
 11
77.7259433007
 21
120.8046408632
  0
LINE
  5
24D
100
AcDbEntity
  8
0
100
AcDbLine
 62
7
  6
CONTINUOUS
 10
34.6960323149
 20
116.3045717897
 11
38.2814218005
 21
117.2789532774
  0
LINE
  5
24E
100
AcDbEntity
  8
0
100
AcDbLine
 62
7
  6
CONTINUOUS
 10
77.7259433007
 20
123.5046408632
 11
108.7259433007
 21
123.5046408632
  0
LINE
  5
24F
100
AcDbEntity
  8
0
100
AcDbLine
 62
7
  6
CONTINUOUS
 10
77.7259433007
 20
126.4046408632
 11
70.5259433007
 21
126.4046408632
  0
LINE
  5
250
100
AcDbEntity
  8
0
100
AcDbLine
 62
7
  6
CONTINUOUS
 10
108.7259433007
 20
126.4208393503
 11
115.6815372202
 21
126.4208393503
  0
LINE
  5
251
100
AcDbEntity
  8
0
100
AcDbLine
 62
7
  6
CONTINUOUS
 10
115.3546182483
 20
128.2748889721
 11
108.7259433007
 21
128.2748889721
  0
LINE
  5
252
100
AcDbEntity
  8
0
100
AcDbLine
 62
7
  6
CONTINUOUS
 10
115.2259433007
 20
129.0046408629
 11
108.7259433007
 21
129.0046408629
  0
LINE
  5
253
100
AcDbEntity
  8
0
100
AcDbLine
 62
7
  6
CONTINUOUS
 10
108.7259433007
 20
52.0046647052
 11
108.7259433007
 21
60.2046408632
  0
LINE
  5
254
100
AcDbEntity
  8
0
100
AcDbLine
 62
7
  6
CONTINUOUS
 10
108.7259433007
 20
120.8046408632
 11
108.7259433007
 21
129.0046170204
  0
LINE
  5
255
100
AcDbEntity
  8
0
100
AcDbLine
 62
7
  6
CONTINUOUS
 10
36.5759433007
 20
132.9046408632
 11
63.2887267125
 21
132.9046408632
  0
LINE
  5
256
100
AcDbEntity
  8
0
100
AcDbLine
 62
7
  6
CONTINUOUS
 10
70.4759433007
 20
132.0230059596
 11
67.6299311542
 21
132.5248346885
  0
LINE
  5
257
100
AcDbEntity
  8
0
100
AcDbLine
 62
7
  6
CONTINUOUS
 10
110.2259433007
 20
73.0046408632
 11
110.2259433007
 21
106.3046408632
  0
LINE
  5
258
100
AcDbEntity
  8
0
100
AcDbLine
 62
7
  6
CONTINUOUS
 10
111.3259433007
 20
110.2046408632
 11
111.3259433007
 21
106.3046408632
  0
LINE
  5
259
100
AcDbEntity
  8
0
100
AcDbLine
 62
7
  6
CONTINUOUS
 10
111.5259433007
 20
73.6046408632
 11
111.5259433007
 21
73.0046408632
  0
LINE
  5
25A
100
AcDbEntity
  8
0
100
AcDbLine
 62
7
  6
CONTINUOUS
 10
111.9259433007
 20
74.0046408632
 11
111.5259433007
 21
73.6046408632
  0
LINE
  5
25B
100
AcDbEntity
  8
0
100
AcDbLine
 62
7
  6
CONTINUOUS
 10
110.2259433007
 20
106.3046408632
 11
109.5259433007
 21
110.2046408632
  0
LINE
  5
25C
100
AcDbEntity
  8
0
100
AcDbLine
 62
7
  6
CONTINUOUS
 10
115.7259433007
 20
52.0046647052
 11
115.7259433007
 21
71.5539144794
  0
LINE
  5
25D
100
AcDbEntity
  8
0
100
AcDbLine
 62
7
  6
CONTINUOUS
 10
115.7259433007
 20
107.5046408632
 11
115.7259433007
 21
126.1689999533
  0
LINE
  5
25E
100
AcDbEntity
  8
0
100
AcDbLine
 62
7
  6
CONTINUOUS
 10
115.7259433007
 20
126.1689999533
 11
115.2259482127
 21
129.0046130058
  0
ARC
  5
25F
100
AcDbEntity
  8
0
100
AcDbCircle
 62
7
  6
CONTINUOUS
 10
63.2887267125
 20
107.9046408632
 40
25.0
100
AcDbArc
 50
80.0
 51
90.0
  0
ARC
  5
260
100
AcDbEntity
  8
0
100
AcDbCircle
 62
7
  6
CONTINUOUS
 10
63.2887267125
 20
73.1046408632
 40
25.0
100
AcDbArc
 50
269.9999999992
 51
280.0000000001
  0
SPLINE
  5
261
100
AcDbEntity
  8
0
100
AcDbSpline
 62
7
  6
CONTINUOUS
 70
0
 71
3
 72
20
 73
16
 74
0
 42
0.0000001
 43
0.0000001
 44
0.0000000001
 40
0.0
 40
0.0
 40
0.0
 40
0.0
 40
0.1943294921
 40
0.3813323407
 40
0.5535601962
 40
0.7046121828
 40
0.7703314317
 40
0.828676542
 40
0.879086478
 40
0.9210814367
 40
0.9543082496
 40
0.978457992
 40
0.9934374754
 40
0.9976134858
 40
1.0
 40
1.0
 40
1.0
 40
1.0
 10
36.8586165218
 20
124.9046408632
 30
0.0
 10
36.8586165218
 20
124.6964689248
 30
0.0
 10
36.8559508948
 20
124.2879685247
 30
0.0
 10
36.8442823801
 20
123.6950743636
 30
0.0
 10
36.8258925954
 20
123.1487345188
 30
0.0
 10
36.8054748911
 20
122.7325042097
 30
0.0
 10
36.7865983215
 20
122.4383885548
 30
0.0
 10
36.7724882556
 20
122.2520201822
 30
0.0
 10
36.7580224299
 20
122.0911573279
 30
0.0
 10
36.7434973817
 20
121.9574010142
 30
0.0
 10
36.729138037
 20
121.851776277
 30
0.0
 10
36.7155643357
 20
121.7757309243
 30
0.0
 10
36.7034457669
 20
121.7302950013
 30
0.0
 10
36.6937162395
 20
121.7097509593
 30
0.0
 10
36.6875412139
 20
121.7046426847
 30
0.0
 10
36.6849847038
 20
121.7046427204
 30
0.0
  0
SPLINE
  5
262
100
AcDbEntity
  8
0
100
AcDbSpline
 62
7
  6
CONTINUOUS
 70
0
 71
3
 72
17
 73
13
 74
0
 42
0.0000001
 43
0.0000001
 44
0.0000000001
 40
0.0
 40
0.0
 40
0.0
 40
0.0
 40
0.375229425
 40
0.5447062665
 40
0.6935168927
 40
0.758437785
 40
0.8162855887
 40
0.8665834009
 40
0.9089621785
 40
0.943229487
 40
0.9693692363
 40
1.0
 40
1.0
 40
1.0
 40
1.0
 10
38.0040594656
 20
124.9046408632
 30
0.0
 10
38.0040594656
 20
124.4946426669
 30
0.0
 10
37.9874468494
 20
123.8991765533
 30
0.0
 10
37.9284718411
 20
123.1435869531
 30
0.0
 10
37.879940675
 20
122.727540679
 30
0.0
 10
37.8339193419
 20
122.4343258829
 30
0.0
 10
37.7988817552
 20
122.248522023
 30
0.0
 10
37.7620297565
 20
122.0879833144
 30
0.0
 10
37.7244726564
 20
121.9549531612
 30
0.0
 10
37.6850131099
 20
121.8479903064
 30
0.0
 10
37.6432145344
 20
121.7624695463
 30
0.0
 10
37.5941967968
 20
121.7046423738
 30
0.0
 10
37.5607277855
 20
121.7046427411
 30
0.0
  0
SPLINE
  5
263
100
AcDbEntity
  8
0
100
AcDbSpline
 62
7
  6
CONTINUOUS
 70
0
 71
3
 72
17
 73
13
 74
0
 42
0.0000001
 43
0.0000001
 44
0.0000000001
 40
0.0
 40
0.0
 40
0.0
 40
0.0
 40
0.375229425
 40
0.5447062665
 40
0.6935168927
 40
0.758437785
 40
0.8162855887
 40
0.8665834009
 40
0.9089621785
 40
0.943229487
 40
0.9693692363
 40
1.0
 40
1.0
 40
1.0
 40
1.0
 10
38.0040594656
 20
56.1046408632
 30
0.0
 10
38.0040594656
 20
55.6946426669
 30
0.0
 10
37.9874468494
 20
55.0991765533
 30
0.0
 10
37.9284718411
 20
54.3435869531
 30
0.0
 10
37.879940675
 20
53.927540679
 30
0.0
 10
37.8339193419
 20
53.6343258829
 30
0.0
 10
37.7988817552
 20
53.448522023
 30
0.0
 10
37.7620297565
 20
53.2879833144
 30
0.0
 10
37.7244726564
 20
53.1549531612
 30
0.0
 10
37.6850131099
 20
53.0479903064
 30
0.0
 10
37.6432145344
 20
52.9624695463
 30
0.0
 10
37.5941967968
 20
52.9046423738
 30
0.0
 10
37.5607277855
 20
52.9046427411
 30
0.0
  0
SPLINE
  5
264
100
AcDbEntity
  8
0
100
AcDbSpline
 62
7
  6
CONTINUOUS
 70
0
 71
3
 72
20
 73
16
 74
0
 42
0.0000001
 43
0.0000001
 44
0.0000000001
 40
0.0
 40
0.0
 40
0.0
 40
0.0
 40
0.1943294921
 40
0.3813323407
 40
0.5535601962
 40
0.7046121828
 40
0.7703314317
 40
0.828676542
 40
0.879086478
 40
0.9210814367
 40
0.9543082496
 40
0.978457992
 40
0.9934374754
 40
0.9976134858
 40
1.0
 40
1.0
 40
1.0
 40
1.0
 10
36.8586165218
 20
56.1046408632
 30
0.0
 10
36.8586165218
 20
55.8964689248
 30
0.0
 10
36.8559508948
 20
55.4879685247
 30
0.0
 10
36.8442823801
 20
54.8950743636
 30
0.0
 10
36.8258925954
 20
54.3487345188
 30
0.0
 10
36.8054748911
 20
53.9325042097
 30
0.0
 10
36.7865983215
 20
53.6383885548
 30
0.0
 10
36.7724882556
 20
53.4520201822
 30
0.0
 10
36.7580224299
 20
53.2911573279
 30
0.0
 10
36.7434973817
 20
53.1574010142
 30
0.0
 10
36.729138037
 20
53.051776277
 30
0.0
 10
36.7155643357
 20
52.9757309243
 30
0.0
 10
36.7034457669
 20
52.9302950013
 30
0.0
 10
36.6937162395
 20
52.9097509593
 30
0.0
 10
36.6875412139
 20
52.9046426847
 30
0.0
 10
36.6849847038
 20
52.9046427204
 30
0.0
  0
SPLINE
  5
265
100
AcDbEntity
  8
0
100
AcDbSpline
 62
7
  6
CONTINUOUS
 70
0
 71
3
 72
17
 73
13
 74
0
 42
0.0000001
 43
0.0000001
 44
0.0000000001
 40
0.0
 40
0.0
 40
0.0
 40
0.0
 40
0.0306327749
 40
0.0567738645
 40
0.0910435865
 40
0.1334247556
 40
0.1837240903
 40
0.2415741365
 40
0.306495979
 40
0.4553069408
 40
0.6247813103
 40
1.0
 40
1.0
 40
1.0
 40
1.0
 10
37.5607277868
 20
128.1046389785
 30
0.0
 10
37.5941989885
 20
128.1046379298
 30
0.0
 10
37.6432173147
 20
128.0468061235
 30
0.0
 10
37.6850186562
 20
127.9612799239
 30
0.0
 10
37.7244782634
 20
127.85430981
 30
0.0
 10
37.7620360735
 20
127.72127279
 30
0.0
 10
37.7988889508
 20
127.5607273863
 30
0.0
 10
37.8339252143
 20
127.3749180787
 30
0.0
 10
37.8799465754
 20
127.0816994631
 30
0.0
 10
37.9284751165
 20
126.6656542611
 30
0.0
 10
37.9874481731
 20
125.9100788162
 30
0.0
 10
38.0040594656
 20
125.3146272427
 30
0.0
 10
38.0040594656
 20
124.9046408632
 30
0.0
  0
SPLINE
  5
266
100
AcDbEntity
  8
0
100
AcDbSpline
 62
7
  6
CONTINUOUS
 70
0
 71
3
 72
20
 73
16
 74
0
 42
0.0000001
 43
0.0000001
 44
0.0000000001
 40
0.0
 40
0.0
 40
0.0
 40
0.0
 40
0.0023864793
 40
0.0065625414
 40
0.021542232
 40
0.0456920056
 40
0.0789191947
 40
0.1209143339
 40
0.1713236678
 40
0.22966805
 40
0.2953865202
 40
0.4464371531
 40
0.6186655108
 40
0.8056698211
 40
1.0
 40
1.0
 40
1.0
 40
1.0
 10
36.684984704
 20
128.104639002
 30
0.0
 10
36.6875411767
 20
128.1046391973
 30
0.0
 10
36.6937163379
 20
128.0995308285
 30
0.0
 10
36.7034456563
 20
128.0789865498
 30
0.0
 10
36.7155644193
 20
128.0335502891
 30
0.0
 10
36.7291382226
 20
127.9575043147
 30
0.0
 10
36.743497525
 20
127.851878921
 30
0.0
 10
36.758022571
 20
127.7181226612
 30
0.0
 10
36.7724883575
 20
127.5572610366
 30
0.0
 10
36.7865981844
 20
127.3708949101
 30
0.0
 10
36.8054745373
 20
127.0767823098
 30
0.0
 10
36.8258924054
 20
126.6605537535
 30
0.0
 10
36.8442821738
 20
126.1142132477
 30
0.0
 10
36.8559508656
 20
125.5213162451
 30
0.0
 10
36.8586165218
 20
125.1128135392
 30
0.0
 10
36.8586165218
 20
124.9046408632
 30
0.0
  0
SPLINE
  5
267
100
AcDbEntity
  8
0
100
AcDbSpline
 62
7
  6
CONTINUOUS
 70
0
 71
3
 72
20
 73
16
 74
0
 42
0.0000001
 43
0.0000001
 44
0.0000000001
 40
0.0
 40
0.0
 40
0.0
 40
0.0
 40
0.0023864793
 40
0.0065625414
 40
0.021542232
 40
0.0456920056
 40
0.0789191947
 40
0.1209143339
 40
0.1713236678
 40
0.22966805
 40
0.2953865202
 40
0.4464371531
 40
0.6186655108
 40
0.8056698211
 40
1.0
 40
1.0
 40
1.0
 40
1.0
 10
36.684984704
 20
59.304639002
 30
0.0
 10
36.6875411767
 20
59.3046391973
 30
0.0
 10
36.6937163379
 20
59.2995308285
 30
0.0
 10
36.7034456563
 20
59.2789865498
 30
0.0
 10
36.7155644193
 20
59.2335502891
 30
0.0
 10
36.7291382226
 20
59.1575043147
 30
0.0
 10
36.743497525
 20
59.051878921
 30
0.0
 10
36.758022571
 20
58.9181226612
 30
0.0
 10
36.7724883575
 20
58.7572610366
 30
0.0
 10
36.7865981844
 20
58.5708949101
 30
0.0
 10
36.8054745373
 20
58.2767823098
 30
0.0
 10
36.8258924054
 20
57.8605537535
 30
0.0
 10
36.8442821738
 20
57.3142132477
 30
0.0
 10
36.8559508656
 20
56.7213162451
 30
0.0
 10
36.8586165218
 20
56.3128135392
 30
0.0
 10
36.8586165218
 20
56.1046408632
 30
0.0
  0
SPLINE
  5
268
100
AcDbEntity
  8
0
100
AcDbSpline
 62
7
  6
CONTINUOUS
 70
0
 71
3
 72
17
 73
13
 74
0
 42
0.0000001
 43
0.0000001
 44
0.0000000001
 40
0.0
 40
0.0
 40
0.0
 40
0.0
 40
0.0306327749
 40
0.0567738645
 40
0.0910435865
 40
0.1334247556
 40
0.1837240903
 40
0.2415741365
 40
0.306495979
 40
0.4553069408
 40
0.6247813103
 40
1.0
 40
1.0
 40
1.0
 40
1.0
 10
37.5607277868
 20
59.3046389785
 30
0.0
 10
37.5941989885
 20
59.3046379298
 30
0.0
 10
37.6432173147
 20
59.2468061235
 30
0.0
 10
37.6850186562
 20
59.1612799239
 30
0.0
 10
37.7244782634
 20
59.05430981
 30
0.0
 10
37.7620360735
 20
58.92127279
 30
0.0
 10
37.7988889508
 20
58.7607273863
 30
0.0
 10
37.8339252143
 20
58.5749180787
 30
0.0
 10
37.8799465754
 20
58.2816994631
 30
0.0
 10
37.9284751165
 20
57.8656542611
 30
0.0
 10
37.9874481731
 20
57.1100788162
 30
0.0
 10
38.0040594656
 20
56.5146272427
 30
0.0
 10
38.0040594656
 20
56.1046408632
 30
0.0
  0
SPLINE
  5
269
100
AcDbEntity
  8
0
100
AcDbSpline
 62
7
  6
CONTINUOUS
 70
0
 71
3
 72
14
 73
10
 74
0
 42
0.0000001
 43
0.0000001
 44
0.0000000001
 40
0.0
 40
0.0
 40
0.0
 40
0.0
 40
0.0495855064
 40
0.110950758
 40
0.1950208033
 40
0.3052258644
 40
0.4419478557
 40
0.6044726165
 40
1.0
 40
1.0
 40
1.0
 40
1.0
 10
38.2813966515
 20
63.7303079923
 30
0.0
 10
38.2855097955
 20
63.7291864846
 30
0.0
 10
38.2958203941
 20
63.7301946511
 30
0.0
 10
38.3089417242
 20
63.7415092596
 30
0.0
 10
38.3211813212
 20
63.7598304392
 30
0.0
 10
38.3331287891
 20
63.7857706939
 30
0.0
 10
38.3447547421
 20
63.8190224836
 30
0.0
 10
38.3607156814
 20
63.8766215955
 30
0.0
 10
38.3701103326
 20
63.9237373527
 30
0.0
 10
38.3759433007
 20
63.9572403315
 30
0.0
  0
SPLINE
  5
26A
100
AcDbEntity
  8
0
100
AcDbSpline
 62
7
  6
CONTINUOUS
 70
0
 71
3
 72
19
 73
15
 74
0
 42
0.0000001
 43
0.0000001
 44
0.0000000001
 40
0.0
 40
0.0
 40
0.0
 40
0.0
 40
0.0119872218
 40
0.0200608788
 40
0.029948476
 40
0.0556891324
 40
0.0897240197
 40
0.1319840252
 40
0.1822411613
 40
0.2401159777
 40
0.3051127467
 40
0.4541823697
 40
0.6239994274
 40
1.0
 40
1.0
 40
1.0
 40
1.0
 10
23.0299614604
 20
67.9546414866
 30
0.0
 10
23.043226835
 20
67.9546364459
 30
0.0
 10
23.064813901
 20
67.9662607699
 30
0.0
 10
23.0867946081
 20
67.9907565889
 30
0.0
 10
23.1137967553
 20
68.0312006674
 30
0.0
 10
23.1454602193
 20
68.1018104385
 30
0.0
 10
23.1810483304
 20
68.2090542582
 30
0.0
 10
23.215994758
 20
68.3447613489
 30
0.0
 10
23.2499126996
 20
68.5077345264
 30
0.0
 10
23.2822801798
 20
68.6966036471
 30
0.0
 10
23.3247479569
 20
68.994559037
 30
0.0
 10
23.3695244415
 20
69.4171481328
 30
0.0
 10
23.4239102515
 20
70.1842891822
 30
0.0
 10
23.4392204379
 20
70.7885487199
 30
0.0
 10
23.4392204379
 20
71.2046408632
 30
0.0
  0
SPLINE
  5
26B
100
AcDbEntity
  8
0
100
AcDbSpline
 62
7
  6
CONTINUOUS
 70
0
 71
3
 72
21
 73
17
 74
0
 42
0.0000001
 43
0.0000001
 44
0.0000000001
 40
0.0
 40
0.0
 40
0.0
 40
0.0
 40
0.0022297718
 40
0.0063161593
 40
0.0211988091
 40
0.0452960921
 40
0.0784973785
 40
0.1204848375
 40
0.1708999874
 40
0.2292630971
 40
0.2950093272
 40
0.3675425185
 40
0.4461396164
 40
0.618463829
 40
0.8055661903
 40
1.0
 40
1.0
 40
1.0
 40
1.0
 10
22.2261017889
 20
67.954640877
 30
0.0
 10
22.2285260789
 20
67.9546404097
 30
0.0
 10
22.2343209391
 20
67.9600748991
 30
0.0
 10
22.2431324155
 20
67.9807827284
 30
0.0
 10
22.2544368536
 20
68.0270107517
 30
0.0
 10
22.2669095856
 20
68.1041369468
 30
0.0
 10
22.2802183376
 20
68.2114403337
 30
0.0
 10
22.2936438368
 20
68.3472870167
 30
0.0
 10
22.3070331993
 20
68.5106846819
 30
0.0
 10
22.3200870257
 20
68.6999815229
 30
0.0
 10
22.3325773531
 20
68.9134189128
 30
0.0
 10
22.3442469469
 20
69.1489281984
 30
0.0
 10
22.3588941532
 20
69.500297888
 30
0.0
 10
22.3734734772
 20
69.9763264654
 30
0.0
 10
22.3842841191
 20
70.5784204829
 30
0.0
 10
22.3867491134
 20
70.993245264
 30
0.0
 10
22.3867491134
 20
71.2046408632
 30
0.0
  0
SPLINE
  5
26C
100
AcDbEntity
  8
0
100
AcDbSpline
 62
7
  6
CONTINUOUS
 70
0
 71
3
 72
14
 73
10
 74
0
 42
0.0000001
 43
0.0000001
 44
0.0000000001
 40
0.0
 40
0.0
 40
0.0
 40
0.0
 40
0.3955879323
 40
0.5581252993
 40
0.6948377771
 40
0.8050185685
 40
0.889060037
 40
0.9504102524
 40
1.0
 40
1.0
 40
1.0
 40
1.0
 10
38.3759433007
 20
117.0520564244
 30
0.0
 10
38.3701105017
 20
117.0855616791
 30
0.0
 10
38.3607169741
 20
117.1326797964
 30
0.0
 10
38.3447562504
 20
117.1902792001
 30
0.0
 10
38.3331298665
 20
117.223525789
 30
0.0
 10
38.3211816506
 20
117.2494569006
 30
0.0
 10
38.3089411467
 20
117.2677689659
 30
0.0
 10
38.2958167252
 20
117.2790720815
 30
0.0
 10
38.2855098595
 20
117.2800784422
 30
0.0
 10
38.281396156
 20
117.2789590285
 30
0.0
  0
SPLINE
  5
26D
100
AcDbEntity
  8
0
100
AcDbSpline
 62
7
  6
CONTINUOUS
 70
0
 71
3
 72
19
 73
15
 74
0
 42
0.0000001
 43
0.0000001
 44
0.0000000001
 40
0.0
 40
0.0
 40
0.0
 40
0.0
 40
0.0119872218
 40
0.0200608788
 40
0.029948476
 40
0.0556891324
 40
0.0897240197
 40
0.1319840252
 40
0.1822411613
 40
0.2401159777
 40
0.3051127467
 40
0.4541823697
 40
0.6239994274
 40
1.0
 40
1.0
 40
1.0
 40
1.0
 10
23.0299614604
 20
106.5546414866
 30
0.0
 10
23.043226835
 20
106.5546364459
 30
0.0
 10
23.064813901
 20
106.5662607699
 30
0.0
 10
23.0867946081
 20
106.5907565889
 30
0.0
 10
23.1137967553
 20
106.6312006674
 30
0.0
 10
23.1454602193
 20
106.7018104385
 30
0.0
 10
23.1810483304
 20
106.8090542582
 30
0.0
 10
23.215994758
 20
106.9447613489
 30
0.0
 10
23.2499126996
 20
107.1077345264
 30
0.0
 10
23.2822801798
 20
107.2966036471
 30
0.0
 10
23.3247479569
 20
107.594559037
 30
0.0
 10
23.3695244415
 20
108.0171481328
 30
0.0
 10
23.4239102515
 20
108.7842891822
 30
0.0
 10
23.4392204379
 20
109.3885487199
 30
0.0
 10
23.4392204379
 20
109.8046408632
 30
0.0
  0
SPLINE
  5
26E
100
AcDbEntity
  8
0
100
AcDbSpline
 62
7
  6
CONTINUOUS
 70
0
 71
3
 72
21
 73
17
 74
0
 42
0.0000001
 43
0.0000001
 44
0.0000000001
 40
0.0
 40
0.0
 40
0.0
 40
0.0
 40
0.0022297718
 40
0.0063161593
 40
0.0211988091
 40
0.0452960921
 40
0.0784973785
 40
0.1204848375
 40
0.1708999874
 40
0.2292630971
 40
0.2950093272
 40
0.3675425185
 40
0.4461396164
 40
0.618463829
 40
0.8055661903
 40
1.0
 40
1.0
 40
1.0
 40
1.0
 10
22.2261017889
 20
106.554640877
 30
0.0
 10
22.2285260789
 20
106.5546404097
 30
0.0
 10
22.234320939
 20
106.5600748991
 30
0.0
 10
22.2431324155
 20
106.5807827284
 30
0.0
 10
22.2544368536
 20
106.6270107517
 30
0.0
 10
22.2669095856
 20
106.7041369468
 30
0.0
 10
22.2802183376
 20
106.8114403337
 30
0.0
 10
22.2936438368
 20
106.9472870167
 30
0.0
 10
22.3070331993
 20
107.1106846819
 30
0.0
 10
22.3200870257
 20
107.2999815229
 30
0.0
 10
22.3325773531
 20
107.5134189128
 30
0.0
 10
22.3442469469
 20
107.7489281984
 30
0.0
 10
22.3588941532
 20
108.100297888
 30
0.0
 10
22.3734734772
 20
108.5763264654
 30
0.0
 10
22.3842841191
 20
109.1784204829
 30
0.0
 10
22.3867491134
 20
109.593245264
 30
0.0
 10
22.3867491134
 20
109.8046408632
 30
0.0
  0
SPLINE
  5
26F
100
AcDbEntity
  8
0
100
AcDbSpline
 62
7
  6
CONTINUOUS
 70
0
 71
3
 72
21
 73
17
 74
0
 42
0.0000001
 43
0.0000001
 44
0.0000000001
 40
0.0
 40
0.0
 40
0.0
 40
0.0
 40
0.1944354963
 40
0.3815471774
 40
0.5538765573
 40
0.6324738057
 40
0.705008304
 40
0.770754209
 40
0.8291143507
 40
0.8795284268
 40
0.9215116485
 40
0.9547086971
 40
0.9788049206
 40
0.9936846577
 40
0.9977701552
 40
1.0
 40
1.0
 40
1.0
 40
1.0
 10
22.3867491134
 20
109.8046408632
 30
0.0
 10
22.3867491134
 20
110.0160382748
 30
0.0
 10
22.3842836836
 20
110.4308749806
 30
0.0
 10
22.3734725423
 20
111.0329865098
 30
0.0
 10
22.3588931609
 20
111.5090309687
 30
0.0
 10
22.344244151
 20
111.8604077582
 30
0.0
 10
22.3325740849
 20
112.0959182265
 30
0.0
 10
22.3200839505
 20
112.3093534443
 30
0.0
 10
22.3070291059
 20
112.498645446
 30
0.0
 10
22.2936403172
 20
112.662034079
 30
0.0
 10
22.280215393
 20
112.7978704603
 30
0.0
 10
22.2669067537
 20
112.9051631892
 30
0.0
 10
22.2544349438
 20
112.9822809589
 30
0.0
 10
22.2431325669
 20
113.028503042
 30
0.0
 10
22.2343193468
 20
113.0492072909
 30
0.0
 10
22.2285261187
 20
113.0546398899
 30
0.0
 10
22.2261017497
 20
113.0546408036
 30
0.0
  0
SPLINE
  5
270
100
AcDbEntity
  8
0
100
AcDbSpline
 62
7
  6
CONTINUOUS
 70
0
 71
3
 72
19
 73
15
 74
0
 42
0.0000001
 43
0.0000001
 44
0.0000000001
 40
0.0
 40
0.0
 40
0.0
 40
0.0
 40
0.37599167
 40
0.5458125762
 40
0.69488702
 40
0.7598856816
 40
0.8177605071
 40
0.8680203012
 40
0.910277876
 40
0.944311592
 40
0.9700545332
 40
0.9799405444
 40
0.988012495
 40
1.0
 40
1.0
 40
1.0
 40
1.0
 10
23.4392204379
 20
109.8046408632
 30
0.0
 10
23.4392204379
 20
110.2207230949
 30
0.0
 10
23.4239096683
 20
110.824976846
 30
0.0
 10
23.3695267996
 20
111.5921177955
 30
0.0
 10
23.3247474373
 20
112.0147182353
 30
0.0
 10
23.2822804596
 20
112.3126812416
 30
0.0
 10
23.2499092833
 20
112.5015548222
 30
0.0
 10
23.215994709
 20
112.664528813
 30
0.0
 10
23.181046965
 20
112.8002349081
 30
0.0
 10
23.1454541441
 20
112.9074748202
 30
0.0
 10
23.1137979168
 20
112.9780880077
 30
0.0
 10
23.0867935917
 20
113.0185289984
 30
0.0
 10
23.0648090501
 20
113.0430190043
 30
0.0
 10
23.0432266715
 20
113.0546368935
 30
0.0
 10
23.0299609849
 20
113.0546405427
 30
0.0
  0
SPLINE
  5
271
100
AcDbEntity
  8
0
100
AcDbSpline
 62
7
  6
CONTINUOUS
 70
0
 71
3
 72
21
 73
17
 74
0
 42
0.0000001
 43
0.0000001
 44
0.0000000001
 40
0.0
 40
0.0
 40
0.0
 40
0.0
 40
0.1944354963
 40
0.3815471774
 40
0.5538765573
 40
0.6324738057
 40
0.705008304
 40
0.770754209
 40
0.8291143507
 40
0.8795284268
 40
0.9215116485
 40
0.9547086971
 40
0.9788049206
 40
0.9936846577
 40
0.9977701552
 40
1.0
 40
1.0
 40
1.0
 40
1.0
 10
22.3867491134
 20
71.2046408632
 30
0.0
 10
22.3867491134
 20
71.4160382748
 30
0.0
 10
22.3842836836
 20
71.8308749806
 30
0.0
 10
22.3734725423
 20
72.4329865098
 30
0.0
 10
22.3588931609
 20
72.9090309687
 30
0.0
 10
22.344244151
 20
73.2604077582
 30
0.0
 10
22.3325740849
 20
73.4959182265
 30
0.0
 10
22.3200839505
 20
73.7093534443
 30
0.0
 10
22.3070291059
 20
73.898645446
 30
0.0
 10
22.2936403172
 20
74.062034079
 30
0.0
 10
22.280215393
 20
74.1978704603
 30
0.0
 10
22.2669067537
 20
74.3051631892
 30
0.0
 10
22.2544349438
 20
74.3822809589
 30
0.0
 10
22.2431325669
 20
74.428503042
 30
0.0
 10
22.2343193468
 20
74.4492072909
 30
0.0
 10
22.2285261187
 20
74.4546398899
 30
0.0
 10
22.2261017497
 20
74.4546408036
 30
0.0
  0
SPLINE
  5
272
100
AcDbEntity
  8
0
100
AcDbSpline
 62
7
  6
CONTINUOUS
 70
0
 71
3
 72
19
 73
15
 74
0
 42
0.0000001
 43
0.0000001
 44
0.0000000001
 40
0.0
 40
0.0
 40
0.0
 40
0.0
 40
0.37599167
 40
0.5458125762
 40
0.69488702
 40
0.7598856816
 40
0.8177605071
 40
0.8680203012
 40
0.910277876
 40
0.944311592
 40
0.9700545332
 40
0.9799405444
 40
0.988012495
 40
1.0
 40
1.0
 40
1.0
 40
1.0
 10
23.4392204379
 20
71.2046408632
 30
0.0
 10
23.4392204379
 20
71.6207230949
 30
0.0
 10
23.4239096683
 20
72.224976846
 30
0.0
 10
23.3695267997
 20
72.9921177955
 30
0.0
 10
23.3247474373
 20
73.4147182353
 30
0.0
 10
23.2822804596
 20
73.7126812416
 30
0.0
 10
23.2499092833
 20
73.9015548222
 30
0.0
 10
23.215994709
 20
74.064528813
 30
0.0
 10
23.181046965
 20
74.2002349081
 30
0.0
 10
23.1454541441
 20
74.3074748202
 30
0.0
 10
23.1137979168
 20
74.3780880077
 30
0.0
 10
23.0867935917
 20
74.4185289984
 30
0.0
 10
23.0648090501
 20
74.4430190043
 30
0.0
 10
23.0432266715
 20
74.4546368935
 30
0.0
 10
23.0299609849
 20
74.4546405427
 30
0.0
  0
SPLINE
  5
273
100
AcDbEntity
  8
0
100
AcDbSpline
 62
7
  6
CONTINUOUS
 70
0
 71
3
 72
21
 73
17
 74
0
 42
0.0000001
 43
0.0000001
 44
0.0000000001
 40
0.0
 40
0.0
 40
0.0
 40
0.0
 40
0.0021841116
 40
0.0061970308
 40
0.0209302894
 40
0.0448944673
 40
0.077986342
 40
0.1198945726
 40
0.1702644276
 40
0.2286128945
 40
0.2943742373
 40
0.3669476384
 40
0.4456034689
 40
0.6180855283
 40
0.8053761302
 40
1.0
 40
1.0
 40
1.0
 40
1.0
 10
22.2261017497
 20
74.4546408036
 30
0.0
 10
22.2237302208
 20
74.4546416974
 30
0.0
 10
22.2180868091
 20
74.449200116
 30
0.0
 10
22.2103152763
 20
74.4283849132
 30
0.0
 10
22.2010600479
 20
74.3821990021
 30
0.0
 10
22.1921055474
 20
74.30509462
 30
0.0
 10
22.1834740349
 20
74.1978187458
 30
0.0
 10
22.1757457099
 20
74.0619608843
 30
0.0
 10
22.1688546331
 20
73.8985301113
 30
0.0
 10
22.1628562592
 20
73.709177758
 30
0.0
 10
22.1577007469
 20
73.4956758584
 30
0.0
 10
22.153363983
 20
73.2601050381
 30
0.0
 10
22.1484352031
 20
72.9086497292
 30
0.0
 10
22.1442296496
 20
72.432615806
 30
0.0
 10
22.141498652
 20
71.8306519839
 30
0.0
 10
22.1409233085
 20
71.4159653038
 30
0.0
 10
22.1409233085
 20
71.2046408632
 30
0.0
  0
SPLINE
  5
274
100
AcDbEntity
  8
0
100
AcDbSpline
 62
7
  6
CONTINUOUS
 70
0
 71
3
 72
17
 73
13
 74
0
 42
0.0000001
 43
0.0000001
 44
0.0000000001
 40
0.0
 40
0.0
 40
0.0
 40
0.0
 40
0.3763876561
 40
0.5463416454
 40
0.6954363884
 40
0.7603825855
 40
0.818161469
 40
0.8682863967
 40
0.9103923435
 40
0.9442996995
 40
0.9700218765
 40
1.0
 40
1.0
 40
1.0
 40
1.0
 10
37.200319867
 20
56.1046408632
 30
0.0
 10
37.200319867
 20
56.5141205188
 30
0.0
 10
37.2109403477
 20
57.1086431961
 30
0.0
 10
37.2514187316
 20
57.864201754
 30
0.0
 10
37.2862724332
 20
58.280601494
 30
0.0
 10
37.3210646095
 20
58.5743201034
 30
0.0
 10
37.3483680786
 20
58.7603434613
 30
0.0
 10
37.3781219927
 20
58.92105062
 30
0.0
 10
37.4094058369
 20
59.0541671309
 30
0.0
 10
37.4437959129
 20
59.1611751794
 30
0.0
 10
37.480816227
 20
59.2466556873
 30
0.0
 10
37.5281139869
 20
59.3046400002
 30
0.0
 10
37.5607277868
 20
59.3046389785
 30
0.0
  0
SPLINE
  5
275
100
AcDbEntity
  8
0
100
AcDbSpline
 62
7
  6
CONTINUOUS
 70
0
 71
3
 72
20
 73
16
 74
0
 42
0.0000001
 43
0.0000001
 44
0.0000000001
 40
0.0
 40
0.0
 40
0.0
 40
0.0
 40
0.1921150153
 40
0.3769651405
 40
0.5471850108
 40
0.6964961961
 40
0.7615149952
 40
0.8193293165
 40
0.8694425824
 40
0.9114663648
 40
0.9451915383
 40
0.9705762391
 40
0.980280772
 40
0.9881869399
 40
1.0
 40
1.0
 40
1.0
 40
1.0
 10
22.6974848602
 20
71.2046408632
 30
0.0
 10
22.6974848602
 20
70.9928022113
 30
0.0
 10
22.7011324705
 20
70.5771264809
 30
0.0
 10
22.717496777
 20
69.9739460246
 30
0.0
 10
22.7445609438
 20
69.4183978518
 30
0.0
 10
22.7766742134
 20
68.9954913189
 30
0.0
 10
22.808735879
 20
68.6971011923
 30
0.0
 10
22.8339480257
 20
68.5080435603
 30
0.0
 10
22.8612708852
 20
68.3449379729
 30
0.0
 10
22.8904372859
 20
68.209161043
 30
0.0
 10
22.9212546114
 20
68.1019169735
 30
0.0
 10
22.9496802179
 20
68.031216324
 30
0.0
 10
22.974857342
 20
67.9907326428
 30
0.0
 10
22.9957335331
 20
67.9661513384
 30
0.0
 10
23.0169356043
 20
67.9546464364
 30
0.0
 10
23.0299614604
 20
67.9546414866
 30
0.0
  0
SPLINE
  5
276
100
AcDbEntity
  8
0
100
AcDbSpline
 62
7
  6
CONTINUOUS
 70
0
 71
3
 72
17
 73
13
 74
0
 42
0.0000001
 43
0.0000001
 44
0.0000000001
 40
0.0
 40
0.0
 40
0.0
 40
0.0
 40
0.0299763107
 40
0.055697609
 40
0.0896030542
 40
0.1317072108
 40
0.1818318771
 40
0.2396099336
 40
0.304556287
 40
0.4536522443
 40
0.6236079872
 40
1.0
 40
1.0
 40
1.0
 40
1.0
 10
37.5607277855
 20
52.9046427411
 30
0.0
 10
37.5281159506
 20
52.9046430991
 30
0.0
 10
37.4808178151
 20
52.9626193266
 30
0.0
 10
37.4438008064
 20
53.0480975014
 30
0.0
 10
37.40940962
 20
53.155099273
 30
0.0
 10
37.3781253977
 20
53.2882116141
 30
0.0
 10
37.3483726486
 20
53.448915748
 30
0.0
 10
37.3210675112
 20
53.6349378913
 30
0.0
 10
37.286274856
 20
53.9286571161
 30
0.0
 10
37.2514199227
 20
54.3450602513
 30
0.0
 10
37.2109406072
 20
55.1006269203
 30
0.0
 10
37.200319867
 20
55.6951563772
 30
0.0
 10
37.200319867
 20
56.1046408632
 30
0.0
  0
SPLINE
  5
277
100
AcDbEntity
  8
0
100
AcDbSpline
 62
7
  6
CONTINUOUS
 70
0
 71
3
 72
21
 73
17
 74
0
 42
0.0000001
 43
0.0000001
 44
0.0000000001
 40
0.0
 40
0.0
 40
0.0
 40
0.0
 40
0.0021841116
 40
0.0061970308
 40
0.0209302894
 40
0.0448944673
 40
0.077986342
 40
0.1198945726
 40
0.1702644276
 40
0.2286128945
 40
0.2943742373
 40
0.3669476384
 40
0.4456034689
 40
0.6180855283
 40
0.8053761302
 40
1.0
 40
1.0
 40
1.0
 40
1.0
 10
22.2261017497
 20
113.0546408036
 30
0.0
 10
22.2237302208
 20
113.0546416974
 30
0.0
 10
22.2180868091
 20
113.049200116
 30
0.0
 10
22.2103152763
 20
113.0283849132
 30
0.0
 10
22.2010600479
 20
112.9821990021
 30
0.0
 10
22.1921055474
 20
112.90509462
 30
0.0
 10
22.1834740349
 20
112.7978187458
 30
0.0
 10
22.1757457099
 20
112.6619608843
 30
0.0
 10
22.1688546331
 20
112.4985301113
 30
0.0
 10
22.1628562592
 20
112.309177758
 30
0.0
 10
22.1577007469
 20
112.0956758584
 30
0.0
 10
22.153363983
 20
111.8601050381
 30
0.0
 10
22.1484352031
 20
111.5086497292
 30
0.0
 10
22.1442296496
 20
111.032615806
 30
0.0
 10
22.141498652
 20
110.4306519839
 30
0.0
 10
22.1409233085
 20
110.0159653038
 30
0.0
 10
22.1409233085
 20
109.8046408632
 30
0.0
  0
SPLINE
  5
278
100
AcDbEntity
  8
0
100
AcDbSpline
 62
7
  6
CONTINUOUS
 70
0
 71
3
 72
12
 73
8
 74
0
 42
0.0000001
 43
0.0000001
 44
0.0000000001
 40
0.0
 40
0.0
 40
0.0
 40
0.0
 40
0.0364337096
 40
0.099887368
 40
0.3159451041
 40
0.6305326752
 40
1.0
 40
1.0
 40
1.0
 40
1.0
 10
23.8474950247
 20
116.3045503703
 30
0.0
 10
23.8537045058
 20
116.3038031524
 30
0.0
 10
23.8672179672
 20
116.2899064396
 30
0.0
 10
23.887483878
 20
116.240666742
 30
0.0
 10
23.9075391165
 20
116.1389554943
 30
0.0
 10
23.9224270861
 20
115.9857300511
 30
0.0
 10
23.9259433014
 20
115.8680643051
 30
0.0
 10
23.9259433014
 20
115.8046408632
 30
0.0
  0
SPLINE
  5
279
100
AcDbEntity
  8
0
100
AcDbSpline
 62
7
  6
CONTINUOUS
 70
0
 71
3
 72
20
 73
16
 74
0
 42
0.0000001
 43
0.0000001
 44
0.0000000001
 40
0.0
 40
0.0
 40
0.0
 40
0.0
 40
0.002335972
 40
0.0064264364
 40
0.0212296466
 40
0.0452229343
 40
0.0783239003
 40
0.1202282139
 40
0.1705848542
 40
0.2289136137
 40
0.294650152
 40
0.4458187454
 40
0.6182326262
 40
0.8054508812
 40
1.0
 40
1.0
 40
1.0
 40
1.0
 10
36.6849847038
 20
121.7046427204
 30
0.0
 10
36.6824862585
 20
121.7046427553
 30
0.0
 10
36.676470551
 20
121.7097488928
 30
0.0
 10
36.6678394061
 20
121.7304311313
 30
0.0
 10
36.6579459588
 20
121.7758226515
 30
0.0
 10
36.6481504368
 20
121.8518573354
 30
0.0
 10
36.6388294178
 20
121.9574631623
 30
0.0
 10
36.6304322419
 20
122.0912458418
 30
0.0
 10
36.6229587651
 20
122.2521562184
 30
0.0
 10
36.6164413764
 20
122.4385935827
 30
0.0
 10
36.6086090983
 20
122.7328710984
 30
0.0
 10
36.6015377919
 20
123.1492149695
 30
0.0
 10
36.5961667055
 20
123.6955193515
 30
0.0
 10
36.5931937382
 20
124.2882396734
 30
0.0
 10
36.5925629472
 20
124.6965603124
 30
0.0
 10
36.5925629472
 20
124.9046408632
 30
0.0
  0
SPLINE
  5
27A
100
AcDbEntity
  8
0
100
AcDbSpline
 62
7
  6
CONTINUOUS
 70
0
 71
3
 72
20
 73
16
 74
0
 42
0.0000001
 43
0.0000001
 44
0.0000000001
 40
0.0
 40
0.0
 40
0.0
 40
0.0
 40
0.1945485022
 40
0.3817660773
 40
0.5541803156
 40
0.7053506604
 40
0.7710879721
 40
0.8294171661
 40
0.8797742408
 40
0.9216779058
 40
0.9547779867
 40
0.9787710103
 40
0.9935737295
 40
0.9976640416
 40
1.0
 40
1.0
 40
1.0
 40
1.0
 10
36.5925629472
 20
56.1046408632
 30
0.0
 10
36.5925629472
 20
56.3127207549
 30
0.0
 10
36.5931937387
 20
56.7210400084
 30
0.0
 10
36.5961666773
 20
57.3137593277
 30
0.0
 10
36.6015377804
 20
57.8600652391
 30
0.0
 10
36.6086090583
 20
58.2764121952
 30
0.0
 10
36.6164415394
 20
58.5706928734
 30
0.0
 10
36.6229592095
 20
58.7571319857
 30
0.0
 10
36.6304324506
 20
58.9180426066
 30
0.0
 10
36.6388297255
 20
59.0518241143
 30
0.0
 10
36.6481510194
 20
59.1574279644
 30
0.0
 10
36.6579460816
 20
59.2334609706
 30
0.0
 10
36.6678393283
 20
59.2788514782
 30
0.0
 10
36.6764707965
 20
59.2995329817
 30
0.0
 10
36.6824862732
 20
59.3046388112
 30
0.0
 10
36.684984704
 20
59.304639002
 30
0.0
  0
SPLINE
  5
27B
100
AcDbEntity
  8
0
100
AcDbSpline
 62
7
  6
CONTINUOUS
 70
0
 71
3
 72
20
 73
16
 74
0
 42
0.0000001
 43
0.0000001
 44
0.0000000001
 40
0.0
 40
0.0
 40
0.0
 40
0.0
 40
0.1945485022
 40
0.3817660773
 40
0.5541803156
 40
0.7053506604
 40
0.7710879721
 40
0.8294171661
 40
0.8797742408
 40
0.9216779058
 40
0.9547779867
 40
0.9787710103
 40
0.9935737295
 40
0.9976640416
 40
1.0
 40
1.0
 40
1.0
 40
1.0
 10
36.5925629472
 20
124.9046408632
 30
0.0
 10
36.5925629472
 20
125.1127207549
 30
0.0
 10
36.5931937387
 20
125.5210400084
 30
0.0
 10
36.5961666773
 20
126.1137593277
 30
0.0
 10
36.6015377804
 20
126.6600652391
 30
0.0
 10
36.6086090583
 20
127.0764121952
 30
0.0
 10
36.6164415394
 20
127.3706928734
 30
0.0
 10
36.6229592095
 20
127.5571319857
 30
0.0
 10
36.6304324506
 20
127.7180426066
 30
0.0
 10
36.6388297255
 20
127.8518241143
 30
0.0
 10
36.6481510194
 20
127.9574279644
 30
0.0
 10
36.6579460816
 20
128.0334609706
 30
0.0
 10
36.6678393283
 20
128.0788514782
 30
0.0
 10
36.6764707965
 20
128.0995329817
 30
0.0
 10
36.6824862732
 20
128.1046388112
 30
0.0
 10
36.684984704
 20
128.104639002
 30
0.0
  0
SPLINE
  5
27C
100
AcDbEntity
  8
0
100
AcDbSpline
 62
7
  6
CONTINUOUS
 70
0
 71
3
 72
20
 73
16
 74
0
 42
0.0000001
 43
0.0000001
 44
0.0000000001
 40
0.0
 40
0.0
 40
0.0
 40
0.0
 40
0.0118133748
 40
0.0197213408
 40
0.0294275871
 40
0.0548104077
 40
0.0885379611
 40
0.130565218
 40
0.1806761344
 40
0.2384912547
 40
0.3035083305
 40
0.452814599
 40
0.6230295297
 40
0.8078770549
 40
1.0
 40
1.0
 40
1.0
 40
1.0
 10
23.0299609849
 20
74.4546405427
 30
0.0
 10
23.0169347791
 20
74.454644126
 30
0.0
 10
22.9957272034
 20
74.4431319259
 30
0.0
 10
22.9748558923
 20
74.4185429456
 30
0.0
 10
22.9496819104
 20
74.3780550775
 30
0.0
 10
22.9212450541
 20
74.3073571995
 30
0.0
 10
22.8904341942
 20
74.2001056113
 30
0.0
 10
22.8612703482
 20
74.0643247635
 30
0.0
 10
22.8339419739
 20
73.9012177581
 30
0.0
 10
22.8087345664
 20
73.7121630878
 30
0.0
 10
22.7766727973
 20
73.4137794462
 30
0.0
 10
22.7445615062
 20
72.9908854542
 30
0.0
 10
22.7174973223
 20
72.4353509675
 30
0.0
 10
22.7011325856
 20
71.8321699754
 30
0.0
 10
22.6974848602
 20
71.416488296
 30
0.0
 10
22.6974848602
 20
71.2046408632
 30
0.0
  0
SPLINE
  5
27D
100
AcDbEntity
  8
0
100
AcDbSpline
 62
7
  6
CONTINUOUS
 70
0
 71
3
 72
21
 73
17
 74
0
 42
0.0000001
 43
0.0000001
 44
0.0000000001
 40
0.0
 40
0.0
 40
0.0
 40
0.0
 40
0.1946209992
 40
0.3819092352
 40
0.5543895109
 40
0.6330444179
 40
0.7056170308
 40
0.7713781198
 40
0.8297270381
 40
0.8800979013
 40
0.922007943
 40
0.9551021855
 40
0.9790683068
 40
0.9938021536
 40
0.99781544
 40
1.0
 40
1.0
 40
1.0
 40
1.0
 10
22.1409233085
 20
109.8046408632
 30
0.0
 10
22.1409233085
 20
109.5933196113
 30
0.0
 10
22.1414986397
 20
109.1786387576
 30
0.0
 10
22.1442295492
 20
108.5766827622
 30
0.0
 10
22.148434971
 20
108.100654508
 30
0.0
 10
22.1533635634
 20
107.7492031115
 30
0.0
 10
22.1577001655
 20
107.513634503
 30
0.0
 10
22.1628554273
 20
107.3001333108
 30
0.0
 10
22.1688535307
 20
107.1107797064
 30
0.0
 10
22.1757445341
 20
106.9473454212
 30
0.0
 10
22.1834730054
 20
106.8114820023
 30
0.0
 10
22.1921042878
 20
106.704199407
 30
0.0
 10
22.201059251
 20
106.6270899047
 30
0.0
 10
22.2103140523
 20
106.5809005064
 30
0.0
 10
22.2180877267
 20
106.560084431
 30
0.0
 10
22.2237297738
 20
106.5546413344
 30
0.0
 10
22.2261017889
 20
106.554640877
 30
0.0
  0
SPLINE
  5
27E
100
AcDbEntity
  8
0
100
AcDbSpline
 62
7
  6
CONTINUOUS
 70
0
 71
3
 72
21
 73
17
 74
0
 42
0.0000001
 43
0.0000001
 44
0.0000000001
 40
0.0
 40
0.0
 40
0.0
 40
0.0
 40
0.1946209992
 40
0.3819092352
 40
0.5543895109
 40
0.6330444179
 40
0.7056170308
 40
0.7713781198
 40
0.8297270381
 40
0.8800979013
 40
0.922007943
 40
0.9551021855
 40
0.9790683068
 40
0.9938021536
 40
0.99781544
 40
1.0
 40
1.0
 40
1.0
 40
1.0
 10
22.1409233085
 20
71.2046408632
 30
0.0
 10
22.1409233085
 20
70.9933196113
 30
0.0
 10
22.1414986397
 20
70.5786387576
 30
0.0
 10
22.1442295493
 20
69.9766827622
 30
0.0
 10
22.148434971
 20
69.500654508
 30
0.0
 10
22.1533635634
 20
69.1492031115
 30
0.0
 10
22.1577001655
 20
68.913634503
 30
0.0
 10
22.1628554273
 20
68.7001333108
 30
0.0
 10
22.1688535307
 20
68.5107797064
 30
0.0
 10
22.1757445341
 20
68.3473454212
 30
0.0
 10
22.1834730054
 20
68.2114820023
 30
0.0
 10
22.1921042878
 20
68.104199407
 30
0.0
 10
22.201059251
 20
68.0270899047
 30
0.0
 10
22.2103140523
 20
67.9809005064
 30
0.0
 10
22.2180877267
 20
67.960084431
 30
0.0
 10
22.2237297738
 20
67.9546413344
 30
0.0
 10
22.2261017889
 20
67.954640877
 30
0.0
  0
SPLINE
  5
27F
100
AcDbEntity
  8
0
100
AcDbSpline
 62
7
  6
CONTINUOUS
 70
0
 71
3
 72
20
 73
16
 74
0
 42
0.0000001
 43
0.0000001
 44
0.0000000001
 40
0.0
 40
0.0
 40
0.0
 40
0.0
 40
0.002335972
 40
0.0064264364
 40
0.0212296466
 40
0.0452229343
 40
0.0783239003
 40
0.1202282139
 40
0.1705848542
 40
0.2289136137
 40
0.294650152
 40
0.4458187454
 40
0.6182326262
 40
0.8054508812
 40
1.0
 40
1.0
 40
1.0
 40
1.0
 10
36.6849847038
 20
52.9046427204
 30
0.0
 10
36.6824862585
 20
52.9046427553
 30
0.0
 10
36.676470551
 20
52.9097488928
 30
0.0
 10
36.6678394061
 20
52.9304311313
 30
0.0
 10
36.6579459588
 20
52.9758226515
 30
0.0
 10
36.6481504368
 20
53.0518573354
 30
0.0
 10
36.6388294178
 20
53.1574631623
 30
0.0
 10
36.6304322419
 20
53.2912458418
 30
0.0
 10
36.6229587651
 20
53.4521562184
 30
0.0
 10
36.6164413764
 20
53.6385935827
 30
0.0
 10
36.6086090983
 20
53.9328710984
 30
0.0
 10
36.6015377919
 20
54.3492149695
 30
0.0
 10
36.5961667055
 20
54.8955193515
 30
0.0
 10
36.5931937382
 20
55.4882396734
 30
0.0
 10
36.5925629472
 20
55.8965603124
 30
0.0
 10
36.5925629472
 20
56.1046408632
 30
0.0
  0
SPLINE
  5
280
100
AcDbEntity
  8
0
100
AcDbSpline
 62
7
  6
CONTINUOUS
 70
0
 71
3
 72
17
 73
13
 74
0
 42
0.0000001
 43
0.0000001
 44
0.0000000001
 40
0.0
 40
0.0
 40
0.0
 40
0.0
 40
0.0299763107
 40
0.055697609
 40
0.0896030542
 40
0.1317072108
 40
0.1818318771
 40
0.2396099336
 40
0.304556287
 40
0.4536522443
 40
0.6236079872
 40
1.0
 40
1.0
 40
1.0
 40
1.0
 10
37.5607277855
 20
121.7046427411
 30
0.0
 10
37.5281159506
 20
121.7046430991
 30
0.0
 10
37.4808178151
 20
121.7626193266
 30
0.0
 10
37.4438008064
 20
121.8480975014
 30
0.0
 10
37.40940962
 20
121.955099273
 30
0.0
 10
37.3781253977
 20
122.0882116141
 30
0.0
 10
37.3483726486
 20
122.248915748
 30
0.0
 10
37.3210675112
 20
122.4349378913
 30
0.0
 10
37.286274856
 20
122.7286571161
 30
0.0
 10
37.2514199227
 20
123.1450602513
 30
0.0
 10
37.2109406072
 20
123.9006269203
 30
0.0
 10
37.200319867
 20
124.4951563772
 30
0.0
 10
37.200319867
 20
124.9046408632
 30
0.0
  0
SPLINE
  5
281
100
AcDbEntity
  8
0
100
AcDbSpline
 62
7
  6
CONTINUOUS
 70
0
 71
3
 72
12
 73
8
 74
0
 42
0.0000001
 43
0.0000001
 44
0.0000000001
 40
0.0
 40
0.0
 40
0.0
 40
0.0
 40
0.3694629861
 40
0.6840444077
 40
0.9001084406
 40
0.9635649618
 40
1.0
 40
1.0
 40
1.0
 40
1.0
 10
23.9259433014
 20
65.2046408632
 30
0.0
 10
23.9259433014
 20
65.1412179865
 30
0.0
 10
23.9224274337
 20
65.0235534511
 30
0.0
 10
23.907538855
 20
64.8703291953
 30
0.0
 10
23.8874853287
 20
64.7686152437
 30
0.0
 10
23.8672167759
 20
64.7193758959
 30
0.0
 10
23.8537026029
 20
64.7054774377
 30
0.0
 10
23.8474927653
 20
64.7047311257
 30
0.0
  0
SPLINE
  5
282
100
AcDbEntity
  8
0
100
AcDbSpline
 62
7
  6
CONTINUOUS
 70
0
 71
3
 72
20
 73
16
 74
0
 42
0.0000001
 43
0.0000001
 44
0.0000000001
 40
0.0
 40
0.0
 40
0.0
 40
0.0
 40
0.1921150153
 40
0.3769651405
 40
0.5471850108
 40
0.6964961961
 40
0.7615149952
 40
0.8193293165
 40
0.8694425824
 40
0.9114663648
 40
0.9451915383
 40
0.9705762391
 40
0.980280772
 40
0.9881869399
 40
1.0
 40
1.0
 40
1.0
 40
1.0
 10
22.6974848602
 20
109.8046408632
 30
0.0
 10
22.6974848602
 20
109.5928022113
 30
0.0
 10
22.7011324705
 20
109.1771264809
 30
0.0
 10
22.717496777
 20
108.5739460246
 30
0.0
 10
22.7445609438
 20
108.0183978518
 30
0.0
 10
22.7766742134
 20
107.5954913189
 30
0.0
 10
22.808735879
 20
107.2971011923
 30
0.0
 10
22.8339480257
 20
107.1080435603
 30
0.0
 10
22.8612708852
 20
106.9449379729
 30
0.0
 10
22.8904372859
 20
106.809161043
 30
0.0
 10
22.9212546114
 20
106.7019169735
 30
0.0
 10
22.9496802179
 20
106.631216324
 30
0.0
 10
22.974857342
 20
106.5907326428
 30
0.0
 10
22.9957335331
 20
106.5661513383
 30
0.0
 10
23.0169356043
 20
106.5546464364
 30
0.0
 10
23.0299614604
 20
106.5546414866
 30
0.0
  0
SPLINE
  5
283
100
AcDbEntity
  8
0
100
AcDbSpline
 62
7
  6
CONTINUOUS
 70
0
 71
3
 72
20
 73
16
 74
0
 42
0.0000001
 43
0.0000001
 44
0.0000000001
 40
0.0
 40
0.0
 40
0.0
 40
0.0
 40
0.0118133748
 40
0.0197213408
 40
0.0294275871
 40
0.0548104077
 40
0.0885379611
 40
0.130565218
 40
0.1806761344
 40
0.2384912547
 40
0.3035083305
 40
0.452814599
 40
0.6230295297
 40
0.8078770549
 40
1.0
 40
1.0
 40
1.0
 40
1.0
 10
23.0299609849
 20
113.0546405427
 30
0.0
 10
23.0169347791
 20
113.054644126
 30
0.0
 10
22.9957272034
 20
113.0431319259
 30
0.0
 10
22.9748558923
 20
113.0185429456
 30
0.0
 10
22.9496819104
 20
112.9780550775
 30
0.0
 10
22.9212450541
 20
112.9073571995
 30
0.0
 10
22.8904341942
 20
112.8001056113
 30
0.0
 10
22.8612703482
 20
112.6643247635
 30
0.0
 10
22.8339419739
 20
112.5012177581
 30
0.0
 10
22.8087345664
 20
112.3121630878
 30
0.0
 10
22.7766727973
 20
112.0137794462
 30
0.0
 10
22.7445615062
 20
111.5908854542
 30
0.0
 10
22.7174973223
 20
111.0353509675
 30
0.0
 10
22.7011325856
 20
110.4321699754
 30
0.0
 10
22.6974848602
 20
110.016488296
 30
0.0
 10
22.6974848602
 20
109.8046408632
 30
0.0
  0
SPLINE
  5
284
100
AcDbEntity
  8
0
100
AcDbSpline
 62
7
  6
CONTINUOUS
 70
0
 71
3
 72
17
 73
13
 74
0
 42
0.0000001
 43
0.0000001
 44
0.0000000001
 40
0.0
 40
0.0
 40
0.0
 40
0.0
 40
0.3763876561
 40
0.5463416454
 40
0.6954363884
 40
0.7603825855
 40
0.818161469
 40
0.8682863967
 40
0.9103923435
 40
0.9442996995
 40
0.9700218765
 40
1.0
 40
1.0
 40
1.0
 40
1.0
 10
37.200319867
 20
124.9046408632
 30
0.0
 10
37.200319867
 20
125.3141205188
 30
0.0
 10
37.2109403477
 20
125.9086431961
 30
0.0
 10
37.2514187316
 20
126.664201754
 30
0.0
 10
37.2862724332
 20
127.080601494
 30
0.0
 10
37.3210646095
 20
127.3743201034
 30
0.0
 10
37.3483680786
 20
127.5603434613
 30
0.0
 10
37.3781219927
 20
127.72105062
 30
0.0
 10
37.4094058369
 20
127.8541671309
 30
0.0
 10
37.4437959129
 20
127.9611751794
 30
0.0
 10
37.4808162271
 20
128.0466556873
 30
0.0
 10
37.5281139869
 20
128.1046400002
 30
0.0
 10
37.5607277868
 20
128.1046389785
 30
0.0
  0
ENDSEC
  0
SECTION
  2
OBJECTS
  0
DICTIONARY
  5
C
100
AcDbDictionary
280
0
281
1
  3
ACAD_GROUP
350
D
  3
ACAD_MLINESTYLE
350
17
  3
ACAD_LAYOUT
350
1A
  3
ACAD_PLOTSETTINGS
350
19
  3
ACAD_PLOTSTYLENAME
350
E
  0
DICTIONARY
  5
D
102
{ACAD_REACTORS
330
C
102
}
100
AcDbDictionary
280
0
281
1
  0
ACDBDICTIONARYWDFLT
  5
E
102
{ACAD_REACTORS
330
C
102
}
100
AcDbDictionary
281
1
  3
Normal
350
F
100
AcDbDictionaryWithDefault
340
F
  0
DICTIONARY
  5
17
102
{ACAD_REACTORS
330
C
102
}
100
AcDbDictionary
280
0
281
1
  3
Standard
350
18
  0
DICTIONARY
  5
19
102
{ACAD_REACTORS
330
C
102
}
100
AcDbDictionary
281
1
  0
DICTIONARY
  5
1A
102
{ACAD_REACTORS
330
C
102
}
100
AcDbDictionary
281
1
  3
Model
350
285
  3
Layout1
350
286
  0
ACDBPLACEHOLDER
  5
F
102
{ACAD_REACTORS
330
E
102
}
  0
MLINESTYLE
  5
18
102
{ACAD_REACTORS
330
17
102
}
100
AcDbMlineStyle
  2
STANDARD
 70
0
  3

 62
256
 51
90.0
 52
90.0
 71
2
 49
0.5
 62
256
  6
BYLAYER
 49
-0.5
 62
256
  6
BYLAYER
  0
LAYOUT
  5
285
102
{ACAD_REACTORS
330
1A
102
}
100
AcDbPlotSettings
  1

  2
none_device
  4

  6

 40
0.0
 41
0.0
 42
0.0
 43
0.0
 44
210.0
 45
297.0
 46
0.0
 47
0.0
 48
0.0
 49
0.0
140
0.0
141
0.0
142
1.0
143
1.0
 70
1024
 72
1
 73
0
 74
0
  7

 75
0
147
1.0
148
0.0
149
0.0
100
AcDbLayout
  1
Model
 70
0
 71
0
 10
0.0
 20
0.0
 11
210.0
 21
297.0
 12
0.0
 22
0.0
 32
0.0
 14
0.0
 24
0.0
 34
0.0
 15
0.0
 25
0.0
 35
0.0
146
0.0
 13
0.0
 23
0.0
 33
0.0
 16
1.0
 26
0.0
 36
0.0
 17
0.0
 27
1.0
 37
0.0
 76
0
330
210
345
0
346
0
  0
LAYOUT
  5
286
102
{ACAD_REACTORS
330
1A
102
}
100
AcDbPlotSettings
  1

  2
none_device
  4

  6

 40
0.0
 41
0.0
 42
0.0
 43
0.0
 44
210.0
 45
297.0
 46
0.0
 47
0.0
 48
0.0
 49
0.0
140
0.0
141
0.0
142
1.0
143
1.0
 70
0
 72
1
 73
0
 74
0
  7

 75
0
147
1.0
148
0.0
149
0.0
100
AcDbLayout
  1
Layout1
 70
0
 71
1
 10
0.0
 20
0.0
 11
210.0
 21
297.0
 12
0.0
 22
0.0
 32
0.0
 14
0.0
 24
0.0
 34
0.0
 15
0.0
 25
0.0
 35
0.0
146
0.0
 13
0.0
 23
0.0
 33
0.0
 16
1.0
 26
0.0
 36
0.0
 17
0.0
 27
1.0
 37
0.0
 76
0
330
211
345
0
346
0
  0
ENDSEC
  0
EOF
