999
DXF file: C:\Users\sesa63760\Dev\_Creo\CAD\MCADPP0003431_3D-CAD\drw0001_1.dxf
999
Pro/ENGINEER 2019471 by Parametric Technology Corporation
  0
SECTION
  2
HEADER
  9
$ACADVER
  1
AC1024
  9
$DWGCODEPAGE
  3
ANSI_1252
  9
$EXTMAX
 10
114.2047995085
 20
161.5182164477
 30
0.0
  9
$EXTMIN
 10
0.0
 20
0.0
 30
0.0
  9
$LIMMIN
 10
0.0
 20
0.0
  9
$LIMMAX
 10
114.2047995085
 20
161.5182164477
  9
$VIEWCTR
 10
57.1023997542
 20
80.7591082239
  9
$VIEWSIZE
 40
161.5182164477
  9
$CLAYER
  8
0
  9
$LTSCALE
 40
10.5285948499
  9
$CELTYPE
  6
BYLAYER
  9
$DIMSCALE
 40
1.0
  9
$DIMASZ
 40
1.3595809465
  9
$DIMEXO
 40
1.0
  9
$DIMDLI
 40
7.2743018963
  9
$DIMEXE
 40
1.0
  9
$DIMCEN
 40
1.7228609754
  9
$DIMLFAC
 40
1.0
  9
$DIMBLK
  1
_FILLED
  9
$DIMALT
 70
0
  9
$DIMALTF
 40
0.0393700787
  9
$DIMTXT
 40
1.9034133251
  9
$DIMTOL
 70
1
  9
$DIMLIM
 70
0
  9
$DIMTFAC
 40
1.0
  9
$DIMTP
 40
0.01
  9
$DIMTM
 40
0.01
  9
$DIMGAP
 40
0.625
  9
$DIMDSEP
 70
46
  9
$AUNITS
 70
0
  9
$PDMODE
 70
3
  9
$PDSIZE
 40
0.3125
  9
$HANDSEED
  5
415
  9
$TILEMODE
 70
1
  9
$MEASUREMENT
 70
1
  9
$INSUNITS
 70
4
  0
ENDSEC
  0
SECTION
  2
CLASSES
  0
CLASS
  1
ACDBDICTIONARYWDFLT
  2
AcDbDictionaryWithDefault
  3
AutoCAD 2000
 90
0
 91
1
280
0
281
0
  0
CLASS
  1
ACDBPLACEHOLDER
  2
AcDbPlaceHolder
  3
AutoCAD 2000
 90
0
 91
1
280
0
281
0
  0
CLASS
  1
LAYOUT
  2
AcDbLayout
  3
AutoCAD 2000
 90
0
 91
0
280
0
281
0
  0
ENDSEC
  0
SECTION
  2
TABLES
  0
TABLE
  2
VPORT
  5
8
100
AcDbSymbolTable
 70
2
  0
VPORT
  5
1F4
100
AcDbSymbolTableRecord
100
AcDbViewportTableRecord
  2
*ACTIVE
 70
0
 10
0.0
 20
0.0
 11
1.0
 21
1.0
 12
57.1023997542
 22
80.7591082239
 13
0.0
 23
0.0
 14
1.0
 24
1.0
 15
0.0
 25
0.0
 16
0.0
 26
0.0
 36
1.0
 17
0.0
 27
0.0
 37
0.0
 40
161.5182164477
 41
0.7070707071
 42
50.0
 43
0.0
 44
0.0
 50
0.0
 51
0.0
 71
0
 72
100
 73
1
 74
1
 75
0
 76
0
 77
0
 78
0
  0
ENDTAB
  0
TABLE
  2
LTYPE
  5
5
100
AcDbSymbolTable
 70
6
  0
LTYPE
  5
14
100
AcDbSymbolTableRecord
100
AcDbLinetypeTableRecord
  2
BYBLOCK
 70
0
  3

 72
65
 73
0
 40
0.0
  0
LTYPE
  5
15
100
AcDbSymbolTableRecord
100
AcDbLinetypeTableRecord
  2
BYLAYER
 70
0
  3

 72
65
 73
0
 40
0.0
  0
LTYPE
  5
16
100
AcDbSymbolTableRecord
100
AcDbLinetypeTableRecord
  2
CONTINUOUS
 70
64
  3
Solid line
 72
65
 73
0
 40
0.0
  0
LTYPE
  5
1F5
100
AcDbSymbolTableRecord
100
AcDbLinetypeTableRecord
  2
CENTER
 70
64
  3
____ _ ____ _ ____ _ ____ _ ____ _ ____ _ ____
 72
65
 73
4
 40
0.6
 49
0.375
 74
0
 49
-0.075
 74
0
 49
0.075
 74
0
 49
-0.075
 74
0
  0
LTYPE
  5
1F6
100
AcDbSymbolTableRecord
100
AcDbLinetypeTableRecord
  2
HIDDEN
 70
64
  3
- - - - - - - - - - - - - - - - - - - -
 72
65
 73
2
 40
0.2
 49
0.1
 74
0
 49
-0.1
 74
0
  0
LTYPE
  5
1F7
100
AcDbSymbolTableRecord
100
AcDbLinetypeTableRecord
  2
PHANTOM
 70
64
  3
_____ _ _ _____ _ _ _____ _ _ _____
 72
65
 73
6
 40
0.8
 49
0.45
 74
0
 49
-0.05
 74
0
 49
0.1
 74
0
 49
-0.05
 74
0
 49
0.1
 74
0
 49
-0.05
 74
0
  0
LTYPE
  5
1F8
100
AcDbSymbolTableRecord
100
AcDbLinetypeTableRecord
  2
DOT
 70
64
  3
. . . . . . . . . . . . . . . . . . . .
 72
65
 73
2
 40
0.2
 49
0.1
 74
0
 49
-0.1
 74
0
  0
LTYPE
  5
1F9
100
AcDbSymbolTableRecord
100
AcDbLinetypeTableRecord
  2
DASHED
 70
64
  3
- - - - - - - - - - - - - - - - - - - -
 72
65
 73
2
 40
0.2
 49
0.1
 74
0
 49
-0.1
 74
0
  0
ENDTAB
  0
TABLE
  2
LAYER
  5
2
100
AcDbSymbolTable
 70
36
  0
LAYER
  5
10
100
AcDbSymbolTableRecord
100
AcDbLayerTableRecord
  2
0
 70
0
 62
7
  6
CONTINUOUS
370
-3
390
F
  0
LAYER
  5
1FA
100
AcDbSymbolTableRecord
100
AcDbLayerTableRecord
  2
DEFAULT_1
 70
0
 62
7
  6
CENTER
370
-3
390
F
  0
LAYER
  5
1FB
100
AcDbSymbolTableRecord
100
AcDbLayerTableRecord
  2
DEFAULT_2
 70
0
 62
8
  6
HIDDEN
370
-3
390
F
  0
LAYER
  5
1FC
100
AcDbSymbolTableRecord
100
AcDbLayerTableRecord
  2
DEFAULT_3
 70
0
 62
7
  6
PHANTOM
370
-3
390
F
  0
LAYER
  5
1FD
100
AcDbSymbolTableRecord
100
AcDbLayerTableRecord
  2
00_COMPONENTS
 70
0
 62
7
  6
CONTINUOUS
370
-3
390
F
  0
LAYER
  5
1FE
100
AcDbSymbolTableRecord
100
AcDbLayerTableRecord
  2
01_1_DEFAULT_DATUMS
 70
0
 62
7
  6
CONTINUOUS
370
-3
390
F
  0
LAYER
  5
1FF
100
AcDbSymbolTableRecord
100
AcDbLayerTableRecord
  2
01_PLANES
 70
0
 62
7
  6
CONTINUOUS
370
-3
390
F
  0
LAYER
  5
200
100
AcDbSymbolTableRecord
100
AcDbLayerTableRecord
  2
02_COORD_SYS
 70
0
 62
7
  6
CONTINUOUS
370
-3
390
F
  0
LAYER
  5
201
100
AcDbSymbolTableRecord
100
AcDbLayerTableRecord
  2
03_AXES
 70
0
 62
7
  6
CONTINUOUS
370
-3
390
F
  0
LAYER
  5
202
100
AcDbSymbolTableRecord
100
AcDbLayerTableRecord
  2
04_POINTS
 70
0
 62
7
  6
CONTINUOUS
370
-3
390
F
  0
LAYER
  5
203
100
AcDbSymbolTableRecord
100
AcDbLayerTableRecord
  2
05_CURVES
 70
0
 62
7
  6
CONTINUOUS
370
-3
390
F
  0
LAYER
  5
204
100
AcDbSymbolTableRecord
100
AcDbLayerTableRecord
  2
06_SURFS
 70
0
 62
7
  6
CONTINUOUS
370
-3
390
F
  0
LAYER
  5
205
100
AcDbSymbolTableRecord
100
AcDbLayerTableRecord
  2
07_COSMETICS
 70
0
 62
7
  6
CONTINUOUS
370
-3
390
F
  0
LAYER
  5
206
100
AcDbSymbolTableRecord
100
AcDbLayerTableRecord
  2
10_NOTES
 70
0
 62
7
  6
CONTINUOUS
370
-3
390
F
  0
LAYER
  5
207
100
AcDbSymbolTableRecord
100
AcDbLayerTableRecord
  2
11_NOTES_PUB
 70
0
 62
7
  6
CONTINUOUS
370
-3
390
F
  0
LAYER
  5
208
100
AcDbSymbolTableRecord
100
AcDbLayerTableRecord
  2
13_REF_GTOL
 70
0
 62
7
  6
CONTINUOUS
370
-3
390
F
  0
LAYER
  5
209
100
AcDbSymbolTableRecord
100
AcDbLayerTableRecord
  2
16_MISC
 70
0
 62
7
  6
CONTINUOUS
370
-3
390
F
  0
LAYER
  5
20A
100
AcDbSymbolTableRecord
100
AcDbLayerTableRecord
  2
17_NO_PRINT
 70
0
 62
7
  6
CONTINUOUS
370
-3
390
F
  0
LAYER
  5
20B
100
AcDbSymbolTableRecord
100
AcDbLayerTableRecord
  2
18_DATUM_CAMS_JOINTS
 70
0
 62
7
  6
CONTINUOUS
370
-3
390
F
  0
LAYER
  5
20C
100
AcDbSymbolTableRecord
100
AcDbLayerTableRecord
  2
19_DATUM_FUNCTIONAL
 70
0
 62
7
  6
CONTINUOUS
370
-3
390
F
  0
LAYER
  5
20D
100
AcDbSymbolTableRecord
100
AcDbLayerTableRecord
  2
20_DATUM_KINEMATIC_SCHEME
 70
0
 62
7
  6
CONTINUOUS
370
-3
390
F
  0
ENDTAB
  0
TABLE
  2
STYLE
  5
3
100
AcDbSymbolTable
 70
1
  0
STYLE
  5
11
100
AcDbSymbolTableRecord
100
AcDbTextStyleTableRecord
  2
STANDARD
 70
0
 40
0.0
 41
0.8
 50
0.0
 71
0
 42
0.2
  3
txt
  4

  0
STYLE
  5
20E
100
AcDbSymbolTableRecord
100
AcDbTextStyleTableRecord
  2
TEXTSTYLE_1
 70
0
 40
0.0
 41
0.8
 50
0.0
 71
0
 42
0.2
  3
gdt
  4

  0
ENDTAB
  0
TABLE
  2
VIEW
  5
6
100
AcDbSymbolTable
 70
0
  0
ENDTAB
  0
TABLE
  2
UCS
  5
7
100
AcDbSymbolTable
 70
0
  0
ENDTAB
  0
TABLE
  2
APPID
  5
9
100
AcDbSymbolTable
 70
1
  0
APPID
  5
20F
100
AcDbSymbolTableRecord
100
AcDbRegAppTableRecord
  2
ACAD
 70
0
  0
ENDTAB
  0
TABLE
  2
BLOCK_RECORD
  5
1
100
AcDbSymbolTable
 70
0
  0
BLOCK_RECORD
  5
210
100
AcDbSymbolTableRecord
100
AcDbBlockTableRecord
  2
*Model_Space
  0
BLOCK_RECORD
  5
211
100
AcDbSymbolTableRecord
100
AcDbBlockTableRecord
  2
*Paper_Space
  0
BLOCK_RECORD
  5
212
100
AcDbSymbolTableRecord
100
AcDbBlockTableRecord
  2
_FILLED
  0
ENDTAB
  0
TABLE
  2
DIMSTYLE
  5
A
100
AcDbSymbolTable
 70
1
100
AcDbDimStyleTable
 71
0
  0
DIMSTYLE
105
213
100
AcDbSymbolTableRecord
100
AcDbDimStyleTableRecord
  2
STANDARD
 70
0
  3

  4

 40
1.0
 41
1.3595809465
 42
1.0
 43
0.38
 44
1.0
 45
0.0
 46
0.0
 47
0.01
 48
0.01
140
1.9034133251
141
0.09
142
0.0
143
25.4
144
1.0
145
0.0
146
1.0
147
0.625
 71
1
 72
0
 73
0
 74
0
 75
0
 76
0
 77
1
 78
8
 79
2
170
0
171
1
172
0
173
0
174
0
175
0
176
0
177
0
178
0
270
2
179
2
271
2
272
2
273
2
274
2
275
0
280
0
281
0
282
0
283
1
284
8
285
0
286
0
287
3
288
0
340
11
278
46
341
212
342
212
343
212
344
212
  0
ENDTAB
  0
ENDSEC
  0
SECTION
  2
BLOCKS
  0
BLOCK
  5
20
100
AcDbEntity
  8
0
100
AcDbBlockBegin
  2
*Model_Space
 70
0
 10
0.0
 20
0.0
 30
0.0
  3
*Model_Space
  1

  0
ENDBLK
  5
21
100
AcDbEntity
  8
0
100
AcDbBlockEnd
  0
BLOCK
  5
1C
100
AcDbEntity
  8
0
100
AcDbBlockBegin
  2
*Paper_Space
 70
0
 10
0.0
 20
0.0
 30
0.0
  3
*Paper_Space
  1

  0
ENDBLK
  5
1D
100
AcDbEntity
  8
0
100
AcDbBlockEnd
  0
BLOCK
  5
214
100
AcDbEntity
  8
0
100
AcDbBlockBegin
  2
_FILLED
 70
64
 10
0.0
 20
0.0
  3
_FILLED
  1

  0
SOLID
  5
215
100
AcDbEntity
  8
0
  6
BYBLOCK
 62
0
100
AcDbTrace
 10
0.0
 20
0.0
 11
-1.0
 21
0.25
 12
-1.0
 22
-0.25
 13
-1.0
 23
-0.25
  0
ENDBLK
  5
216
100
AcDbEntity
  8
0
  6
BYBLOCK
 62
0
100
AcDbBlockEnd
  0
ENDSEC
  0
SECTION
  2
ENTITIES
  0
LINE
  5
217
100
AcDbEntity
  8
0
100
AcDbLine
 62
7
  6
CONTINUOUS
 10
13.2490707004
 20
100.3113281404
 11
13.2522397318
 21
62.7095624099
  0
LINE
  5
218
100
AcDbEntity
  8
0
100
AcDbLine
 62
7
  6
CONTINUOUS
 10
50.4345129739
 20
122.2921359938
 11
38.3076821657
 21
115.2907487549
  0
LINE
  5
219
100
AcDbEntity
  8
0
100
AcDbLine
 62
7
  6
CONTINUOUS
 10
38.060884153
 20
115.1437711085
 11
25.9340533448
 21
108.1423838696
  0
LINE
  5
21A
100
AcDbEntity
  8
0
100
AcDbLine
 62
7
  6
CONTINUOUS
 10
25.6865670018
 20
107.9994984157
 11
13.5597361936
 21
100.9981111769
  0
LINE
  5
21B
100
AcDbEntity
  8
0
100
AcDbLine
 62
7
  6
CONTINUOUS
 10
51.1845524547
 20
122.2178413314
 11
39.0577216464
 21
115.2164540925
  0
LINE
  5
21C
100
AcDbEntity
  8
0
100
AcDbLine
 62
7
  6
CONTINUOUS
 10
38.8108204052
 20
115.0695360411
 11
26.683989597
 21
108.0681488022
  0
LINE
  5
21D
100
AcDbEntity
  8
0
100
AcDbLine
 62
7
  6
CONTINUOUS
 10
26.4365032539
 20
107.9252633484
 11
14.3096724457
 21
100.9238761095
  0
LINE
  5
21E
100
AcDbEntity
  8
0
100
AcDbLine
 62
7
  6
CONTINUOUS
 10
65.8570791661
 20
42.8352416216
 11
53.3701602153
 21
39.5525025701
  0
LINE
  5
21F
100
AcDbEntity
  8
0
100
AcDbLine
 62
7
  6
CONTINUOUS
 10
52.0971880417
 20
42.359770556
 11
53.1577829977
 21
42.573675568
  0
LINE
  5
220
100
AcDbEntity
  8
0
100
AcDbLine
 62
7
  6
CONTINUOUS
 10
53.3701602153
 20
39.5525025701
 11
52.097362716
 21
40.2871928905
  0
LINE
  5
221
100
AcDbEntity
  8
0
100
AcDbLine
 62
7
  6
CONTINUOUS
 10
13.2522397318
 20
62.7095624099
 11
26.9518916551
 21
54.8017831544
  0
LINE
  5
222
100
AcDbEntity
  8
0
100
AcDbLine
 62
7
  6
CONTINUOUS
 10
29.1820013644
 20
54.4941909116
 11
27.8004162598
 21
55.291676139
  0
LINE
  5
223
100
AcDbEntity
  8
0
100
AcDbLine
 62
7
  6
CONTINUOUS
 10
23.7409557733
 20
100.3529980897
 11
23.7409926728
 21
99.9151705054
  0
LINE
  5
224
100
AcDbEntity
  8
0
100
AcDbLine
 62
7
  6
CONTINUOUS
 10
24.8734338502
 20
94.8262107263
 11
24.8733996395
 21
95.2321336094
  0
LINE
  5
225
100
AcDbEntity
  8
0
100
AcDbLine
 62
7
  6
CONTINUOUS
 10
24.8733996395
 20
95.2321336094
 11
24.9070316345
 21
99.7129570143
  0
LINE
  5
226
100
AcDbEntity
  8
0
100
AcDbLine
 62
7
  6
CONTINUOUS
 10
49.8625794281
 20
114.4547815544
 11
61.9894102363
 21
121.4561687933
  0
LINE
  5
227
100
AcDbEntity
  8
0
100
AcDbLine
 62
7
  6
CONTINUOUS
 10
25.1141172707
 20
100.1637123789
 11
37.240948079
 21
107.1650996178
  0
LINE
  5
228
100
AcDbEntity
  8
0
100
AcDbLine
 62
7
  6
CONTINUOUS
 10
37.488434422
 20
107.3079850716
 11
49.6152652302
 21
114.3093723105
  0
LINE
  5
229
100
AcDbEntity
  8
0
100
AcDbLine
 62
7
  6
CONTINUOUS
 10
62.4894079979
 20
121.4066445143
 11
50.3625771896
 21
114.4052572754
  0
LINE
  5
22A
100
AcDbEntity
  8
0
100
AcDbLine
 62
7
  6
CONTINUOUS
 10
50.1151941746
 20
114.2598877584
 11
37.9883633663
 21
107.2585005195
  0
LINE
  5
22B
100
AcDbEntity
  8
0
100
AcDbLine
 62
7
  6
CONTINUOUS
 10
37.7408770233
 20
107.1156150656
 11
25.6140462151
 21
100.1142278267
  0
LINE
  5
22C
100
AcDbEntity
  8
0
100
AcDbLine
 62
7
  6
CONTINUOUS
 10
68.7586172215
 20
46.7194160787
 11
69.8192375716
 21
47.005302153
  0
LINE
  5
22D
100
AcDbEntity
  8
0
100
AcDbLine
 62
7
  6
CONTINUOUS
 10
81.1329343727
 20
53.8636887715
 11
82.1935547228
 21
54.1495748457
  0
LINE
  5
22E
100
AcDbEntity
  8
0
100
AcDbLine
 62
7
  6
CONTINUOUS
 10
76.0040192302
 20
48.6935452296
 11
75.4030035699
 21
48.5355416752
  0
LINE
  5
22F
100
AcDbEntity
  8
0
100
AcDbLine
 62
7
  6
CONTINUOUS
 10
78.2313963174
 20
49.9795143143
 11
77.9839034157
 21
49.9144498564
  0
LINE
  5
230
100
AcDbEntity
  8
0
100
AcDbLine
 62
7
  6
CONTINUOUS
 10
88.3783363814
 20
55.8378179224
 11
87.7773207211
 21
55.6798143679
  0
LINE
  5
231
100
AcDbEntity
  8
0
100
AcDbLine
 62
7
  6
CONTINUOUS
 10
53.1577141805
 20
43.390217712
 11
51.389939876
 21
44.4106209348
  0
LINE
  5
232
100
AcDbEntity
  8
0
100
AcDbLine
 62
7
  6
CONTINUOUS
 10
50.6820139773
 20
44.8192533415
 11
46.6275054824
 21
47.159616319
  0
LINE
  5
233
100
AcDbEntity
  8
0
100
AcDbLine
 62
7
  6
CONTINUOUS
 10
32.4853110465
 20
55.3228421012
 11
28.1967410011
 21
57.7983112176
  0
LINE
  5
234
100
AcDbEntity
  8
0
100
AcDbLine
 62
7
  6
CONTINUOUS
 10
27.9459394183
 20
97.2159847674
 11
27.9459407216
 21
97.2005207866
  0
LINE
  5
235
100
AcDbEntity
  8
0
100
AcDbLine
 62
7
  6
CONTINUOUS
 10
28.1967410011
 20
57.7983112176
 11
28.1968442268
 21
56.5734980016
  0
LINE
  5
236
100
AcDbEntity
  8
0
100
AcDbLine
 62
7
  6
CONTINUOUS
 10
29.0453481762
 20
57.308474085
 11
29.0453688315
 21
57.0633909862
  0
LINE
  5
237
100
AcDbEntity
  8
0
100
AcDbLine
 62
7
  6
CONTINUOUS
 10
63.8665836472
 20
119.4684756572
 11
53.7196435831
 21
113.6101720491
  0
LINE
  5
238
100
AcDbEntity
  8
0
100
AcDbLine
 62
7
  6
CONTINUOUS
 10
51.4923698126
 20
112.3219849197
 11
41.3454297486
 21
106.4636813117
  0
LINE
  5
239
100
AcDbEntity
  8
0
100
AcDbLine
 62
7
  6
CONTINUOUS
 10
39.1180526614
 20
105.177712227
 11
28.9711125974
 21
99.3194086189
  0
LINE
  5
23A
100
AcDbEntity
  8
0
100
AcDbLine
 62
7
  6
CONTINUOUS
 10
55.028569879
 20
112.8544801959
 11
64.8565290193
 21
118.528621181
  0
LINE
  5
23B
100
AcDbEntity
  8
0
100
AcDbLine
 62
7
  6
CONTINUOUS
 10
30.280293686
 20
98.5637167874
 11
40.1081254184
 21
104.237784214
  0
LINE
  5
23C
100
AcDbEntity
  8
0
100
AcDbLine
 62
7
  6
CONTINUOUS
 10
42.6546108372
 20
105.7079894801
 11
52.4824425696
 21
111.3820569067
  0
LINE
  5
23D
100
AcDbEntity
  8
0
100
AcDbLine
 62
7
  6
CONTINUOUS
 10
56.1199232517
 20
112.2244012867
 11
67.0827227586
 21
118.553738752
  0
LINE
  5
23E
100
AcDbEntity
  8
0
100
AcDbLine
 62
7
  6
CONTINUOUS
 10
30.1720227043
 20
97.2414162759
 11
42.3342087043
 21
104.2632157225
  0
LINE
  5
23F
100
AcDbEntity
  8
0
100
AcDbLine
 62
7
  6
CONTINUOUS
 10
43.7457432938
 20
105.0781607331
 11
54.7085258556
 21
111.4074884152
  0
LINE
  5
240
100
AcDbEntity
  8
0
100
AcDbLine
 62
7
  6
CONTINUOUS
 10
65.8216986854
 20
117.7681883972
 11
57.3364526389
 21
112.8692585507
  0
LINE
  5
241
100
AcDbEntity
  8
0
100
AcDbLine
 62
7
  6
CONTINUOUS
 10
53.447450429
 20
110.6220325979
 11
44.9622043825
 21
105.7231027514
  0
LINE
  5
242
100
AcDbEntity
  8
0
100
AcDbLine
 62
7
  6
CONTINUOUS
 10
41.0731332778
 20
103.4777599051
 11
32.5878872312
 21
98.5788300587
  0
LINE
  5
243
100
AcDbEntity
  8
0
100
AcDbLine
 62
7
  6
CONTINUOUS
 10
93.5044647399
 20
61.0074725323
 11
94.5651263837
 21
61.2932553049
  0
LINE
  5
244
100
AcDbEntity
  8
0
100
AcDbLine
 62
7
  6
CONTINUOUS
 10
90.6027405234
 20
57.1234055424
 11
90.3582205297
 21
57.0591646701
  0
LINE
  5
245
100
AcDbEntity
  8
0
100
AcDbLine
 62
7
  6
CONTINUOUS
 10
100.7496805874
 20
62.9817091505
 11
100.1490516917
 21
62.8239105033
  0
LINE
  5
246
100
AcDbEntity
  8
0
100
AcDbLine
 62
7
  6
CONTINUOUS
 10
32.5878872312
 20
98.5788300587
 11
32.5879973387
 21
97.2723626283
  0
LINE
  5
247
100
AcDbEntity
  8
0
100
AcDbLine
 62
7
  6
CONTINUOUS
 10
67.4833912309
 20
118.1151809687
 11
66.3520431985
 21
117.4620007767
  0
LINE
  5
248
100
AcDbEntity
  8
0
100
AcDbLine
 62
7
  6
CONTINUOUS
 10
57.3364526389
 20
112.2568782105
 11
56.700066767
 21
111.8894628493
  0
LINE
  5
249
100
AcDbEntity
  8
0
100
AcDbLine
 62
7
  6
CONTINUOUS
 10
55.1092117925
 20
110.9689655762
 11
53.9779325898
 21
110.3158251227
  0
LINE
  5
24A
100
AcDbEntity
  8
0
100
AcDbLine
 62
7
  6
CONTINUOUS
 10
44.962255999
 20
105.1106528868
 11
44.3259217434
 21
104.743267326
  0
LINE
  5
24B
100
AcDbEntity
  8
0
100
AcDbLine
 62
7
  6
CONTINUOUS
 10
42.7348946413
 20
103.8246928835
 11
41.6036154385
 21
103.17155243
  0
LINE
  5
24C
100
AcDbEntity
  8
0
100
AcDbLine
 62
7
  6
CONTINUOUS
 10
32.5879388478
 20
97.966380194
 11
31.9516045922
 21
97.5989946333
  0
LINE
  5
24D
100
AcDbEntity
  8
0
100
AcDbLine
 62
7
  6
CONTINUOUS
 10
36.1152729245
 20
107.4972707825
 11
36.1153098241
 21
107.0594431982
  0
LINE
  5
24E
100
AcDbEntity
  8
0
100
AcDbLine
 62
7
  6
CONTINUOUS
 10
36.5831412765
 20
93.3335224795
 11
36.6955541147
 21
93.4377979645
  0
LINE
  5
24F
100
AcDbEntity
  8
0
100
AcDbLine
 62
7
  6
CONTINUOUS
 10
62.99333044
 20
109.6033325146
 11
71.4785764866
 21
114.502262361
  0
LINE
  5
250
100
AcDbEntity
  8
0
100
AcDbLine
 62
7
  6
CONTINUOUS
 10
38.2447650056
 20
95.3135397458
 11
46.7300110522
 21
100.2124695922
  0
LINE
  5
251
100
AcDbEntity
  8
0
100
AcDbLine
 62
7
  6
CONTINUOUS
 10
50.6190821569
 20
102.4578124385
 11
59.1043282034
 21
107.356742285
  0
LINE
  5
252
100
AcDbEntity
  8
0
100
AcDbLine
 62
7
  6
CONTINUOUS
 10
73.6062011183
 20
114.7493631786
 11
62.6764225844
 21
108.4390902671
  0
LINE
  5
253
100
AcDbEntity
  8
0
100
AcDbLine
 62
7
  6
CONTINUOUS
 10
61.2320560572
 20
107.6038721977
 11
50.3022490187
 21
101.2935828292
  0
LINE
  5
254
100
AcDbEntity
  8
0
100
AcDbLine
 62
7
  6
CONTINUOUS
 10
48.857738906
 20
100.459599505
 11
37.9279318675
 21
94.1493101365
  0
LINE
  5
255
100
AcDbEntity
  8
0
100
AcDbLine
 62
7
  6
CONTINUOUS
 10
74.1061988799
 20
114.6998388996
 11
61.9440128798
 21
107.678039453
  0
LINE
  5
256
100
AcDbEntity
  8
0
100
AcDbLine
 62
7
  6
CONTINUOUS
 10
61.7319850016
 20
107.5543876456
 11
49.5697990015
 21
100.532588199
  0
LINE
  5
257
100
AcDbEntity
  8
0
100
AcDbLine
 62
7
  6
CONTINUOUS
 10
49.3576678503
 20
100.4101149528
 11
37.1954818503
 21
93.3883155062
  0
LINE
  5
258
100
AcDbEntity
  8
0
100
AcDbLine
 62
7
  6
CONTINUOUS
 10
38.2447650056
 20
95.3135397458
 11
38.244847705
 21
94.3322804884
  0
LINE
  5
259
100
AcDbEntity
  8
0
100
AcDbLine
 62
7
  6
CONTINUOUS
 10
39.1180526614
 20
105.177712227
 11
39.1181800463
 21
103.6662423986
  0
LINE
  5
25A
100
AcDbEntity
  8
0
100
AcDbLine
 62
7
  6
CONTINUOUS
 10
40.0939801779
 20
93.1849439216
 11
40.0939939414
 21
93.0216354928
  0
LINE
  5
25B
100
AcDbEntity
  8
0
100
AcDbLine
 62
7
  6
CONTINUOUS
 10
40.8506941638
 20
92.5848420854
 11
40.8506804004
 21
92.7481505142
  0
LINE
  5
25C
100
AcDbEntity
  8
0
100
AcDbLine
 62
7
  6
CONTINUOUS
 10
42.0936657609
 20
90.56096213
 11
44.2560065403
 21
92.8791917168
  0
LINE
  5
25D
100
AcDbEntity
  8
0
100
AcDbLine
 62
7
  6
CONTINUOUS
 10
44.2560065403
 20
92.8791917168
 11
44.6523719408
 21
93.1958391357
  0
LINE
  5
25E
100
AcDbEntity
  8
0
100
AcDbLine
 62
7
  6
CONTINUOUS
 10
81.5631872654
 20
114.5061925923
 11
69.4010012653
 21
107.4843931458
  0
LINE
  5
25F
100
AcDbEntity
  8
0
100
AcDbLine
 62
7
  6
CONTINUOUS
 10
69.1888701142
 20
107.3619198996
 11
57.0266841141
 21
100.340120453
  0
LINE
  5
260
100
AcDbEntity
  8
0
100
AcDbLine
 62
7
  6
CONTINUOUS
 10
56.8145529629
 20
100.2176472068
 11
44.6523669629
 21
93.1958477603
  0
LINE
  5
261
100
AcDbEntity
  8
0
100
AcDbLine
 62
7
  6
CONTINUOUS
 10
42.7841717661
 20
91.3461678855
 11
41.794226394
 21
90.7746260701
  0
LINE
  5
262
100
AcDbEntity
  8
0
100
AcDbLine
 62
7
  6
CONTINUOUS
 10
71.688514836
 20
107.1144971388
 11
59.526328836
 21
100.0926976922
  0
LINE
  5
263
100
AcDbEntity
  8
0
100
AcDbLine
 62
7
  6
CONTINUOUS
 10
59.3141976848
 20
99.970224446
 11
47.1520116847
 21
92.9484249995
  0
LINE
  5
264
100
AcDbEntity
  8
0
100
AcDbLine
 62
7
  6
CONTINUOUS
 10
84.0631760732
 20
114.2585711973
 11
71.9009900731
 21
107.2367717507
  0
LINE
  5
265
100
AcDbEntity
  8
0
100
AcDbLine
 62
7
  6
CONTINUOUS
 10
75.3130420803
 20
50.9039516737
 11
73.5452677758
 21
51.9243548964
  0
LINE
  5
266
100
AcDbEntity
  8
0
100
AcDbLine
 62
7
  6
CONTINUOUS
 10
44.9622043825
 20
105.7231027514
 11
44.96231449
 21
104.416635321
  0
LINE
  5
267
100
AcDbEntity
  8
0
100
AcDbLine
 62
7
  6
CONTINUOUS
 10
77.9837446818
 20
51.7978874688
 11
76.2029849677
 21
52.8257861925
  0
LINE
  5
268
100
AcDbEntity
  8
0
100
AcDbLine
 62
7
  6
CONTINUOUS
 10
46.7300110522
 20
100.2124695922
 11
46.7300937515
 21
99.2312103348
  0
LINE
  5
269
100
AcDbEntity
  8
0
100
AcDbLine
 62
7
  6
CONTINUOUS
 10
47.967702077
 20
85.6434629875
 11
47.9676834964
 21
85.8639293664
  0
LINE
  5
26A
100
AcDbEntity
  8
0
100
AcDbLine
 62
7
  6
CONTINUOUS
 10
48.4887878268
 20
114.6453666828
 11
48.4887878268
 21
114.2072089012
  0
LINE
  5
26B
100
AcDbEntity
  8
0
100
AcDbLine
 62
7
  6
CONTINUOUS
 10
48.643363787
 20
87.6180946242
 11
47.9676834964
 21
85.8639293664
  0
LINE
  5
26C
100
AcDbEntity
  8
0
100
AcDbLine
 62
7
  6
CONTINUOUS
 10
48.0384148195
 20
85.6189708664
 11
48.7655547248
 21
87.506732841
  0
LINE
  5
26D
100
AcDbEntity
  8
0
100
AcDbLine
 62
7
  6
CONTINUOUS
 10
28.1968442268
 20
56.5734980016
 11
26.9518916551
 21
54.8017831544
  0
LINE
  5
26E
100
AcDbEntity
  8
0
100
AcDbLine
 62
7
  6
CONTINUOUS
 10
27.8004162598
 20
55.291676139
 11
29.0453688315
 21
57.0633909862
  0
LINE
  5
26F
100
AcDbEntity
  8
0
100
AcDbLine
 62
7
  6
CONTINUOUS
 10
30.5532620487
 20
56.4456571514
 11
29.1820013644
 21
54.4941909116
  0
LINE
  5
270
100
AcDbEntity
  8
0
100
AcDbLine
 62
7
  6
CONTINUOUS
 10
49.1368511478
 20
88.2276927121
 11
48.643363787
 21
87.6180946242
  0
LINE
  5
271
100
AcDbEntity
  8
0
100
AcDbLine
 62
7
  6
CONTINUOUS
 10
48.7655547248
 20
87.506732841
 11
49.2590891956
 21
88.1162494725
  0
LINE
  5
272
100
AcDbEntity
  8
0
100
AcDbLine
 62
7
  6
CONTINUOUS
 10
49.2590294137
 20
88.1163528917
 11
49.6276267498
 21
88.3291613926
  0
LINE
  5
273
100
AcDbEntity
  8
0
100
AcDbLine
 62
7
  6
CONTINUOUS
 10
49.0421556217
 20
87.8483358229
 11
48.643363787
 21
87.6180946242
  0
LINE
  5
274
100
AcDbEntity
  8
0
100
AcDbLine
 62
7
  6
CONTINUOUS
 10
50.7941801332
 20
87.9883164626
 11
50.7588162469
 21
87.9678992352
  0
LINE
  5
275
100
AcDbEntity
  8
0
100
AcDbLine
 62
7
  6
CONTINUOUS
 10
47.9676834964
 20
85.8639293664
 11
48.1799815922
 21
85.9864989976
  0
LINE
  5
276
100
AcDbEntity
  8
0
100
AcDbLine
 62
7
  6
CONTINUOUS
 10
47.967702077
 20
85.6434629875
 11
48.0707696329
 21
85.7029687135
  0
LINE
  5
277
100
AcDbEntity
  8
0
100
AcDbLine
 62
7
  6
CONTINUOUS
 10
68.7578413953
 20
55.9248894717
 11
69.8185649712
 21
54.9859623299
  0
LINE
  5
278
100
AcDbEntity
  8
0
100
AcDbLine
 62
7
  6
CONTINUOUS
 10
42.7977912207
 20
91.3158498374
 11
42.7841717661
 21
91.3461678855
  0
LINE
  5
279
100
AcDbEntity
  8
0
100
AcDbLine
 62
7
  6
CONTINUOUS
 10
50.6190821569
 20
102.4578124385
 11
50.6191648562
 21
101.4765531811
  0
LINE
  5
27A
100
AcDbEntity
  8
0
100
AcDbLine
 62
7
  6
CONTINUOUS
 10
50.7498521158
 20
98.4634062245
 11
50.7498658792
 21
98.3000977957
  0
LINE
  5
27B
100
AcDbEntity
  8
0
100
AcDbLine
 62
7
  6
CONTINUOUS
 10
51.4923698126
 20
112.3219849197
 11
51.4924971975
 21
110.8105150913
  0
LINE
  5
27C
100
AcDbEntity
  8
0
100
AcDbLine
 62
7
  6
CONTINUOUS
 10
52.097362716
 20
40.2871928905
 11
52.0971880417
 21
42.359770556
  0
LINE
  5
27D
100
AcDbEntity
  8
0
100
AcDbLine
 62
7
  6
CONTINUOUS
 10
52.4682973292
 20
100.3292166144
 11
52.4683110926
 21
100.1659081856
  0
LINE
  5
27E
100
AcDbEntity
  8
0
100
AcDbLine
 62
7
  6
CONTINUOUS
 10
53.1577829977
 20
42.573675568
 11
53.1577141805
 21
43.390217712
  0
LINE
  5
27F
100
AcDbEntity
  8
0
100
AcDbLine
 62
7
  6
CONTINUOUS
 10
53.2250113151
 20
99.7291147782
 11
53.2249975516
 21
99.892423207
  0
LINE
  5
280
100
AcDbEntity
  8
0
100
AcDbLine
 62
7
  6
CONTINUOUS
 10
55.9757398613
 20
87.8551500009
 11
68.1379258614
 21
94.8769494474
  0
LINE
  5
281
100
AcDbEntity
  8
0
100
AcDbLine
 62
7
  6
CONTINUOUS
 10
68.3500570125
 20
94.9994226936
 11
80.5122430126
 21
102.0212221402
  0
LINE
  5
282
100
AcDbEntity
  8
0
100
AcDbLine
 62
7
  6
CONTINUOUS
 10
80.7247182915
 20
102.1425051363
 11
92.8869042916
 21
109.1643045829
  0
LINE
  5
283
100
AcDbEntity
  8
0
100
AcDbLine
 62
7
  6
CONTINUOUS
 10
55.4770553327
 20
86.0470431451
 11
55.2355674662
 21
85.9076208927
  0
LINE
  5
284
100
AcDbEntity
  8
0
100
AcDbLine
 62
7
  6
CONTINUOUS
 10
81.2191774413
 20
100.8180331553
 11
69.0569914413
 21
93.7962337087
  0
LINE
  5
285
100
AcDbEntity
  8
0
100
AcDbLine
 62
7
  6
CONTINUOUS
 10
68.8448602901
 20
93.6737604625
 11
56.68267429
 21
86.6519610159
  0
LINE
  5
286
100
AcDbEntity
  8
0
100
AcDbLine
 62
7
  6
CONTINUOUS
 10
93.5937717079
 20
107.9610748467
 11
81.4315857078
 21
100.9392754001
  0
LINE
  5
287
100
AcDbEntity
  8
0
100
AcDbLine
 62
7
  6
CONTINUOUS
 10
55.3239936273
 20
85.6797933711
 11
55.5827876611
 21
85.8292072844
  0
LINE
  5
288
100
AcDbEntity
  8
0
100
AcDbLine
 62
7
  6
CONTINUOUS
 10
55.3254752527
 20
85.6772271052
 11
55.0263887141
 21
85.5045504424
  0
LINE
  5
289
100
AcDbEntity
  8
0
100
AcDbLine
 62
7
  6
CONTINUOUS
 10
56.2424930037
 20
86.1155137239
 11
56.0010019369
 21
85.9760896237
  0
LINE
  5
28A
100
AcDbEntity
  8
0
100
AcDbLine
 62
7
  6
CONTINUOUS
 10
56.0894286692
 20
85.748285489
 11
56.3482148203
 21
85.8976948511
  0
LINE
  5
28B
100
AcDbEntity
  8
0
100
AcDbLine
 62
7
  6
CONTINUOUS
 10
56.7017459291
 20
85.8030764296
 11
68.8639319292
 21
92.8248758762
  0
LINE
  5
28C
100
AcDbEntity
  8
0
100
AcDbLine
 62
7
  6
CONTINUOUS
 10
69.0760630803
 20
92.9473491224
 11
81.2382490804
 21
99.969148569
  0
LINE
  5
28D
100
AcDbEntity
  8
0
100
AcDbLine
 62
7
  6
CONTINUOUS
 10
81.4505867284
 20
100.0904294452
 11
93.6127727284
 21
107.1122288918
  0
LINE
  5
28E
100
AcDbEntity
  8
0
100
AcDbLine
 62
7
  6
CONTINUOUS
 10
55.3002574596
 20
86.1491038363
 11
55.2636506826
 21
86.1377783006
  0
LINE
  5
28F
100
AcDbEntity
  8
0
100
AcDbLine
 62
7
  6
CONTINUOUS
 10
56.0656831768
 20
86.2175951198
 11
56.0290763998
 21
86.2062695841
  0
LINE
  5
290
100
AcDbEntity
  8
0
100
AcDbLine
 62
7
  6
CONTINUOUS
 10
87.6873592315
 20
58.0482243664
 11
85.919584927
 21
59.0686275892
  0
LINE
  5
291
100
AcDbEntity
  8
0
100
AcDbLine
 62
7
  6
CONTINUOUS
 10
14.3096724457
 20
100.9238761095
 11
24.8734338502
 21
94.8262107263
  0
LINE
  5
292
100
AcDbEntity
  8
0
100
AcDbLine
 62
7
  6
CONTINUOUS
 10
56.672997211
 20
76.4781732587
 11
64.7929942029
 21
71.7844847575
  0
LINE
  5
293
100
AcDbEntity
  8
0
100
AcDbLine
 62
7
  6
CONTINUOUS
 10
56.68267429
 20
86.651961016
 11
56.7017459291
 21
85.8030764296
  0
LINE
  5
294
100
AcDbEntity
  8
0
100
AcDbLine
 62
7
  6
CONTINUOUS
 10
57.3364526389
 20
112.8692585507
 11
57.3364526389
 21
111.5628546833
  0
LINE
  5
295
100
AcDbEntity
  8
0
100
AcDbLine
 62
7
  6
CONTINUOUS
 10
56.6773550079
 20
76.8648143493
 11
56.672997211
 21
76.4781732587
  0
LINE
  5
296
100
AcDbEntity
  8
0
100
AcDbLine
 62
7
  6
CONTINUOUS
 10
55.8628236375
 20
82.9963611147
 11
67.9896544458
 21
89.9977483536
  0
LINE
  5
297
100
AcDbEntity
  8
0
100
AcDbLine
 62
7
  6
CONTINUOUS
 10
68.2371407888
 20
90.1406338074
 11
80.363971597
 21
97.1420210464
  0
LINE
  5
298
100
AcDbEntity
  8
0
100
AcDbLine
 62
7
  6
CONTINUOUS
 10
80.6113836204
 20
97.2839745212
 11
92.7382144286
 21
104.2853617602
  0
LINE
  5
299
100
AcDbEntity
  8
0
100
AcDbLine
 62
7
  6
CONTINUOUS
 10
80.6216467623
 20
96.1341538007
 11
68.494815954
 21
89.1327665618
  0
LINE
  5
29A
100
AcDbEntity
  8
0
100
AcDbLine
 62
7
  6
CONTINUOUS
 10
68.247329611
 20
88.989881108
 11
56.1204988028
 21
81.9884938691
  0
LINE
  5
29B
100
AcDbEntity
  8
0
100
AcDbLine
 62
7
  6
CONTINUOUS
 10
92.9958171851
 20
103.2775073659
 11
80.8689863769
 21
96.276120127
  0
LINE
  5
29C
100
AcDbEntity
  8
0
100
AcDbLine
 62
7
  6
CONTINUOUS
 10
90.3580618331
 20
58.9421601616
 11
88.577302119
 21
59.9700588852
  0
LINE
  5
29D
100
AcDbEntity
  8
0
100
AcDbLine
 62
7
  6
CONTINUOUS
 10
27.9459407216
 20
97.2005207866
 11
47.967702077
 21
85.6434629875
  0
LINE
  5
29E
100
AcDbEntity
  8
0
100
AcDbLine
 62
7
  6
CONTINUOUS
 10
47.9747702541
 20
85.6557080899
 11
48.0384148195
 21
85.6189708664
  0
LINE
  5
29F
100
AcDbEntity
  8
0
100
AcDbLine
 62
7
  6
CONTINUOUS
 10
65.0383902763
 20
76.5150934703
 11
63.6926550549
 21
77.291885255
  0
LINE
  5
2A0
100
AcDbEntity
  8
0
100
AcDbLine
 62
7
  6
CONTINUOUS
 10
23.7409557733
 20
100.3529980897
 11
24.9067846626
 21
99.680052707
  0
LINE
  5
2A1
100
AcDbEntity
  8
0
100
AcDbLine
 62
7
  6
CONTINUOUS
 10
36.5831412765
 20
93.3335224795
 11
30.5727086412
 21
96.8028934369
  0
LINE
  5
2A2
100
AcDbEntity
  8
0
100
AcDbLine
 62
7
  6
CONTINUOUS
 10
42.0936657609
 20
90.56096213
 11
37.1954818503
 21
93.3883155062
  0
LINE
  5
2A3
100
AcDbEntity
  8
0
100
AcDbLine
 62
7
  6
CONTINUOUS
 10
25.6140462151
 20
100.1142278267
 11
41.794226394
 21
90.7746260701
  0
LINE
  5
2A4
100
AcDbEntity
  8
0
100
AcDbLine
 62
7
  6
CONTINUOUS
 10
55.2355673411
 20
85.9076212151
 11
55.3239936273
 21
85.6797933712
  0
LINE
  5
2A5
100
AcDbEntity
  8
0
100
AcDbLine
 62
7
  6
CONTINUOUS
 10
56.0010018117
 20
85.9760899461
 11
56.0894286692
 21
85.748285489
  0
LINE
  5
2A6
100
AcDbEntity
  8
0
100
AcDbLine
 62
7
  6
CONTINUOUS
 10
55.6301266111
 20
85.7071865466
 11
55.5417474138
 21
85.9349925049
  0
LINE
  5
2A7
100
AcDbEntity
  8
0
100
AcDbLine
 62
7
  6
CONTINUOUS
 10
56.3955523283
 20
85.7756778301
 11
56.307173131
 21
86.0034837884
  0
LINE
  5
2A8
100
AcDbEntity
  8
0
100
AcDbLine
 62
7
  6
CONTINUOUS
 10
55.0263887141
 20
85.5045504424
 11
55.8628236375
 21
82.9963611147
  0
LINE
  5
2A9
100
AcDbEntity
  8
0
100
AcDbLine
 62
7
  6
CONTINUOUS
 10
59.1043282034
 20
107.356742285
 11
59.1044109028
 21
106.3754830276
  0
LINE
  5
2AA
100
AcDbEntity
  8
0
100
AcDbLine
 62
7
  6
CONTINUOUS
 10
81.1789106361
 20
91.0038528443
 11
69.0520798279
 21
84.0024656054
  0
LINE
  5
2AB
100
AcDbEntity
  8
0
100
AcDbLine
 62
7
  6
CONTINUOUS
 10
68.8045934848
 20
83.8595801515
 11
56.6777626766
 21
76.8581929126
  0
LINE
  5
2AC
100
AcDbEntity
  8
0
100
AcDbLine
 62
7
  6
CONTINUOUS
 10
93.552675776
 20
98.147377793
 11
81.4258449677
 21
91.1459905542
  0
LINE
  5
2AD
100
AcDbEntity
  8
0
100
AcDbLine
 62
7
  6
CONTINUOUS
 10
81.1731699367
 20
90.6244156404
 11
69.0463391298
 21
83.6230284923
  0
LINE
  5
2AE
100
AcDbEntity
  8
0
100
AcDbLine
 62
7
  6
CONTINUOUS
 10
68.7988527854
 20
83.4801429476
 11
56.6720219786
 21
76.4787557995
  0
LINE
  5
2AF
100
AcDbEntity
  8
0
100
AcDbLine
 62
7
  6
CONTINUOUS
 10
93.5469028172
 20
97.7679598606
 11
81.4200720103
 21
90.7665727125
  0
LINE
  5
2B0
100
AcDbEntity
  8
0
100
AcDbLine
 62
7
  6
CONTINUOUS
 10
67.3760024234
 20
76.7781597369
 11
66.9611737848
 21
77.0176091274
  0
LINE
  5
2B1
100
AcDbEntity
  8
0
100
AcDbLine
 62
7
  6
CONTINUOUS
 10
42.7841717661
 20
91.3461678855
 11
28.9711125974
 21
99.3194086189
  0
LINE
  5
2B2
100
AcDbEntity
  8
0
100
AcDbLine
 62
7
  6
CONTINUOUS
 10
40.0939930991
 20
93.0216347707
 11
40.8506954147
 21
92.5848425717
  0
LINE
  5
2B3
100
AcDbEntity
  8
0
100
AcDbLine
 62
7
  6
CONTINUOUS
 10
40.0939801779
 20
93.1849439216
 11
40.8506804004
 21
92.7481505142
  0
LINE
  5
2B4
100
AcDbEntity
  8
0
100
AcDbLine
 62
7
  6
CONTINUOUS
 10
50.7588162469
 20
87.9678992352
 11
55.0263887141
 21
85.5045504424
  0
LINE
  5
2B5
100
AcDbEntity
  8
0
100
AcDbLine
 62
7
  6
CONTINUOUS
 10
50.6366253149
 20
88.0792610159
 11
54.8647242093
 21
85.6386973494
  0
LINE
  5
2B6
100
AcDbEntity
  8
0
100
AcDbLine
 62
7
  6
CONTINUOUS
 10
32.5878872312
 20
98.5788300587
 11
38.2447650056
 21
95.3135397458
  0
LINE
  5
2B7
100
AcDbEntity
  8
0
100
AcDbLine
 62
7
  6
CONTINUOUS
 10
81.1321585466
 20
63.0691621644
 11
82.1928821225
 21
62.1302350227
  0
LINE
  5
2B8
100
AcDbEntity
  8
0
100
AcDbLine
 62
7
  6
CONTINUOUS
 10
62.99333044
 20
109.6033325146
 11
62.99333044
 21
108.6220560107
  0
LINE
  5
2B9
100
AcDbEntity
  8
0
100
AcDbLine
 62
7
  6
CONTINUOUS
 10
63.124169267
 20
105.6076789172
 11
63.1241830305
 21
105.4443704884
  0
LINE
  5
2BA
100
AcDbEntity
  8
0
100
AcDbLine
 62
7
  6
CONTINUOUS
 10
63.6926550549
 20
77.291885255
 11
63.6926914981
 21
76.8594721502
  0
LINE
  5
2BB
100
AcDbEntity
  8
0
100
AcDbLine
 62
7
  6
CONTINUOUS
 10
63.8665836472
 20
119.4684756572
 11
63.8665836472
 21
117.9570793656
  0
LINE
  5
2BC
100
AcDbEntity
  8
0
100
AcDbLine
 62
7
  6
CONTINUOUS
 10
64.8425249793
 20
107.4744613466
 11
64.8425249793
 21
107.3111608632
  0
LINE
  5
2BD
100
AcDbEntity
  8
0
100
AcDbLine
 62
7
  6
CONTINUOUS
 10
65.5992252053
 20
106.8742824167
 11
65.5992252053
 21
107.0375829001
  0
LINE
  5
2BE
100
AcDbEntity
  8
0
100
AcDbLine
 62
7
  6
CONTINUOUS
 10
65.8570791661
 20
42.8352416216
 11
65.8547943043
 21
69.9459982646
  0
LINE
  5
2BF
100
AcDbEntity
  8
0
100
AcDbLine
 62
7
  6
CONTINUOUS
 10
29.0453688315
 20
57.0633909862
 11
28.1968442268
 21
56.5734980016
  0
LINE
  5
2C0
100
AcDbEntity
  8
0
100
AcDbLine
 62
7
  6
CONTINUOUS
 10
27.8004162598
 20
55.291676139
 11
26.9518916551
 21
54.8017831544
  0
LINE
  5
2C1
100
AcDbEntity
  8
0
100
AcDbLine
 62
7
  6
CONTINUOUS
 10
79.335490936
 20
84.1618818202
 11
78.4038654137
 21
83.6240107847
  0
LINE
  5
2C2
100
AcDbEntity
  8
0
100
AcDbLine
 62
7
  6
CONTINUOUS
 10
66.9611737848
 20
77.0176091274
 11
66.0295482625
 21
76.479738092
  0
LINE
  5
2C3
100
AcDbEntity
  8
0
100
AcDbLine
 62
7
  6
CONTINUOUS
 10
91.7090060364
 20
91.3052775496
 11
90.7767787033
 21
90.7670590606
  0
LINE
  5
2C4
100
AcDbEntity
  8
0
100
AcDbLine
 62
7
  6
CONTINUOUS
 10
31.5511947814
 20
55.8620372037
 11
29.1820013644
 21
54.4941909116
  0
LINE
  5
2C5
100
AcDbEntity
  8
0
100
AcDbLine
 62
7
  6
CONTINUOUS
 10
56.7017459291
 20
85.8030764296
 11
56.3955523283
 21
85.7756778301
  0
LINE
  5
2C6
100
AcDbEntity
  8
0
100
AcDbLine
 62
7
  6
CONTINUOUS
 10
56.0894286692
 20
85.748285489
 11
55.6301266111
 21
85.7071865466
  0
LINE
  5
2C7
100
AcDbEntity
  8
0
100
AcDbLine
 62
7
  6
CONTINUOUS
 10
55.3239936273
 20
85.6797933712
 11
54.8647242092
 21
85.6386973494
  0
LINE
  5
2C8
100
AcDbEntity
  8
0
100
AcDbLine
 62
7
  6
CONTINUOUS
 10
55.9757398613
 20
87.8551500009
 11
47.1520116847
 21
92.9484249995
  0
LINE
  5
2C9
100
AcDbEntity
  8
0
100
AcDbLine
 62
7
  6
CONTINUOUS
 10
100.0589921448
 20
65.1918694658
 11
98.291217832
 21
66.2124713521
  0
LINE
  5
2CA
100
AcDbEntity
  8
0
100
AcDbLine
 62
7
  6
CONTINUOUS
 10
26.4365032539
 20
107.9252633484
 11
32.4976910586
 21
104.4265952469
  0
LINE
  5
2CB
100
AcDbEntity
  8
0
100
AcDbLine
 62
7
  6
CONTINUOUS
 10
26.683989597
 20
108.0681488022
 11
32.7451774016
 21
104.5694807008
  0
LINE
  5
2CC
100
AcDbEntity
  8
0
100
AcDbLine
 62
7
  6
CONTINUOUS
 10
69.0473143622
 20
83.6224459515
 11
77.1673113541
 21
78.9287574503
  0
LINE
  5
2CD
100
AcDbEntity
  8
0
100
AcDbLine
 62
7
  6
CONTINUOUS
 10
68.7998348528
 20
83.4810663944
 11
76.921236481
 21
78.7841298219
  0
LINE
  5
2CE
100
AcDbEntity
  8
0
100
AcDbLine
 62
7
  6
CONTINUOUS
 10
68.8639319292
 20
92.8248758762
 11
68.8448602901
 21
93.6737604625
  0
LINE
  5
2CF
100
AcDbEntity
  8
0
100
AcDbLine
 62
7
  6
CONTINUOUS
 10
69.0569914413
 20
93.7962337087
 11
69.0760630803
 21
92.9473491224
  0
LINE
  5
2D0
100
AcDbEntity
  8
0
100
AcDbLine
 62
7
  6
CONTINUOUS
 10
66.9611737848
 20
77.0176091274
 11
66.9612029887
 21
76.6710938467
  0
LINE
  5
2D1
100
AcDbEntity
  8
0
100
AcDbLine
 62
7
  6
CONTINUOUS
 10
67.7662595266
 20
43.937500837
 11
67.7662435995
 21
44.1264825691
  0
LINE
  5
2D2
100
AcDbEntity
  8
0
100
AcDbLine
 62
7
  6
CONTINUOUS
 10
68.7578413953
 20
55.9248894717
 11
68.7586172215
 21
46.7194160787
  0
LINE
  5
2D3
100
AcDbEntity
  8
0
100
AcDbLine
 62
7
  6
CONTINUOUS
 10
69.8185649712
 20
54.9859623299
 11
69.8192375716
 21
47.005302153
  0
LINE
  5
2D4
100
AcDbEntity
  8
0
100
AcDbLine
 62
7
  6
CONTINUOUS
 10
70.4989098626
 20
54.7676827391
 11
70.4994697124
 21
48.1248509603
  0
LINE
  5
2D5
100
AcDbEntity
  8
0
100
AcDbLine
 62
7
  6
CONTINUOUS
 10
69.0516721592
 20
84.009087042
 11
69.0473143622
 21
83.6224459515
  0
LINE
  5
2D6
100
AcDbEntity
  8
0
100
AcDbLine
 62
7
  6
CONTINUOUS
 10
68.8045934848
 20
83.8595801515
 11
68.7988527854
 21
83.4801429476
  0
LINE
  5
2D7
100
AcDbEntity
  8
0
100
AcDbLine
 62
7
  6
CONTINUOUS
 10
64.7944056718
 20
71.7827425836
 11
76.921236481
 21
78.7841298219
  0
LINE
  5
2D8
100
AcDbEntity
  8
0
100
AcDbLine
 62
7
  6
CONTINUOUS
 10
77.1687228231
 20
78.9270152763
 11
89.2955536322
 21
85.9284025147
  0
LINE
  5
2D9
100
AcDbEntity
  8
0
100
AcDbLine
 62
7
  6
CONTINUOUS
 10
89.5424551039
 20
86.0696470667
 11
101.669285913
 21
93.0710343051
  0
LINE
  5
2DA
100
AcDbEntity
  8
0
100
AcDbLine
 62
7
  6
CONTINUOUS
 10
69.0760630803
 20
92.9473491224
 11
68.8616114817
 21
92.9281597159
  0
LINE
  5
2DB
100
AcDbEntity
  8
0
100
AcDbLine
 62
7
  6
CONTINUOUS
 10
102.7295713316
 20
66.0859559694
 11
100.948811609
 21
67.1140548159
  0
LINE
  5
2DC
100
AcDbEntity
  8
0
100
AcDbLine
 62
7
  6
CONTINUOUS
 10
46.7300110522
 20
100.2124695922
 11
41.0731332778
 21
103.4777599051
  0
LINE
  5
2DD
100
AcDbEntity
  8
0
100
AcDbLine
 62
7
  6
CONTINUOUS
 10
52.263259548
 20
97.5899724137
 11
39.1180526614
 21
105.177712227
  0
LINE
  5
2DE
100
AcDbEntity
  8
0
100
AcDbLine
 62
7
  6
CONTINUOUS
 10
77.4127074275
 20
83.6593661631
 11
76.0669722061
 21
84.4361579478
  0
LINE
  5
2DF
100
AcDbEntity
  8
0
100
AcDbLine
 62
7
  6
CONTINUOUS
 10
36.1152729245
 20
107.4972707825
 11
36.9658707511
 21
107.0062845965
  0
LINE
  5
2E0
100
AcDbEntity
  8
0
100
AcDbLine
 62
7
  6
CONTINUOUS
 10
37.7408770233
 20
107.1156150656
 11
53.2532049201
 21
98.1615142291
  0
LINE
  5
2E1
100
AcDbEntity
  8
0
100
AcDbLine
 62
7
  6
CONTINUOUS
 10
67.9896544458
 20
89.9977483536
 11
67.3402255903
 21
91.9451688625
  0
LINE
  5
2E2
100
AcDbEntity
  8
0
100
AcDbLine
 62
7
  6
CONTINUOUS
 10
67.5877119333
 20
92.0880543163
 11
68.2371407888
 21
90.1406338074
  0
LINE
  5
2E3
100
AcDbEntity
  8
0
100
AcDbLine
 62
7
  6
CONTINUOUS
 10
71.4785764866
 20
114.502262361
 11
71.4785764866
 21
113.5209858572
  0
LINE
  5
2E4
100
AcDbEntity
  8
0
100
AcDbLine
 62
7
  6
CONTINUOUS
 10
73.5452677758
 20
51.9243548964
 11
73.5448799325
 21
56.5262638816
  0
LINE
  5
2E5
100
AcDbEntity
  8
0
100
AcDbLine
 62
7
  6
CONTINUOUS
 10
90.3559422638
 20
84.0916581963
 11
78.2291114556
 21
77.0902709574
  0
LINE
  5
2E6
100
AcDbEntity
  8
0
100
AcDbLine
 62
7
  6
CONTINUOUS
 10
77.9816251126
 20
76.9473855035
 11
65.8547943043
 21
69.9459982646
  0
LINE
  5
2E7
100
AcDbEntity
  8
0
100
AcDbLine
 62
7
  6
CONTINUOUS
 10
102.7295713316
 20
91.234230417
 11
90.6027405234
 21
84.2328431781
  0
LINE
  5
2E8
100
AcDbEntity
  8
0
100
AcDbLine
 62
7
  6
CONTINUOUS
 10
53.4653360713
 20
98.2839874753
 11
49.5697990015
 21
100.532588199
  0
LINE
  5
2E9
100
AcDbEntity
  8
0
100
AcDbLine
 62
7
  6
CONTINUOUS
 10
37.9883633663
 20
107.2585005195
 11
53.5006912631
 21
98.304399683
  0
LINE
  5
2EA
100
AcDbEntity
  8
0
100
AcDbLine
 62
7
  6
CONTINUOUS
 10
79.7503195747
 20
83.9224324297
 11
79.335490936
 21
84.1618818202
  0
LINE
  5
2EB
100
AcDbEntity
  8
0
100
AcDbLine
 62
7
  6
CONTINUOUS
 10
54.4906366352
 20
98.8759414984
 11
41.3454297486
 21
106.4636813117
  0
LINE
  5
2EC
100
AcDbEntity
  8
0
100
AcDbLine
 62
7
  6
CONTINUOUS
 10
52.4683102503
 20
100.1659074634
 11
53.2250125659
 21
99.7291152645
  0
LINE
  5
2ED
100
AcDbEntity
  8
0
100
AcDbLine
 62
7
  6
CONTINUOUS
 10
52.4682973292
 20
100.3292166144
 11
53.2249975516
 21
99.892423207
  0
LINE
  5
2EE
100
AcDbEntity
  8
0
100
AcDbLine
 62
7
  6
CONTINUOUS
 10
44.9622043825
 20
105.7231027514
 11
50.6190821569
 21
102.4578124385
  0
LINE
  5
2EF
100
AcDbEntity
  8
0
100
AcDbLine
 62
7
  6
CONTINUOUS
 10
93.5044647399
 20
70.2124980554
 11
94.5651263837
 21
69.2735272024
  0
LINE
  5
2F0
100
AcDbEntity
  8
0
100
AcDbLine
 62
7
  6
CONTINUOUS
 10
75.9324146792
 20
58.5157740344
 11
75.6495053242
 21
59.9037697454
  0
LINE
  5
2F1
100
AcDbEntity
  8
0
100
AcDbLine
 62
7
  6
CONTINUOUS
 10
75.3130420803
 20
50.9039516737
 11
75.3124822305
 21
57.5467834525
  0
LINE
  5
2F2
100
AcDbEntity
  8
0
100
AcDbLine
 62
7
  6
CONTINUOUS
 10
75.4983969207
 20
112.7528386104
 11
75.4983969207
 21
112.589538127
  0
LINE
  5
2F3
100
AcDbEntity
  8
0
100
AcDbLine
 62
7
  6
CONTINUOUS
 10
75.6493110516
 20
62.2088886344
 11
75.6495053242
 21
59.9037697454
  0
LINE
  5
2F4
100
AcDbEntity
  8
0
100
AcDbLine
 62
7
  6
CONTINUOUS
 10
75.9330872795
 20
50.5351138575
 11
75.9324146792
 21
58.5157740344
  0
LINE
  5
2F5
100
AcDbEntity
  8
0
100
AcDbLine
 62
7
  6
CONTINUOUS
 10
76.0040192302
 20
48.6935452296
 11
76.004003303
 21
48.8825269617
  0
LINE
  5
2F6
100
AcDbEntity
  8
0
100
AcDbLine
 62
7
  6
CONTINUOUS
 10
76.0669722061
 20
84.4361579478
 11
76.0670086494
 21
84.003744843
  0
LINE
  5
2F7
100
AcDbEntity
  8
0
100
AcDbLine
 62
7
  6
CONTINUOUS
 10
76.2022638355
 20
61.3822950432
 11
76.2029849677
 21
52.8257861925
  0
LINE
  5
2F8
100
AcDbEntity
  8
0
100
AcDbLine
 62
7
  6
CONTINUOUS
 10
76.5011316651
 20
62.7006845593
 11
76.5012282303
 21
61.5549011867
  0
LINE
  5
2F9
100
AcDbEntity
  8
0
100
AcDbLine
 62
7
  6
CONTINUOUS
 10
77.9816251126
 20
76.9473855035
 11
77.9827537144
 21
63.5560943422
  0
LINE
  5
2FA
100
AcDbEntity
  8
0
100
AcDbLine
 62
7
  6
CONTINUOUS
 10
77.9837446818
 20
51.7978874688
 11
77.9839099744
 21
49.8366288605
  0
LINE
  5
2FB
100
AcDbEntity
  8
0
100
AcDbLine
 62
7
  6
CONTINUOUS
 10
78.2313963174
 20
49.9795143143
 11
78.2291114556
 21
77.0902709574
  0
LINE
  5
2FC
100
AcDbEntity
  8
0
100
AcDbLine
 62
7
  6
CONTINUOUS
 10
81.4505867283
 20
100.0904294452
 11
81.235955061
 21
100.0712560876
  0
LINE
  5
2FD
100
AcDbEntity
  8
0
100
AcDbLine
 62
7
  6
CONTINUOUS
 10
68.1379258614
 20
94.8769494474
 11
59.3141976848
 21
99.970224446
  0
LINE
  5
2FE
100
AcDbEntity
  8
0
100
AcDbLine
 62
7
  6
CONTINUOUS
 10
68.3500570125
 20
94.9994226936
 11
59.526328836
 21
100.0926976922
  0
LINE
  5
2FF
100
AcDbEntity
  8
0
100
AcDbLine
 62
7
  6
CONTINUOUS
 10
38.8108204052
 20
115.0695360411
 11
44.8720082099
 21
111.5708679397
  0
LINE
  5
300
100
AcDbEntity
  8
0
100
AcDbLine
 62
7
  6
CONTINUOUS
 10
39.0577216464
 20
115.2164540925
 11
45.1221044904
 21
111.7152602326
  0
LINE
  5
301
100
AcDbEntity
  8
0
100
AcDbLine
 62
7
  6
CONTINUOUS
 10
81.1741520041
 20
90.6253390872
 11
89.2955536322
 21
85.9284025147
  0
LINE
  5
302
100
AcDbEntity
  8
0
100
AcDbLine
 62
7
  6
CONTINUOUS
 10
81.4210472411
 20
90.7659900631
 11
89.5410437131
 21
86.0713893542
  0
LINE
  5
303
100
AcDbEntity
  8
0
100
AcDbLine
 62
7
  6
CONTINUOUS
 10
81.2382490804
 20
99.969148569
 11
81.2191774413
 21
100.8180331553
  0
LINE
  5
304
100
AcDbEntity
  8
0
100
AcDbLine
 62
7
  6
CONTINUOUS
 10
81.4315857078
 20
100.9392754001
 11
81.4505867283
 21
100.0904294452
  0
LINE
  5
305
100
AcDbEntity
  8
0
100
AcDbLine
 62
7
  6
CONTINUOUS
 10
79.335490936
 20
84.1618818202
 11
79.3355201399
 21
83.8153665394
  0
LINE
  5
306
100
AcDbEntity
  8
0
100
AcDbLine
 62
7
  6
CONTINUOUS
 10
80.1405766778
 20
51.0817735298
 11
80.1405607507
 21
51.2707552618
  0
LINE
  5
307
100
AcDbEntity
  8
0
100
AcDbLine
 62
7
  6
CONTINUOUS
 10
81.1321585466
 20
63.0691621644
 11
81.1329343727
 21
53.8636887715
  0
LINE
  5
308
100
AcDbEntity
  8
0
100
AcDbLine
 62
7
  6
CONTINUOUS
 10
82.1928821225
 20
62.1302350227
 11
82.1935547228
 21
54.1495748457
  0
LINE
  5
309
100
AcDbEntity
  8
0
100
AcDbLine
 62
7
  6
CONTINUOUS
 10
82.8732270138
 20
61.9119554319
 11
82.8737868637
 21
55.269123653
  0
LINE
  5
30A
100
AcDbEntity
  8
0
100
AcDbLine
 62
7
  6
CONTINUOUS
 10
81.4254378373
 20
91.1526117259
 11
81.4210472411
 21
90.7659900631
  0
LINE
  5
30B
100
AcDbEntity
  8
0
100
AcDbLine
 62
7
  6
CONTINUOUS
 10
81.1789106361
 20
91.0038528443
 11
81.1731699367
 21
90.6244156404
  0
LINE
  5
30C
100
AcDbEntity
  8
0
100
AcDbLine
 62
7
  6
CONTINUOUS
 10
59.1043282034
 20
107.356742285
 11
53.447450429
 21
110.6220325979
  0
LINE
  5
30D
100
AcDbEntity
  8
0
100
AcDbLine
 62
7
  6
CONTINUOUS
 10
64.6375766993
 20
104.7342451064
 11
51.4923698126
 21
112.3219849197
  0
LINE
  5
30E
100
AcDbEntity
  8
0
100
AcDbLine
 62
7
  6
CONTINUOUS
 10
89.786903906
 20
90.8024276469
 11
88.4404872976
 21
91.5797640524
  0
LINE
  5
30F
100
AcDbEntity
  8
0
100
AcDbLine
 62
7
  6
CONTINUOUS
 10
48.4887878268
 20
114.6453666828
 11
49.3430150403
 21
114.1521895283
  0
LINE
  5
310
100
AcDbEntity
  8
0
100
AcDbLine
 62
7
  6
CONTINUOUS
 10
50.1151941746
 20
114.2598877584
 11
65.6275220714
 21
105.3057869219
  0
LINE
  5
311
100
AcDbEntity
  8
0
100
AcDbLine
 62
7
  6
CONTINUOUS
 10
85.919584927
 20
59.0686275892
 11
85.9191970837
 21
63.6705365744
  0
LINE
  5
312
100
AcDbEntity
  8
0
100
AcDbLine
 62
7
  6
CONTINUOUS
 10
51.389939876
 20
44.4106209348
 11
51.3486317875
 21
44.3800289462
  0
LINE
  5
313
100
AcDbEntity
  8
0
100
AcDbLine
 62
7
  6
CONTINUOUS
 10
102.7295713316
 20
77.8435907761
 11
100.3961286688
 21
76.4963850683
  0
LINE
  5
314
100
AcDbEntity
  8
0
100
AcDbLine
 62
7
  6
CONTINUOUS
 10
90.3570708656
 20
70.7003670349
 11
88.0236282028
 21
69.3531613272
  0
LINE
  5
315
100
AcDbEntity
  8
0
100
AcDbLine
 62
7
  6
CONTINUOUS
 10
77.9827537144
 20
63.5560943422
 11
75.6493110516
 21
62.2088886344
  0
LINE
  5
316
100
AcDbEntity
  8
0
100
AcDbLine
 62
7
  6
CONTINUOUS
 10
101.2478876722
 20
75.8425600853
 11
100.3961286688
 21
75.3507997308
  0
LINE
  5
317
100
AcDbEntity
  8
0
100
AcDbLine
 62
7
  6
CONTINUOUS
 10
88.8755453816
 20
68.6991738795
 11
88.0237247681
 21
68.2073779546
  0
LINE
  5
318
100
AcDbEntity
  8
0
100
AcDbLine
 62
7
  6
CONTINUOUS
 10
76.5012282303
 20
61.5549011867
 11
75.6494076168
 21
61.0631052619
  0
LINE
  5
319
100
AcDbEntity
  8
0
100
AcDbLine
 62
7
  6
CONTINUOUS
 10
100.3961286688
 20
74.1913783292
 11
93.5044647399
 21
70.2124980554
  0
LINE
  5
31A
100
AcDbEntity
  8
0
100
AcDbLine
 62
7
  6
CONTINUOUS
 10
88.0238224755
 20
67.0480424382
 11
81.1321585466
 21
63.0691621644
  0
LINE
  5
31B
100
AcDbEntity
  8
0
100
AcDbLine
 62
7
  6
CONTINUOUS
 10
75.6495053242
 20
59.9037697454
 11
68.7578413953
 21
55.9248894717
  0
LINE
  5
31C
100
AcDbEntity
  8
0
100
AcDbLine
 62
7
  6
CONTINUOUS
 10
100.6789760916
 20
72.803338907
 11
94.5651263837
 21
69.2735272024
  0
LINE
  5
31D
100
AcDbEntity
  8
0
100
AcDbLine
 62
7
  6
CONTINUOUS
 10
88.3067318304
 20
65.6600467272
 11
82.1928821225
 21
62.1302350227
  0
LINE
  5
31E
100
AcDbEntity
  8
0
100
AcDbLine
 62
7
  6
CONTINUOUS
 10
75.9324146792
 20
58.5157740344
 11
69.8185649712
 21
54.9859623299
  0
LINE
  5
31F
100
AcDbEntity
  8
0
100
AcDbLine
 62
7
  6
CONTINUOUS
 10
100.0589921448
 20
71.8343780539
 11
95.2454197769
 21
69.0552773406
  0
LINE
  5
320
100
AcDbEntity
  8
0
100
AcDbLine
 62
7
  6
CONTINUOUS
 10
87.6867993817
 20
64.6910561452
 11
82.8732270138
 21
61.9119554319
  0
LINE
  5
321
100
AcDbEntity
  8
0
100
AcDbLine
 62
7
  6
CONTINUOUS
 10
75.3124822305
 20
57.5467834525
 11
70.4989098626
 21
54.7676827391
  0
LINE
  5
322
100
AcDbEntity
  8
0
100
AcDbLine
 62
7
  6
CONTINUOUS
 10
65.8402431379
 20
105.4286007538
 11
61.9440128798
 21
107.678039453
  0
LINE
  5
323
100
AcDbEntity
  8
0
100
AcDbLine
 62
7
  6
CONTINUOUS
 10
50.3625771896
 20
114.4052572754
 11
65.8755983298
 21
105.4490129615
  0
LINE
  5
324
100
AcDbEntity
  8
0
100
AcDbLine
 62
7
  6
CONTINUOUS
 10
92.1243527153
 20
91.0654824577
 11
91.7090060364
 21
91.3052775496
  0
LINE
  5
325
100
AcDbEntity
  8
0
100
AcDbLine
 62
7
  6
CONTINUOUS
 10
66.8655437019
 20
106.0205547769
 11
53.7196435831
 21
113.6101720491
  0
LINE
  5
326
100
AcDbEntity
  8
0
100
AcDbLine
 62
7
  6
CONTINUOUS
 10
64.842524137
 20
107.3111601411
 11
65.5992264562
 21
106.874282903
  0
LINE
  5
327
100
AcDbEntity
  8
0
100
AcDbLine
 62
7
  6
CONTINUOUS
 10
64.8425249793
 20
107.4744613466
 11
65.5992252053
 21
107.0375829001
  0
LINE
  5
328
100
AcDbEntity
  8
0
100
AcDbLine
 62
7
  6
CONTINUOUS
 10
57.3364526389
 20
112.8692585507
 11
62.99333044
 21
109.6033325146
  0
LINE
  5
329
100
AcDbEntity
  8
0
100
AcDbLine
 62
7
  6
CONTINUOUS
 10
80.363971597
 20
97.1420210463
 11
79.7145427415
 21
99.0894415552
  0
LINE
  5
32A
100
AcDbEntity
  8
0
100
AcDbLine
 62
7
  6
CONTINUOUS
 10
79.9618163376
 20
99.2322041803
 11
80.6113836204
 21
97.2839745212
  0
LINE
  5
32B
100
AcDbEntity
  8
0
100
AcDbLine
 62
7
  6
CONTINUOUS
 10
88.3067318304
 20
65.6600467272
 11
88.0238224755
 21
67.0480424382
  0
LINE
  5
32C
100
AcDbEntity
  8
0
100
AcDbLine
 62
7
  6
CONTINUOUS
 10
87.6873592315
 20
58.0482243664
 11
87.6867993817
 21
64.6910561452
  0
LINE
  5
32D
100
AcDbEntity
  8
0
100
AcDbLine
 62
7
  6
CONTINUOUS
 10
88.0236282028
 20
69.3531613272
 11
88.0238224755
 21
67.0480424382
  0
LINE
  5
32E
100
AcDbEntity
  8
0
100
AcDbLine
 62
7
  6
CONTINUOUS
 10
88.3074044308
 20
57.6793865502
 11
88.3067318304
 21
65.6600467272
  0
LINE
  5
32F
100
AcDbEntity
  8
0
100
AcDbLine
 62
7
  6
CONTINUOUS
 10
88.3783363814
 20
55.8378179224
 11
88.3783204542
 21
56.0267996544
  0
LINE
  5
330
100
AcDbEntity
  8
0
100
AcDbLine
 62
7
  6
CONTINUOUS
 10
88.4404872976
 20
91.5797640524
 11
88.4404872976
 21
91.147020713
  0
LINE
  5
331
100
AcDbEntity
  8
0
100
AcDbLine
 62
7
  6
CONTINUOUS
 10
88.5765809867
 20
68.526567736
 11
88.577302119
 21
59.9700588852
  0
LINE
  5
332
100
AcDbEntity
  8
0
100
AcDbLine
 62
7
  6
CONTINUOUS
 10
88.8754488163
 20
69.844957252
 11
88.8755453816
 21
68.6991738795
  0
LINE
  5
333
100
AcDbEntity
  8
0
100
AcDbLine
 62
7
  6
CONTINUOUS
 10
90.3559422638
 20
84.0916581963
 11
90.3570708656
 21
70.7003670349
  0
LINE
  5
334
100
AcDbEntity
  8
0
100
AcDbLine
 62
7
  6
CONTINUOUS
 10
90.3580618331
 20
58.9421601616
 11
90.3582271256
 21
56.9809015532
  0
LINE
  5
335
100
AcDbEntity
  8
0
100
AcDbLine
 62
7
  6
CONTINUOUS
 10
90.6027405234
 20
57.1234055424
 11
90.6027405234
 21
84.2328431781
  0
LINE
  5
336
100
AcDbEntity
  8
0
100
AcDbLine
 62
7
  6
CONTINUOUS
 10
53.1577494205
 20
42.9720822985
 11
52.0971880417
 21
42.359770556
  0
LINE
  5
337
100
AcDbEntity
  8
0
100
AcDbLine
 62
7
  6
CONTINUOUS
 10
95.2454197769
 20
64.4539895218
 11
98.291217832
 21
66.2124713521
  0
LINE
  5
338
100
AcDbEntity
  8
0
100
AcDbLine
 62
7
  6
CONTINUOUS
 10
70.4992977059
 20
50.165773754
 11
73.5452677758
 21
51.9243548964
  0
LINE
  5
339
100
AcDbEntity
  8
0
100
AcDbLine
 62
7
  6
CONTINUOUS
 10
82.8736148572
 20
57.3100464467
 11
85.919584927
 21
59.0686275892
  0
LINE
  5
33A
100
AcDbEntity
  8
0
100
AcDbLine
 62
7
  6
CONTINUOUS
 10
80.5122430126
 20
102.0212221402
 11
71.688514836
 21
107.1144971388
  0
LINE
  5
33B
100
AcDbEntity
  8
0
100
AcDbLine
 62
7
  6
CONTINUOUS
 10
80.7247182915
 20
102.1425051363
 11
71.9009900731
 21
107.2367717507
  0
LINE
  5
33C
100
AcDbEntity
  8
0
100
AcDbLine
 62
7
  6
CONTINUOUS
 10
51.1845524547
 20
122.2178413314
 11
57.2466635278
 21
118.7179590493
  0
LINE
  5
33D
100
AcDbEntity
  8
0
100
AcDbLine
 62
7
  6
CONTINUOUS
 10
93.5478850102
 20
97.7688831245
 11
101.669285913
 21
93.0710343051
  0
LINE
  5
33E
100
AcDbEntity
  8
0
100
AcDbLine
 62
7
  6
CONTINUOUS
 10
93.6127727284
 20
107.1122288918
 11
93.5937717079
 21
107.9610748467
  0
LINE
  5
33F
100
AcDbEntity
  8
0
100
AcDbLine
 62
7
  6
CONTINUOUS
 10
91.7090060364
 20
91.3052775496
 11
91.7090060364
 21
90.9582882001
  0
LINE
  5
340
100
AcDbEntity
  8
0
100
AcDbLine
 62
7
  6
CONTINUOUS
 10
92.5119208839
 20
58.2256647579
 11
92.5119208839
 21
58.4146372954
  0
LINE
  5
341
100
AcDbEntity
  8
0
100
AcDbLine
 62
7
  6
CONTINUOUS
 10
93.5044647399
 20
70.2124980554
 11
93.5044647399
 21
61.0074725323
  0
LINE
  5
342
100
AcDbEntity
  8
0
100
AcDbLine
 62
7
  6
CONTINUOUS
 10
94.5651263837
 20
69.2735272024
 11
94.5651263837
 21
61.2932553049
  0
LINE
  5
343
100
AcDbEntity
  8
0
100
AcDbLine
 62
7
  6
CONTINUOUS
 10
93.552675776
 20
98.147377793
 11
93.5469028172
 21
97.7679598606
  0
LINE
  5
344
100
AcDbEntity
  8
0
100
AcDbLine
 62
7
  6
CONTINUOUS
 10
100.6789760916
 20
66.9582661372
 11
100.948811609
 21
67.1140548159
  0
LINE
  5
345
100
AcDbEntity
  8
0
100
AcDbLine
 62
7
  6
CONTINUOUS
 10
75.9329073659
 20
52.6698577471
 11
76.2029849677
 21
52.8257861925
  0
LINE
  5
346
100
AcDbEntity
  8
0
100
AcDbLine
 62
7
  6
CONTINUOUS
 10
88.3072245171
 20
59.8141304399
 11
88.577302119
 21
59.9700588852
  0
LINE
  5
347
100
AcDbEntity
  8
0
100
AcDbLine
 62
7
  6
CONTINUOUS
 10
95.2454197769
 20
62.4127687524
 11
100.0589921448
 21
65.1918694658
  0
LINE
  5
348
100
AcDbEntity
  8
0
100
AcDbLine
 62
7
  6
CONTINUOUS
 10
70.4994697124
 20
48.1248509603
 11
75.3130420803
 21
50.9039516737
  0
LINE
  5
349
100
AcDbEntity
  8
0
100
AcDbLine
 62
7
  6
CONTINUOUS
 10
82.8737868637
 20
55.269123653
 11
87.6873592315
 21
58.0482243664
  0
LINE
  5
34A
100
AcDbEntity
  8
0
100
AcDbLine
 62
7
  6
CONTINUOUS
 10
102.7295713316
 20
66.0859559694
 11
100.6789760916
 21
64.9020513226
  0
LINE
  5
34B
100
AcDbEntity
  8
0
100
AcDbLine
 62
7
  6
CONTINUOUS
 10
90.3580618331
 20
58.9421601616
 11
88.3073977871
 21
57.7582157898
  0
LINE
  5
34C
100
AcDbEntity
  8
0
100
AcDbLine
 62
7
  6
CONTINUOUS
 10
77.9837446818
 20
51.7978874688
 11
75.9330806359
 21
50.6139430971
  0
LINE
  5
34D
100
AcDbEntity
  8
0
100
AcDbLine
 62
7
  6
CONTINUOUS
 10
94.5651263837
 20
61.2932553049
 11
100.6789760916
 21
64.8230670095
  0
LINE
  5
34E
100
AcDbEntity
  8
0
100
AcDbLine
 62
7
  6
CONTINUOUS
 10
69.8192375716
 20
47.005302153
 11
75.9330872795
 21
50.5351138575
  0
LINE
  5
34F
100
AcDbEntity
  8
0
100
AcDbLine
 62
7
  6
CONTINUOUS
 10
82.1935547228
 20
54.1495748457
 11
88.3074044308
 21
57.6793865502
  0
LINE
  5
350
100
AcDbEntity
  8
0
100
AcDbLine
 62
7
  6
CONTINUOUS
 10
100.7496805874
 20
63.170681688
 11
92.5119208839
 21
58.4146372954
  0
LINE
  5
351
100
AcDbEntity
  8
0
100
AcDbLine
 62
7
  6
CONTINUOUS
 10
88.3783204542
 20
56.0267996544
 11
80.1405607507
 21
51.2707552618
  0
LINE
  5
352
100
AcDbEntity
  8
0
100
AcDbLine
 62
7
  6
CONTINUOUS
 10
76.004003303
 20
48.8825269617
 11
67.7662435995
 21
44.1264825691
  0
LINE
  5
353
100
AcDbEntity
  8
0
100
AcDbLine
 62
7
  6
CONTINUOUS
 10
102.7295713316
 20
64.1247927813
 11
100.7496805874
 21
62.9817091505
  0
LINE
  5
354
100
AcDbEntity
  8
0
100
AcDbLine
 62
7
  6
CONTINUOUS
 10
92.5119208839
 20
58.2256647579
 11
90.6027405234
 21
57.1234055424
  0
LINE
  5
355
100
AcDbEntity
  8
0
100
AcDbLine
 62
7
  6
CONTINUOUS
 10
90.3582271256
 20
56.9809015532
 11
88.3783363814
 21
55.8378179224
  0
LINE
  5
356
100
AcDbEntity
  8
0
100
AcDbLine
 62
7
  6
CONTINUOUS
 10
80.1405766778
 20
51.0817735298
 11
78.2313963174
 21
49.9795143143
  0
LINE
  5
357
100
AcDbEntity
  8
0
100
AcDbLine
 62
7
  6
CONTINUOUS
 10
77.9839099744
 20
49.8366288605
 11
76.0040192302
 21
48.6935452296
  0
LINE
  5
358
100
AcDbEntity
  8
0
100
AcDbLine
 62
7
  6
CONTINUOUS
 10
67.7662595266
 20
43.937500837
 11
65.8570791661
 21
42.8352416216
  0
LINE
  5
359
100
AcDbEntity
  8
0
100
AcDbLine
 62
7
  6
CONTINUOUS
 10
71.4785764866
 20
114.502262361
 11
65.8216986854
 21
117.7681883972
  0
LINE
  5
35A
100
AcDbEntity
  8
0
100
AcDbLine
 62
7
  6
CONTINUOUS
 10
77.0124837659
 20
111.878858385
 11
63.8665836472
 21
119.4684756572
  0
LINE
  5
35B
100
AcDbEntity
  8
0
100
AcDbLine
 62
7
  6
CONTINUOUS
 10
95.2454197769
 20
69.0552773406
 11
95.2454197769
 21
62.4127687524
  0
LINE
  5
35C
100
AcDbEntity
  8
0
100
AcDbLine
 62
7
  6
CONTINUOUS
 10
98.291217832
 20
66.2124713521
 11
98.291217832
 21
70.8137591708
  0
LINE
  5
35D
100
AcDbEntity
  8
0
100
AcDbLine
 62
7
  6
CONTINUOUS
 10
62.4894079979
 20
121.4066445143
 11
78.002429138
 21
112.4504002004
  0
LINE
  5
35E
100
AcDbEntity
  8
0
100
AcDbLine
 62
7
  6
CONTINUOUS
 10
92.7382144287
 20
104.2853617601
 11
92.089013858
 21
106.2324915491
  0
LINE
  5
35F
100
AcDbEntity
  8
0
100
AcDbLine
 62
7
  6
CONTINUOUS
 10
100.6789760916
 20
72.803338907
 11
100.3961286688
 21
74.1913783292
  0
LINE
  5
360
100
AcDbEntity
  8
0
100
AcDbLine
 62
7
  6
CONTINUOUS
 10
100.0589921448
 20
65.1918694658
 11
100.0589921448
 21
71.8343780539
  0
LINE
  5
361
100
AcDbEntity
  8
0
100
AcDbLine
 62
7
  6
CONTINUOUS
 10
100.3961286688
 20
76.4963850683
 11
100.3961286688
 21
74.1913783292
  0
LINE
  5
362
100
AcDbEntity
  8
0
100
AcDbLine
 62
7
  6
CONTINUOUS
 10
100.6789760916
 20
64.8230670095
 11
100.6789760916
 21
72.803338907
  0
LINE
  5
363
100
AcDbEntity
  8
0
100
AcDbLine
 62
7
  6
CONTINUOUS
 10
100.7496805874
 20
62.9817091505
 11
100.7496805874
 21
63.170681688
  0
LINE
  5
364
100
AcDbEntity
  8
0
100
AcDbLine
 62
7
  6
CONTINUOUS
 10
100.948811609
 20
75.6698894704
 11
100.948811609
 21
67.1140548159
  0
LINE
  5
365
100
AcDbEntity
  8
0
100
AcDbLine
 62
7
  6
CONTINUOUS
 10
101.2478876722
 20
76.9881454228
 11
101.2478876722
 21
75.8425600853
  0
LINE
  5
366
100
AcDbEntity
  8
0
100
AcDbLine
 62
7
  6
CONTINUOUS
 10
102.7295713316
 20
91.234230417
 11
102.7295713316
 21
77.8435907761
  0
LINE
  5
367
100
AcDbEntity
  8
0
100
AcDbLine
 62
7
  6
CONTINUOUS
 10
102.7295713316
 20
66.0859559694
 11
102.7295713316
 21
64.1247927813
  0
LINE
  5
368
100
AcDbEntity
  8
0
100
AcDbLine
 62
7
  6
CONTINUOUS
 10
92.8869042916
 20
109.1643045829
 11
84.0631760732
 21
114.2585711973
  0
ARC
  5
369
100
AcDbEntity
  8
0
100
AcDbCircle
 62
7
  6
CONTINUOUS
 10
41.2095849711
 20
99.6796183507
 40
4.892240211
100
AcDbArc
 50
74.1428530407
 51
75.5460371992
  0
ARC
  5
36A
100
AcDbEntity
  8
0
100
AcDbCircle
 62
7
  6
CONTINUOUS
 10
53.5841570123
 20
106.8293372754
 40
4.8888011494
100
AcDbArc
 50
74.135974763
 51
75.6013711122
  0
ARC
  5
36B
100
AcDbEntity
  8
0
100
AcDbCircle
 62
7
  6
CONTINUOUS
 10
49.4308941045
 20
85.6711658727
 40
2.6529910204
100
AcDbArc
 50
59.9644167079
 51
63.5100391051
  0
ARC
  5
36C
100
AcDbEntity
  8
0
100
AcDbCircle
 62
7
  6
CONTINUOUS
 10
70.2346350234
 20
106.0407095652
 40
1.667084339
100
AcDbArc
 50
120.0036507607
 51
123.8399070054
  0
ARC
  5
36D
100
AcDbEntity
  8
0
100
AcDbCircle
 62
7
  6
CONTINUOUS
 10
57.8603125127
 20
98.8964446786
 40
1.6670749044
100
AcDbArc
 50
120.0036254067
 51
123.8387231923
  0
ARC
  5
36E
100
AcDbEntity
  8
0
100
AcDbCircle
 62
7
  6
CONTINUOUS
 10
49.6388811287
 20
87.3576207066
 40
1.00453415
100
AcDbArc
 50
114.672873079
 51
119.984868804
  0
ARC
  5
36F
100
AcDbEntity
  8
0
100
AcDbCircle
 62
7
  6
CONTINUOUS
 10
69.5763696693
 20
109.1281164589
 40
0.4583656375
100
AcDbArc
 50
11.0723873218
 51
18.5625758423
  0
ARC
  5
370
100
AcDbEntity
  8
0
100
AcDbCircle
 62
7
  6
CONTINUOUS
 10
72.4047850182
 20
110.7610930743
 40
0.4583656375
100
AcDbArc
 50
11.0723873218
 51
18.5625758423
  0
ARC
  5
371
100
AcDbEntity
  8
0
100
AcDbCircle
 62
7
  6
CONTINUOUS
 10
57.2022377447
 20
101.9829751438
 40
0.4582841421
100
AcDbArc
 50
11.0736815352
 51
18.5709358485
  0
ARC
  5
372
100
AcDbEntity
  8
0
100
AcDbCircle
 62
7
  6
CONTINUOUS
 10
60.0306530935
 20
103.6159517593
 40
0.4582841421
100
AcDbArc
 50
11.0736815352
 51
18.5709358485
  0
ARC
  5
373
100
AcDbEntity
  8
0
100
AcDbCircle
 62
7
  6
CONTINUOUS
 10
44.8279205934
 20
94.8387024511
 40
0.4582841421
100
AcDbArc
 50
11.0736815352
 51
18.5709358485
  0
ARC
  5
374
100
AcDbEntity
  8
0
100
AcDbCircle
 62
7
  6
CONTINUOUS
 10
47.6563359423
 20
96.4716790665
 40
0.4582841421
100
AcDbArc
 50
11.0736815352
 51
18.5709358485
  0
ARC
  5
375
100
AcDbEntity
  8
0
100
AcDbCircle
 62
7
  6
CONTINUOUS
 10
67.9306736336
 20
109.1295605833
 40
0.4527310661
100
AcDbArc
 50
161.3907543221
 51
168.9750796912
  0
ARC
  5
376
100
AcDbEntity
  8
0
100
AcDbCircle
 62
7
  6
CONTINUOUS
 10
70.7590889825
 20
110.7625371988
 40
0.4527310661
100
AcDbArc
 50
161.3907543221
 51
168.9750796912
  0
ARC
  5
377
100
AcDbEntity
  8
0
100
AcDbCircle
 62
7
  6
CONTINUOUS
 10
55.5563925598
 20
101.984276707
 40
0.4526640371
100
AcDbArc
 50
161.392023236
 51
168.9741552199
  0
ARC
  5
378
100
AcDbEntity
  8
0
100
AcDbCircle
 62
7
  6
CONTINUOUS
 10
58.3848079087
 20
103.6172533225
 40
0.4526640371
100
AcDbArc
 50
161.3920232359
 51
168.9741552199
  0
ARC
  5
379
100
AcDbEntity
  8
0
100
AcDbCircle
 62
7
  6
CONTINUOUS
 10
43.1820754086
 20
94.8400040143
 40
0.4526640371
100
AcDbArc
 50
161.392023236
 51
168.9741552199
  0
ARC
  5
37A
100
AcDbEntity
  8
0
100
AcDbCircle
 62
7
  6
CONTINUOUS
 10
46.0104907574
 20
96.4729806298
 40
0.4526640371
100
AcDbArc
 50
161.3920232359
 51
168.9741552199
  0
SPLINE
  5
37B
100
AcDbEntity
  8
0
100
AcDbSpline
 62
7
  6
CONTINUOUS
 70
0
 71
3
 72
11
 73
7
 74
0
 42
0.0000001
 43
0.0000001
 44
0.0000000001
 40
0.0
 40
0.0
 40
0.0
 40
0.0
 40
0.2356844236
 40
0.4843653257
 40
0.7410118682
 40
1.0
 40
1.0
 40
1.0
 40
1.0
 10
48.4887878268
 20
114.6453666828
 30
0.0
 10
48.6570591297
 20
114.7154048773
 30
0.0
 10
49.0132899065
 20
114.8350943965
 30
0.0
 10
49.5754943392
 20
114.9519090388
 30
0.0
 10
50.1649813234
 20
115.0082804395
 30
0.0
 10
50.5645963564
 20
115.0042677533
 30
0.0
 10
50.7644823701
 20
114.9916015873
 30
0.0
  0
SPLINE
  5
37C
100
AcDbEntity
  8
0
100
AcDbSpline
 62
7
  6
CONTINUOUS
 70
0
 71
3
 72
11
 73
7
 74
0
 42
0.0000001
 43
0.0000001
 44
0.0000000001
 40
0.0
 40
0.0
 40
0.0
 40
0.0
 40
0.2356856156
 40
0.4843594749
 40
0.7410016662
 40
1.0
 40
1.0
 40
1.0
 40
1.0
 10
36.1152729245
 20
107.4972707825
 30
0.0
 10
36.2833613586
 20
107.5672354989
 30
0.0
 10
36.6391868447
 20
107.6868269184
 30
0.0
 10
37.2007449574
 20
107.8036358904
 30
0.0
 10
37.7895697891
 20
107.8601404621
 30
0.0
 10
38.1887549701
 20
107.8563097613
 30
0.0
 10
38.3884381957
 20
107.8437594034
 30
0.0
  0
SPLINE
  5
37D
100
AcDbEntity
  8
0
100
AcDbSpline
 62
7
  6
CONTINUOUS
 70
0
 71
3
 72
11
 73
7
 74
0
 42
0.0000001
 43
0.0000001
 44
0.0000000001
 40
0.0
 40
0.0
 40
0.0
 40
0.0
 40
0.2356856156
 40
0.4843594749
 40
0.7410016662
 40
1.0
 40
1.0
 40
1.0
 40
1.0
 10
23.7409557733
 20
100.3529980897
 30
0.0
 10
23.9090442073
 20
100.4229628062
 30
0.0
 10
24.2648696935
 20
100.5425542256
 30
0.0
 10
24.8264278062
 20
100.6593631977
 30
0.0
 10
25.4152526379
 20
100.7158677694
 30
0.0
 10
25.8144378188
 20
100.7120370686
 30
0.0
 10
26.0141210445
 20
100.6994867107
 30
0.0
  0
SPLINE
  5
37E
100
AcDbEntity
  8
0
100
AcDbSpline
 62
7
  6
CONTINUOUS
 70
0
 71
3
 72
17
 73
13
 74
0
 42
0.0000001
 43
0.0000001
 44
0.0000000001
 40
0.0
 40
0.0
 40
0.0
 40
0.0
 40
0.1204285763
 40
0.2474195152
 40
0.3785096645
 40
0.5109405758
 40
0.6418680619
 40
0.7685471703
 40
0.8295389587
 40
0.888586826
 40
0.9454657594
 40
1.0
 40
1.0
 40
1.0
 40
1.0
 10
88.4404872976
 20
91.5797640524
 30
0.0
 10
88.6054281818
 20
91.6484160538
 30
0.0
 10
88.9542992282
 20
91.7661630518
 30
0.0
 10
89.504752636
 20
91.8824761007
 30
0.0
 10
90.0822437426
 20
91.9407110341
 30
0.0
 10
90.6684543503
 20
91.9389646439
 30
0.0
 10
91.2448240064
 20
91.8773174552
 30
0.0
 10
91.7077135431
 20
91.7763701006
 30
0.0
 10
92.0570616558
 20
91.6665261647
 30
0.0
 10
92.302155989
 20
91.5720933081
 30
0.0
 10
92.5316153528
 20
91.4653451302
 30
0.0
 10
92.6761442081
 20
91.3847586863
 30
0.0
 10
92.7451311091
 20
91.3424974605
 30
0.0
  0
SPLINE
  5
37F
100
AcDbEntity
  8
0
100
AcDbSpline
 62
7
  6
CONTINUOUS
 70
0
 71
3
 72
17
 73
13
 74
0
 42
0.0000001
 43
0.0000001
 44
0.0000000001
 40
0.0
 40
0.0
 40
0.0
 40
0.0
 40
0.1204276784
 40
0.2474171658
 40
0.3785056767
 40
0.51093524
 40
0.6418621651
 40
0.7685419023
 40
0.829534514
 40
0.8885835539
 40
0.9454639869
 40
1.0
 40
1.0
 40
1.0
 40
1.0
 10
76.0669722061
 20
84.4361579478
 30
0.0
 10
76.2318910283
 20
84.5048033528
 30
0.0
 10
76.580712595
 20
84.6225453061
 30
0.0
 10
77.1310866614
 20
84.7388742488
 30
0.0
 10
77.7084962887
 20
84.7971481054
 30
0.0
 10
78.294630548
 20
84.7954629321
 30
0.0
 10
78.8709361303
 20
84.7338972676
 30
0.0
 10
79.3337861172
 20
84.6330335915
 30
0.0
 10
79.6831153578
 20
84.5232644534
 30
0.0
 10
79.9282034395
 20
84.4288894718
 30
0.0
 10
80.1576641501
 20
84.3222012799
 30
0.0
 10
80.3021990167
 20
84.2416569258
 30
0.0
 10
80.3711905194
 20
84.1994168831
 30
0.0
  0
SPLINE
  5
380
100
AcDbEntity
  8
0
100
AcDbSpline
 62
7
  6
CONTINUOUS
 70
0
 71
3
 72
17
 73
13
 74
0
 42
0.0000001
 43
0.0000001
 44
0.0000000001
 40
0.0
 40
0.0
 40
0.0
 40
0.0
 40
0.1204276784
 40
0.2474171658
 40
0.3785056767
 40
0.51093524
 40
0.6418621651
 40
0.7685419023
 40
0.829534514
 40
0.8885835539
 40
0.9454639869
 40
1.0
 40
1.0
 40
1.0
 40
1.0
 10
63.6926550549
 20
77.291885255
 30
0.0
 10
63.8575738771
 20
77.36053066
 30
0.0
 10
64.2063954438
 20
77.4782726133
 30
0.0
 10
64.7567695101
 20
77.5946015561
 30
0.0
 10
65.3341791374
 20
77.6528754126
 30
0.0
 10
65.9203133968
 20
77.6511902393
 30
0.0
 10
66.4966189791
 20
77.5896245749
 30
0.0
 10
66.9594689659
 20
77.4887608988
 30
0.0
 10
67.3087982066
 20
77.3789917607
 30
0.0
 10
67.5538862883
 20
77.284616779
 30
0.0
 10
67.7833469989
 20
77.1779285871
 30
0.0
 10
67.9278818655
 20
77.0973842331
 30
0.0
 10
67.9968733682
 20
77.0551441903
 30
0.0
  0
SPLINE
  5
381
100
AcDbEntity
  8
0
100
AcDbSpline
 62
7
  6
CONTINUOUS
 70
0
 71
3
 72
11
 73
7
 74
0
 42
0.0000001
 43
0.0000001
 44
0.0000000001
 40
0.0
 40
0.0
 40
0.0
 40
0.0
 40
0.2177723091
 40
0.4509273687
 40
0.7102218233
 40
1.0
 40
1.0
 40
1.0
 40
1.0
 10
67.4783324381
 20
109.2971592736
 30
0.0
 10
67.4783324388
 20
109.2484867705
 30
0.0
 10
67.4963076412
 20
109.1470260492
 30
0.0
 10
67.5732259267
 20
109.0056909526
 30
0.0
 10
67.6947872863
 20
108.8778846904
 30
0.0
 10
67.7965340121
 20
108.8078350188
 30
0.0
 10
67.8526232823
 20
108.7754525962
 30
0.0
  0
SPLINE
  5
382
100
AcDbEntity
  8
0
100
AcDbSpline
 62
7
  6
CONTINUOUS
 70
0
 71
3
 72
11
 73
7
 74
0
 42
0.0000001
 43
0.0000001
 44
0.0000000001
 40
0.0
 40
0.0
 40
0.0
 40
0.0
 40
0.2177723091
 40
0.4509273687
 40
0.7102218233
 40
1.0
 40
1.0
 40
1.0
 40
1.0
 10
70.306747787
 20
110.9301358891
 30
0.0
 10
70.3067477876
 20
110.881463386
 30
0.0
 10
70.3247229901
 20
110.7800026647
 30
0.0
 10
70.4016412756
 20
110.6386675681
 30
0.0
 10
70.5232026351
 20
110.5108613059
 30
0.0
 10
70.624949361
 20
110.4408116343
 30
0.0
 10
70.6810386312
 20
110.4084292117
 30
0.0
  0
SPLINE
  5
383
100
AcDbEntity
  8
0
100
AcDbSpline
 62
7
  6
CONTINUOUS
 70
0
 71
3
 72
14
 73
10
 74
0
 42
0.0000001
 43
0.0000001
 44
0.0000000001
 40
0.0
 40
0.0
 40
0.0
 40
0.0
 40
0.2892805973
 40
0.4225403872
 40
0.5484933343
 40
0.6678949787
 40
0.7818715677
 40
0.8919499207
 40
1.0
 40
1.0
 40
1.0
 40
1.0
 10
84.0631760732
 20
114.2585711973
 30
0.0
 10
83.8436978616
 20
114.3852841352
 30
0.0
 10
83.5067451277
 20
114.5456527268
 30
0.0
 10
83.0446473591
 20
114.6803906588
 30
0.0
 10
82.7166518458
 20
114.7353901571
 30
0.0
 10
82.4010480279
 20
114.7463909275
 30
0.0
 10
82.1008339273
 20
114.7128817551
 30
0.0
 10
81.8192124702
 20
114.6350248188
 30
0.0
 10
81.6451635498
 20
114.5535244581
 30
0.0
 10
81.5631868639
 20
114.5061932852
 30
0.0
  0
SPLINE
  5
384
100
AcDbEntity
  8
0
100
AcDbSpline
 62
7
  6
CONTINUOUS
 70
0
 71
3
 72
15
 73
11
 74
0
 42
0.0000001
 43
0.0000001
 44
0.0000000001
 40
0.0
 40
0.0
 40
0.0
 40
0.0
 40
0.1141469224
 40
0.2373360366
 40
0.366976904
 40
0.5000005214
 40
0.6330240662
 40
0.7626647219
 40
0.8858535023
 40
1.0
 40
1.0
 40
1.0
 40
1.0
 10
67.8526232823
 20
108.7754525962
 30
0.0
 10
67.914479931
 20
108.7397404513
 30
0.0
 10
68.0497581788
 20
108.6767564735
 30
0.0
 10
68.2700338376
 20
108.6097930063
 30
0.0
 10
68.5085281132
 20
108.5685997377
 30
0.0
 10
68.7562564343
 20
108.5546850197
 30
0.0
 10
69.0039845575
 20
108.5686009135
 30
0.0
 10
69.242478248
 20
108.6097953145
 30
0.0
 10
69.4627529585
 20
108.6767598287
 30
0.0
 10
69.5980303776
 20
108.7397444823
 30
0.0
 10
69.6598865385
 20
108.7754569403
 30
0.0
  0
SPLINE
  5
385
100
AcDbEntity
  8
0
100
AcDbSpline
 62
7
  6
CONTINUOUS
 70
0
 71
3
 72
11
 73
7
 74
0
 42
0.0000001
 43
0.0000001
 44
0.0000000001
 40
0.0
 40
0.0
 40
0.0
 40
0.0
 40
0.2897776971
 40
0.5490719787
 40
0.7822272299
 40
1.0
 40
1.0
 40
1.0
 40
1.0
 10
69.6598865385
 20
108.7754569403
 30
0.0
 10
69.7159747599
 20
108.8078392967
 30
0.0
 10
69.8177195548
 20
108.8778887008
 30
0.0
 10
69.9392784455
 20
109.0056940156
 30
0.0
 10
70.016195067
 20
109.1470277439
 30
0.0
 10
70.034169859
 20
109.2484872945
 30
0.0
 10
70.0341698584
 20
109.2971592736
 30
0.0
  0
SPLINE
  5
386
100
AcDbEntity
  8
0
100
AcDbSpline
 62
7
  6
CONTINUOUS
 70
0
 71
3
 72
15
 73
11
 74
0
 42
0.0000001
 43
0.0000001
 44
0.0000000001
 40
0.0
 40
0.0
 40
0.0
 40
0.0
 40
0.1141469224
 40
0.2373360366
 40
0.366976904
 40
0.5000005214
 40
0.6330240662
 40
0.7626647219
 40
0.8858535023
 40
1.0
 40
1.0
 40
1.0
 40
1.0
 10
70.6810386312
 20
110.4084292117
 30
0.0
 10
70.7428952798
 20
110.3727170668
 30
0.0
 10
70.8781735276
 20
110.3097330889
 30
0.0
 10
71.0984491864
 20
110.2427696218
 30
0.0
 10
71.336943462
 20
110.2015763532
 30
0.0
 10
71.5846717832
 20
110.1876616352
 30
0.0
 10
71.8323999063
 20
110.201577529
 30
0.0
 10
72.0708935969
 20
110.24277193
 30
0.0
 10
72.2911683073
 20
110.3097364442
 30
0.0
 10
72.4264457264
 20
110.3727210978
 30
0.0
 10
72.4883018874
 20
110.4084335558
 30
0.0
  0
SPLINE
  5
387
100
AcDbEntity
  8
0
100
AcDbSpline
 62
7
  6
CONTINUOUS
 70
0
 71
3
 72
11
 73
7
 74
0
 42
0.0000001
 43
0.0000001
 44
0.0000000001
 40
0.0
 40
0.0
 40
0.0
 40
0.0
 40
0.2897776971
 40
0.5490719787
 40
0.7822272299
 40
1.0
 40
1.0
 40
1.0
 40
1.0
 10
72.4883018874
 20
110.4084335558
 30
0.0
 10
72.5443901087
 20
110.4408159122
 30
0.0
 10
72.6461349036
 20
110.5108653163
 30
0.0
 10
72.7676937943
 20
110.6386706311
 30
0.0
 10
72.8446104159
 20
110.7800043593
 30
0.0
 10
72.8625852078
 20
110.88146391
 30
0.0
 10
72.8625852072
 20
110.9301358891
 30
0.0
  0
SPLINE
  5
388
100
AcDbEntity
  8
0
100
AcDbSpline
 62
7
  6
CONTINUOUS
 70
0
 71
3
 72
13
 73
9
 74
0
 42
0.0000001
 43
0.0000001
 44
0.0000000001
 40
0.0
 40
0.0
 40
0.0
 40
0.0
 40
0.1152269845
 40
0.2391409732
 40
0.5016194636
 40
0.7632145934
 40
0.886093839
 40
1.0
 40
1.0
 40
1.0
 40
1.0
 10
93.5937717079
 20
107.9610748467
 30
0.0
 10
93.5925285893
 20
108.016609558
 30
0.0
 10
93.5802192384
 20
108.1317592322
 30
0.0
 10
93.5220029801
 20
108.3670294699
 30
0.0
 10
93.3922432634
 20
108.6542907368
 30
0.0
 10
93.2048662188
 20
108.9072059298
 30
0.0
 10
93.028464554
 20
109.0711476185
 30
0.0
 10
92.9344596438
 20
109.1368491086
 30
0.0
 10
92.8869042916
 20
109.1643045829
 30
0.0
  0
SPLINE
  5
389
100
AcDbEntity
  8
0
100
AcDbSpline
 62
7
  6
CONTINUOUS
 70
0
 71
3
 72
14
 73
10
 74
0
 42
0.0000001
 43
0.0000001
 44
0.0000000001
 40
0.0
 40
0.0
 40
0.0
 40
0.0
 40
0.2166129382
 40
0.3336355424
 40
0.4564462502
 40
0.5848674848
 40
0.7185718547
 40
0.8571455652
 40
1.0
 40
1.0
 40
1.0
 40
1.0
 10
64.842524137
 20
107.4744606245
 30
0.0
 10
65.3622852825
 20
108.132527873
 30
0.0
 10
66.2870143785
 20
109.0516079085
 30
0.0
 10
67.6987882978
 20
110.1157738265
 30
0.0
 10
68.9072014066
 20
110.8756774346
 30
0.0
 10
70.2272705534
 20
111.5698547541
 30
0.0
 10
71.6490084495
 20
112.1933897742
 30
0.0
 10
73.1609615591
 20
112.7411789214
 30
0.0
 10
74.2068852263
 20
113.0489108296
 30
0.0
 10
74.7416927613
 20
113.1897120771
 30
0.0
  0
SPLINE
  5
38A
100
AcDbEntity
  8
0
100
AcDbSpline
 62
7
  6
CONTINUOUS
 70
0
 71
3
 72
11
 73
7
 74
0
 42
0.0000001
 43
0.0000001
 44
0.0000000001
 40
0.0
 40
0.0
 40
0.0
 40
0.0
 40
0.217802755
 40
0.4509154285
 40
0.7103023347
 40
1.0
 40
1.0
 40
1.0
 40
1.0
 10
61.4440163223
 20
107.7275616465
 30
0.0
 10
61.4770001853
 20
107.7466160202
 30
0.0
 10
61.5527970915
 20
107.774117325
 30
0.0
 10
61.6786819442
 20
107.7772845697
 30
0.0
 10
61.8128471965
 20
107.7449020537
 30
0.0
 10
61.9001346522
 20
107.7033719864
 30
0.0
 10
61.9440128798
 20
107.678039453
 30
0.0
  0
SPLINE
  5
38B
100
AcDbEntity
  8
0
100
AcDbSpline
 62
7
  6
CONTINUOUS
 70
0
 71
3
 72
11
 73
7
 74
0
 42
0.0000001
 43
0.0000001
 44
0.0000000001
 40
0.0
 40
0.0
 40
0.0
 40
0.0
 40
0.2207903613
 40
0.4589297195
 40
0.7183811194
 40
1.0
 40
1.0
 40
1.0
 40
1.0
 10
67.5016127385
 20
109.2740326098
 30
0.0
 10
67.5139902136
 20
109.3109434674
 30
0.0
 10
67.5493394861
 20
109.3846537883
 30
0.0
 10
67.6273487287
 20
109.4853947855
 30
0.0
 10
67.7297882058
 20
109.5778513974
 30
0.0
 10
67.8096119275
 20
109.6307329987
 30
0.0
 10
67.852615758
 20
109.6555611236
 30
0.0
  0
SPLINE
  5
38C
100
AcDbEntity
  8
0
100
AcDbSpline
 62
7
  6
CONTINUOUS
 70
0
 71
3
 72
14
 73
10
 74
0
 42
0.0000001
 43
0.0000001
 44
0.0000000001
 40
0.0
 40
0.0
 40
0.0
 40
0.0
 40
0.1080500793
 40
0.2181284323
 40
0.3321050213
 40
0.4515066657
 40
0.5774596128
 40
0.7107194027
 40
1.0
 40
1.0
 40
1.0
 40
1.0
 10
69.4010008639
 20
107.4843938386
 30
0.0
 10
69.4829775497
 20
107.5317250115
 30
0.0
 10
69.6570264701
 20
107.6132253722
 30
0.0
 10
69.9386479272
 20
107.6910823085
 30
0.0
 10
70.2388620278
 20
107.7245914809
 30
0.0
 10
70.5544658457
 20
107.7135907105
 30
0.0
 10
70.882461359
 20
107.6585912122
 30
0.0
 10
71.3445591276
 20
107.5238532802
 30
0.0
 10
71.6815118615
 20
107.3634846886
 30
0.0
 10
71.9009900731
 20
107.2367717507
 30
0.0
  0
SPLINE
  5
38D
100
AcDbEntity
  8
0
100
AcDbSpline
 62
7
  6
CONTINUOUS
 70
0
 71
3
 72
11
 73
7
 74
0
 42
0.0000001
 43
0.0000001
 44
0.0000000001
 40
0.0
 40
0.0
 40
0.0
 40
0.0
 40
0.2177723091
 40
0.4509273687
 40
0.7102218233
 40
1.0
 40
1.0
 40
1.0
 40
1.0
 10
70.0341698584
 20
109.2971592736
 30
0.0
 10
70.0341698577
 20
109.3458317768
 30
0.0
 10
70.0161946553
 20
109.4472924981
 30
0.0
 10
69.9392763698
 20
109.5886275947
 30
0.0
 10
69.8177150103
 20
109.7164338569
 30
0.0
 10
69.7159682844
 20
109.7864835285
 30
0.0
 10
69.6598790142
 20
109.8188659511
 30
0.0
  0
SPLINE
  5
38E
100
AcDbEntity
  8
0
100
AcDbSpline
 62
7
  6
CONTINUOUS
 70
0
 71
3
 72
14
 73
10
 74
0
 42
0.0000001
 43
0.0000001
 44
0.0000000001
 40
0.0
 40
0.0
 40
0.0
 40
0.0
 40
0.1428544431
 40
0.2814281606
 40
0.4151325359
 40
0.5435537716
 40
0.6663644772
 40
0.783387074
 40
1.0
 40
1.0
 40
1.0
 40
1.0
 10
65.5992264562
 20
106.874282903
 30
0.0
 10
66.1340341867
 20
107.0150842307
 30
0.0
 10
67.1799581997
 20
107.3228164196
 30
0.0
 10
68.6919117972
 20
107.8706059596
 30
0.0
 10
70.1136501322
 20
108.494141353
 30
0.0
 10
71.4337195823
 20
109.1883191592
 30
0.0
 10
72.642132897
 20
109.948223248
 30
0.0
 10
74.0539068278
 20
111.012389941
 30
0.0
 10
74.9786359745
 20
111.9314704392
 30
0.0
 10
75.4983969207
 20
112.589538127
 30
0.0
  0
SPLINE
  5
38F
100
AcDbEntity
  8
0
100
AcDbSpline
 62
7
  6
CONTINUOUS
 70
0
 71
3
 72
11
 73
7
 74
0
 42
0.0000001
 43
0.0000001
 44
0.0000000001
 40
0.0
 40
0.0
 40
0.0
 40
0.0
 40
0.2207903613
 40
0.4589297195
 40
0.7183811194
 40
1.0
 40
1.0
 40
1.0
 40
1.0
 10
70.3300280873
 20
110.9070092253
 30
0.0
 10
70.3424055624
 20
110.9439200829
 30
0.0
 10
70.377754835
 20
111.0176304038
 30
0.0
 10
70.4557640776
 20
111.118371401
 30
0.0
 10
70.5582035547
 20
111.2108280129
 30
0.0
 10
70.6380272763
 20
111.2637096142
 30
0.0
 10
70.6810311068
 20
111.2885377391
 30
0.0
  0
SPLINE
  5
390
100
AcDbEntity
  8
0
100
AcDbSpline
 62
7
  6
CONTINUOUS
 70
0
 71
3
 72
11
 73
7
 74
0
 42
0.0000001
 43
0.0000001
 44
0.0000000001
 40
0.0
 40
0.0
 40
0.0
 40
0.0
 40
0.2816193046
 40
0.5410708559
 40
0.7792100589
 40
1.0
 40
1.0
 40
1.0
 40
1.0
 10
69.6598790142
 20
109.6555654677
 30
0.0
 10
69.7028837884
 20
109.6307372114
 30
0.0
 10
69.7827092632
 20
109.5778552426
 30
0.0
 10
69.8851510156
 20
109.4853976747
 30
0.0
 10
69.963161931
 20
109.3846554264
 30
0.0
 10
69.9985118841
 20
109.3109440462
 30
0.0
 10
70.0108895422
 20
109.2740326597
 30
0.0
  0
SPLINE
  5
391
100
AcDbEntity
  8
0
100
AcDbSpline
 62
7
  6
CONTINUOUS
 70
0
 71
3
 72
15
 73
11
 74
0
 42
0.0000001
 43
0.0000001
 44
0.0000000001
 40
0.0
 40
0.0
 40
0.0
 40
0.0
 40
0.1141464977
 40
0.2373352781
 40
0.3669759338
 40
0.4999994786
 40
0.633023096
 40
0.7626639634
 40
0.8858530776
 40
1.0
 40
1.0
 40
1.0
 40
1.0
 10
67.852615758
 20
109.6555611236
 30
0.0
 10
67.9144719189
 20
109.6912735816
 30
0.0
 10
68.049749338
 20
109.7542582351
 30
0.0
 10
68.2700240485
 20
109.8212227494
 30
0.0
 10
68.508517739
 20
109.8624171503
 30
0.0
 10
68.7562458622
 20
109.8763330442
 30
0.0
 10
69.0039741833
 20
109.8624183261
 30
0.0
 10
69.2424684589
 20
109.8212250575
 30
0.0
 10
69.4627441177
 20
109.7542615904
 30
0.0
 10
69.5980223655
 20
109.6912776125
 30
0.0
 10
69.6598790142
 20
109.6555654677
 30
0.0
  0
SPLINE
  5
392
100
AcDbEntity
  8
0
100
AcDbSpline
 62
7
  6
CONTINUOUS
 70
0
 71
3
 72
11
 73
7
 74
0
 42
0.0000001
 43
0.0000001
 44
0.0000000001
 40
0.0
 40
0.0
 40
0.0
 40
0.0
 40
0.2816193046
 40
0.5410708559
 40
0.7792100589
 40
1.0
 40
1.0
 40
1.0
 40
1.0
 10
72.488294363
 20
111.2885420832
 30
0.0
 10
72.5312991373
 20
111.2637138269
 30
0.0
 10
72.611124612
 20
111.2108318581
 30
0.0
 10
72.7135663645
 20
111.1183742902
 30
0.0
 10
72.7915772799
 20
111.0176320419
 30
0.0
 10
72.8269272329
 20
110.9439206616
 30
0.0
 10
72.8393048911
 20
110.9070092752
 30
0.0
  0
SPLINE
  5
393
100
AcDbEntity
  8
0
100
AcDbSpline
 62
7
  6
CONTINUOUS
 70
0
 71
3
 72
15
 73
11
 74
0
 42
0.0000001
 43
0.0000001
 44
0.0000000001
 40
0.0
 40
0.0
 40
0.0
 40
0.0
 40
0.1141464977
 40
0.2373352781
 40
0.3669759338
 40
0.4999994786
 40
0.633023096
 40
0.7626639634
 40
0.8858530776
 40
1.0
 40
1.0
 40
1.0
 40
1.0
 10
70.6810311068
 20
111.2885377391
 30
0.0
 10
70.7428872678
 20
111.3242501971
 30
0.0
 10
70.8781646869
 20
111.3872348506
 30
0.0
 10
71.0984393973
 20
111.4541993649
 30
0.0
 10
71.3369330879
 20
111.4953937658
 30
0.0
 10
71.584661211
 20
111.5093096597
 30
0.0
 10
71.8323895322
 20
111.4953949416
 30
0.0
 10
72.0708838078
 20
111.454201673
 30
0.0
 10
72.2911594666
 20
111.3872382059
 30
0.0
 10
72.4264377144
 20
111.324254228
 30
0.0
 10
72.488294363
 20
111.2885420832
 30
0.0
  0
SPLINE
  5
394
100
AcDbEntity
  8
0
100
AcDbSpline
 62
7
  6
CONTINUOUS
 70
0
 71
3
 72
13
 73
9
 74
0
 42
0.0000001
 43
0.0000001
 44
0.0000000001
 40
0.0
 40
0.0
 40
0.0
 40
0.0
 40
0.1139061253
 40
0.2367853098
 40
0.4983804081
 40
0.7608589293
 40
0.8847729796
 40
1.0
 40
1.0
 40
1.0
 40
1.0
 10
80.7247182915
 20
102.1425051363
 30
0.0
 10
80.7722736289
 20
102.1150496706
 30
0.0
 10
80.8662785095
 20
102.0493482204
 30
0.0
 10
81.0426801282
 20
101.8854065722
 30
0.0
 10
81.2300571824
 20
101.6324914284
 30
0.0
 10
81.359816946
 20
101.345230146
 30
0.0
 10
81.4180332174
 20
101.1099598484
 30
0.0
 10
81.4303425888
 20
100.9948101287
 30
0.0
 10
81.4315857078
 20
100.9392754001
 30
0.0
  0
SPLINE
  5
395
100
AcDbEntity
  8
0
100
AcDbSpline
 62
7
  6
CONTINUOUS
 70
0
 71
3
 72
11
 73
7
 74
0
 42
0.0000001
 43
0.0000001
 44
0.0000000001
 40
0.0
 40
0.0
 40
0.0
 40
0.0
 40
0.2177723091
 40
0.4509273687
 40
0.7102218233
 40
1.0
 40
1.0
 40
1.0
 40
1.0
 10
72.8625852072
 20
110.9301358891
 30
0.0
 10
72.8625852066
 20
110.9788083923
 30
0.0
 10
72.8446100041
 20
111.0802691135
 30
0.0
 10
72.7676917186
 20
111.2216042102
 30
0.0
 10
72.6461303591
 20
111.3494104724
 30
0.0
 10
72.5443836332
 20
111.419460144
 30
0.0
 10
72.488294363
 20
111.4518425666
 30
0.0
  0
SPLINE
  5
396
100
AcDbEntity
  8
0
100
AcDbSpline
 62
7
  6
CONTINUOUS
 70
0
 71
3
 72
11
 73
7
 74
0
 42
0.0000001
 43
0.0000001
 44
0.0000000001
 40
0.0
 40
0.0
 40
0.0
 40
0.0
 40
0.2897776971
 40
0.5490719787
 40
0.7822272299
 40
1.0
 40
1.0
 40
1.0
 40
1.0
 10
67.852615758
 20
109.818861607
 30
0.0
 10
67.7965275367
 20
109.7864792506
 30
0.0
 10
67.6947827417
 20
109.7164298465
 30
0.0
 10
67.573223851
 20
109.5886245317
 30
0.0
 10
67.4963072295
 20
109.4472908034
 30
0.0
 10
67.4783324375
 20
109.3458312528
 30
0.0
 10
67.4783324381
 20
109.2971592736
 30
0.0
  0
SPLINE
  5
397
100
AcDbEntity
  8
0
100
AcDbSpline
 62
7
  6
CONTINUOUS
 70
0
 71
3
 72
15
 73
11
 74
0
 42
0.0000001
 43
0.0000001
 44
0.0000000001
 40
0.0
 40
0.0
 40
0.0
 40
0.0
 40
0.1141469224
 40
0.2373360366
 40
0.366976904
 40
0.5000005214
 40
0.6330240662
 40
0.7626647219
 40
0.8858535023
 40
1.0
 40
1.0
 40
1.0
 40
1.0
 10
69.6598790142
 20
109.8188659511
 30
0.0
 10
69.5980223655
 20
109.854578096
 30
0.0
 10
69.4627441177
 20
109.9175620738
 30
0.0
 10
69.2424684589
 20
109.984525541
 30
0.0
 10
69.0039741833
 20
110.0257188095
 30
0.0
 10
68.7562458622
 20
110.0396335276
 30
0.0
 10
68.508517739
 20
110.0257176338
 30
0.0
 10
68.2700240485
 20
109.9845232328
 30
0.0
 10
68.049749338
 20
109.9175587186
 30
0.0
 10
67.9144719189
 20
109.854574065
 30
0.0
 10
67.852615758
 20
109.818861607
 30
0.0
  0
SPLINE
  5
398
100
AcDbEntity
  8
0
100
AcDbSpline
 62
7
  6
CONTINUOUS
 70
0
 71
3
 72
9
 73
5
 74
0
 42
0.0000001
 43
0.0000001
 44
0.0000000001
 40
0.0
 40
0.0
 40
0.0
 40
0.0
 40
0.459204747
 40
1.0
 40
1.0
 40
1.0
 40
1.0
 10
54.9205367585
 20
111.5319393054
 30
0.0
 10
54.97032877
 20
111.517795543
 30
0.0
 10
55.0711666688
 20
111.4611830288
 30
0.0
 10
55.150821691
 20
111.379965158
 30
0.0
 10
55.1886180031
 20
111.3321382419
 30
0.0
  0
SPLINE
  5
399
100
AcDbEntity
  8
0
100
AcDbSpline
 62
7
  6
CONTINUOUS
 70
0
 71
3
 72
11
 73
7
 74
0
 42
0.0000001
 43
0.0000001
 44
0.0000000001
 40
0.0
 40
0.0
 40
0.0
 40
0.0
 40
0.2897776971
 40
0.5490719787
 40
0.7822272299
 40
1.0
 40
1.0
 40
1.0
 40
1.0
 10
70.6810311068
 20
111.4518382225
 30
0.0
 10
70.6249428855
 20
111.4194558661
 30
0.0
 10
70.5231980906
 20
111.349406462
 30
0.0
 10
70.4016391999
 20
111.2216011472
 30
0.0
 10
70.3247225784
 20
111.0802674189
 30
0.0
 10
70.3067477864
 20
110.9788078683
 30
0.0
 10
70.306747787
 20
110.9301358891
 30
0.0
  0
SPLINE
  5
39A
100
AcDbEntity
  8
0
100
AcDbSpline
 62
7
  6
CONTINUOUS
 70
0
 71
3
 72
15
 73
11
 74
0
 42
0.0000001
 43
0.0000001
 44
0.0000000001
 40
0.0
 40
0.0
 40
0.0
 40
0.0
 40
0.1141469224
 40
0.2373360366
 40
0.366976904
 40
0.5000005214
 40
0.6330240662
 40
0.7626647219
 40
0.8858535023
 40
1.0
 40
1.0
 40
1.0
 40
1.0
 10
72.488294363
 20
111.4518425666
 30
0.0
 10
72.4264377144
 20
111.4875547114
 30
0.0
 10
72.2911594666
 20
111.5505386893
 30
0.0
 10
72.0708838078
 20
111.6175021565
 30
0.0
 10
71.8323895322
 20
111.658695425
 30
0.0
 10
71.584661211
 20
111.6726101431
 30
0.0
 10
71.3369330879
 20
111.6586942493
 30
0.0
 10
71.0984393973
 20
111.6174998483
 30
0.0
 10
70.8781646869
 20
111.550535334
 30
0.0
 10
70.7428872678
 20
111.4875506805
 30
0.0
 10
70.6810311068
 20
111.4518382225
 30
0.0
  0
SPLINE
  5
39B
100
AcDbEntity
  8
0
100
AcDbSpline
 62
7
  6
CONTINUOUS
 70
0
 71
3
 72
14
 73
10
 74
0
 42
0.0000001
 43
0.0000001
 44
0.0000000001
 40
0.0
 40
0.0
 40
0.0
 40
0.0
 40
0.2166129249
 40
0.3336355212
 40
0.4564462263
 40
0.5848674615
 40
0.7185718358
 40
0.8571455542
 40
1.0
 40
1.0
 40
1.0
 40
1.0
 10
75.4983969207
 20
112.7528386104
 30
0.0
 10
74.9786359722
 20
112.0947709197
 30
0.0
 10
74.0539068202
 20
111.1756904183
 30
0.0
 10
72.6421328828
 20
110.1115237211
 30
0.0
 10
71.433719562
 20
109.3516196271
 30
0.0
 10
70.1136500985
 20
108.6574418355
 30
0.0
 10
68.6919117694
 20
108.0339063994
 30
0.0
 10
67.1799581288
 20
107.4861168949
 30
0.0
 10
66.1340340655
 20
107.1783847967
 30
0.0
 10
65.59922632
 20
107.037583465
 30
0.0
  0
SPLINE
  5
39C
100
AcDbEntity
  8
0
100
AcDbSpline
 62
7
  6
CONTINUOUS
 70
0
 71
3
 72
11
 73
7
 74
0
 42
0.0000001
 43
0.0000001
 44
0.0000000001
 40
0.0
 40
0.0
 40
0.0
 40
0.0
 40
0.2177677577
 40
0.4509204459
 40
0.7102161978
 40
1.0
 40
1.0
 40
1.0
 40
1.0
 10
55.1041047908
 20
102.1518493595
 30
0.0
 10
55.1041088855
 20
102.1031845211
 30
0.0
 10
55.1220906752
 20
102.001740714
 30
0.0
 10
55.1990119374
 20
101.8604336672
 30
0.0
 10
55.3205698635
 20
101.732656071
 30
0.0
 10
55.422310203
 20
101.6626242849
 30
0.0
 10
55.4783956304
 20
101.6302503835
 30
0.0
  0
SPLINE
  5
39D
100
AcDbEntity
  8
0
100
AcDbSpline
 62
7
  6
CONTINUOUS
 70
0
 71
3
 72
11
 73
7
 74
0
 42
0.0000001
 43
0.0000001
 44
0.0000000001
 40
0.0
 40
0.0
 40
0.0
 40
0.0
 40
0.2177677577
 40
0.4509204459
 40
0.7102161978
 40
1.0
 40
1.0
 40
1.0
 40
1.0
 10
57.9325201396
 20
103.784825975
 30
0.0
 10
57.9325242344
 20
103.7361611366
 30
0.0
 10
57.9505060241
 20
103.6347173295
 30
0.0
 10
58.0274272862
 20
103.4934102827
 30
0.0
 10
58.1489852123
 20
103.3656326865
 30
0.0
 10
58.2507255518
 20
103.2956009004
 30
0.0
 10
58.3068109793
 20
103.263226999
 30
0.0
  0
SPLINE
  5
39E
100
AcDbEntity
  8
0
100
AcDbSpline
 62
7
  6
CONTINUOUS
 70
0
 71
3
 72
14
 73
10
 74
0
 42
0.0000001
 43
0.0000001
 44
0.0000000001
 40
0.0
 40
0.0
 40
0.0
 40
0.0
 40
0.2892751303
 40
0.4225333918
 40
0.5484858407
 40
0.6678880893
 40
0.7818663051
 40
0.891947088
 40
1.0
 40
1.0
 40
1.0
 40
1.0
 10
71.688514836
 20
107.1144971388
 30
0.0
 10
71.4690632068
 20
107.2411700682
 30
0.0
 10
71.1321538025
 20
107.4014838517
 30
0.0
 10
70.6701218524
 20
107.5361643043
 30
0.0
 10
70.3421733012
 20
107.5911322581
 30
0.0
 10
70.0266150612
 20
107.6021121702
 30
0.0
 10
69.7264440319
 20
107.5685931348
 30
0.0
 10
69.4448619069
 20
107.4907376771
 30
0.0
 10
69.2708361897
 20
107.4092458472
 30
0.0
 10
69.1888697099
 20
107.3619205973
 30
0.0
  0
SPLINE
  5
39F
100
AcDbEntity
  8
0
100
AcDbSpline
 62
7
  6
CONTINUOUS
 70
0
 71
3
 72
15
 73
11
 74
0
 42
0.0000001
 43
0.0000001
 44
0.0000000001
 40
0.0
 40
0.0
 40
0.0
 40
0.0
 40
0.1141432022
 40
0.2373301848
 40
0.3669703459
 40
0.4999944279
 40
0.6330192848
 40
0.7626617093
 40
0.885852259
 40
1.0
 40
1.0
 40
1.0
 40
1.0
 10
55.4783956304
 20
101.6302503835
 30
0.0
 10
55.5402528403
 20
101.5945448661
 30
0.0
 10
55.6755321213
 20
101.5315743541
 30
0.0
 10
55.8958075503
 20
101.4646300602
 30
0.0
 10
56.1343015529
 20
101.4234543978
 30
0.0
 10
56.3820295756
 20
101.4095550769
 30
0.0
 10
56.6297573695
 20
101.4234835906
 30
0.0
 10
56.8682506814
 20
101.4646873529
 30
0.0
 10
57.0885249585
 20
101.531657587
 30
0.0
 10
57.2238024802
 20
101.5946436815
 30
0.0
 10
57.2856588824
 20
101.6303562787
 30
0.0
  0
SPLINE
  5
3A0
100
AcDbEntity
  8
0
100
AcDbSpline
 62
7
  6
CONTINUOUS
 70
0
 71
3
 72
11
 73
7
 74
0
 42
0.0000001
 43
0.0000001
 44
0.0000000001
 40
0.0
 40
0.0
 40
0.0
 40
0.0
 40
0.289788928
 40
0.549086529
 40
0.7822371695
 40
1.0
 40
1.0
 40
1.0
 40
1.0
 10
57.2856588824
 20
101.6303562787
 30
0.0
 10
57.3417500608
 20
101.6627403424
 30
0.0
 10
57.4434992288
 20
101.7327921359
 30
0.0
 10
57.5650619977
 20
101.8606003447
 30
0.0
 10
57.6419772212
 20
102.0019349789
 30
0.0
 10
57.6599462971
 20
102.1033943252
 30
0.0
 10
57.6599422019
 20
102.1520647625
 30
0.0
  0
SPLINE
  5
3A1
100
AcDbEntity
  8
0
100
AcDbSpline
 62
7
  6
CONTINUOUS
 70
0
 71
3
 72
15
 73
11
 74
0
 42
0.0000001
 43
0.0000001
 44
0.0000000001
 40
0.0
 40
0.0
 40
0.0
 40
0.0
 40
0.1141432022
 40
0.2373301848
 40
0.3669703459
 40
0.4999944279
 40
0.6330192848
 40
0.7626617093
 40
0.885852259
 40
1.0
 40
1.0
 40
1.0
 40
1.0
 10
58.3068109793
 20
103.263226999
 30
0.0
 10
58.3686681892
 20
103.2275214815
 30
0.0
 10
58.5039474701
 20
103.1645509696
 30
0.0
 10
58.7242228992
 20
103.0976066757
 30
0.0
 10
58.9627169017
 20
103.0564310133
 30
0.0
 10
59.2104449245
 20
103.0425316924
 30
0.0
 10
59.4581727183
 20
103.0564602061
 30
0.0
 10
59.6966660302
 20
103.0976639684
 30
0.0
 10
59.9169403074
 20
103.1646342025
 30
0.0
 10
60.052217829
 20
103.2276202969
 30
0.0
 10
60.1140742312
 20
103.2633328942
 30
0.0
  0
SPLINE
  5
3A2
100
AcDbEntity
  8
0
100
AcDbSpline
 62
7
  6
CONTINUOUS
 70
0
 71
3
 72
11
 73
7
 74
0
 42
0.0000001
 43
0.0000001
 44
0.0000000001
 40
0.0
 40
0.0
 40
0.0
 40
0.0
 40
0.289788928
 40
0.549086529
 40
0.7822371695
 40
1.0
 40
1.0
 40
1.0
 40
1.0
 10
60.1140742312
 20
103.2633328942
 30
0.0
 10
60.1701654097
 20
103.2957169579
 30
0.0
 10
60.2719145777
 20
103.3657687514
 30
0.0
 10
60.3934773465
 20
103.4935769602
 30
0.0
 10
60.47039257
 20
103.6349115944
 30
0.0
 10
60.488361646
 20
103.7363709407
 30
0.0
 10
60.4883575508
 20
103.785041378
 30
0.0
  0
SPLINE
  5
3A3
100
AcDbEntity
  8
0
100
AcDbSpline
 62
7
  6
CONTINUOUS
 70
0
 71
3
 72
13
 73
9
 74
0
 42
0.0000001
 43
0.0000001
 44
0.0000000001
 40
0.0
 40
0.0
 40
0.0
 40
0.0
 40
0.1152319167
 40
0.2391497525
 40
0.5016314961
 40
0.7632233155
 40
0.8860987201
 40
1.0
 40
1.0
 40
1.0
 40
1.0
 10
81.2191774413
 20
100.8180331553
 30
0.0
 10
81.2179297092
 20
100.8735701013
 30
0.0
 10
81.2056114233
 20
100.9887229242
 30
0.0
 10
81.1473787673
 20
101.223994841
 30
0.0
 10
81.0176028118
 20
101.5112503186
 30
0.0
 10
80.8302130257
 20
101.7641537105
 30
0.0
 10
80.6538050252
 20
101.9280798954
 30
0.0
 10
80.5597986066
 20
101.9937718705
 30
0.0
 10
80.5122430126
 20
102.0212221402
 30
0.0
  0
SPLINE
  5
3A4
100
AcDbEntity
  8
0
100
AcDbSpline
 62
7
  6
CONTINUOUS
 70
0
 71
3
 72
14
 73
10
 74
0
 42
0.0000001
 43
0.0000001
 44
0.0000000001
 40
0.0
 40
0.0
 40
0.0
 40
0.0
 40
0.2166089737
 40
0.3336309403
 40
0.4564417231
 40
0.5848635961
 40
0.7185690235
 40
0.8571440736
 40
1.0
 40
1.0
 40
1.0
 40
1.0
 10
52.4682964869
 20
100.3292158922
 30
0.0
 10
52.9880635155
 20
100.9872557459
 30
0.0
 10
53.9127967785
 20
101.9062986926
 30
0.0
 10
55.3245641185
 20
102.9704349067
 30
0.0
 10
56.5329765174
 20
103.7303316273
 30
0.0
 10
57.8530449152
 20
104.4245149568
 30
0.0
 10
59.2747820839
 20
105.0480687275
 30
0.0
 10
60.7867345129
 20
105.595889207
 30
0.0
 10
61.8326576138
 20
105.9036497596
 30
0.0
 10
62.3674651112
 20
106.044467345
 30
0.0
  0
SPLINE
  5
3A5
100
AcDbEntity
  8
0
100
AcDbSpline
 62
7
  6
CONTINUOUS
 70
0
 71
3
 72
11
 73
7
 74
0
 42
0.0000001
 43
0.0000001
 44
0.0000000001
 40
0.0
 40
0.0
 40
0.0
 40
0.0
 40
0.2178080587
 40
0.4509230191
 40
0.7103079378
 40
1.0
 40
1.0
 40
1.0
 40
1.0
 10
49.069871254
 20
100.582070678
 30
0.0
 10
49.102850978
 20
100.6011226063
 30
0.0
 10
49.1786366835
 20
100.6286218863
 30
0.0
 10
49.3045031088
 20
100.63179602
 30
0.0
 10
49.4386495776
 20
100.5994287298
 30
0.0
 10
49.5259260935
 20
100.5579127308
 30
0.0
 10
49.5697990015
 20
100.532588199
 30
0.0
  0
SPLINE
  5
3A6
100
AcDbEntity
  8
0
100
AcDbSpline
 62
7
  6
CONTINUOUS
 70
0
 71
3
 72
11
 73
7
 74
0
 42
0.0000001
 43
0.0000001
 44
0.0000000001
 40
0.0
 40
0.0
 40
0.0
 40
0.0
 40
0.2207824946
 40
0.4589192188
 40
0.7183734216
 40
1.0
 40
1.0
 40
1.0
 40
1.0
 10
55.1273919901
 20
102.1287178429
 30
0.0
 10
55.1397683908
 20
102.1656281773
 30
0.0
 10
55.1751169041
 20
102.2393382314
 30
0.0
 10
55.2531270347
 20
102.3400791385
 30
0.0
 10
55.3555696931
 20
102.432537198
 30
0.0
 10
55.4353962608
 20
102.4854202605
 30
0.0
 10
55.4784018738
 20
102.5102494145
 30
0.0
  0
SPLINE
  5
3A7
100
AcDbEntity
  8
0
100
AcDbSpline
 62
7
  6
CONTINUOUS
 70
0
 71
3
 72
14
 73
10
 74
0
 42
0.0000001
 43
0.0000001
 44
0.0000000001
 40
0.0
 40
0.0
 40
0.0
 40
0.0
 40
0.108052912
 40
0.2181336949
 40
0.3321119107
 40
0.4515141593
 40
0.5774666082
 40
0.7107248697
 40
1.0
 40
1.0
 40
1.0
 40
1.0
 10
57.0266837098
 20
100.3401211507
 30
0.0
 10
57.1086501896
 20
100.3874464006
 30
0.0
 10
57.2826759068
 20
100.4689382305
 30
0.0
 10
57.5642580319
 20
100.5467936882
 30
0.0
 10
57.8644290611
 20
100.5803127236
 30
0.0
 10
58.1799873011
 20
100.5693328115
 30
0.0
 10
58.5079358524
 20
100.5143648577
 30
0.0
 10
58.9699678025
 20
100.3796844051
 30
0.0
 10
59.3068772067
 20
100.2193706216
 30
0.0
 10
59.526328836
 20
100.0926976922
 30
0.0
  0
SPLINE
  5
3A8
100
AcDbEntity
  8
0
100
AcDbSpline
 62
7
  6
CONTINUOUS
 70
0
 71
3
 72
11
 73
7
 74
0
 42
0.0000001
 43
0.0000001
 44
0.0000000001
 40
0.0
 40
0.0
 40
0.0
 40
0.0
 40
0.2177677577
 40
0.4509204459
 40
0.7102161978
 40
1.0
 40
1.0
 40
1.0
 40
1.0
 10
57.6599422019
 20
102.1520647625
 30
0.0
 10
57.6599381072
 20
102.2007296009
 30
0.0
 10
57.6419563175
 20
102.302173408
 30
0.0
 10
57.5650350553
 20
102.4434804548
 30
0.0
 10
57.4434771292
 20
102.571258051
 30
0.0
 10
57.3417367897
 20
102.6412898372
 30
0.0
 10
57.2856513623
 20
102.6736637385
 30
0.0
  0
SPLINE
  5
3A9
100
AcDbEntity
  8
0
100
AcDbSpline
 62
7
  6
CONTINUOUS
 70
0
 71
3
 72
14
 73
10
 74
0
 42
0.0000001
 43
0.0000001
 44
0.0000000001
 40
0.0
 40
0.0
 40
0.0
 40
0.0
 40
0.1428559347
 40
0.2814309918
 40
0.4151364246
 40
0.5435582988
 40
0.6663690793
 40
0.7833910386
 40
1.0
 40
1.0
 40
1.0
 40
1.0
 10
53.2250125659
 20
99.7291152645
 30
0.0
 10
53.7598202588
 20
99.8699329302
 30
0.0
 10
54.8057437055
 20
100.1776937633
 30
0.0
 10
56.3176966224
 20
100.7255146357
 30
0.0
 10
57.7394342301
 20
101.3490687797
 30
0.0
 10
59.0595029311
 20
102.0432525959
 30
0.0
 10
60.2679155359
 20
102.8031497971
 30
0.0
 10
61.6796828873
 20
103.8672867861
 30
0.0
 10
62.604416201
 20
104.7863301954
 30
0.0
 10
63.1241830304
 20
105.4443704884
 30
0.0
  0
SPLINE
  5
3AA
100
AcDbEntity
  8
0
100
AcDbSpline
 62
7
  6
CONTINUOUS
 70
0
 71
3
 72
11
 73
7
 74
0
 42
0.0000001
 43
0.0000001
 44
0.0000000001
 40
0.0
 40
0.0
 40
0.0
 40
0.0
 40
0.2207824946
 40
0.4589192188
 40
0.7183734216
 40
1.0
 40
1.0
 40
1.0
 40
1.0
 10
57.955807339
 20
103.7616944584
 30
0.0
 10
57.9681837396
 20
103.7986047928
 30
0.0
 10
58.0035322529
 20
103.8723148468
 30
0.0
 10
58.0815423835
 20
103.973055754
 30
0.0
 10
58.183985042
 20
104.0655138135
 30
0.0
 10
58.2638116096
 20
104.118396876
 30
0.0
 10
58.3068172226
 20
104.14322603
 30
0.0
  0
SPLINE
  5
3AB
100
AcDbEntity
  8
0
100
AcDbSpline
 62
7
  6
CONTINUOUS
 70
0
 71
3
 72
11
 73
7
 74
0
 42
0.0000001
 43
0.0000001
 44
0.0000000001
 40
0.0
 40
0.0
 40
0.0
 40
0.0
 40
0.2816220469
 40
0.541074631
 40
0.7792130149
 40
1.0
 40
1.0
 40
1.0
 40
1.0
 10
57.2856651257
 20
102.5103553097
 30
0.0
 10
57.3286648377
 20
102.4855348082
 30
0.0
 10
57.4084815836
 20
102.4326691275
 30
0.0
 10
57.5109155085
 20
102.3402385508
 30
0.0
 10
57.5889247411
 20
102.239524161
 30
0.0
 10
57.6242784047
 20
102.165831386
 30
0.0
 10
57.6366590705
 20
102.1289287892
 30
0.0
  0
SPLINE
  5
3AC
100
AcDbEntity
  8
0
100
AcDbSpline
 62
7
  6
CONTINUOUS
 70
0
 71
3
 72
15
 73
11
 74
0
 42
0.0000001
 43
0.0000001
 44
0.0000000001
 40
0.0
 40
0.0
 40
0.0
 40
0.0
 40
0.114147741
 40
0.2373382907
 40
0.3669807152
 40
0.5000055721
 40
0.6330296541
 40
0.7626698152
 40
0.8858567978
 40
1.0
 40
1.0
 40
1.0
 40
1.0
 10
55.4784018738
 20
102.5102494145
 30
0.0
 10
55.5402582759
 20
102.5459620118
 30
0.0
 10
55.6755357976
 20
102.6089481062
 30
0.0
 10
55.8958100747
 20
102.6759183404
 30
0.0
 10
56.1343033867
 20
102.7171221026
 30
0.0
 10
56.3820311805
 20
102.7310506163
 30
0.0
 10
56.6297592033
 20
102.7171512954
 30
0.0
 10
56.8682532058
 20
102.675975633
 30
0.0
 10
57.0885286348
 20
102.6090313391
 30
0.0
 10
57.2238079158
 20
102.5460608272
 30
0.0
 10
57.2856651257
 20
102.5103553097
 30
0.0
  0
SPLINE
  5
3AD
100
AcDbEntity
  8
0
100
AcDbSpline
 62
7
  6
CONTINUOUS
 70
0
 71
3
 72
11
 73
7
 74
0
 42
0.0000001
 43
0.0000001
 44
0.0000000001
 40
0.0
 40
0.0
 40
0.0
 40
0.0
 40
0.2816220469
 40
0.541074631
 40
0.7792130149
 40
1.0
 40
1.0
 40
1.0
 40
1.0
 10
60.1140804746
 20
104.1433319252
 30
0.0
 10
60.1570801866
 20
104.1185114237
 30
0.0
 10
60.2368969324
 20
104.065645743
 30
0.0
 10
60.3393308574
 20
103.9732151663
 30
0.0
 10
60.41734009
 20
103.8725007765
 30
0.0
 10
60.4526937535
 20
103.7988080014
 30
0.0
 10
60.4650744193
 20
103.7619054047
 30
0.0
  0
SPLINE
  5
3AE
100
AcDbEntity
  8
0
100
AcDbSpline
 62
7
  6
CONTINUOUS
 70
0
 71
3
 72
15
 73
11
 74
0
 42
0.0000001
 43
0.0000001
 44
0.0000000001
 40
0.0
 40
0.0
 40
0.0
 40
0.0
 40
0.114147741
 40
0.2373382907
 40
0.3669807152
 40
0.5000055721
 40
0.6330296541
 40
0.7626698152
 40
0.8858567978
 40
1.0
 40
1.0
 40
1.0
 40
1.0
 10
58.3068172226
 20
104.14322603
 30
0.0
 10
58.3686736248
 20
104.1789386273
 30
0.0
 10
58.5039511464
 20
104.2419247217
 30
0.0
 10
58.7242254236
 20
104.3088949558
 30
0.0
 10
58.9627187355
 20
104.3500987181
 30
0.0
 10
59.2104465293
 20
104.3640272318
 30
0.0
 10
59.4581745521
 20
104.3501279109
 30
0.0
 10
59.6966685547
 20
104.3089522485
 30
0.0
 10
59.9169439837
 20
104.2420079546
 30
0.0
 10
60.0522232647
 20
104.1790374427
 30
0.0
 10
60.1140804746
 20
104.1433319252
 30
0.0
  0
SPLINE
  5
3AF
100
AcDbEntity
  8
0
100
AcDbSpline
 62
7
  6
CONTINUOUS
 70
0
 71
3
 72
13
 73
9
 74
0
 42
0.0000001
 43
0.0000001
 44
0.0000000001
 40
0.0
 40
0.0
 40
0.0
 40
0.0
 40
0.1139012443
 40
0.2367765876
 40
0.4983683757
 40
0.76085015
 40
0.8847680474
 40
1.0
 40
1.0
 40
1.0
 40
1.0
 10
68.3500570125
 20
94.9994226936
 30
0.0
 10
68.3976125917
 20
94.9719724325
 30
0.0
 10
68.4916189807
 20
94.9062804973
 30
0.0
 10
68.6680269351
 20
94.7423543528
 30
0.0
 10
68.8554167307
 20
94.4894510101
 30
0.0
 10
68.9851927332
 20
94.2021955171
 30
0.0
 10
69.0434254023
 20
93.9669235403
 30
0.0
 10
69.0557437087
 20
93.8517706721
 30
0.0
 10
69.0569914413
 20
93.7962337087
 30
0.0
  0
SPLINE
  5
3B0
100
AcDbEntity
  8
0
100
AcDbSpline
 62
7
  6
CONTINUOUS
 70
0
 71
3
 72
11
 73
7
 74
0
 42
0.0000001
 43
0.0000001
 44
0.0000000001
 40
0.0
 40
0.0
 40
0.0
 40
0.0
 40
0.2177677577
 40
0.4509204459
 40
0.7102161978
 40
1.0
 40
1.0
 40
1.0
 40
1.0
 10
60.4883575508
 20
103.785041378
 30
0.0
 10
60.488353456
 20
103.8337062164
 30
0.0
 10
60.4703716663
 20
103.9351500235
 30
0.0
 10
60.3934504042
 20
104.0764570703
 30
0.0
 10
60.2718924781
 20
104.2042346665
 30
0.0
 10
60.1701521386
 20
104.2742664526
 30
0.0
 10
60.1140667111
 20
104.306640354
 30
0.0
  0
SPLINE
  5
3B1
100
AcDbEntity
  8
0
100
AcDbSpline
 62
7
  6
CONTINUOUS
 70
0
 71
3
 72
11
 73
7
 74
0
 42
0.0000001
 43
0.0000001
 44
0.0000000001
 40
0.0
 40
0.0
 40
0.0
 40
0.0
 40
0.289788928
 40
0.549086529
 40
0.7822371695
 40
1.0
 40
1.0
 40
1.0
 40
1.0
 10
55.4783881103
 20
102.6735578433
 30
0.0
 10
55.4222969319
 20
102.6411737796
 30
0.0
 10
55.3205477638
 20
102.5711219862
 30
0.0
 10
55.198984995
 20
102.4433137773
 30
0.0
 10
55.1220697715
 20
102.3019791431
 30
0.0
 10
55.1041006955
 20
102.2005197968
 30
0.0
 10
55.1041047908
 20
102.1518493595
 30
0.0
  0
SPLINE
  5
3B2
100
AcDbEntity
  8
0
100
AcDbSpline
 62
7
  6
CONTINUOUS
 70
0
 71
3
 72
15
 73
11
 74
0
 42
0.0000001
 43
0.0000001
 44
0.0000000001
 40
0.0
 40
0.0
 40
0.0
 40
0.0
 40
0.1141432022
 40
0.2373301848
 40
0.3669703459
 40
0.4999944279
 40
0.6330192848
 40
0.7626617093
 40
0.885852259
 40
1.0
 40
1.0
 40
1.0
 40
1.0
 10
57.2856513623
 20
102.6736637385
 30
0.0
 10
57.2237941524
 20
102.709369256
 30
0.0
 10
57.0885148714
 20
102.7723397679
 30
0.0
 10
56.8682394424
 20
102.8392840618
 30
0.0
 10
56.6297454398
 20
102.8804597242
 30
0.0
 10
56.382017417
 20
102.8943590451
 30
0.0
 10
56.1342896232
 20
102.8804305314
 30
0.0
 10
55.8957963113
 20
102.8392267692
 30
0.0
 10
55.6755220341
 20
102.772256535
 30
0.0
 10
55.5402445125
 20
102.7092704406
 30
0.0
 10
55.4783881103
 20
102.6735578433
 30
0.0
  0
SPLINE
  5
3B3
100
AcDbEntity
  8
0
100
AcDbSpline
 62
7
  6
CONTINUOUS
 70
0
 71
3
 72
9
 73
5
 74
0
 42
0.0000001
 43
0.0000001
 44
0.0000000001
 40
0.0
 40
0.0
 40
0.0
 40
0.0
 40
0.4594560033
 40
1.0
 40
1.0
 40
1.0
 40
1.0
 10
42.5463398555
 20
104.3856889686
 30
0.0
 10
42.5953574598
 20
104.3717710459
 30
0.0
 10
42.6947008794
 20
104.3164409744
 30
0.0
 10
42.7735165967
 20
104.2369893829
 30
0.0
 10
42.8110068364
 20
104.1902105162
 30
0.0
  0
SPLINE
  5
3B4
100
AcDbEntity
  8
0
100
AcDbSpline
 62
7
  6
CONTINUOUS
 70
0
 71
3
 72
11
 73
7
 74
0
 42
0.0000001
 43
0.0000001
 44
0.0000000001
 40
0.0
 40
0.0
 40
0.0
 40
0.0
 40
0.289788928
 40
0.549086529
 40
0.7822371695
 40
1.0
 40
1.0
 40
1.0
 40
1.0
 10
58.3068034592
 20
104.3065344588
 30
0.0
 10
58.2507122807
 20
104.2741503951
 30
0.0
 10
58.1489631127
 20
104.2040986016
 30
0.0
 10
58.0274003439
 20
104.0762903928
 30
0.0
 10
57.9504851203
 20
103.9349557586
 30
0.0
 10
57.9325160444
 20
103.8334964123
 30
0.0
 10
57.9325201396
 20
103.784825975
 30
0.0
  0
SPLINE
  5
3B5
100
AcDbEntity
  8
0
100
AcDbSpline
 62
7
  6
CONTINUOUS
 70
0
 71
3
 72
15
 73
11
 74
0
 42
0.0000001
 43
0.0000001
 44
0.0000000001
 40
0.0
 40
0.0
 40
0.0
 40
0.0
 40
0.1141432022
 40
0.2373301848
 40
0.3669703459
 40
0.4999944279
 40
0.6330192848
 40
0.7626617093
 40
0.885852259
 40
1.0
 40
1.0
 40
1.0
 40
1.0
 10
60.1140667111
 20
104.306640354
 30
0.0
 10
60.0522095012
 20
104.3423458715
 30
0.0
 10
59.9169302203
 20
104.4053163834
 30
0.0
 10
59.6966547912
 20
104.4722606773
 30
0.0
 10
59.4581607887
 20
104.5134363397
 30
0.0
 10
59.2104327659
 20
104.5273356606
 30
0.0
 10
58.9627049721
 20
104.5134071469
 30
0.0
 10
58.7242116602
 20
104.4722033846
 30
0.0
 10
58.503937383
 20
104.4052331505
 30
0.0
 10
58.3686598614
 20
104.3422470561
 30
0.0
 10
58.3068034592
 20
104.3065344588
 30
0.0
  0
SPLINE
  5
3B6
100
AcDbEntity
  8
0
100
AcDbSpline
 62
7
  6
CONTINUOUS
 70
0
 71
3
 72
14
 73
10
 74
0
 42
0.0000001
 43
0.0000001
 44
0.0000000001
 40
0.0
 40
0.0
 40
0.0
 40
0.0
 40
0.2166089604
 40
0.3336309191
 40
0.4564416991
 40
0.5848635728
 40
0.7185690046
 40
0.8571440626
 40
1.0
 40
1.0
 40
1.0
 40
1.0
 10
63.124169267
 20
105.6076789172
 30
0.0
 10
62.6044024353
 20
104.9496386213
 30
0.0
 10
61.6796691163
 20
104.0305952088
 30
0.0
 10
60.2679017582
 20
102.9664582155
 30
0.0
 10
59.0594891473
 20
102.2065610092
 30
0.0
 10
57.7394204329
 20
101.5123772076
 30
0.0
 10
56.3176828311
 20
100.8888230209
 30
0.0
 10
54.8057298712
 20
100.3410021841
 30
0.0
 10
53.7598063742
 20
100.0332414415
 30
0.0
 10
53.2249986663
 20
99.8924237719
 30
0.0
  0
SPLINE
  5
3B7
100
AcDbEntity
  8
0
100
AcDbSpline
 62
7
  6
CONTINUOUS
 70
0
 71
3
 72
10
 73
6
 74
0
 42
0.0000001
 43
0.0000001
 44
0.0000000001
 40
0.0
 40
0.0
 40
0.0
 40
0.0
 40
0.5217499855
 40
0.7717839657
 40
1.0
 40
1.0
 40
1.0
 40
1.0
 10
56.307173131
 20
86.0034837884
 30
0.0
 10
56.2915727345
 20
86.0437001155
 30
0.0
 10
56.2590569152
 20
86.1001508672
 30
0.0
 10
56.2023728064
 20
86.1606318631
 30
0.0
 10
56.1704274502
 20
86.1844971593
 30
0.0
 10
56.1540865582
 20
86.1939298149
 30
0.0
  0
SPLINE
  5
3B8
100
AcDbEntity
  8
0
100
AcDbSpline
 62
7
  6
CONTINUOUS
 70
0
 71
3
 72
9
 73
5
 74
0
 42
0.0000001
 43
0.0000001
 44
0.0000000001
 40
0.0
 40
0.0
 40
0.0
 40
0.0
 40
0.2798291208
 40
1.0
 40
1.0
 40
1.0
 40
1.0
 10
56.1540865582
 20
86.1939298149
 30
0.0
 10
56.1466339758
 20
86.1982314612
 30
0.0
 10
56.1193127314
 20
86.2121223827
 30
0.0
 10
56.08774029
 20
86.2195748269
 30
0.0
 10
56.0656831768
 20
86.2175951198
 30
0.0
  0
SPLINE
  5
3B9
100
AcDbEntity
  8
0
100
AcDbSpline
 62
7
  6
CONTINUOUS
 70
0
 71
3
 72
10
 73
6
 74
0
 42
0.0000001
 43
0.0000001
 44
0.0000000001
 40
0.0
 40
0.0
 40
0.0
 40
0.0
 40
0.5217499855
 40
0.7717839657
 40
1.0
 40
1.0
 40
1.0
 40
1.0
 10
55.5417474138
 20
85.9349925049
 30
0.0
 10
55.5261470173
 20
85.9752088321
 30
0.0
 10
55.4936311981
 20
86.0316595837
 30
0.0
 10
55.4369470892
 20
86.0921405796
 30
0.0
 10
55.4050017331
 20
86.1160058758
 30
0.0
 10
55.388660841
 20
86.1254385315
 30
0.0
  0
SPLINE
  5
3BA
100
AcDbEntity
  8
0
100
AcDbSpline
 62
7
  6
CONTINUOUS
 70
0
 71
3
 72
9
 73
5
 74
0
 42
0.0000001
 43
0.0000001
 44
0.0000000001
 40
0.0
 40
0.0
 40
0.0
 40
0.0
 40
0.2798291208
 40
1.0
 40
1.0
 40
1.0
 40
1.0
 10
55.388660841
 20
86.1254385315
 30
0.0
 10
55.3812082586
 20
86.1297401777
 30
0.0
 10
55.3538870143
 20
86.1436310992
 30
0.0
 10
55.3223145728
 20
86.1510835434
 30
0.0
 10
55.3002574596
 20
86.1491038363
 30
0.0
  0
SPLINE
  5
3BB
100
AcDbEntity
  8
0
100
AcDbSpline
 62
7
  6
CONTINUOUS
 70
0
 71
3
 72
12
 73
8
 74
0
 42
0.0000001
 43
0.0000001
 44
0.0000000001
 40
0.0
 40
0.0
 40
0.0
 40
0.0
 40
0.2876671067
 40
0.5471144656
 40
0.7815746266
 40
0.8921540641
 40
1.0
 40
1.0
 40
1.0
 40
1.0
 10
50.6366253271
 20
88.0792610084
 30
0.0
 10
50.5135004093
 20
88.1503317686
 30
0.0
 10
50.2684934289
 20
88.2683677502
 30
0.0
 10
49.8925426968
 20
88.3679323162
 30
0.0
 10
49.5899727608
 20
88.3742447751
 30
0.0
 10
49.3698283954
 20
88.3300246918
 30
0.0
 10
49.2679817812
 20
88.2926979686
 30
0.0
 10
49.2195515172
 20
88.2704468321
 30
0.0
  0
SPLINE
  5
3BC
100
AcDbEntity
  8
0
100
AcDbSpline
 62
7
  6
CONTINUOUS
 70
0
 71
3
 72
11
 73
7
 74
0
 42
0.0000001
 43
0.0000001
 44
0.0000000001
 40
0.0
 40
0.0
 40
0.0
 40
0.0
 40
0.2177677577
 40
0.4509204459
 40
0.7102161978
 40
1.0
 40
1.0
 40
1.0
 40
1.0
 10
42.7297876395
 20
95.0075766668
 30
0.0
 10
42.7297917343
 20
94.9589118284
 30
0.0
 10
42.747773524
 20
94.8574680213
 30
0.0
 10
42.8246947861
 20
94.7161609745
 30
0.0
 10
42.9462527122
 20
94.5883833783
 30
0.0
 10
43.0479930517
 20
94.5183515921
 30
0.0
 10
43.1040784792
 20
94.4859776908
 30
0.0
  0
SPLINE
  5
3BD
100
AcDbEntity
  8
0
100
AcDbSpline
 62
7
  6
CONTINUOUS
 70
0
 71
3
 72
11
 73
7
 74
0
 42
0.0000001
 43
0.0000001
 44
0.0000000001
 40
0.0
 40
0.0
 40
0.0
 40
0.0
 40
0.2177677577
 40
0.4509204459
 40
0.7102161978
 40
1.0
 40
1.0
 40
1.0
 40
1.0
 10
45.5582029884
 20
96.6405532823
 30
0.0
 10
45.5582070831
 20
96.5918884439
 30
0.0
 10
45.5761888728
 20
96.4904446368
 30
0.0
 10
45.653110135
 20
96.34913759
 30
0.0
 10
45.7746680611
 20
96.2213599937
 30
0.0
 10
45.8764084006
 20
96.1513282076
 30
0.0
 10
45.932493828
 20
96.1189543063
 30
0.0
  0
SPLINE
  5
3BE
100
AcDbEntity
  8
0
100
AcDbSpline
 62
7
  6
CONTINUOUS
 70
0
 71
3
 72
14
 73
10
 74
0
 42
0.0000001
 43
0.0000001
 44
0.0000000001
 40
0.0
 40
0.0
 40
0.0
 40
0.0
 40
0.2892751303
 40
0.4225333918
 40
0.5484858407
 40
0.6678880893
 40
0.7818663051
 40
0.891947088
 40
1.0
 40
1.0
 40
1.0
 40
1.0
 10
59.3141976848
 20
99.970224446
 30
0.0
 10
59.0947460555
 20
100.0968973755
 30
0.0
 10
58.7578366513
 20
100.257211159
 30
0.0
 10
58.2958047012
 20
100.3918916115
 30
0.0
 10
57.9678561499
 20
100.4468595654
 30
0.0
 10
57.6522979099
 20
100.4578394775
 30
0.0
 10
57.3521268807
 20
100.4243204421
 30
0.0
 10
57.0705447557
 20
100.3464649843
 30
0.0
 10
56.8965190385
 20
100.2649731544
 30
0.0
 10
56.8145525586
 20
100.2176479045
 30
0.0
  0
SPLINE
  5
3BF
100
AcDbEntity
  8
0
100
AcDbSpline
 62
7
  6
CONTINUOUS
 70
0
 71
3
 72
15
 73
11
 74
0
 42
0.0000001
 43
0.0000001
 44
0.0000000001
 40
0.0
 40
0.0
 40
0.0
 40
0.0
 40
0.1141432022
 40
0.2373301848
 40
0.3669703459
 40
0.4999944279
 40
0.6330192848
 40
0.7626617093
 40
0.885852259
 40
1.0
 40
1.0
 40
1.0
 40
1.0
 10
43.1040784792
 20
94.4859776908
 30
0.0
 10
43.1659356891
 20
94.4502721733
 30
0.0
 10
43.30121497
 20
94.3873016614
 30
0.0
 10
43.5214903991
 20
94.3203573674
 30
0.0
 10
43.7599844016
 20
94.279181705
 30
0.0
 10
44.0077124244
 20
94.2652823842
 30
0.0
 10
44.2554402182
 20
94.2792108979
 30
0.0
 10
44.4939335301
 20
94.3204146601
 30
0.0
 10
44.7142078073
 20
94.3873848943
 30
0.0
 10
44.8494853289
 20
94.4503709887
 30
0.0
 10
44.9113417311
 20
94.486083586
 30
0.0
  0
SPLINE
  5
3C0
100
AcDbEntity
  8
0
100
AcDbSpline
 62
7
  6
CONTINUOUS
 70
0
 71
3
 72
11
 73
7
 74
0
 42
0.0000001
 43
0.0000001
 44
0.0000000001
 40
0.0
 40
0.0
 40
0.0
 40
0.0
 40
0.289788928
 40
0.549086529
 40
0.7822371695
 40
1.0
 40
1.0
 40
1.0
 40
1.0
 10
44.9113417311
 20
94.486083586
 30
0.0
 10
44.9674329096
 20
94.5184676497
 30
0.0
 10
45.0691820776
 20
94.5885194431
 30
0.0
 10
45.1907448464
 20
94.7163276519
 30
0.0
 10
45.2676600699
 20
94.8576622861
 30
0.0
 10
45.2856291459
 20
94.9591216325
 30
0.0
 10
45.2856250507
 20
95.0077920697
 30
0.0
  0
SPLINE
  5
3C1
100
AcDbEntity
  8
0
100
AcDbSpline
 62
7
  6
CONTINUOUS
 70
0
 71
3
 72
15
 73
11
 74
0
 42
0.0000001
 43
0.0000001
 44
0.0000000001
 40
0.0
 40
0.0
 40
0.0
 40
0.0
 40
0.1141432022
 40
0.2373301848
 40
0.3669703459
 40
0.4999944279
 40
0.6330192848
 40
0.7626617093
 40
0.885852259
 40
1.0
 40
1.0
 40
1.0
 40
1.0
 10
45.932493828
 20
96.1189543063
 30
0.0
 10
45.9943510379
 20
96.0832487888
 30
0.0
 10
46.1296303189
 20
96.0202782769
 30
0.0
 10
46.3499057479
 20
95.9533339829
 30
0.0
 10
46.5883997505
 20
95.9121583205
 30
0.0
 10
46.8361277733
 20
95.8982589996
 30
0.0
 10
47.0838555671
 20
95.9121875134
 30
0.0
 10
47.322348879
 20
95.9533912756
 30
0.0
 10
47.5426231561
 20
96.0203615098
 30
0.0
 10
47.6779006778
 20
96.0833476042
 30
0.0
 10
47.73975708
 20
96.1190602015
 30
0.0
  0
SPLINE
  5
3C2
100
AcDbEntity
  8
0
100
AcDbSpline
 62
7
  6
CONTINUOUS
 70
0
 71
3
 72
11
 73
7
 74
0
 42
0.0000001
 43
0.0000001
 44
0.0000000001
 40
0.0
 40
0.0
 40
0.0
 40
0.0
 40
0.289788928
 40
0.549086529
 40
0.7822371695
 40
1.0
 40
1.0
 40
1.0
 40
1.0
 10
47.73975708
 20
96.1190602015
 30
0.0
 10
47.7958482584
 20
96.1514442652
 30
0.0
 10
47.8975974265
 20
96.2214960586
 30
0.0
 10
48.0191601953
 20
96.3493042674
 30
0.0
 10
48.0960754188
 20
96.4906389016
 30
0.0
 10
48.1140444948
 20
96.592098248
 30
0.0
 10
48.1140403995
 20
96.6407686852
 30
0.0
  0
SPLINE
  5
3C3
100
AcDbEntity
  8
0
100
AcDbSpline
 62
7
  6
CONTINUOUS
 70
0
 71
3
 72
13
 73
9
 74
0
 42
0.0000001
 43
0.0000001
 44
0.0000000001
 40
0.0
 40
0.0
 40
0.0
 40
0.0
 40
0.1152319167
 40
0.2391497525
 40
0.5016314961
 40
0.7632233155
 40
0.8860987201
 40
1.0
 40
1.0
 40
1.0
 40
1.0
 10
68.8448602901
 20
93.6737604625
 30
0.0
 10
68.8436125579
 20
93.7292974086
 30
0.0
 10
68.831294272
 20
93.8444502314
 30
0.0
 10
68.7730616161
 20
94.0797221482
 30
0.0
 10
68.6432856606
 20
94.3669776258
 30
0.0
 10
68.4558958745
 20
94.6198810177
 30
0.0
 10
68.279487874
 20
94.7838072027
 30
0.0
 10
68.1854814554
 20
94.8494991778
 30
0.0
 10
68.1379258614
 20
94.8769494474
 30
0.0
  0
SPLINE
  5
3C4
100
AcDbEntity
  8
0
100
AcDbSpline
 62
7
  6
CONTINUOUS
 70
0
 71
3
 72
14
 73
10
 74
0
 42
0.0000001
 43
0.0000001
 44
0.0000000001
 40
0.0
 40
0.0
 40
0.0
 40
0.0
 40
0.2166089737
 40
0.3336309403
 40
0.4564417231
 40
0.5848635961
 40
0.7185690235
 40
0.8571440736
 40
1.0
 40
1.0
 40
1.0
 40
1.0
 10
40.0939793356
 20
93.1849431995
 30
0.0
 10
40.6137463643
 20
93.8429830532
 30
0.0
 10
41.5384796273
 20
94.7620259998
 30
0.0
 10
42.9502469673
 20
95.826162214
 30
0.0
 10
44.1586593662
 20
96.5860589345
 30
0.0
 10
45.4787277639
 20
97.280242264
 30
0.0
 10
46.9004649327
 20
97.9037960348
 30
0.0
 10
48.4124173617
 20
98.4516165142
 30
0.0
 10
49.4583404625
 20
98.7593770669
 30
0.0
 10
49.9931479599
 20
98.9001946522
 30
0.0
  0
SPLINE
  5
3C5
100
AcDbEntity
  8
0
100
AcDbSpline
 62
7
  6
CONTINUOUS
 70
0
 71
3
 72
11
 73
7
 74
0
 42
0.0000001
 43
0.0000001
 44
0.0000000001
 40
0.0
 40
0.0
 40
0.0
 40
0.0
 40
0.2178080587
 40
0.4509230191
 40
0.7103079378
 40
1.0
 40
1.0
 40
1.0
 40
1.0
 10
36.6955541027
 20
93.4377979853
 30
0.0
 10
36.7285338268
 20
93.4568499135
 30
0.0
 10
36.8043195323
 20
93.4843491936
 30
0.0
 10
36.9301859576
 20
93.4875233272
 30
0.0
 10
37.0643324264
 20
93.455156037
 30
0.0
 10
37.1516089423
 20
93.4136400381
 30
0.0
 10
37.1954818503
 20
93.3883155062
 30
0.0
  0
SPLINE
  5
3C6
100
AcDbEntity
  8
0
100
AcDbSpline
 62
7
  6
CONTINUOUS
 70
0
 71
3
 72
11
 73
7
 74
0
 42
0.0000001
 43
0.0000001
 44
0.0000000001
 40
0.0
 40
0.0
 40
0.0
 40
0.0
 40
0.2207824946
 40
0.4589192188
 40
0.7183734216
 40
1.0
 40
1.0
 40
1.0
 40
1.0
 10
42.7530748389
 20
94.9844451501
 30
0.0
 10
42.7654512395
 20
95.0213554846
 30
0.0
 10
42.8007997528
 20
95.0950655386
 30
0.0
 10
42.8788098834
 20
95.1958064458
 30
0.0
 10
42.9812525419
 20
95.2882645053
 30
0.0
 10
43.0610791096
 20
95.3411475677
 30
0.0
 10
43.1040847225
 20
95.3659767217
 30
0.0
  0
SPLINE
  5
3C7
100
AcDbEntity
  8
0
100
AcDbSpline
 62
7
  6
CONTINUOUS
 70
0
 71
3
 72
14
 73
10
 74
0
 42
0.0000001
 43
0.0000001
 44
0.0000000001
 40
0.0
 40
0.0
 40
0.0
 40
0.0
 40
0.108052912
 40
0.2181336949
 40
0.3321119107
 40
0.4515141593
 40
0.5774666082
 40
0.7107248697
 40
1.0
 40
1.0
 40
1.0
 40
1.0
 10
44.6523665586
 20
93.1958484579
 30
0.0
 10
44.7343330384
 20
93.2431737078
 30
0.0
 10
44.9083587556
 20
93.3246655378
 30
0.0
 10
45.1899408806
 20
93.4025209955
 30
0.0
 10
45.4901119099
 20
93.4360400309
 30
0.0
 10
45.8056701499
 20
93.4250601188
 30
0.0
 10
46.1336187011
 20
93.3700921649
 30
0.0
 10
46.5956506512
 20
93.2354117124
 30
0.0
 10
46.9325600555
 20
93.0750979289
 30
0.0
 10
47.1520116847
 20
92.9484249995
 30
0.0
  0
SPLINE
  5
3C8
100
AcDbEntity
  8
0
100
AcDbSpline
 62
7
  6
CONTINUOUS
 70
0
 71
3
 72
9
 73
5
 74
0
 42
0.0000001
 43
0.0000001
 44
0.0000000001
 40
0.0
 40
0.0
 40
0.0
 40
0.0
 40
0.232493127
 40
1.0
 40
1.0
 40
1.0
 40
1.0
 10
55.9772959221
 20
86.0918560245
 30
0.0
 10
55.9772968519
 20
86.0826682919
 30
0.0
 10
55.9796152309
 20
86.043155903
 30
0.0
 10
55.9900259973
 20
86.0043649292
 30
0.0
 10
56.0010018117
 20
85.9760899461
 30
0.0
  0
SPLINE
  5
3C9
100
AcDbEntity
  8
0
100
AcDbSpline
 62
7
  6
CONTINUOUS
 70
0
 71
3
 72
11
 73
7
 74
0
 42
0.0000001
 43
0.0000001
 44
0.0000000001
 40
0.0
 40
0.0
 40
0.0
 40
0.0
 40
0.2177677577
 40
0.4509204459
 40
0.7102161978
 40
1.0
 40
1.0
 40
1.0
 40
1.0
 10
45.2856250507
 20
95.0077920697
 30
0.0
 10
45.2856209559
 20
95.0564569081
 30
0.0
 10
45.2676391662
 20
95.1579007152
 30
0.0
 10
45.1907179041
 20
95.299207762
 30
0.0
 10
45.069159978
 20
95.4269853583
 30
0.0
 10
44.9674196385
 20
95.4970171444
 30
0.0
 10
44.911334211
 20
95.5293910457
 30
0.0
  0
SPLINE
  5
3CA
100
AcDbEntity
  8
0
100
AcDbSpline
 62
7
  6
CONTINUOUS
 70
0
 71
3
 72
14
 73
10
 74
0
 42
0.0000001
 43
0.0000001
 44
0.0000000001
 40
0.0
 40
0.0
 40
0.0
 40
0.0
 40
0.1428559347
 40
0.2814309918
 40
0.4151364246
 40
0.5435582988
 40
0.6663690793
 40
0.7833910386
 40
1.0
 40
1.0
 40
1.0
 40
1.0
 10
40.8506954147
 20
92.5848425717
 30
0.0
 10
41.3855031076
 20
92.7256602374
 30
0.0
 10
42.4314265543
 20
93.0334210706
 30
0.0
 10
43.9433794712
 20
93.5812419429
 30
0.0
 10
45.3651170789
 20
94.204796087
 30
0.0
 10
46.6851857799
 20
94.8989799032
 30
0.0
 10
47.8935983847
 20
95.6588771043
 30
0.0
 10
49.3053657361
 20
96.7230140934
 30
0.0
 10
50.2300990498
 20
97.6420575027
 30
0.0
 10
50.7498658792
 20
98.3000977956
 30
0.0
  0
SPLINE
  5
3CB
100
AcDbEntity
  8
0
100
AcDbSpline
 62
7
  6
CONTINUOUS
 70
0
 71
3
 72
11
 73
7
 74
0
 42
0.0000001
 43
0.0000001
 44
0.0000000001
 40
0.0
 40
0.0
 40
0.0
 40
0.0
 40
0.2207824946
 40
0.4589192188
 40
0.7183734216
 40
1.0
 40
1.0
 40
1.0
 40
1.0
 10
45.5814901878
 20
96.6174217656
 30
0.0
 10
45.5938665884
 20
96.6543321001
 30
0.0
 10
45.6292151017
 20
96.7280421541
 30
0.0
 10
45.7072252323
 20
96.8287830612
 30
0.0
 10
45.8096678907
 20
96.9212411208
 30
0.0
 10
45.8894944584
 20
96.9741241832
 30
0.0
 10
45.9325000714
 20
96.9989533372
 30
0.0
  0
SPLINE
  5
3CC
100
AcDbEntity
  8
0
100
AcDbSpline
 62
7
  6
CONTINUOUS
 70
0
 71
3
 72
11
 73
7
 74
0
 42
0.0000001
 43
0.0000001
 44
0.0000000001
 40
0.0
 40
0.0
 40
0.0
 40
0.0
 40
0.2816220469
 40
0.541074631
 40
0.7792130149
 40
1.0
 40
1.0
 40
1.0
 40
1.0
 10
44.9113479745
 20
95.3660826169
 30
0.0
 10
44.9543476865
 20
95.3412621155
 30
0.0
 10
45.0341644323
 20
95.2883964348
 30
0.0
 10
45.1365983573
 20
95.1959658581
 30
0.0
 10
45.2146075899
 20
95.0952514683
 30
0.0
 10
45.2499612535
 20
95.0215586932
 30
0.0
 10
45.2623419192
 20
94.9846560965
 30
0.0
  0
SPLINE
  5
3CD
100
AcDbEntity
  8
0
100
AcDbSpline
 62
7
  6
CONTINUOUS
 70
0
 71
3
 72
15
 73
11
 74
0
 42
0.0000001
 43
0.0000001
 44
0.0000000001
 40
0.0
 40
0.0
 40
0.0
 40
0.0
 40
0.114147741
 40
0.2373382907
 40
0.3669807152
 40
0.5000055721
 40
0.6330296541
 40
0.7626698152
 40
0.8858567978
 40
1.0
 40
1.0
 40
1.0
 40
1.0
 10
43.1040847225
 20
95.3659767217
 30
0.0
 10
43.1659411247
 20
95.401689319
 30
0.0
 10
43.3012186463
 20
95.4646754135
 30
0.0
 10
43.5214929235
 20
95.5316456476
 30
0.0
 10
43.7599862354
 20
95.5728494099
 30
0.0
 10
44.0077140292
 20
95.5867779236
 30
0.0
 10
44.255442052
 20
95.5728786027
 30
0.0
 10
44.4939360546
 20
95.5317029403
 30
0.0
 10
44.7142114836
 20
95.4647586463
 30
0.0
 10
44.8494907646
 20
95.4017881344
 30
0.0
 10
44.9113479745
 20
95.3660826169
 30
0.0
  0
SPLINE
  5
3CE
100
AcDbEntity
  8
0
100
AcDbSpline
 62
7
  6
CONTINUOUS
 70
0
 71
3
 72
11
 73
7
 74
0
 42
0.0000001
 43
0.0000001
 44
0.0000000001
 40
0.0
 40
0.0
 40
0.0
 40
0.0
 40
0.2816220469
 40
0.541074631
 40
0.7792130149
 40
1.0
 40
1.0
 40
1.0
 40
1.0
 10
47.7397633233
 20
96.9990592324
 30
0.0
 10
47.7827630353
 20
96.974238731
 30
0.0
 10
47.8625797812
 20
96.9213730503
 30
0.0
 10
47.9650137062
 20
96.8289424735
 30
0.0
 10
48.0430229388
 20
96.7282280837
 30
0.0
 10
48.0783766023
 20
96.6545353087
 30
0.0
 10
48.0907572681
 20
96.617632712
 30
0.0
  0
SPLINE
  5
3CF
100
AcDbEntity
  8
0
100
AcDbSpline
 62
7
  6
CONTINUOUS
 70
0
 71
3
 72
15
 73
11
 74
0
 42
0.0000001
 43
0.0000001
 44
0.0000000001
 40
0.0
 40
0.0
 40
0.0
 40
0.0
 40
0.114147741
 40
0.2373382907
 40
0.3669807152
 40
0.5000055721
 40
0.6330296541
 40
0.7626698152
 40
0.8858567978
 40
1.0
 40
1.0
 40
1.0
 40
1.0
 10
45.9325000714
 20
96.9989533372
 30
0.0
 10
45.9943564736
 20
97.0346659345
 30
0.0
 10
46.1296339952
 20
97.0976520289
 30
0.0
 10
46.3499082724
 20
97.1646222631
 30
0.0
 10
46.5884015843
 20
97.2058260253
 30
0.0
 10
46.8361293781
 20
97.2197545391
 30
0.0
 10
47.0838574009
 20
97.2058552182
 30
0.0
 10
47.3223514034
 20
97.1646795558
 30
0.0
 10
47.5426268325
 20
97.0977352618
 30
0.0
 10
47.6779061134
 20
97.0347647499
 30
0.0
 10
47.7397633233
 20
96.9990592324
 30
0.0
  0
SPLINE
  5
3D0
100
AcDbEntity
  8
0
100
AcDbSpline
 62
7
  6
CONTINUOUS
 70
0
 71
3
 72
13
 73
9
 74
0
 42
0.0000001
 43
0.0000001
 44
0.0000000001
 40
0.0
 40
0.0
 40
0.0
 40
0.0
 40
0.1139012443
 40
0.2367765876
 40
0.4983683757
 40
0.76085015
 40
0.8847680474
 40
1.0
 40
1.0
 40
1.0
 40
1.0
 10
55.9757398613
 20
87.8551500009
 30
0.0
 10
56.0232954404
 20
87.8276997398
 30
0.0
 10
56.1173018295
 20
87.7620078045
 30
0.0
 10
56.2937097839
 20
87.5980816601
 30
0.0
 10
56.4810995795
 20
87.3451783174
 30
0.0
 10
56.610875582
 20
87.0579228244
 30
0.0
 10
56.6691082511
 20
86.8226508476
 30
0.0
 10
56.6814265575
 20
86.7074979793
 30
0.0
 10
56.68267429
 20
86.651961016
 30
0.0
  0
SPLINE
  5
3D1
100
AcDbEntity
  8
0
100
AcDbSpline
 62
7
  6
CONTINUOUS
 70
0
 71
3
 72
11
 73
7
 74
0
 42
0.0000001
 43
0.0000001
 44
0.0000000001
 40
0.0
 40
0.0
 40
0.0
 40
0.0
 40
0.2177677577
 40
0.4509204459
 40
0.7102161978
 40
1.0
 40
1.0
 40
1.0
 40
1.0
 10
48.1140403995
 20
96.6407686852
 30
0.0
 10
48.1140363048
 20
96.6894335236
 30
0.0
 10
48.0960545151
 20
96.7908773307
 30
0.0
 10
48.0191332529
 20
96.9321843775
 30
0.0
 10
47.8975753268
 20
97.0599619738
 30
0.0
 10
47.7958349873
 20
97.1299937599
 30
0.0
 10
47.7397495599
 20
97.1623676612
 30
0.0
  0
SPLINE
  5
3D2
100
AcDbEntity
  8
0
100
AcDbSpline
 62
7
  6
CONTINUOUS
 70
0
 71
3
 72
11
 73
7
 74
0
 42
0.0000001
 43
0.0000001
 44
0.0000000001
 40
0.0
 40
0.0
 40
0.0
 40
0.0
 40
0.289788928
 40
0.549086529
 40
0.7822371695
 40
1.0
 40
1.0
 40
1.0
 40
1.0
 10
43.1040709591
 20
95.5292851505
 30
0.0
 10
43.0479797806
 20
95.4969010869
 30
0.0
 10
42.9462306126
 20
95.4268492934
 30
0.0
 10
42.8246678438
 20
95.2990410846
 30
0.0
 10
42.7477526203
 20
95.1577064504
 30
0.0
 10
42.7297835443
 20
95.056247104
 30
0.0
 10
42.7297876395
 20
95.0075766668
 30
0.0
  0
SPLINE
  5
3D3
100
AcDbEntity
  8
0
100
AcDbSpline
 62
7
  6
CONTINUOUS
 70
0
 71
3
 72
15
 73
11
 74
0
 42
0.0000001
 43
0.0000001
 44
0.0000000001
 40
0.0
 40
0.0
 40
0.0
 40
0.0
 40
0.1141432022
 40
0.2373301848
 40
0.3669703459
 40
0.4999944279
 40
0.6330192848
 40
0.7626617093
 40
0.885852259
 40
1.0
 40
1.0
 40
1.0
 40
1.0
 10
44.911334211
 20
95.5293910457
 30
0.0
 10
44.8494770011
 20
95.5650965632
 30
0.0
 10
44.7141977202
 20
95.6280670751
 30
0.0
 10
44.4939222911
 20
95.6950113691
 30
0.0
 10
44.2554282886
 20
95.7361870315
 30
0.0
 10
44.0077002658
 20
95.7500863524
 30
0.0
 10
43.759972472
 20
95.7361578387
 30
0.0
 10
43.5214791601
 20
95.6949540764
 30
0.0
 10
43.3012048829
 20
95.6279838423
 30
0.0
 10
43.1659273613
 20
95.5649977478
 30
0.0
 10
43.1040709591
 20
95.5292851505
 30
0.0
  0
SPLINE
  5
3D4
100
AcDbEntity
  8
0
100
AcDbSpline
 62
7
  6
CONTINUOUS
 70
0
 71
3
 72
11
 73
7
 74
0
 42
0.0000001
 43
0.0000001
 44
0.0000000001
 40
0.0
 40
0.0
 40
0.0
 40
0.0
 40
0.2319495324
 40
0.4734807749
 40
0.7285841223
 40
1.0
 40
1.0
 40
1.0
 40
1.0
 10
27.9459394183
 20
97.2159847674
 30
0.0
 10
28.1092761141
 20
97.2786891018
 30
0.0
 10
28.4558377104
 20
97.3745628534
 30
0.0
 10
29.0057060013
 20
97.4244061433
 30
0.0
 10
29.5857613514
 20
97.3825726752
 30
0.0
 10
29.9750791018
 20
97.2973358967
 30
0.0
 10
30.1720227042
 20
97.2414162759
 30
0.0
  0
SPLINE
  5
3D5
100
AcDbEntity
  8
0
100
AcDbSpline
 62
7
  6
CONTINUOUS
 70
0
 71
3
 72
11
 73
7
 74
0
 42
0.0000001
 43
0.0000001
 44
0.0000000001
 40
0.0
 40
0.0
 40
0.0
 40
0.0
 40
0.2130789693
 40
0.4608295441
 40
0.7294989428
 40
1.0
 40
1.0
 40
1.0
 40
1.0
 10
30.1720227042
 20
97.2414162759
 30
0.0
 10
30.2138625952
 20
97.2295363732
 30
0.0
 10
30.2991102996
 20
97.1854761429
 30
0.0
 10
30.4104479696
 20
97.0850507603
 30
0.0
 10
30.506259862
 20
96.9548939954
 30
0.0
 10
30.554113465
 20
96.8548827958
 30
0.0
 10
30.5727086412
 20
96.8028934369
 30
0.0
  0
SPLINE
  5
3D6
100
AcDbEntity
  8
0
100
AcDbSpline
 62
7
  6
CONTINUOUS
 70
0
 71
3
 72
11
 73
7
 74
0
 42
0.0000001
 43
0.0000001
 44
0.0000000001
 40
0.0
 40
0.0
 40
0.0
 40
0.0
 40
0.2178845863
 40
0.4509943353
 40
0.71065525
 40
1.0
 40
1.0
 40
1.0
 40
1.0
 10
56.0290720081
 20
86.2062771977
 30
0.0
 10
56.0208168652
 20
86.2015241535
 30
0.0
 10
56.00537165
 20
86.1885657861
 30
0.0
 10
55.9889494962
 20
86.161686116
 30
0.0
 10
55.9792410358
 20
86.1285853418
 30
0.0
 10
55.9772950243
 20
86.1045058824
 30
0.0
 10
55.9772959221
 20
86.0918560245
 30
0.0
  0
SPLINE
  5
3D7
100
AcDbEntity
  8
0
100
AcDbSpline
 62
7
  6
CONTINUOUS
 70
0
 71
3
 72
11
 73
7
 74
0
 42
0.0000001
 43
0.0000001
 44
0.0000000001
 40
0.0
 40
0.0
 40
0.0
 40
0.0
 40
0.289788928
 40
0.549086529
 40
0.7822371695
 40
1.0
 40
1.0
 40
1.0
 40
1.0
 10
45.9324863079
 20
97.162261766
 30
0.0
 10
45.8763951295
 20
97.1298777023
 30
0.0
 10
45.7746459615
 20
97.0598259089
 30
0.0
 10
45.6530831926
 20
96.9320177001
 30
0.0
 10
45.5761679691
 20
96.7906830659
 30
0.0
 10
45.5581988932
 20
96.6892237195
 30
0.0
 10
45.5582029884
 20
96.6405532823
 30
0.0
  0
SPLINE
  5
3D8
100
AcDbEntity
  8
0
100
AcDbSpline
 62
7
  6
CONTINUOUS
 70
0
 71
3
 72
15
 73
11
 74
0
 42
0.0000001
 43
0.0000001
 44
0.0000000001
 40
0.0
 40
0.0
 40
0.0
 40
0.0
 40
0.1141432022
 40
0.2373301848
 40
0.3669703459
 40
0.4999944279
 40
0.6330192848
 40
0.7626617093
 40
0.885852259
 40
1.0
 40
1.0
 40
1.0
 40
1.0
 10
47.7397495599
 20
97.1623676612
 30
0.0
 10
47.67789235
 20
97.1980731787
 30
0.0
 10
47.542613069
 20
97.2610436906
 30
0.0
 10
47.32233764
 20
97.3279879846
 30
0.0
 10
47.0838436374
 20
97.369163647
 30
0.0
 10
46.8361156147
 20
97.3830629679
 30
0.0
 10
46.5883878208
 20
97.3691344541
 30
0.0
 10
46.3498945089
 20
97.3279306919
 30
0.0
 10
46.1296202318
 20
97.2609604577
 30
0.0
 10
45.9943427101
 20
97.1979743633
 30
0.0
 10
45.9324863079
 20
97.162261766
 30
0.0
  0
SPLINE
  5
3D9
100
AcDbEntity
  8
0
100
AcDbSpline
 62
7
  6
CONTINUOUS
 70
0
 71
3
 72
9
 73
5
 74
0
 42
0.0000001
 43
0.0000001
 44
0.0000000001
 40
0.0
 40
0.0
 40
0.0
 40
0.0
 40
0.2324950779
 40
1.0
 40
1.0
 40
1.0
 40
1.0
 10
55.211870205
 20
86.0233647413
 30
0.0
 10
55.2118711345
 20
86.0141787955
 30
0.0
 10
55.2141885931
 20
85.9746744198
 30
0.0
 10
55.2245954723
 20
85.9358910467
 30
0.0
 10
55.2355673411
 20
85.9076212151
 30
0.0
  0
SPLINE
  5
3DA
100
AcDbEntity
  8
0
100
AcDbSpline
 62
7
  6
CONTINUOUS
 70
0
 71
3
 72
11
 73
7
 74
0
 42
0.0000001
 43
0.0000001
 44
0.0000000001
 40
0.0
 40
0.0
 40
0.0
 40
0.0
 40
0.2178845863
 40
0.4509943353
 40
0.71065525
 40
1.0
 40
1.0
 40
1.0
 40
1.0
 10
55.263646291
 20
86.1377859142
 30
0.0
 10
55.255391148
 20
86.13303287
 30
0.0
 10
55.2399459328
 20
86.1200745026
 30
0.0
 10
55.2235237791
 20
86.0931948326
 30
0.0
 10
55.2138153186
 20
86.0600940585
 30
0.0
 10
55.2118693072
 20
86.0360145992
 30
0.0
 10
55.211870205
 20
86.0233647413
 30
0.0
  0
SPLINE
  5
3DB
100
AcDbEntity
  8
0
100
AcDbSpline
 62
7
  6
CONTINUOUS
 70
0
 71
3
 72
14
 73
10
 74
0
 42
0.0000001
 43
0.0000001
 44
0.0000000001
 40
0.0
 40
0.0
 40
0.0
 40
0.0
 40
0.2166089604
 40
0.3336309191
 40
0.4564416991
 40
0.5848635728
 40
0.7185690046
 40
0.8571440626
 40
1.0
 40
1.0
 40
1.0
 40
1.0
 10
50.7498521158
 20
98.4634062244
 30
0.0
 10
50.230085284
 20
97.8053659285
 30
0.0
 10
49.3053519651
 20
96.886322516
 30
0.0
 10
47.893584607
 20
95.8221855227
 30
0.0
 10
46.6851719961
 20
95.0622883164
 30
0.0
 10
45.3651032817
 20
94.3681045149
 30
0.0
 10
43.9433656799
 20
93.7445503281
 30
0.0
 10
42.4314127199
 20
93.1967294913
 30
0.0
 10
41.385489223
 20
92.8889687488
 30
0.0
 10
40.8506815151
 20
92.7481510791
 30
0.0
  0
SPLINE
  5
3DC
100
AcDbEntity
  8
0
100
AcDbSpline
 62
7
  6
CONTINUOUS
 70
0
 71
3
 72
12
 73
8
 74
0
 42
0.0000001
 43
0.0000001
 44
0.0000000001
 40
0.0
 40
0.0
 40
0.0
 40
0.0
 40
0.2371663695
 40
0.4998150096
 40
0.762400329
 40
0.8857849831
 40
1.0
 40
1.0
 40
1.0
 40
1.0
 10
102.7295710804
 20
91.2350688784
 30
0.0
 10
102.7294668477
 20
91.4090227569
 30
0.0
 10
102.6639894852
 20
91.7758923802
 30
0.0
 10
102.4366546927
 20
92.2908508912
 30
0.0
 10
102.1526087023
 20
92.6785728644
 30
0.0
 10
101.8839796932
 20
92.9296463245
 30
0.0
 10
101.7405192473
 20
93.0301188149
 30
0.0
 10
101.6678758756
 20
93.071842471
 30
0.0
  0
SPLINE
  5
3DD
100
AcDbEntity
  8
0
100
AcDbSpline
 62
7
  6
CONTINUOUS
 70
0
 71
3
 72
9
 73
5
 74
0
 42
0.0000001
 43
0.0000001
 44
0.0000000001
 40
0.0
 40
0.0
 40
0.0
 40
0.0
 40
0.242873317
 40
1.0
 40
1.0
 40
1.0
 40
1.0
 10
93.5522687515
 20
98.1540167355
 30
0.0
 10
93.5366607375
 20
98.5711348872
 30
0.0
 10
93.4403016877
 20
100.287296325
 30
0.0
 10
93.2206901419
 20
101.9958627447
 30
0.0
 10
92.9958171851
 20
103.2775073658
 30
0.0
  0
SPLINE
  5
3DE
100
AcDbEntity
  8
0
100
AcDbSpline
 62
7
  6
CONTINUOUS
 70
0
 71
3
 72
9
 73
5
 74
0
 42
0.0000001
 43
0.0000001
 44
0.0000000001
 40
0.0
 40
0.0
 40
0.0
 40
0.0
 40
0.2435876586
 40
1.0
 40
1.0
 40
1.0
 40
1.0
 10
92.9958171851
 20
103.2775073658
 30
0.0
 10
92.981212733
 20
103.36074422
 30
0.0
 10
92.9143920537
 20
103.7012331081
 30
0.0
 10
92.8212181854
 20
104.0364108278
 30
0.0
 10
92.7382144287
 20
104.2853617601
 30
0.0
  0
SPLINE
  5
3DF
100
AcDbEntity
  8
0
100
AcDbSpline
 62
7
  6
CONTINUOUS
 70
0
 71
3
 72
11
 73
7
 74
0
 42
0.0000001
 43
0.0000001
 44
0.0000000001
 40
0.0
 40
0.0
 40
0.0
 40
0.0
 40
0.2895456361
 40
0.5491148988
 40
0.7822517802
 40
1.0
 40
1.0
 40
1.0
 40
1.0
 10
62.4894079979
 20
121.4066445143
 30
0.0
 10
62.445553729
 20
121.4319632154
 30
0.0
 10
62.3582434552
 20
121.4734452911
 30
0.0
 10
62.2240988269
 20
121.5059107918
 30
0.0
 10
62.098168384
 20
121.5027487063
 30
0.0
 10
62.0224182013
 20
121.4751607011
 30
0.0
 10
61.9894375673
 20
121.4561214263
 30
0.0
  0
SPLINE
  5
3E0
100
AcDbEntity
  8
0
100
AcDbSpline
 62
7
  6
CONTINUOUS
 70
0
 71
3
 72
11
 73
7
 74
0
 42
0.0000001
 43
0.0000001
 44
0.0000000001
 40
0.0
 40
0.0
 40
0.0
 40
0.0
 40
0.2178243266
 40
0.4509918661
 40
0.7103146062
 40
1.0
 40
1.0
 40
1.0
 40
1.0
 10
87.0787884557
 20
92.6289096541
 30
0.0
 10
87.0786615985
 20
92.5037977484
 30
0.0
 10
87.1246894149
 20
92.2429883752
 30
0.0
 10
87.321976384
 20
91.879517594
 30
0.0
 10
87.6340764328
 20
91.5508182068
 30
0.0
 10
87.8953449429
 20
91.3705687037
 30
0.0
 10
88.0393713865
 20
91.2872561735
 30
0.0
  0
SPLINE
  5
3E1
100
AcDbEntity
  8
0
100
AcDbSpline
 62
7
  6
CONTINUOUS
 70
0
 71
3
 72
18
 73
14
 74
0
 42
0.0000001
 43
0.0000001
 44
0.0000000001
 40
0.0
 40
0.0
 40
0.0
 40
0.0
 40
0.1286744653
 40
0.2702094728
 40
0.4172972516
 40
0.561569535
 40
0.6951798269
 40
0.7561805941
 40
0.8126737728
 40
0.8646368925
 40
0.9124759363
 40
0.957120473
 40
1.0
 40
1.0
 40
1.0
 40
1.0
 10
88.0393713865
 20
91.2872561735
 30
0.0
 10
88.2820685304
 20
91.1468672795
 30
0.0
 10
88.8315696106
 20
90.9195854339
 30
0.0
 10
89.7272208441
 20
90.7396705928
 30
0.0
 10
90.6747343102
 20
90.7128314685
 30
0.0
 10
91.5959927009
 20
90.841670209
 30
0.0
 10
92.3020693978
 20
91.0771934146
 30
0.0
 10
92.7839810353
 20
91.3390134163
 30
0.0
 10
93.083179549
 20
91.5575750774
 30
0.0
 10
93.3247293511
 20
91.7999624181
 30
0.0
 10
93.5029256874
 20
92.062037604
 30
0.0
 10
93.6129290228
 20
92.3384788859
 30
0.0
 10
93.6379991707
 20
92.5299851488
 30
0.0
 10
93.6380939068
 20
92.623417849
 30
0.0
  0
SPLINE
  5
3E2
100
AcDbEntity
  8
0
100
AcDbSpline
 62
7
  6
CONTINUOUS
 70
0
 71
3
 72
9
 73
5
 74
0
 42
0.0000001
 43
0.0000001
 44
0.0000000001
 40
0.0
 40
0.0
 40
0.0
 40
0.0
 40
0.2526625875
 40
1.0
 40
1.0
 40
1.0
 40
1.0
 10
49.7929201052
 20
114.4013569042
 30
0.0
 10
49.7981765883
 20
114.4065718466
 30
0.0
 10
49.8196203378
 20
114.4265563224
 30
0.0
 10
49.843639141
 20
114.4437844522
 30
0.0
 10
49.8626067578
 20
114.4547341882
 30
0.0
  0
SPLINE
  5
3E3
100
AcDbEntity
  8
0
100
AcDbSpline
 62
7
  6
CONTINUOUS
 70
0
 71
3
 72
18
 73
14
 74
0
 42
0.0000001
 43
0.0000001
 44
0.0000000001
 40
0.0
 40
0.0
 40
0.0
 40
0.0
 40
0.1286744653
 40
0.2702094728
 40
0.4172972516
 40
0.561569535
 40
0.6951798269
 40
0.7561805941
 40
0.8126737728
 40
0.8646368925
 40
0.9124759363
 40
0.957120473
 40
1.0
 40
1.0
 40
1.0
 40
1.0
 10
92.6775109759
 20
93.9650713296
 30
0.0
 10
92.4348138321
 20
94.1054602236
 30
0.0
 10
91.8853127519
 20
94.3327420692
 30
0.0
 10
90.9896615184
 20
94.5126569103
 30
0.0
 10
90.0421480522
 20
94.5394960346
 30
0.0
 10
89.1208896616
 20
94.4106572941
 30
0.0
 10
88.4148129647
 20
94.1751340885
 30
0.0
 10
87.9329013272
 20
93.9133140868
 30
0.0
 10
87.6337028134
 20
93.6947524256
 30
0.0
 10
87.3921530113
 20
93.452365085
 30
0.0
 10
87.2139566751
 20
93.190289899
 30
0.0
 10
87.1039533397
 20
92.9138486172
 30
0.0
 10
87.0788831917
 20
92.7223423543
 30
0.0
 10
87.0787884557
 20
92.6289096541
 30
0.0
  0
SPLINE
  5
3E4
100
AcDbEntity
  8
0
100
AcDbSpline
 62
7
  6
CONTINUOUS
 70
0
 71
3
 72
11
 73
7
 74
0
 42
0.0000001
 43
0.0000001
 44
0.0000000001
 40
0.0
 40
0.0
 40
0.0
 40
0.0
 40
0.2178243266
 40
0.4509918661
 40
0.7103146062
 40
1.0
 40
1.0
 40
1.0
 40
1.0
 10
93.6380939068
 20
92.623417849
 30
0.0
 10
93.638220764
 20
92.7485297547
 30
0.0
 10
93.5921929475
 20
93.0093391279
 30
0.0
 10
93.3949059784
 20
93.3728099091
 30
0.0
 10
93.0828059297
 20
93.7015092963
 30
0.0
 10
92.8215374195
 20
93.8817587994
 30
0.0
 10
92.6775109759
 20
93.9650713296
 30
0.0
  0
SPLINE
  5
3E5
100
AcDbEntity
  8
0
100
AcDbSpline
 62
7
  6
CONTINUOUS
 70
0
 71
3
 72
9
 73
5
 74
0
 42
0.0000001
 43
0.0000001
 44
0.0000000001
 40
0.0
 40
0.0
 40
0.0
 40
0.0
 40
0.2561343922
 40
1.0
 40
1.0
 40
1.0
 40
1.0
 10
80.6113836204
 20
97.2839745212
 30
0.0
 10
80.6394896556
 20
97.199676847
 30
0.0
 10
80.7435153691
 20
96.8687068845
 30
0.0
 10
80.8243882095
 20
96.5303036542
 30
0.0
 10
80.8689863769
 20
96.276120127
 30
0.0
  0
SPLINE
  5
3E6
100
AcDbEntity
  8
0
100
AcDbSpline
 62
7
  6
CONTINUOUS
 70
0
 71
3
 72
9
 73
5
 74
0
 42
0.0000001
 43
0.0000001
 44
0.0000000001
 40
0.0
 40
0.0
 40
0.0
 40
0.0
 40
0.2570535834
 40
1.0
 40
1.0
 40
1.0
 40
1.0
 10
80.8689863769
 20
96.276120127
 30
0.0
 10
80.9453323864
 20
95.8409924268
 30
0.0
 10
81.2157382831
 20
94.1437758509
 30
0.0
 10
81.3776937786
 20
92.4285532739
 30
0.0
 10
81.4254378373
 20
91.1526117259
 30
0.0
  0
SPLINE
  5
3E7
100
AcDbEntity
  8
0
100
AcDbSpline
 62
7
  6
CONTINUOUS
 70
0
 71
3
 72
12
 73
8
 74
0
 42
0.0000001
 43
0.0000001
 44
0.0000000001
 40
0.0
 40
0.0
 40
0.0
 40
0.0
 40
0.1142150303
 40
0.237599679
 40
0.500184961
 40
0.7628335791
 40
1.0
 40
1.0
 40
1.0
 40
1.0
 10
89.5410457945
 20
86.0704548144
 30
0.0
 10
89.6136890763
 20
86.0287311508
 30
0.0
 10
89.7571493379
 20
85.9282586986
 30
0.0
 10
90.0257780047
 20
85.6771854472
 30
0.0
 10
90.3098236796
 20
85.2894639152
 30
0.0
 10
90.5371583635
 20
84.7745059866
 30
0.0
 10
90.6026358662
 20
84.40763677
 30
0.0
 10
90.6027402713
 20
84.2336830284
 30
0.0
  0
SPLINE
  5
3E8
100
AcDbEntity
  8
0
100
AcDbSpline
 62
7
  6
CONTINUOUS
 70
0
 71
3
 72
11
 73
7
 74
0
 42
0.0000001
 43
0.0000001
 44
0.0000000001
 40
0.0
 40
0.0
 40
0.0
 40
0.0
 40
0.2177483561
 40
0.450885262
 40
0.7104543308
 40
1.0
 40
1.0
 40
1.0
 40
1.0
 10
49.8626067578
 20
114.4547341882
 30
0.0
 10
49.8955874227
 20
114.4737734581
 30
0.0
 10
49.9713376239
 20
114.5013614985
 30
0.0
 10
50.0972680658
 20
114.5045235249
 30
0.0
 10
50.2314126854
 20
114.4720580977
 30
0.0
 10
50.3187229151
 20
114.4305759798
 30
0.0
 10
50.3625771896
 20
114.4052572754
 30
0.0
  0
SPLINE
  5
3E9
100
AcDbEntity
  8
0
100
AcDbSpline
 62
7
  6
CONTINUOUS
 70
0
 71
3
 72
12
 73
8
 74
0
 42
0.0000001
 43
0.0000001
 44
0.0000000001
 40
0.0
 40
0.0
 40
0.0
 40
0.0
 40
0.2371753034
 40
0.4998272693
 40
0.7624092231
 40
0.8857899606
 40
1.0
 40
1.0
 40
1.0
 40
1.0
 10
90.3559419419
 20
84.0924966984
 30
0.0
 10
90.3558230543
 20
84.2664571236
 30
0.0
 10
90.2903200302
 20
84.6333305135
 30
0.0
 10
90.0629545328
 20
85.1482825484
 30
0.0
 10
89.7788889081
 20
85.5359868508
 30
0.0
 10
89.5102501056
 20
85.7870368256
 30
0.0
 10
89.366787328
 20
85.8874948219
 30
0.0
 10
89.2941435953
 20
85.9292105218
 30
0.0
  0
SPLINE
  5
3EA
100
AcDbEntity
  8
0
100
AcDbSpline
 62
7
  6
CONTINUOUS
 70
0
 71
3
 72
9
 73
5
 74
0
 42
0.0000001
 43
0.0000001
 44
0.0000000001
 40
0.0
 40
0.0
 40
0.0
 40
0.0
 40
0.2428742441
 40
1.0
 40
1.0
 40
1.0
 40
1.0
 10
81.1785030718
 20
91.0104920526
 30
0.0
 10
81.1628606801
 20
91.4276278112
 30
0.0
 10
81.0663621218
 20
93.1438526606
 30
0.0
 10
80.8466176976
 20
94.8524732751
 30
0.0
 10
80.6216467623
 20
96.1341538006
 30
0.0
  0
SPLINE
  5
3EB
100
AcDbEntity
  8
0
100
AcDbSpline
 62
7
  6
CONTINUOUS
 70
0
 71
3
 72
9
 73
5
 74
0
 42
0.0000001
 43
0.0000001
 44
0.0000000001
 40
0.0
 40
0.0
 40
0.0
 40
0.0
 40
0.2435889546
 40
1.0
 40
1.0
 40
1.0
 40
1.0
 10
80.6216467623
 20
96.1341538006
 30
0.0
 10
80.6070360306
 20
96.21739251
 30
0.0
 10
80.540190285
 20
96.5578867732
 30
0.0
 10
80.4469927427
 20
96.8930683237
 30
0.0
 10
80.363971597
 20
97.1420210463
 30
0.0
  0
SPLINE
  5
3EC
100
AcDbEntity
  8
0
100
AcDbSpline
 62
7
  6
CONTINUOUS
 70
0
 71
3
 72
11
 73
7
 74
0
 42
0.0000001
 43
0.0000001
 44
0.0000000001
 40
0.0
 40
0.0
 40
0.0
 40
0.0
 40
0.2895399866
 40
0.5491072592
 40
0.7822464404
 40
1.0
 40
1.0
 40
1.0
 40
1.0
 10
50.1151941746
 20
114.2598877584
 30
0.0
 10
50.0713452302
 20
114.2851984578
 30
0.0
 10
49.9840459109
 20
114.3266664546
 30
0.0
 10
49.8499200618
 20
114.3591167511
 30
0.0
 10
49.7240080697
 20
114.3559477363
 30
0.0
 10
49.6482690206
 20
114.3283618502
 30
0.0
 10
49.6152925627
 20
114.3093249416
 30
0.0
  0
SPLINE
  5
3ED
100
AcDbEntity
  8
0
100
AcDbSpline
 62
7
  6
CONTINUOUS
 70
0
 71
3
 72
11
 73
7
 74
0
 42
0.0000001
 43
0.0000001
 44
0.0000000001
 40
0.0
 40
0.0
 40
0.0
 40
0.0
 40
0.2178197914
 40
0.450984968
 40
0.7103090047
 40
1.0
 40
1.0
 40
1.0
 40
1.0
 10
74.7050554683
 20
85.4854097812
 30
0.0
 10
74.7049391827
 20
85.360317553
 30
0.0
 10
74.7509839453
 20
85.0995516222
 30
0.0
 10
74.9482786672
 20
84.7361529016
 30
0.0
 10
75.260369933
 20
84.4075271629
 30
0.0
 10
75.521622059
 20
84.2273236113
 30
0.0
 10
75.6656386355
 20
84.1440329731
 30
0.0
  0
SPLINE
  5
3EE
100
AcDbEntity
  8
0
100
AcDbSpline
 62
7
  6
CONTINUOUS
 70
0
 71
3
 72
18
 73
14
 74
0
 42
0.0000001
 43
0.0000001
 44
0.0000000001
 40
0.0
 40
0.0
 40
0.0
 40
0.0
 40
0.1286728861
 40
0.2702091422
 40
0.4172999607
 40
0.561575754
 40
0.6951885872
 40
0.7561898146
 40
0.8126827149
 40
0.8646447207
 40
0.9124817933
 40
0.9571236201
 40
1.0
 40
1.0
 40
1.0
 40
1.0
 10
75.6656386355
 20
84.1440329731
 30
0.0
 10
75.9083443079
 20
84.0036664205
 30
0.0
 10
76.457863862
 20
83.7764333364
 30
0.0
 10
77.3535335205
 20
83.5965892594
 30
0.0
 10
78.3010640022
 20
83.5698143872
 30
0.0
 10
79.222333125
 20
83.6987057651
 30
0.0
 10
79.9284124976
 20
83.9342604956
 30
0.0
 10
80.4103211466
 20
84.1960967155
 30
0.0
 10
80.7095124088
 20
84.4146639139
 30
0.0
 10
80.9510514686
 20
84.657050955
 30
0.0
 10
81.1292335909
 20
84.9191201842
 30
0.0
 10
81.2392190714
 20
85.195550127
 30
0.0
 10
81.2642745436
 20
85.3870455914
 30
0.0
 10
81.2643613921
 20
85.480471321
 30
0.0
  0
SPLINE
  5
3EF
100
AcDbEntity
  8
0
100
AcDbSpline
 62
7
  6
CONTINUOUS
 70
0
 71
3
 72
9
 73
5
 74
0
 42
0.0000001
 43
0.0000001
 44
0.0000000001
 40
0.0
 40
0.0
 40
0.0
 40
0.0
 40
0.2526659709
 40
1.0
 40
1.0
 40
1.0
 40
1.0
 10
37.4187343326
 20
107.2545199383
 30
0.0
 10
37.423993467
 20
107.259739194
 30
0.0
 10
37.4454483163
 20
107.2797397603
 30
0.0
 10
37.4694818842
 20
107.2969808687
 30
0.0
 10
37.4884617532
 20
107.3079377034
 30
0.0
  0
SPLINE
  5
3F0
100
AcDbEntity
  8
0
100
AcDbSpline
 62
7
  6
CONTINUOUS
 70
0
 71
3
 72
18
 73
14
 74
0
 42
0.0000001
 43
0.0000001
 44
0.0000000001
 40
0.0
 40
0.0
 40
0.0
 40
0.0
 40
0.1286728861
 40
0.2702091422
 40
0.4172999607
 40
0.561575754
 40
0.6951885872
 40
0.7561898146
 40
0.8126827149
 40
0.8646447207
 40
0.9124817933
 40
0.9571236201
 40
1.0
 40
1.0
 40
1.0
 40
1.0
 10
80.3037782249
 20
86.8218481292
 30
0.0
 10
80.0610725525
 20
86.9622146818
 30
0.0
 10
79.5115529985
 20
87.1894477658
 30
0.0
 10
78.6158833399
 20
87.3692918428
 30
0.0
 10
77.6683528582
 20
87.3960667151
 30
0.0
 10
76.7470837354
 20
87.2671753372
 30
0.0
 10
76.0410043629
 20
87.0316206066
 30
0.0
 10
75.5590957138
 20
86.7697843868
 30
0.0
 10
75.2599044516
 20
86.5512171884
 30
0.0
 10
75.0183653918
 20
86.3088301472
 30
0.0
 10
74.8401832695
 20
86.046760918
 30
0.0
 10
74.7301977891
 20
85.7703309752
 30
0.0
 10
74.7051423168
 20
85.5788355109
 30
0.0
 10
74.7050554683
 20
85.4854097812
 30
0.0
  0
SPLINE
  5
3F1
100
AcDbEntity
  8
0
100
AcDbSpline
 62
7
  6
CONTINUOUS
 70
0
 71
3
 72
11
 73
7
 74
0
 42
0.0000001
 43
0.0000001
 44
0.0000000001
 40
0.0
 40
0.0
 40
0.0
 40
0.0
 40
0.2178197914
 40
0.450984968
 40
0.7103090047
 40
1.0
 40
1.0
 40
1.0
 40
1.0
 10
81.2643613921
 20
85.480471321
 30
0.0
 10
81.2644776777
 20
85.6055635493
 30
0.0
 10
81.2184329151
 20
85.86632948
 30
0.0
 10
81.0211381932
 20
86.2297282006
 30
0.0
 10
80.7090469274
 20
86.5583539393
 30
0.0
 10
80.4477948014
 20
86.7385574909
 30
0.0
 10
80.3037782249
 20
86.8218481292
 30
0.0
  0
SPLINE
  5
3F2
100
AcDbEntity
  8
0
100
AcDbSpline
 62
7
  6
CONTINUOUS
 70
0
 71
3
 72
9
 73
5
 74
0
 42
0.0000001
 43
0.0000001
 44
0.0000000001
 40
0.0
 40
0.0
 40
0.0
 40
0.0
 40
0.2561330362
 40
1.0
 40
1.0
 40
1.0
 40
1.0
 10
68.2371407888
 20
90.1406338074
 30
0.0
 10
68.2652526115
 20
90.0563358284
 30
0.0
 10
68.3693016923
 20
89.7253626054
 30
0.0
 10
68.4501987662
 20
89.3869548667
 30
0.0
 10
68.494815954
 20
89.1327665618
 30
0.0
  0
SPLINE
  5
3F3
100
AcDbEntity
  8
0
100
AcDbSpline
 62
7
  6
CONTINUOUS
 70
0
 71
3
 72
9
 73
5
 74
0
 42
0.0000001
 43
0.0000001
 44
0.0000000001
 40
0.0
 40
0.0
 40
0.0
 40
0.0
 40
0.2570525851
 40
1.0
 40
1.0
 40
1.0
 40
1.0
 10
68.494815954
 20
89.1327665618
 30
0.0
 10
68.5711950253
 20
88.6976278267
 30
0.0
 10
68.8417317949
 20
87.0003600062
 30
0.0
 10
69.0038230589
 20
85.2850792989
 30
0.0
 10
69.0516721592
 20
84.009087042
 30
0.0
  0
SPLINE
  5
3F4
100
AcDbEntity
  8
0
100
AcDbSpline
 62
7
  6
CONTINUOUS
 70
0
 71
3
 72
12
 73
8
 74
0
 42
0.0000001
 43
0.0000001
 44
0.0000000001
 40
0.0
 40
0.0
 40
0.0
 40
0.0
 40
0.1142100528
 40
0.2375907849
 40
0.5001727014
 40
0.7628246453
 40
1.0
 40
1.0
 40
1.0
 40
1.0
 10
77.1673135142
 20
78.9278228653
 30
0.0
 10
77.2399571571
 20
78.8861071579
 30
0.0
 10
77.3834197503
 20
78.7856491997
 30
0.0
 10
77.6520582105
 20
78.5345994336
 30
0.0
 10
77.9361235197
 20
78.1468955724
 30
0.0
 10
78.1634889085
 20
77.63194412
 30
0.0
 10
78.2289920727
 20
77.2650711366
 30
0.0
 10
78.2291111327
 20
77.0911108485
 30
0.0
  0
SPLINE
  5
3F5
100
AcDbEntity
  8
0
100
AcDbSpline
 62
7
  6
CONTINUOUS
 70
0
 71
3
 72
11
 73
7
 74
0
 42
0.0000001
 43
0.0000001
 44
0.0000000001
 40
0.0
 40
0.0
 40
0.0
 40
0.0
 40
0.2177536959
 40
0.4508929016
 40
0.7104599803
 40
1.0
 40
1.0
 40
1.0
 40
1.0
 10
37.4884617532
 20
107.3079377034
 30
0.0
 10
37.5214382421
 20
107.3269746072
 30
0.0
 10
37.5971773096
 20
107.3545605286
 30
0.0
 10
37.7230893006
 20
107.3577294842
 30
0.0
 10
37.857215141
 20
107.3252792612
 30
0.0
 10
37.9445144163
 20
107.2838112222
 30
0.0
 10
37.9883633663
 20
107.2585005195
 30
0.0
  0
SPLINE
  5
3F6
100
AcDbEntity
  8
0
100
AcDbSpline
 62
7
  6
CONTINUOUS
 70
0
 71
3
 72
12
 73
8
 74
0
 42
0.0000001
 43
0.0000001
 44
0.0000000001
 40
0.0
 40
0.0
 40
0.0
 40
0.0
 40
0.2371753034
 40
0.4998272693
 40
0.7624092231
 40
0.8857899606
 40
1.0
 40
1.0
 40
1.0
 40
1.0
 10
77.9816247907
 20
76.9482240057
 30
0.0
 10
77.981505903
 20
77.1221844308
 30
0.0
 10
77.916002879
 20
77.4890578207
 30
0.0
 10
77.6886373816
 20
78.0040098556
 30
0.0
 10
77.4045717568
 20
78.3917141581
 30
0.0
 10
77.1359329544
 20
78.6427641328
 30
0.0
 10
76.9924701768
 20
78.7432221292
 30
0.0
 10
76.919826444
 20
78.784937829
 30
0.0
  0
SPLINE
  5
3F7
100
AcDbEntity
  8
0
100
AcDbSpline
 62
7
  6
CONTINUOUS
 70
0
 71
3
 72
9
 73
5
 74
0
 42
0.0000001
 43
0.0000001
 44
0.0000000001
 40
0.0
 40
0.0
 40
0.0
 40
0.0
 40
0.2428742441
 40
1.0
 40
1.0
 40
1.0
 40
1.0
 10
68.8041859206
 20
83.8662193599
 30
0.0
 10
68.7885435289
 20
84.2833551184
 30
0.0
 10
68.6920449706
 20
85.9995799679
 30
0.0
 10
68.4723005464
 20
87.7082005823
 30
0.0
 10
68.247329611
 20
88.9898811079
 30
0.0
  0
SPLINE
  5
3F8
100
AcDbEntity
  8
0
100
AcDbSpline
 62
7
  6
CONTINUOUS
 70
0
 71
3
 72
9
 73
5
 74
0
 42
0.0000001
 43
0.0000001
 44
0.0000000001
 40
0.0
 40
0.0
 40
0.0
 40
0.0
 40
0.2435889546
 40
1.0
 40
1.0
 40
1.0
 40
1.0
 10
68.247329611
 20
88.9898811079
 30
0.0
 10
68.2327188793
 20
89.0731198172
 30
0.0
 10
68.1658731338
 20
89.4136140804
 30
0.0
 10
68.0726755914
 20
89.7487956309
 30
0.0
 10
67.9896544458
 20
89.9977483536
 30
0.0
  0
SPLINE
  5
3F9
100
AcDbEntity
  8
0
100
AcDbSpline
 62
7
  6
CONTINUOUS
 70
0
 71
3
 72
11
 73
7
 74
0
 42
0.0000001
 43
0.0000001
 44
0.0000000001
 40
0.0
 40
0.0
 40
0.0
 40
0.0
 40
0.2895399866
 40
0.5491072592
 40
0.7822464404
 40
1.0
 40
1.0
 40
1.0
 40
1.0
 10
37.7408770233
 20
107.1156150656
 30
0.0
 10
37.697028079
 20
107.1409257651
 30
0.0
 10
37.6097287596
 20
107.1823937619
 30
0.0
 10
37.4756029105
 20
107.2148440584
 30
0.0
 10
37.3496909185
 20
107.2116750436
 30
0.0
 10
37.2739518693
 20
107.1840891574
 30
0.0
 10
37.2409754115
 20
107.1650522488
 30
0.0
  0
SPLINE
  5
3FA
100
AcDbEntity
  8
0
100
AcDbSpline
 62
7
  6
CONTINUOUS
 70
0
 71
3
 72
11
 73
7
 74
0
 42
0.0000001
 43
0.0000001
 44
0.0000000001
 40
0.0
 40
0.0
 40
0.0
 40
0.0
 40
0.2177186397
 40
0.4508653847
 40
0.7104626768
 40
1.0
 40
1.0
 40
1.0
 40
1.0
 10
31.0375008801
 20
93.9567775952
 30
0.0
 10
31.0704828272
 20
93.9758179624
 30
0.0
 10
31.132244994
 20
94.0276497203
 30
0.0
 10
31.1979647285
 20
94.1351433498
 30
0.0
 10
31.2369126165
 20
94.2675848082
 30
0.0
 10
31.244638894
 20
94.3639591985
 30
0.0
 10
31.2446346257
 20
94.4146051244
 30
0.0
  0
SPLINE
  5
3FB
100
AcDbEntity
  8
0
100
AcDbSpline
 62
7
  6
CONTINUOUS
 70
0
 71
3
 72
13
 73
9
 74
0
 42
0.0000001
 43
0.0000001
 44
0.0000000001
 40
0.0
 40
0.0
 40
0.0
 40
0.0
 40
0.089325544
 40
0.1859612256
 40
0.294706381
 40
0.4172219472
 40
0.6966769981
 40
1.0
 40
1.0
 40
1.0
 40
1.0
 10
51.3488263324
 20
44.3796917007
 30
0.0
 10
51.3262561677
 20
44.3666935435
 30
0.0
 10
51.273659813
 20
44.3484963466
 30
0.0
 10
51.1864027827
 20
44.3501111874
 30
0.0
 10
51.0939349843
 20
44.3777968105
 30
0.0
 10
50.9627545867
 20
44.4500775109
 30
0.0
 10
50.8119196313
 20
44.5944355521
 30
0.0
 10
50.7197770537
 20
44.739278139
 30
0.0
 10
50.6820139773
 20
44.8192533415
 30
0.0
  0
SPLINE
  5
3FC
100
AcDbEntity
  8
0
100
AcDbSpline
 62
7
  6
CONTINUOUS
 70
0
 71
3
 72
11
 73
7
 74
0
 42
0.0000001
 43
0.0000001
 44
0.0000000001
 40
0.0
 40
0.0
 40
0.0
 40
0.0
 40
0.2178197914
 40
0.450984968
 40
0.7103090047
 40
1.0
 40
1.0
 40
1.0
 40
1.0
 10
62.3307383171
 20
78.3411370885
 30
0.0
 10
62.3306220315
 20
78.2160448602
 30
0.0
 10
62.3766667941
 20
77.9552789295
 30
0.0
 10
62.573961516
 20
77.5918802089
 30
0.0
 10
62.8860527818
 20
77.2632544702
 30
0.0
 10
63.1473049078
 20
77.0830509186
 30
0.0
 10
63.2913214843
 20
76.9997602803
 30
0.0
  0
SPLINE
  5
3FD
100
AcDbEntity
  8
0
100
AcDbSpline
 62
7
  6
CONTINUOUS
 70
0
 71
3
 72
18
 73
14
 74
0
 42
0.0000001
 43
0.0000001
 44
0.0000000001
 40
0.0
 40
0.0
 40
0.0
 40
0.0
 40
0.1286728861
 40
0.2702091422
 40
0.4172999607
 40
0.561575754
 40
0.6951885872
 40
0.7561898146
 40
0.8126827149
 40
0.8646447207
 40
0.9124817933
 40
0.9571236201
 40
1.0
 40
1.0
 40
1.0
 40
1.0
 10
63.2913214843
 20
76.9997602803
 30
0.0
 10
63.5340271566
 20
76.8593937277
 30
0.0
 10
64.0835467107
 20
76.6321606437
 30
0.0
 10
64.9792163692
 20
76.4523165667
 30
0.0
 10
65.926746851
 20
76.4255416944
 30
0.0
 10
66.8480159738
 20
76.5544330723
 30
0.0
 10
67.5540953463
 20
76.7899878029
 30
0.0
 10
68.0360039954
 20
77.0518240227
 30
0.0
 10
68.3351952575
 20
77.2703912211
 30
0.0
 10
68.5767343174
 20
77.5127782623
 30
0.0
 10
68.7549164397
 20
77.7748474915
 30
0.0
 10
68.8649019201
 20
78.0512774342
 30
0.0
 10
68.8899573924
 20
78.2427728986
 30
0.0
 10
68.8900442408
 20
78.3361986283
 30
0.0
  0
SPLINE
  5
3FE
100
AcDbEntity
  8
0
100
AcDbSpline
 62
7
  6
CONTINUOUS
 70
0
 71
3
 72
16
 73
12
 74
0
 42
0.0000001
 43
0.0000001
 44
0.0000000001
 40
0.0
 40
0.0
 40
0.0
 40
0.0
 40
0.1287455201
 40
0.2704282594
 40
0.4176323783
 40
0.5620319506
 40
0.6957551624
 40
0.813068203
 40
0.9124707659
 40
0.9571205122
 40
1.0
 40
1.0
 40
1.0
 40
1.0
 10
31.2446346257
 20
94.4146051244
 30
0.0
 10
31.2446274222
 20
94.50007637
 30
0.0
 10
31.2206849854
 20
94.6798074606
 30
0.0
 10
31.1314541443
 20
94.9436939908
 30
0.0
 10
30.9938644081
 20
95.1978768537
 30
0.0
 10
30.8192268154
 20
95.4215175434
 30
0.0
 10
30.6212275973
 20
95.5966249078
 30
0.0
 10
30.4152459385
 20
95.7096127651
 30
0.0
 10
30.2404011127
 20
95.7437177488
 30
0.0
 10
30.1165262742
 20
95.7256243017
 30
0.0
 10
30.0622024066
 20
95.7029876025
 30
0.0
 10
30.0375489276
 20
95.6887552319
 30
0.0
  0
SPLINE
  5
3FF
100
AcDbEntity
  8
0
100
AcDbSpline
 62
7
  6
CONTINUOUS
 70
0
 71
3
 72
11
 73
7
 74
0
 42
0.0000001
 43
0.0000001
 44
0.0000000001
 40
0.0
 40
0.0
 40
0.0
 40
0.0
 40
0.2890431211
 40
0.5484367095
 40
0.7817784933
 40
1.0
 40
1.0
 40
1.0
 40
1.0
 10
24.9070316345
 20
99.7129570143
 30
0.0
 10
24.9074059988
 20
99.762833932
 30
0.0
 10
24.9157242455
 20
99.8577273433
 30
0.0
 10
24.9550066151
 20
99.9880252718
 30
0.0
 10
25.0204199455
 20
100.0937873229
 30
0.0
 10
25.0815317146
 20
100.1448380094
 30
0.0
 10
25.114144602
 20
100.1636650107
 30
0.0
  0
SPLINE
  5
400
100
AcDbEntity
  8
0
100
AcDbSpline
 62
7
  6
CONTINUOUS
 70
0
 71
3
 72
15
 73
11
 74
0
 42
0.0000001
 43
0.0000001
 44
0.0000000001
 40
0.0
 40
0.0
 40
0.0
 40
0.0
 40
0.1465200474
 40
0.2882575171
 40
0.4241903465
 40
0.5535982994
 40
0.6759365039
 40
0.7909593211
 40
0.8988155174
 40
1.0
 40
1.0
 40
1.0
 40
1.0
 10
46.6275054824
 20
47.159616319
 30
0.0
 10
46.0862746947
 20
47.7737481761
 30
0.0
 10
44.9793989174
 20
48.9457667994
 30
0.0
 10
43.2278899076
 20
50.5455069748
 30
0.0
 10
41.4297813746
 20
51.9423739328
 30
0.0
 10
39.6076587344
 20
53.1189016954
 30
0.0
 10
37.7835806975
 20
54.0602416408
 30
0.0
 10
35.9794634374
 20
54.754582257
 30
0.0
 10
34.2175949291
 20
55.1921691962
 30
0.0
 10
33.050506601
 20
55.3117064538
 30
0.0
 10
32.4853110465
 20
55.3228421012
 30
0.0
  0
SPLINE
  5
401
100
AcDbEntity
  8
0
100
AcDbSpline
 62
7
  6
CONTINUOUS
 70
0
 71
3
 72
18
 73
14
 74
0
 42
0.0000001
 43
0.0000001
 44
0.0000000001
 40
0.0
 40
0.0
 40
0.0
 40
0.0
 40
0.1286728861
 40
0.2702091422
 40
0.4172999607
 40
0.561575754
 40
0.6951885872
 40
0.7561898146
 40
0.8126827149
 40
0.8646447207
 40
0.9124817933
 40
0.9571236201
 40
1.0
 40
1.0
 40
1.0
 40
1.0
 10
67.9294610737
 20
79.6775754364
 30
0.0
 10
67.6867554013
 20
79.817941989
 30
0.0
 10
67.1372358472
 20
80.0451750731
 30
0.0
 10
66.2415661887
 20
80.2250191501
 30
0.0
 10
65.294035707
 20
80.2517940223
 30
0.0
 10
64.3727665841
 20
80.1229026444
 30
0.0
 10
63.6666872116
 20
79.8873479138
 30
0.0
 10
63.1847785626
 20
79.625511694
 30
0.0
 10
62.8855873004
 20
79.4069444956
 30
0.0
 10
62.6440482406
 20
79.1645574545
 30
0.0
 10
62.4658661182
 20
78.9024882252
 30
0.0
 10
62.3558806378
 20
78.6260582825
 30
0.0
 10
62.3308251656
 20
78.4345628181
 30
0.0
 10
62.3307383171
 20
78.3411370885
 30
0.0
  0
SPLINE
  5
402
100
AcDbEntity
  8
0
100
AcDbSpline
 62
7
  6
CONTINUOUS
 70
0
 71
3
 72
11
 73
7
 74
0
 42
0.0000001
 43
0.0000001
 44
0.0000000001
 40
0.0
 40
0.0
 40
0.0
 40
0.0
 40
0.2178197914
 40
0.450984968
 40
0.7103090047
 40
1.0
 40
1.0
 40
1.0
 40
1.0
 10
68.8900442408
 20
78.3361986283
 30
0.0
 10
68.8901605265
 20
78.4612908565
 30
0.0
 10
68.8441157639
 20
78.7220567873
 30
0.0
 10
68.646821042
 20
79.0854555078
 30
0.0
 10
68.3347297761
 20
79.4140812466
 30
0.0
 10
68.0734776502
 20
79.5942847982
 30
0.0
 10
67.9294610737
 20
79.6775754364
 30
0.0
  0
SPLINE
  5
403
100
AcDbEntity
  8
0
100
AcDbSpline
 62
7
  6
CONTINUOUS
 70
0
 71
3
 72
11
 73
7
 74
0
 42
0.0000001
 43
0.0000001
 44
0.0000000001
 40
0.0
 40
0.0
 40
0.0
 40
0.0
 40
0.2215549681
 40
0.4563335146
 40
0.7141395116
 40
1.0
 40
1.0
 40
1.0
 40
1.0
 10
49.2590312632
 20
88.116349814
 30
0.0
 10
49.3492458169
 20
88.1684362874
 30
0.0
 10
49.5535111642
 20
88.2462487775
 30
0.0
 10
49.8925385264
 20
88.2689482742
 30
0.0
 10
50.2554745237
 20
88.2020397659
 30
0.0
 10
50.4939261801
 20
88.1055467985
 30
0.0
 10
50.6142368721
 20
88.0456260743
 30
0.0
  0
SPLINE
  5
404
100
AcDbEntity
  8
0
100
AcDbSpline
 62
7
  6
CONTINUOUS
 70
0
 71
3
 72
16
 73
12
 74
0
 42
0.0000001
 43
0.0000001
 44
0.0000000001
 40
0.0
 40
0.0
 40
0.0
 40
0.0
 40
0.1287455201
 40
0.2704282594
 40
0.4176323783
 40
0.5620319506
 40
0.6957551624
 40
0.813068203
 40
0.9124707659
 40
0.9571205122
 40
1.0
 40
1.0
 40
1.0
 40
1.0
 10
29.8304151821
 20
95.2309277026
 30
0.0
 10
29.8304223855
 20
95.145456457
 30
0.0
 10
29.8543648223
 20
94.9657253665
 30
0.0
 10
29.9435956634
 20
94.7018388363
 30
0.0
 10
30.0811853996
 20
94.4476559734
 30
0.0
 10
30.2558229923
 20
94.2240152836
 30
0.0
 10
30.4538222105
 20
94.0489079193
 30
0.0
 10
30.6598038692
 20
93.9359200619
 30
0.0
 10
30.834648695
 20
93.9018150783
 30
0.0
 10
30.9585235335
 20
93.9199085254
 30
0.0
 10
31.0128474011
 20
93.9425452246
 30
0.0
 10
31.0375008801
 20
93.9567775952
 30
0.0
  0
SPLINE
  5
405
100
AcDbEntity
  8
0
100
AcDbSpline
 62
7
  6
CONTINUOUS
 70
0
 71
3
 72
9
 73
5
 74
0
 42
0.0000001
 43
0.0000001
 44
0.0000000001
 40
0.0
 40
0.0
 40
0.0
 40
0.0
 40
0.2561330362
 40
1.0
 40
1.0
 40
1.0
 40
1.0
 10
55.8628236375
 20
82.9963611147
 30
0.0
 10
55.8909354602
 20
82.9120631356
 30
0.0
 10
55.994984541
 20
82.5810899127
 30
0.0
 10
56.075881615
 20
82.2426821739
 30
0.0
 10
56.1204988028
 20
81.988493869
 30
0.0
  0
SPLINE
  5
406
100
AcDbEntity
  8
0
100
AcDbSpline
 62
7
  6
CONTINUOUS
 70
0
 71
3
 72
9
 73
5
 74
0
 42
0.0000001
 43
0.0000001
 44
0.0000000001
 40
0.0
 40
0.0
 40
0.0
 40
0.0
 40
0.2570525851
 40
1.0
 40
1.0
 40
1.0
 40
1.0
 10
56.1204988028
 20
81.988493869
 30
0.0
 10
56.1968778741
 20
81.5533551339
 30
0.0
 10
56.4674146436
 20
79.8560873134
 30
0.0
 10
56.6295059076
 20
78.1408066062
 30
0.0
 10
56.6773550079
 20
76.8648143493
 30
0.0
  0
SPLINE
  5
407
100
AcDbEntity
  8
0
100
AcDbSpline
 62
7
  6
CONTINUOUS
 70
0
 71
3
 72
12
 73
8
 74
0
 42
0.0000001
 43
0.0000001
 44
0.0000000001
 40
0.0
 40
0.0
 40
0.0
 40
0.0
 40
0.1142100528
 40
0.2375907849
 40
0.5001727014
 40
0.7628246453
 40
1.0
 40
1.0
 40
1.0
 40
1.0
 10
64.792996363
 20
71.7835501726
 30
0.0
 10
64.8656400059
 20
71.7418344652
 30
0.0
 10
65.0091025991
 20
71.641376507
 30
0.0
 10
65.2777410593
 20
71.3903267409
 30
0.0
 10
65.5618063685
 20
71.0026228796
 30
0.0
 10
65.7891717572
 20
70.4876714272
 30
0.0
 10
65.8546749214
 20
70.1207984439
 30
0.0
 10
65.8547939815
 20
69.9468381558
 30
0.0
  0
SPLINE
  5
408
100
AcDbEntity
  8
0
100
AcDbSpline
 62
7
  6
CONTINUOUS
 70
0
 71
3
 72
11
 73
7
 74
0
 42
0.0000001
 43
0.0000001
 44
0.0000000001
 40
0.0
 40
0.0
 40
0.0
 40
0.0
 40
0.2177536959
 40
0.4508929016
 40
0.7104599803
 40
1.0
 40
1.0
 40
1.0
 40
1.0
 10
25.114144602
 20
100.1636650107
 30
0.0
 10
25.1471210908
 20
100.1827019144
 30
0.0
 10
25.2228601584
 20
100.2102878358
 30
0.0
 10
25.3487721494
 20
100.2134567915
 30
0.0
 10
25.4828979898
 20
100.1810065685
 30
0.0
 10
25.5701972651
 20
100.1395385295
 30
0.0
 10
25.6140462151
 20
100.1142278267
 30
0.0
  0
SPLINE
  5
409
100
AcDbEntity
  8
0
100
AcDbSpline
 62
7
  6
CONTINUOUS
 70
0
 71
3
 72
11
 73
7
 74
0
 42
0.0000001
 43
0.0000001
 44
0.0000000001
 40
0.0
 40
0.0
 40
0.0
 40
0.0
 40
0.2177186397
 40
0.4508653847
 40
0.7104626768
 40
1.0
 40
1.0
 40
1.0
 40
1.0
 10
30.0375489276
 20
95.6887552319
 30
0.0
 10
30.0045669805
 20
95.6697148647
 30
0.0
 10
29.9428048137
 20
95.6178831068
 30
0.0
 10
29.8770850792
 20
95.5103894773
 30
0.0
 10
29.8381371912
 20
95.3779480189
 30
0.0
 10
29.8304109137
 20
95.2815736285
 30
0.0
 10
29.8304151821
 20
95.2309277026
 30
0.0
  0
ELLIPSE
  5
40A
100
AcDbEntity
  8
0
100
AcDbEllipse
 62
7
  6
CONTINUOUS
 10
51.1845524547
 20
120.9930877057
 30
0.0
 11
-0.7500537606
 21
1.2990400434
 31
0.0
 40
0.5773567993
 41
-0.7854276015
 42
-0.0000190396
  0
ELLIPSE
  5
40B
100
AcDbEntity
  8
0
100
AcDbEllipse
 62
7
  6
CONTINUOUS
 10
50.4066995658
 20
115.686007844
 30
0.0
 11
3.279674376
 21
-0.000001326
 31
0.0
 40
0.5773420155
 41
6.7104111256
 42
10.5691896209
  0
ELLIPSE
  5
40C
100
AcDbEntity
  8
0
100
AcDbEllipse
 62
7
  6
CONTINUOUS
 10
39.0577216464
 20
113.9917004668
 30
0.0
 11
-0.7500537606
 21
1.2990400434
 31
0.0
 40
0.5773567993
 41
-0.7854276015
 42
0.1778895716
  0
ELLIPSE
  5
40D
100
AcDbEntity
  8
0
100
AcDbEllipse
 62
7
  6
CONTINUOUS
 10
38.810923631
 20
113.8447228251
 30
0.0
 11
-0.7500537579
 21
1.2990400386
 31
0.0
 40
0.5773568036
 41
-0.7853302797
 42
-0.0000190395
  0
ELLIPSE
  5
40E
100
AcDbEntity
  8
0
100
AcDbEllipse
 62
7
  6
CONTINUOUS
 10
38.0329674913
 20
108.5382945618
 30
0.0
 11
3.2796743644
 21
0.0002750812
 31
0.0
 40
0.5772858238
 41
6.7107796353
 42
10.567698966
  0
ELLIPSE
  5
40F
100
AcDbEntity
  8
0
100
AcDbEllipse
 62
7
  6
CONTINUOUS
 10
26.6840928227
 20
106.8433355863
 30
0.0
 11
-0.7500537579
 21
1.2990400386
 31
0.0
 40
0.5773568036
 41
-0.7853302797
 42
0.1669885074
  0
ELLIPSE
  5
410
100
AcDbEntity
  8
0
100
AcDbEllipse
 62
7
  6
CONTINUOUS
 10
26.4366064797
 20
106.7004501324
 30
0.0
 11
-0.7500537579
 21
1.2990400386
 31
0.0
 40
0.5773568036
 41
-0.7853302797
 42
-0.0000190395
  0
ELLIPSE
  5
411
100
AcDbEntity
  8
0
100
AcDbEllipse
 62
7
  6
CONTINUOUS
 10
25.6586503401
 20
101.394021869
 30
0.0
 11
3.2796743644
 21
0.0002750812
 31
0.0
 40
0.5772858238
 41
6.7107796353
 42
10.7595254003
  0
ELLIPSE
  5
412
100
AcDbEntity
  8
0
100
AcDbEllipse
 62
7
  6
CONTINUOUS
 10
14.3097756715
 20
99.6990628935
 30
0.0
 11
-0.7500537579
 21
1.2990400386
 31
0.0
 40
0.5773568036
 41
-0.7853302797
 42
0.7854660471
  0
ENDSEC
  0
SECTION
  2
OBJECTS
  0
DICTIONARY
  5
C
100
AcDbDictionary
280
0
281
1
  3
ACAD_GROUP
350
D
  3
ACAD_MLINESTYLE
350
17
  3
ACAD_LAYOUT
350
1A
  3
ACAD_PLOTSETTINGS
350
19
  3
ACAD_PLOTSTYLENAME
350
E
  0
DICTIONARY
  5
D
102
{ACAD_REACTORS
330
C
102
}
100
AcDbDictionary
280
0
281
1
  0
ACDBDICTIONARYWDFLT
  5
E
102
{ACAD_REACTORS
330
C
102
}
100
AcDbDictionary
281
1
  3
Normal
350
F
100
AcDbDictionaryWithDefault
340
F
  0
DICTIONARY
  5
17
102
{ACAD_REACTORS
330
C
102
}
100
AcDbDictionary
280
0
281
1
  3
Standard
350
18
  0
DICTIONARY
  5
19
102
{ACAD_REACTORS
330
C
102
}
100
AcDbDictionary
281
1
  0
DICTIONARY
  5
1A
102
{ACAD_REACTORS
330
C
102
}
100
AcDbDictionary
281
1
  3
Model
350
413
  3
Layout1
350
414
  0
ACDBPLACEHOLDER
  5
F
102
{ACAD_REACTORS
330
E
102
}
  0
MLINESTYLE
  5
18
102
{ACAD_REACTORS
330
17
102
}
100
AcDbMlineStyle
  2
STANDARD
 70
0
  3

 62
256
 51
90.0
 52
90.0
 71
2
 49
0.5
 62
256
  6
BYLAYER
 49
-0.5
 62
256
  6
BYLAYER
  0
LAYOUT
  5
413
102
{ACAD_REACTORS
330
1A
102
}
100
AcDbPlotSettings
  1

  2
none_device
  4

  6

 40
0.0
 41
0.0
 42
0.0
 43
0.0
 44
210.0
 45
297.0
 46
0.0
 47
0.0
 48
0.0
 49
0.0
140
0.0
141
0.0
142
1.0
143
1.0
 70
1024
 72
1
 73
0
 74
0
  7

 75
0
147
1.0
148
0.0
149
0.0
100
AcDbLayout
  1
Model
 70
0
 71
0
 10
0.0
 20
0.0
 11
210.0
 21
297.0
 12
0.0
 22
0.0
 32
0.0
 14
0.0
 24
0.0
 34
0.0
 15
0.0
 25
0.0
 35
0.0
146
0.0
 13
0.0
 23
0.0
 33
0.0
 16
1.0
 26
0.0
 36
0.0
 17
0.0
 27
1.0
 37
0.0
 76
0
330
210
345
0
346
0
  0
LAYOUT
  5
414
102
{ACAD_REACTORS
330
1A
102
}
100
AcDbPlotSettings
  1

  2
none_device
  4

  6

 40
0.0
 41
0.0
 42
0.0
 43
0.0
 44
210.0
 45
297.0
 46
0.0
 47
0.0
 48
0.0
 49
0.0
140
0.0
141
0.0
142
1.0
143
1.0
 70
0
 72
1
 73
0
 74
0
  7

 75
0
147
1.0
148
0.0
149
0.0
100
AcDbLayout
  1
Layout1
 70
0
 71
1
 10
0.0
 20
0.0
 11
210.0
 21
297.0
 12
0.0
 22
0.0
 32
0.0
 14
0.0
 24
0.0
 34
0.0
 15
0.0
 25
0.0
 35
0.0
146
0.0
 13
0.0
 23
0.0
 33
0.0
 16
1.0
 26
0.0
 36
0.0
 17
0.0
 27
1.0
 37
0.0
 76
0
330
211
345
0
346
0
  0
ENDSEC
  0
EOF
