999
DXF file: C:\Users\sesa63760\Documents\7-Dev\_Creo\CAD\MCADFD0001429_3D-CAD\drw0001_1.dxf
999
Pro/ENGINEER 2019471 by Parametric Technology Corporation
  0
SECTION
  2
HEADER
  9
$ACADVER
  1
AC1024
  9
$DWGCODEPAGE
  3
ANSI_1252
  9
$EXTMAX
 10
74.2240822569
 20
104.9740591919
 30
0.0
  9
$EXTMIN
 10
0.0
 20
0.0
 30
0.0
  9
$LIMMIN
 10
0.0
 20
0.0
  9
$LIMMAX
 10
74.2240822569
 20
104.9740591919
  9
$VIEWCTR
 10
37.1120411284
 20
52.4870295959
  9
$VIEWSIZE
 40
104.9740591919
  9
$CLAYER
  8
0
  9
$LTSCALE
 40
6.8427534881
  9
$CELTYPE
  6
BYLAYER
  9
$DIMSCALE
 40
1.0
  9
$DIMASZ
 40
0.8836200269
  9
$DIMEXO
 40
1.0
  9
$DIMDLI
 40
4.7277205918
  9
$DIMEXE
 40
1.0
  9
$DIMCEN
 40
1.119723298
  9
$DIMLFAC
 40
1.0
  9
$DIMBLK
  1
_FILLED
  9
$DIMALT
 70
0
  9
$DIMALTF
 40
0.0393700787
  9
$DIMTXT
 40
1.2370680376
  9
$DIMTOL
 70
1
  9
$DIMLIM
 70
0
  9
$DIMTFAC
 40
1.0
  9
$DIMTP
 40
0.01
  9
$DIMTM
 40
0.01
  9
$DIMGAP
 40
0.625
  9
$DIMDSEP
 70
46
  9
$AUNITS
 70
0
  9
$PDMODE
 70
3
  9
$PDSIZE
 40
0.3125
  9
$HANDSEED
  5
35A
  9
$TILEMODE
 70
1
  9
$MEASUREMENT
 70
1
  9
$INSUNITS
 70
4
  0
ENDSEC
  0
SECTION
  2
CLASSES
  0
CLASS
  1
ACDBDICTIONARYWDFLT
  2
AcDbDictionaryWithDefault
  3
AutoCAD 2000
 90
0
 91
1
280
0
281
0
  0
CLASS
  1
ACDBPLACEHOLDER
  2
AcDbPlaceHolder
  3
AutoCAD 2000
 90
0
 91
1
280
0
281
0
  0
CLASS
  1
LAYOUT
  2
AcDbLayout
  3
AutoCAD 2000
 90
0
 91
0
280
0
281
0
  0
ENDSEC
  0
SECTION
  2
TABLES
  0
TABLE
  2
VPORT
  5
8
100
AcDbSymbolTable
 70
2
  0
VPORT
  5
1F4
100
AcDbSymbolTableRecord
100
AcDbViewportTableRecord
  2
*ACTIVE
 70
0
 10
0.0
 20
0.0
 11
1.0
 21
1.0
 12
37.1120411284
 22
52.4870295959
 13
0.0
 23
0.0
 14
1.0
 24
1.0
 15
0.0
 25
0.0
 16
0.0
 26
0.0
 36
1.0
 17
0.0
 27
0.0
 37
0.0
 40
104.9740591919
 41
0.7070707071
 42
50.0
 43
0.0
 44
0.0
 50
0.0
 51
0.0
 71
0
 72
100
 73
1
 74
1
 75
0
 76
0
 77
0
 78
0
  0
ENDTAB
  0
TABLE
  2
LTYPE
  5
5
100
AcDbSymbolTable
 70
6
  0
LTYPE
  5
14
100
AcDbSymbolTableRecord
100
AcDbLinetypeTableRecord
  2
BYBLOCK
 70
0
  3

 72
65
 73
0
 40
0.0
  0
LTYPE
  5
15
100
AcDbSymbolTableRecord
100
AcDbLinetypeTableRecord
  2
BYLAYER
 70
0
  3

 72
65
 73
0
 40
0.0
  0
LTYPE
  5
16
100
AcDbSymbolTableRecord
100
AcDbLinetypeTableRecord
  2
CONTINUOUS
 70
64
  3
Solid line
 72
65
 73
0
 40
0.0
  0
LTYPE
  5
1F5
100
AcDbSymbolTableRecord
100
AcDbLinetypeTableRecord
  2
CENTER
 70
64
  3
____ _ ____ _ ____ _ ____ _ ____ _ ____ _ ____
 72
65
 73
4
 40
0.6
 49
0.375
 74
0
 49
-0.075
 74
0
 49
0.075
 74
0
 49
-0.075
 74
0
  0
LTYPE
  5
1F6
100
AcDbSymbolTableRecord
100
AcDbLinetypeTableRecord
  2
HIDDEN
 70
64
  3
- - - - - - - - - - - - - - - - - - - -
 72
65
 73
2
 40
0.2
 49
0.1
 74
0
 49
-0.1
 74
0
  0
LTYPE
  5
1F7
100
AcDbSymbolTableRecord
100
AcDbLinetypeTableRecord
  2
PHANTOM
 70
64
  3
_____ _ _ _____ _ _ _____ _ _ _____
 72
65
 73
6
 40
0.8
 49
0.45
 74
0
 49
-0.05
 74
0
 49
0.1
 74
0
 49
-0.05
 74
0
 49
0.1
 74
0
 49
-0.05
 74
0
  0
LTYPE
  5
1F8
100
AcDbSymbolTableRecord
100
AcDbLinetypeTableRecord
  2
DOT
 70
64
  3
. . . . . . . . . . . . . . . . . . . .
 72
65
 73
2
 40
0.2
 49
0.1
 74
0
 49
-0.1
 74
0
  0
LTYPE
  5
1F9
100
AcDbSymbolTableRecord
100
AcDbLinetypeTableRecord
  2
DASHED
 70
64
  3
- - - - - - - - - - - - - - - - - - - -
 72
65
 73
2
 40
0.2
 49
0.1
 74
0
 49
-0.1
 74
0
  0
ENDTAB
  0
TABLE
  2
LAYER
  5
2
100
AcDbSymbolTable
 70
36
  0
LAYER
  5
10
100
AcDbSymbolTableRecord
100
AcDbLayerTableRecord
  2
0
 70
0
 62
7
  6
CONTINUOUS
370
-3
390
F
  0
LAYER
  5
1FA
100
AcDbSymbolTableRecord
100
AcDbLayerTableRecord
  2
DEFAULT_1
 70
0
 62
7
  6
CENTER
370
-3
390
F
  0
LAYER
  5
1FB
100
AcDbSymbolTableRecord
100
AcDbLayerTableRecord
  2
DEFAULT_2
 70
0
 62
8
  6
HIDDEN
370
-3
390
F
  0
LAYER
  5
1FC
100
AcDbSymbolTableRecord
100
AcDbLayerTableRecord
  2
DEFAULT_3
 70
0
 62
7
  6
PHANTOM
370
-3
390
F
  0
LAYER
  5
1FD
100
AcDbSymbolTableRecord
100
AcDbLayerTableRecord
  2
00_COMPONENTS
 70
0
 62
7
  6
CONTINUOUS
370
-3
390
F
  0
LAYER
  5
1FE
100
AcDbSymbolTableRecord
100
AcDbLayerTableRecord
  2
01_1_DEFAULT_DATUMS
 70
0
 62
7
  6
CONTINUOUS
370
-3
390
F
  0
LAYER
  5
1FF
100
AcDbSymbolTableRecord
100
AcDbLayerTableRecord
  2
01_PLANES
 70
0
 62
7
  6
CONTINUOUS
370
-3
390
F
  0
LAYER
  5
200
100
AcDbSymbolTableRecord
100
AcDbLayerTableRecord
  2
02_COORD_SYS
 70
0
 62
7
  6
CONTINUOUS
370
-3
390
F
  0
LAYER
  5
201
100
AcDbSymbolTableRecord
100
AcDbLayerTableRecord
  2
03_AXES
 70
0
 62
7
  6
CONTINUOUS
370
-3
390
F
  0
LAYER
  5
202
100
AcDbSymbolTableRecord
100
AcDbLayerTableRecord
  2
04_POINTS
 70
0
 62
7
  6
CONTINUOUS
370
-3
390
F
  0
LAYER
  5
203
100
AcDbSymbolTableRecord
100
AcDbLayerTableRecord
  2
05_CURVES
 70
0
 62
7
  6
CONTINUOUS
370
-3
390
F
  0
LAYER
  5
204
100
AcDbSymbolTableRecord
100
AcDbLayerTableRecord
  2
06_SURFS
 70
0
 62
7
  6
CONTINUOUS
370
-3
390
F
  0
LAYER
  5
205
100
AcDbSymbolTableRecord
100
AcDbLayerTableRecord
  2
07_COSMETICS
 70
0
 62
7
  6
CONTINUOUS
370
-3
390
F
  0
LAYER
  5
206
100
AcDbSymbolTableRecord
100
AcDbLayerTableRecord
  2
10_NOTES
 70
0
 62
7
  6
CONTINUOUS
370
-3
390
F
  0
LAYER
  5
207
100
AcDbSymbolTableRecord
100
AcDbLayerTableRecord
  2
11_NOTES_PUB
 70
0
 62
7
  6
CONTINUOUS
370
-3
390
F
  0
LAYER
  5
208
100
AcDbSymbolTableRecord
100
AcDbLayerTableRecord
  2
13_REF_GTOL
 70
0
 62
7
  6
CONTINUOUS
370
-3
390
F
  0
LAYER
  5
209
100
AcDbSymbolTableRecord
100
AcDbLayerTableRecord
  2
16_MISC
 70
0
 62
7
  6
CONTINUOUS
370
-3
390
F
  0
LAYER
  5
20A
100
AcDbSymbolTableRecord
100
AcDbLayerTableRecord
  2
17_NO_PRINT
 70
0
 62
7
  6
CONTINUOUS
370
-3
390
F
  0
LAYER
  5
20B
100
AcDbSymbolTableRecord
100
AcDbLayerTableRecord
  2
18_DATUM_CAMS_JOINTS
 70
0
 62
7
  6
CONTINUOUS
370
-3
390
F
  0
LAYER
  5
20C
100
AcDbSymbolTableRecord
100
AcDbLayerTableRecord
  2
19_DATUM_FUNCTIONAL
 70
0
 62
7
  6
CONTINUOUS
370
-3
390
F
  0
LAYER
  5
20D
100
AcDbSymbolTableRecord
100
AcDbLayerTableRecord
  2
20_DATUM_KINEMATIC_SCHEME
 70
0
 62
7
  6
CONTINUOUS
370
-3
390
F
  0
ENDTAB
  0
TABLE
  2
STYLE
  5
3
100
AcDbSymbolTable
 70
1
  0
STYLE
  5
11
100
AcDbSymbolTableRecord
100
AcDbTextStyleTableRecord
  2
STANDARD
 70
0
 40
0.0
 41
0.8
 50
0.0
 71
0
 42
0.2
  3
txt
  4

  0
STYLE
  5
20E
100
AcDbSymbolTableRecord
100
AcDbTextStyleTableRecord
  2
TEXTSTYLE_1
 70
0
 40
0.0
 41
0.8
 50
0.0
 71
0
 42
0.2
  3
gdt
  4

  0
ENDTAB
  0
TABLE
  2
VIEW
  5
6
100
AcDbSymbolTable
 70
0
  0
ENDTAB
  0
TABLE
  2
UCS
  5
7
100
AcDbSymbolTable
 70
0
  0
ENDTAB
  0
TABLE
  2
APPID
  5
9
100
AcDbSymbolTable
 70
1
  0
APPID
  5
20F
100
AcDbSymbolTableRecord
100
AcDbRegAppTableRecord
  2
ACAD
 70
0
  0
ENDTAB
  0
TABLE
  2
BLOCK_RECORD
  5
1
100
AcDbSymbolTable
 70
0
  0
BLOCK_RECORD
  5
210
100
AcDbSymbolTableRecord
100
AcDbBlockTableRecord
  2
*Model_Space
  0
BLOCK_RECORD
  5
211
100
AcDbSymbolTableRecord
100
AcDbBlockTableRecord
  2
*Paper_Space
  0
BLOCK_RECORD
  5
212
100
AcDbSymbolTableRecord
100
AcDbBlockTableRecord
  2
_FILLED
  0
ENDTAB
  0
TABLE
  2
DIMSTYLE
  5
A
100
AcDbSymbolTable
 70
1
100
AcDbDimStyleTable
 71
0
  0
DIMSTYLE
105
213
100
AcDbSymbolTableRecord
100
AcDbDimStyleTableRecord
  2
STANDARD
 70
0
  3

  4

 40
1.0
 41
0.8836200269
 42
1.0
 43
0.38
 44
1.0
 45
0.0
 46
0.0
 47
0.01
 48
0.01
140
1.2370680376
141
0.09
142
0.0
143
25.4
144
1.0
145
0.0
146
1.0
147
0.625
 71
1
 72
0
 73
0
 74
0
 75
0
 76
0
 77
1
 78
8
 79
2
170
0
171
1
172
0
173
0
174
0
175
0
176
0
177
0
178
0
270
2
179
2
271
2
272
2
273
2
274
2
275
0
280
0
281
0
282
0
283
1
284
8
285
0
286
0
287
3
288
0
340
11
278
46
341
212
342
212
343
212
344
212
  0
ENDTAB
  0
ENDSEC
  0
SECTION
  2
BLOCKS
  0
BLOCK
  5
20
100
AcDbEntity
  8
0
100
AcDbBlockBegin
  2
*Model_Space
 70
0
 10
0.0
 20
0.0
 30
0.0
  3
*Model_Space
  1

  0
ENDBLK
  5
21
100
AcDbEntity
  8
0
100
AcDbBlockEnd
  0
BLOCK
  5
1C
100
AcDbEntity
  8
0
100
AcDbBlockBegin
  2
*Paper_Space
 70
0
 10
0.0
 20
0.0
 30
0.0
  3
*Paper_Space
  1

  0
ENDBLK
  5
1D
100
AcDbEntity
  8
0
100
AcDbBlockEnd
  0
BLOCK
  5
214
100
AcDbEntity
  8
0
100
AcDbBlockBegin
  2
_FILLED
 70
64
 10
0.0
 20
0.0
  3
_FILLED
  1

  0
SOLID
  5
215
100
AcDbEntity
  8
0
  6
BYBLOCK
 62
0
100
AcDbTrace
 10
0.0
 20
0.0
 11
-1.0
 21
0.25
 12
-1.0
 22
-0.25
 13
-1.0
 23
-0.25
  0
ENDBLK
  5
216
100
AcDbEntity
  8
0
  6
BYBLOCK
 62
0
100
AcDbBlockEnd
  0
ENDSEC
  0
SECTION
  2
ENTITIES
  0
LINE
  5
217
100
AcDbEntity
  8
0
100
AcDbLine
 62
7
  6
CONTINUOUS
 10
24.9880794909
 20
11.7197654759
 11
25.695189216
 21
11.3115247214
  0
LINE
  5
218
100
AcDbEntity
  8
0
100
AcDbLine
 62
7
  6
CONTINUOUS
 10
30.362113402
 20
8.6171357415
 11
31.0692231272
 21
8.208894987
  0
LINE
  5
219
100
AcDbEntity
  8
0
100
AcDbLine
 62
7
  6
CONTINUOUS
 10
33.0491138714
 20
10.7939152068
 11
34.5199020997
 21
10.0337798806
  0
LINE
  5
21A
100
AcDbEntity
  8
0
100
AcDbLine
 62
7
  6
CONTINUOUS
 10
33.0491138714
 20
9.3519786178
 11
35.2141465379
 21
8.1020247027
  0
LINE
  5
21B
100
AcDbEntity
  8
0
100
AcDbLine
 62
7
  6
CONTINUOUS
 10
17.0035448289
 20
18.6818071362
 11
11.3113115414
 21
21.9681452101
  0
LINE
  5
21C
100
AcDbEntity
  8
0
100
AcDbLine
 62
7
  6
CONTINUOUS
 10
20.0283656057
 20
17.0098157412
 11
17.0357390402
 21
18.7375704074
  0
LINE
  5
21D
100
AcDbEntity
  8
0
100
AcDbLine
 62
7
  6
CONTINUOUS
 10
15.1402878299
 20
20.0632440742
 11
9.4480545424
 21
23.3495821481
  0
LINE
  5
21E
100
AcDbEntity
  8
0
100
AcDbLine
 62
7
  6
CONTINUOUS
 10
17.3570830876
 20
19.2284715299
 11
19.6141409643
 21
17.9253880369
  0
LINE
  5
21F
100
AcDbEntity
  8
0
100
AcDbLine
 62
7
  6
CONTINUOUS
 10
17.1562654828
 20
19.684080693
 11
19.5957940345
 21
18.2756500899
  0
LINE
  5
220
100
AcDbEntity
  8
0
100
AcDbLine
 62
7
  6
CONTINUOUS
 10
19.2697240597
 20
18.517401554
 11
16.830195508
 21
19.9258321571
  0
LINE
  5
221
100
AcDbEntity
  8
0
100
AcDbLine
 62
7
  6
CONTINUOUS
 10
16.2712184083
 20
20.3402632385
 11
18.71074696
 21
18.9318326354
  0
LINE
  5
222
100
AcDbEntity
  8
0
100
AcDbLine
 62
7
  6
CONTINUOUS
 10
15.9451484335
 20
20.5820147027
 11
18.3846769852
 21
19.1735840996
  0
LINE
  5
223
100
AcDbEntity
  8
0
100
AcDbLine
 62
7
  6
CONTINUOUS
 10
9.4480545424
 20
23.3495821481
 11
11.3113115414
 21
21.9681452101
  0
LINE
  5
224
100
AcDbEntity
  8
0
100
AcDbLine
 62
7
  6
CONTINUOUS
 10
17.0035448289
 20
18.6818071362
 11
15.1402878299
 21
20.0632440742
  0
LINE
  5
225
100
AcDbEntity
  8
0
100
AcDbLine
 62
7
  6
CONTINUOUS
 10
15.9451484335
 20
20.5820147027
 11
16.2712184083
 21
20.3402632385
  0
LINE
  5
226
100
AcDbEntity
  8
0
100
AcDbLine
 62
7
  6
CONTINUOUS
 10
16.830195508
 20
19.9258321571
 11
17.1562654828
 21
19.684080693
  0
LINE
  5
227
100
AcDbEntity
  8
0
100
AcDbLine
 62
7
  6
CONTINUOUS
 10
19.5957940346
 20
18.2756500899
 11
19.2697240597
 21
18.517401554
  0
LINE
  5
228
100
AcDbEntity
  8
0
100
AcDbLine
 62
7
  6
CONTINUOUS
 10
18.71074696
 20
18.9318326354
 11
18.3846769852
 21
19.1735840996
  0
LINE
  5
229
100
AcDbEntity
  8
0
100
AcDbLine
 62
7
  6
CONTINUOUS
 10
18.5926270868
 20
22.6063195355
 11
19.0662140527
 21
22.3931511372
  0
LINE
  5
22A
100
AcDbEntity
  8
0
100
AcDbLine
 62
7
  6
CONTINUOUS
 10
36.951478969
 20
11.8718512481
 11
35.8775292202
 21
12.4268918222
  0
LINE
  5
22B
100
AcDbEntity
  8
0
100
AcDbLine
 62
7
  6
CONTINUOUS
 10
18.7038707378
 20
19.6805988279
 11
16.264342186
 21
21.089029431
  0
LINE
  5
22C
100
AcDbEntity
  8
0
100
AcDbLine
 62
7
  6
CONTINUOUS
 10
35.1704430468
 20
10.2705751992
 11
34.6742028613
 21
10.5570731225
  0
LINE
  5
22D
100
AcDbEntity
  8
0
100
AcDbLine
 62
7
  6
CONTINUOUS
 10
16.9027296912
 20
22.1030588878
 11
19.3422582429
 21
20.6946282847
  0
LINE
  5
22E
100
AcDbEntity
  8
0
100
AcDbLine
 62
7
  6
CONTINUOUS
 10
19.9694227117
 20
20.8786281211
 11
20.54649907
 21
20.5454604675
  0
LINE
  5
22F
100
AcDbEntity
  8
0
100
AcDbLine
 62
7
  6
CONTINUOUS
 10
17.2219234437
 20
22.6100736161
 11
19.6614519955
 21
21.201643013
  0
LINE
  5
230
100
AcDbEntity
  8
0
100
AcDbLine
 62
7
  6
CONTINUOUS
 10
17.1943868393
 20
23.4136100927
 11
13.9416821036
 21
25.2915175635
  0
LINE
  5
231
100
AcDbEntity
  8
0
100
AcDbLine
 62
7
  6
CONTINUOUS
 10
11.5021535519
 20
26.6999481666
 11
12.5274626533
 21
26.1079990726
  0
LINE
  5
232
100
AcDbEntity
  8
0
100
AcDbLine
 62
7
  6
CONTINUOUS
 10
18.261004433
 20
22.858028611
 11
19.0662140527
 21
22.3931511372
  0
LINE
  5
233
100
AcDbEntity
  8
0
100
AcDbLine
 62
7
  6
CONTINUOUS
 10
17.6196143906
 20
23.5726705874
 11
14.366909655
 21
25.4505780582
  0
LINE
  5
234
100
AcDbEntity
  8
0
100
AcDbLine
 62
7
  6
CONTINUOUS
 10
12.7106541238
 20
26.4067960024
 11
11.9273811032
 21
26.8590086613
  0
LINE
  5
235
100
AcDbEntity
  8
0
100
AcDbLine
 62
7
  6
CONTINUOUS
 10
12.7114746065
 20
26.4635927028
 11
12.7365870961
 21
26.4490943282
  0
LINE
  5
236
100
AcDbEntity
  8
0
100
AcDbLine
 62
7
  6
CONTINUOUS
 10
15.5399135071
 20
24.8306296847
 11
18.7926182428
 21
22.9527222139
  0
LINE
  5
237
100
AcDbEntity
  8
0
100
AcDbLine
 62
7
  6
CONTINUOUS
 10
37.9988583956
 20
11.9035518147
 11
37.5026182101
 21
12.190049738
  0
LINE
  5
238
100
AcDbEntity
  8
0
100
AcDbLine
 62
7
  6
CONTINUOUS
 10
19.6614519955
 20
21.201643013
 11
19.9875219703
 21
20.9598915489
  0
LINE
  5
239
100
AcDbEntity
  8
0
100
AcDbLine
 62
7
  6
CONTINUOUS
 10
20.54649907
 20
20.5454604675
 11
20.8725690448
 21
20.3037090033
  0
LINE
  5
23A
100
AcDbEntity
  8
0
100
AcDbLine
 62
7
  6
CONTINUOUS
 10
19.6141409643
 20
22.6557508167
 11
18.7926235465
 21
22.9527313979
  0
LINE
  5
23B
100
AcDbEntity
  8
0
100
AcDbLine
 62
7
  6
CONTINUOUS
 10
14.4327468237
 20
26.0924753282
 11
13.0185273734
 21
26.9089568372
  0
LINE
  5
23C
100
AcDbEntity
  8
0
100
AcDbLine
 62
7
  6
CONTINUOUS
 10
58.6507990954
 20
97.1282249936
 11
29.8064348241
 21
80.4750229232
  0
LINE
  5
23D
100
AcDbEntity
  8
0
100
AcDbLine
 62
7
  6
CONTINUOUS
 10
26.9674129177
 20
78.8359226454
 11
24.9880794909
 21
77.6931607799
  0
LINE
  5
23E
100
AcDbEntity
  8
0
100
AcDbLine
 62
7
  6
CONTINUOUS
 10
42.7306385749
 20
16.6173406304
 11
43.7070556264
 21
16.053618736
  0
LINE
  5
23F
100
AcDbEntity
  8
0
100
AcDbLine
 62
7
  6
CONTINUOUS
 10
42.2429157538
 20
17.5177493849
 11
42.9749822594
 21
17.0951001524
  0
LINE
  5
240
100
AcDbEntity
  8
0
100
AcDbLine
 62
7
  6
CONTINUOUS
 10
13.532997328
 20
54.7495571446
 11
13.532997328
 21
36.1386532736
  0
LINE
  5
241
100
AcDbEntity
  8
0
100
AcDbLine
 62
7
  6
CONTINUOUS
 10
40.9686320999
 20
86.1029937491
 11
51.2906738932
 21
92.0623917842
  0
LINE
  5
242
100
AcDbEntity
  8
0
100
AcDbLine
 62
7
  6
CONTINUOUS
 10
29.8064348241
 20
78.9032557702
 11
28.3286226606
 21
78.0500456128
  0
LINE
  5
243
100
AcDbEntity
  8
0
100
AcDbLine
 62
7
  6
CONTINUOUS
 10
32.9177176147
 20
78.6787636033
 11
30.0786957083
 21
77.0396633255
  0
LINE
  5
244
100
AcDbEntity
  8
0
100
AcDbLine
 62
7
  6
CONTINUOUS
 10
13.532997328
 20
36.1386532736
 11
14.8765058058
 21
35.36299584
  0
LINE
  5
245
100
AcDbEntity
  8
0
100
AcDbLine
 62
7
  6
CONTINUOUS
 10
16.4321472011
 20
34.4648661801
 11
19.6141409643
 21
32.6277827847
  0
LINE
  5
246
100
AcDbEntity
  8
0
100
AcDbLine
 62
7
  6
CONTINUOUS
 10
14.8765058058
 20
35.7043942636
 11
16.4321472011
 21
34.8062646036
  0
LINE
  5
247
100
AcDbEntity
  8
0
100
AcDbLine
 62
7
  6
CONTINUOUS
 10
14.8765058058
 20
35.36299584
 11
14.8765058058
 21
35.7043942636
  0
LINE
  5
248
100
AcDbEntity
  8
0
100
AcDbLine
 62
7
  6
CONTINUOUS
 10
16.4321472011
 20
24.3155099748
 11
16.4321472011
 21
24.2582395792
  0
LINE
  5
249
100
AcDbEntity
  8
0
100
AcDbLine
 62
7
  6
CONTINUOUS
 10
16.4321472011
 20
34.4648661801
 11
16.4321472011
 21
34.8062646036
  0
LINE
  5
24A
100
AcDbEntity
  8
0
100
AcDbLine
 62
7
  6
CONTINUOUS
 10
64.7319427316
 20
93.6173545047
 11
56.6647078044
 21
88.9597620499
  0
LINE
  5
24B
100
AcDbEntity
  8
0
100
AcDbLine
 62
7
  6
CONTINUOUS
 10
46.342666011
 20
83.0003640147
 11
35.8775292202
 21
76.9583505374
  0
LINE
  5
24C
100
AcDbEntity
  8
0
100
AcDbLine
 62
7
  6
CONTINUOUS
 10
33.0491138714
 20
75.3253739219
 11
31.0692231272
 21
74.1822902911
  0
LINE
  5
24D
100
AcDbEntity
  8
0
100
AcDbLine
 62
7
  6
CONTINUOUS
 10
17.7049447064
 20
36.3374963927
 11
18.9070312391
 21
35.64348711
  0
LINE
  5
24E
100
AcDbEntity
  8
0
100
AcDbLine
 62
7
  6
CONTINUOUS
 10
18.9070312391
 20
36.1844990904
 11
18.3149034683
 21
36.5263564844
  0
LINE
  5
24F
100
AcDbEntity
  8
0
100
AcDbLine
 62
7
  6
CONTINUOUS
 10
16.7435436591
 20
40.332504673
 11
13.9151047585
 21
41.9654676911
  0
LINE
  5
250
100
AcDbEntity
  8
0
100
AcDbLine
 62
7
  6
CONTINUOUS
 10
53.2689810954
 20
19.4662894436
 11
54.2719681073
 21
18.8872277225
  0
LINE
  5
251
100
AcDbEntity
  8
0
100
AcDbLine
 62
7
  6
CONTINUOUS
 10
14.0108742118
 20
42.2151672092
 11
16.8393131124
 21
40.5822041911
  0
LINE
  5
252
100
AcDbEntity
  8
0
100
AcDbLine
 62
7
  6
CONTINUOUS
 10
17.007503053
 20
40.7392279087
 11
14.1790641524
 21
42.3721909268
  0
LINE
  5
253
100
AcDbEntity
  8
0
100
AcDbLine
 62
7
  6
CONTINUOUS
 10
14.2557915576
 20
43.4238923353
 11
14.3802828606
 21
43.3374892397
  0
LINE
  5
254
100
AcDbEntity
  8
0
100
AcDbLine
 62
7
  6
CONTINUOUS
 10
17.2087217612
 20
41.7045262217
 11
17.0842304582
 21
41.7909293172
  0
LINE
  5
255
100
AcDbEntity
  8
0
100
AcDbLine
 62
7
  6
CONTINUOUS
 10
14.4752322938
 20
44.1864303703
 11
14.5875604345
 21
44.0813045334
  0
LINE
  5
256
100
AcDbEntity
  8
0
100
AcDbLine
 62
7
  6
CONTINUOUS
 10
17.4159993351
 20
42.4483415153
 11
17.3036711944
 21
42.5534673522
  0
LINE
  5
257
100
AcDbEntity
  8
0
100
AcDbLine
 62
7
  6
CONTINUOUS
 10
14.7409059847
 20
44.9516931341
 11
14.8402499109
 21
44.8286129635
  0
LINE
  5
258
100
AcDbEntity
  8
0
100
AcDbLine
 62
7
  6
CONTINUOUS
 10
17.6686888114
 20
43.1956499454
 11
17.5693448853
 21
43.3187301161
  0
LINE
  5
259
100
AcDbEntity
  8
0
100
AcDbLine
 62
7
  6
CONTINUOUS
 10
15.0156721399
 20
45.7716876368
 11
15.1365042793
 21
45.5739521481
  0
LINE
  5
25A
100
AcDbEntity
  8
0
100
AcDbLine
 62
7
  6
CONTINUOUS
 10
17.9649431799
 20
43.94098913
 11
17.8441110405
 21
44.1387246188
  0
LINE
  5
25B
100
AcDbEntity
  8
0
100
AcDbLine
 62
7
  6
CONTINUOUS
 10
35.1704430468
 20
10.2705751992
 11
35.8775527719
 21
9.0458320276
  0
LINE
  5
25C
100
AcDbEntity
  8
0
100
AcDbLine
 62
7
  6
CONTINUOUS
 10
19.0662140527
 20
22.3931511372
 11
19.0727427885
 21
21.8813387853
  0
LINE
  5
25D
100
AcDbEntity
  8
0
100
AcDbLine
 62
7
  6
CONTINUOUS
 10
17.7049447064
 20
36.3374963927
 11
17.7049447064
 21
37.8607308353
  0
LINE
  5
25E
100
AcDbEntity
  8
0
100
AcDbLine
 62
7
  6
CONTINUOUS
 10
18.9070312391
 20
35.64348711
 11
18.9070312391
 21
43.4038866606
  0
LINE
  5
25F
100
AcDbEntity
  8
0
100
AcDbLine
 62
7
  6
CONTINUOUS
 10
19.6141409643
 20
51.2386866558
 11
19.6141409643
 21
32.6277827847
  0
LINE
  5
260
100
AcDbEntity
  8
0
100
AcDbLine
 62
7
  6
CONTINUOUS
 10
19.6141409643
 20
22.6557508167
 11
19.6141409643
 21
21.2289574317
  0
LINE
  5
261
100
AcDbEntity
  8
0
100
AcDbLine
 62
7
  6
CONTINUOUS
 10
19.6141409643
 20
18.3047927768
 11
19.6141409643
 21
17.9253880369
  0
LINE
  5
262
100
AcDbEntity
  8
0
100
AcDbLine
 62
7
  6
CONTINUOUS
 10
35.8738888931
 20
73.6945261974
 11
38.702304242
 21
75.3275028129
  0
LINE
  5
263
100
AcDbEntity
  8
0
100
AcDbLine
 62
7
  6
CONTINUOUS
 10
46.342666011
 20
79.5709466316
 11
49.0549526479
 21
81.1368767043
  0
LINE
  5
264
100
AcDbEntity
  8
0
100
AcDbLine
 62
7
  6
CONTINUOUS
 10
39.0595229834
 20
74.4068275271
 11
34.8168881842
 21
71.9573275864
  0
LINE
  5
265
100
AcDbEntity
  8
0
100
AcDbLine
 62
7
  6
CONTINUOUS
 10
17.4582377613
 20
40.1129451175
 11
16.7435436591
 21
40.332504673
  0
LINE
  5
266
100
AcDbEntity
  8
0
100
AcDbLine
 62
7
  6
CONTINUOUS
 10
17.0483711662
 20
40.9696409137
 11
16.9126266584
 21
41.0366897124
  0
LINE
  5
267
100
AcDbEntity
  8
0
100
AcDbLine
 62
7
  6
CONTINUOUS
 10
16.9126266584
 20
41.0366897124
 11
14.0841877578
 21
42.6696527305
  0
LINE
  5
268
100
AcDbEntity
  8
0
100
AcDbLine
 62
7
  6
CONTINUOUS
 10
52.8078282346
 20
20.3513583714
 11
53.5398947403
 21
19.9287091389
  0
LINE
  5
269
100
AcDbEntity
  8
0
100
AcDbLine
 62
7
  6
CONTINUOUS
 10
14.1433126679
 20
42.9532902533
 11
16.9717515685
 21
41.3203272352
  0
LINE
  5
26A
100
AcDbEntity
  8
0
100
AcDbLine
 62
7
  6
CONTINUOUS
 10
17.1527041927
 20
41.4701534921
 11
14.3242652921
 21
43.1031165102
  0
LINE
  5
26B
100
AcDbEntity
  8
0
100
AcDbLine
 62
7
  6
CONTINUOUS
 10
14.3802828606
 20
43.3374892397
 11
17.2087217612
 21
41.7045262217
  0
LINE
  5
26C
100
AcDbEntity
  8
0
100
AcDbLine
 62
7
  6
CONTINUOUS
 10
17.0842304582
 20
41.7909293172
 11
14.2557915576
 21
43.4238923353
  0
LINE
  5
26D
100
AcDbEntity
  8
0
100
AcDbLine
 62
7
  6
CONTINUOUS
 10
14.3331566384
 20
43.711317294
 11
17.161595539
 21
42.0783542759
  0
LINE
  5
26E
100
AcDbEntity
  8
0
100
AcDbLine
 62
7
  6
CONTINUOUS
 10
17.3452417664
 20
42.211722187
 11
14.5168028658
 21
43.8446852051
  0
LINE
  5
26F
100
AcDbEntity
  8
0
100
AcDbLine
 62
7
  6
CONTINUOUS
 10
14.5875604345
 20
44.0813045334
 11
17.4159993351
 21
42.4483415153
  0
LINE
  5
270
100
AcDbEntity
  8
0
100
AcDbLine
 62
7
  6
CONTINUOUS
 10
17.3036711944
 20
42.5534673522
 11
14.4752322938
 21
44.1864303703
  0
LINE
  5
271
100
AcDbEntity
  8
0
100
AcDbLine
 62
7
  6
CONTINUOUS
 10
14.5702720524
 20
44.4755418586
 11
17.398710953
 21
42.8425788406
  0
LINE
  5
272
100
AcDbEntity
  8
0
100
AcDbLine
 62
7
  6
CONTINUOUS
 10
17.5837084384
 20
42.9585135655
 11
14.7552695379
 21
44.5914765836
  0
LINE
  5
273
100
AcDbEntity
  8
0
100
AcDbLine
 62
7
  6
CONTINUOUS
 10
14.8402499109
 20
44.8286129635
 11
17.6686888114
 21
43.1956499454
  0
LINE
  5
274
100
AcDbEntity
  8
0
100
AcDbLine
 62
7
  6
CONTINUOUS
 10
17.5693448853
 20
43.3187301161
 11
14.7409059847
 21
44.9516931341
  0
LINE
  5
275
100
AcDbEntity
  8
0
100
AcDbLine
 62
7
  6
CONTINUOUS
 10
14.8529257367
 20
45.2403779185
 11
17.6813646373
 21
43.6074149004
  0
LINE
  5
276
100
AcDbEntity
  8
0
100
AcDbLine
 62
7
  6
CONTINUOUS
 10
17.8663611589
 20
43.705069025
 11
15.0379222583
 21
45.3380320431
  0
LINE
  5
277
100
AcDbEntity
  8
0
100
AcDbLine
 62
7
  6
CONTINUOUS
 10
15.1365042793
 20
45.5739521481
 11
17.9649431799
 21
43.94098913
  0
LINE
  5
278
100
AcDbEntity
  8
0
100
AcDbLine
 62
7
  6
CONTINUOUS
 10
18.7232177929
 20
43.5100090024
 11
18.9070312391
 21
43.4038866606
  0
LINE
  5
279
100
AcDbEntity
  8
0
100
AcDbLine
 62
7
  6
CONTINUOUS
 10
17.8441110405
 20
44.1387246188
 11
15.0156721399
 21
45.7716876368
  0
LINE
  5
27A
100
AcDbEntity
  8
0
100
AcDbLine
 62
7
  6
CONTINUOUS
 10
38.7059681208
 20
10.6788086431
 11
37.9988583956
 21
11.9035518147
  0
LINE
  5
27B
100
AcDbEntity
  8
0
100
AcDbLine
 62
7
  6
CONTINUOUS
 10
30.362113402
 20
15.3808900865
 11
29.8317811081
 21
16.7851547127
  0
LINE
  5
27C
100
AcDbEntity
  8
0
100
AcDbLine
 62
7
  6
CONTINUOUS
 10
27.495304502
 20
19.0996007749
 11
28.4178877004
 21
15.6564252536
  0
LINE
  5
27D
100
AcDbEntity
  8
0
100
AcDbLine
 62
7
  6
CONTINUOUS
 10
27.5254502005
 20
20.6601681017
 11
27.7708283852
 21
19.7443914428
  0
LINE
  5
27E
100
AcDbEntity
  8
0
100
AcDbLine
 62
7
  6
CONTINUOUS
 10
18.4998727602
 20
44.5399184221
 11
18.7501793703
 21
43.3856812651
  0
LINE
  5
27F
100
AcDbEntity
  8
0
100
AcDbLine
 62
7
  6
CONTINUOUS
 10
17.5885748594
 20
40.5191530696
 11
17.4582377613
 21
40.1129451175
  0
LINE
  5
280
100
AcDbEntity
  8
0
100
AcDbLine
 62
7
  6
CONTINUOUS
 10
24.9880794909
 20
62.9961172716
 11
14.9472050025
 21
57.1990502866
  0
LINE
  5
281
100
AcDbEntity
  8
0
100
AcDbLine
 62
7
  6
CONTINUOUS
 10
46.342666011
 20
73.3656354926
 11
54.428986559
 21
78.0342469699
  0
LINE
  5
282
100
AcDbEntity
  8
0
100
AcDbLine
 62
7
  6
CONTINUOUS
 10
15.1025311868
 20
45.9656286453
 11
17.9309700874
 21
44.3326656272
  0
LINE
  5
283
100
AcDbEntity
  8
0
100
AcDbLine
 62
7
  6
CONTINUOUS
 10
15.6714338596
 20
46.1728814402
 11
18.4998727602
 21
44.5399184221
  0
LINE
  5
284
100
AcDbEntity
  8
0
100
AcDbLine
 62
7
  6
CONTINUOUS
 10
24.9880794909
 20
77.6931607799
 11
24.9880794909
 21
62.9961172716
  0
LINE
  5
285
100
AcDbEntity
  8
0
100
AcDbLine
 62
7
  6
CONTINUOUS
 10
24.9880794909
 20
19.3950095374
 11
24.9880794909
 21
11.7197654759
  0
LINE
  5
286
100
AcDbEntity
  8
0
100
AcDbLine
 62
7
  6
CONTINUOUS
 10
25.695189216
 20
11.3115247214
 11
25.695189216
 21
18.0603099336
  0
LINE
  5
287
100
AcDbEntity
  8
0
100
AcDbLine
 62
7
  6
CONTINUOUS
 10
26.2255215099
 20
18.852213428
 11
26.2255215099
 21
19.9096584022
  0
LINE
  5
288
100
AcDbEntity
  8
0
100
AcDbLine
 62
7
  6
CONTINUOUS
 10
19.6141409643
 20
51.2386866558
 11
13.532997328
 21
54.7495571446
  0
LINE
  5
289
100
AcDbEntity
  8
0
100
AcDbLine
 62
7
  6
CONTINUOUS
 10
29.8064348241
 20
80.4750229232
 11
29.8064348241
 21
78.9032557702
  0
LINE
  5
28A
100
AcDbEntity
  8
0
100
AcDbLine
 62
7
  6
CONTINUOUS
 10
29.8317811081
 20
17.8276305541
 11
29.8317811081
 21
16.7851547127
  0
LINE
  5
28B
100
AcDbEntity
  8
0
100
AcDbLine
 62
7
  6
CONTINUOUS
 10
30.362113402
 20
8.6171357415
 11
30.362113402
 21
15.3808900865
  0
LINE
  5
28C
100
AcDbEntity
  8
0
100
AcDbLine
 62
7
  6
CONTINUOUS
 10
31.0692231272
 20
74.1822902911
 11
31.0692231272
 21
59.4852467827
  0
LINE
  5
28D
100
AcDbEntity
  8
0
100
AcDbLine
 62
7
  6
CONTINUOUS
 10
31.0692231272
 20
22.9059384953
 11
31.0692231272
 21
8.208894987
  0
LINE
  5
28E
100
AcDbEntity
  8
0
100
AcDbLine
 62
7
  6
CONTINUOUS
 10
11.5021535519
 20
26.6999481666
 11
9.4480545424
 21
23.3495821481
  0
LINE
  5
28F
100
AcDbEntity
  8
0
100
AcDbLine
 62
7
  6
CONTINUOUS
 10
13.0185273734
 20
26.9089568372
 11
12.5274626533
 21
26.1079990726
  0
LINE
  5
290
100
AcDbEntity
  8
0
100
AcDbLine
 62
7
  6
CONTINUOUS
 10
14.1790641524
 20
42.3721909268
 11
14.0108742118
 21
42.2151672092
  0
LINE
  5
291
100
AcDbEntity
  8
0
100
AcDbLine
 62
7
  6
CONTINUOUS
 10
14.3242652921
 20
43.1031165102
 11
14.1433126679
 21
42.9532902533
  0
LINE
  5
292
100
AcDbEntity
  8
0
100
AcDbLine
 62
7
  6
CONTINUOUS
 10
31.0692231272
 20
59.4852467827
 11
21.0283486387
 21
53.6881797978
  0
LINE
  5
293
100
AcDbEntity
  8
0
100
AcDbLine
 62
7
  6
CONTINUOUS
 10
62.0403711971
 20
70.913492898
 11
60.8192936666
 21
70.4571277965
  0
LINE
  5
294
100
AcDbEntity
  8
0
100
AcDbLine
 62
7
  6
CONTINUOUS
 10
63.8788564825
 20
69.8520669362
 11
62.657778952
 21
69.3957018348
  0
LINE
  5
295
100
AcDbEntity
  8
0
100
AcDbLine
 62
7
  6
CONTINUOUS
 10
18.0840117508
 20
40.625323864
 11
17.5885748594
 21
40.5191530696
  0
LINE
  5
296
100
AcDbEntity
  8
0
100
AcDbLine
 62
7
  6
CONTINUOUS
 10
14.9472050025
 20
57.1990502866
 11
21.0283486387
 21
53.6881797978
  0
LINE
  5
297
100
AcDbEntity
  8
0
100
AcDbLine
 62
7
  6
CONTINUOUS
 10
33.0491138714
 20
75.3253739219
 11
33.0491138714
 21
73.883437333
  0
LINE
  5
298
100
AcDbEntity
  8
0
100
AcDbLine
 62
7
  6
CONTINUOUS
 10
33.0491138714
 20
10.7939152068
 11
33.0491138714
 21
9.3519786178
  0
LINE
  5
299
100
AcDbEntity
  8
0
100
AcDbLine
 62
7
  6
CONTINUOUS
 10
13.9416821036
 20
25.2915175635
 11
14.4327468237
 21
26.0924753282
  0
LINE
  5
29A
100
AcDbEntity
  8
0
100
AcDbLine
 62
7
  6
CONTINUOUS
 10
16.8393131124
 20
40.5822041911
 11
17.007503053
 21
40.7392279087
  0
LINE
  5
29B
100
AcDbEntity
  8
0
100
AcDbLine
 62
7
  6
CONTINUOUS
 10
16.9717515685
 20
41.3203272352
 11
17.1527041927
 21
41.4701534921
  0
LINE
  5
29C
100
AcDbEntity
  8
0
100
AcDbLine
 62
7
  6
CONTINUOUS
 10
14.5168028658
 20
43.8446852051
 11
14.3331566384
 21
43.711317294
  0
LINE
  5
29D
100
AcDbEntity
  8
0
100
AcDbLine
 62
7
  6
CONTINUOUS
 10
17.161595539
 20
42.0783542759
 11
17.3452417663
 21
42.211722187
  0
LINE
  5
29E
100
AcDbEntity
  8
0
100
AcDbLine
 62
7
  6
CONTINUOUS
 10
14.5702720524
 20
44.4755418586
 11
14.7552695379
 21
44.5914765836
  0
LINE
  5
29F
100
AcDbEntity
  8
0
100
AcDbLine
 62
7
  6
CONTINUOUS
 10
62.0403711971
 20
73.3654788784
 11
64.5293767041
 21
74.8024983
  0
LINE
  5
2A0
100
AcDbEntity
  8
0
100
AcDbLine
 62
7
  6
CONTINUOUS
 10
14.8529257367
 20
45.2403779185
 11
15.0379222583
 21
45.3380320431
  0
LINE
  5
2A1
100
AcDbEntity
  8
0
100
AcDbLine
 62
7
  6
CONTINUOUS
 10
63.1700524614
 20
68.9865131678
 11
63.8788588377
 21
69.2514222221
  0
LINE
  5
2A2
100
AcDbEntity
  8
0
100
AcDbLine
 62
7
  6
CONTINUOUS
 10
63.8788588377
 20
66.614889682
 11
62.7795888704
 21
66.2040488979
  0
LINE
  5
2A3
100
AcDbEntity
  8
0
100
AcDbLine
 62
7
  6
CONTINUOUS
 10
62.1690855268
 20
65.9132465537
 11
63.8788564825
 21
66.5522557698
  0
LINE
  5
2A4
100
AcDbEntity
  8
0
100
AcDbLine
 62
7
  6
CONTINUOUS
 10
28.0749690388
 20
53.1654795911
 11
26.9435934786
 21
53.8186647983
  0
LINE
  5
2A5
100
AcDbEntity
  8
0
100
AcDbLine
 62
7
  6
CONTINUOUS
 10
42.9749822594
 20
17.0951001524
 11
42.7788306534
 21
17.8271581496
  0
LINE
  5
2A6
100
AcDbEntity
  8
0
100
AcDbLine
 62
7
  6
CONTINUOUS
 10
34.5817661845
 20
72.0930722653
 11
34.5199020997
 21
72.9452911204
  0
LINE
  5
2A7
100
AcDbEntity
  8
0
100
AcDbLine
 62
7
  6
CONTINUOUS
 10
37.7867095807
 20
12.0872144488
 11
37.7867095807
 21
14.9449729087
  0
LINE
  5
2A8
100
AcDbEntity
  8
0
100
AcDbLine
 62
7
  6
CONTINUOUS
 10
34.5199020997
 20
10.0337798806
 11
34.5508929949
 21
10.4249156517
  0
LINE
  5
2A9
100
AcDbEntity
  8
0
100
AcDbLine
 62
7
  6
CONTINUOUS
 10
15.1402878299
 20
20.0632440742
 11
17.1943868393
 21
23.4136100927
  0
LINE
  5
2AA
100
AcDbEntity
  8
0
100
AcDbLine
 62
7
  6
CONTINUOUS
 10
17.2219234438
 20
22.6100736161
 11
16.9027296912
 21
22.1030588878
  0
LINE
  5
2AB
100
AcDbEntity
  8
0
100
AcDbLine
 62
7
  6
CONTINUOUS
 10
16.264342186
 20
21.089029431
 11
15.9451484335
 21
20.5820147027
  0
LINE
  5
2AC
100
AcDbEntity
  8
0
100
AcDbLine
 62
7
  6
CONTINUOUS
 10
16.2483934321
 20
24.4215978628
 11
16.2214249383
 21
24.3798973821
  0
LINE
  5
2AD
100
AcDbEntity
  8
0
100
AcDbLine
 62
7
  6
CONTINUOUS
 10
17.5837084384
 20
42.9585135655
 11
17.398710953
 21
42.8425788406
  0
LINE
  5
2AE
100
AcDbEntity
  8
0
100
AcDbLine
 62
7
  6
CONTINUOUS
 10
17.8663611589
 20
43.705069025
 11
17.6813646373
 21
43.6074149004
  0
LINE
  5
2AF
100
AcDbEntity
  8
0
100
AcDbLine
 62
7
  6
CONTINUOUS
 10
62.1690855268
 20
65.9132465537
 11
62.7795888704
 21
66.2040488979
  0
LINE
  5
2B0
100
AcDbEntity
  8
0
100
AcDbLine
 62
7
  6
CONTINUOUS
 10
15.6714338596
 20
46.1728814402
 11
15.1025311868
 21
45.9656286453
  0
LINE
  5
2B1
100
AcDbEntity
  8
0
100
AcDbLine
 62
7
  6
CONTINUOUS
 10
31.4569239357
 20
54.9646052
 11
30.3255483755
 21
55.6177904072
  0
LINE
  5
2B2
100
AcDbEntity
  8
0
100
AcDbLine
 62
7
  6
CONTINUOUS
 10
29.5829349271
 20
56.297534574
 11
33.6134603605
 21
53.9705622733
  0
LINE
  5
2B3
100
AcDbEntity
  8
0
100
AcDbLine
 62
7
  6
CONTINUOUS
 10
30.6943076892
 20
57.0422314427
 11
34.0401526028
 21
55.1105506816
  0
LINE
  5
2B4
100
AcDbEntity
  8
0
100
AcDbLine
 62
7
  6
CONTINUOUS
 10
27.495304502
 20
19.0996007749
 11
27.7708283852
 21
19.7443914428
  0
LINE
  5
2B5
100
AcDbEntity
  8
0
100
AcDbLine
 62
7
  6
CONTINUOUS
 10
18.3846769852
 20
19.1735840996
 11
18.7038707378
 21
19.6805988279
  0
LINE
  5
2B6
100
AcDbEntity
  8
0
100
AcDbLine
 62
7
  6
CONTINUOUS
 10
19.3422582429
 20
20.6946282847
 11
19.6614519955
 21
21.201643013
  0
LINE
  5
2B7
100
AcDbEntity
  8
0
100
AcDbLine
 62
7
  6
CONTINUOUS
 10
20.8725690448
 20
20.3037090033
 11
20.5533752923
 21
19.796694275
  0
LINE
  5
2B8
100
AcDbEntity
  8
0
100
AcDbLine
 62
7
  6
CONTINUOUS
 10
19.9149877871
 20
18.7826648182
 11
19.5957940346
 21
18.2756500899
  0
LINE
  5
2B9
100
AcDbEntity
  8
0
100
AcDbLine
 62
7
  6
CONTINUOUS
 10
19.0727427885
 20
21.8813387853
 11
18.9127261015
 21
21.6339103303
  0
LINE
  5
2BA
100
AcDbEntity
  8
0
100
AcDbLine
 62
7
  6
CONTINUOUS
 10
17.5170327401
 20
19.4757963318
 11
17.0035448289
 21
18.6818071362
  0
LINE
  5
2BB
100
AcDbEntity
  8
0
100
AcDbLine
 62
7
  6
CONTINUOUS
 10
17.9309700874
 20
44.3326656272
 11
18.4998727602
 21
44.5399184221
  0
LINE
  5
2BC
100
AcDbEntity
  8
0
100
AcDbLine
 62
7
  6
CONTINUOUS
 10
18.7501793703
 20
43.3856812651
 11
18.8656819224
 21
43.4277591597
  0
LINE
  5
2BD
100
AcDbEntity
  8
0
100
AcDbLine
 62
7
  6
CONTINUOUS
 10
33.8372632109
 20
53.9572899048
 11
33.6135904261
 21
53.9707876083
  0
LINE
  5
2BE
100
AcDbEntity
  8
0
100
AcDbLine
 62
7
  6
CONTINUOUS
 10
34.6676735152
 20
55.2788124102
 11
34.8564961846
 21
55.2560259791
  0
LINE
  5
2BF
100
AcDbEntity
  8
0
100
AcDbLine
 62
7
  6
CONTINUOUS
 10
31.2789473411
 20
57.2352501185
 11
34.6676735152
 21
55.2788124102
  0
LINE
  5
2C0
100
AcDbEntity
  8
0
100
AcDbLine
 62
7
  6
CONTINUOUS
 10
31.3741999513
 20
57.2666977506
 11
34.8565884561
 21
55.2561852938
  0
LINE
  5
2C1
100
AcDbEntity
  8
0
100
AcDbLine
 62
7
  6
CONTINUOUS
 10
24.9880794909
 20
62.9961172716
 11
31.0692231272
 21
59.4852467827
  0
LINE
  5
2C2
100
AcDbEntity
  8
0
100
AcDbLine
 62
7
  6
CONTINUOUS
 10
51.2906738932
 20
92.0623917842
 11
49.0549526479
 21
81.1368767043
  0
LINE
  5
2C3
100
AcDbEntity
  8
0
100
AcDbLine
 62
7
  6
CONTINUOUS
 10
17.7049447064
 20
36.3374963927
 11
18.2441937177
 21
36.6488300961
  0
LINE
  5
2C4
100
AcDbEntity
  8
0
100
AcDbLine
 62
7
  6
CONTINUOUS
 10
32.4461989162
 20
57.4370539824
 11
32.0357879678
 21
57.4851209151
  0
LINE
  5
2C5
100
AcDbEntity
  8
0
100
AcDbLine
 62
7
  6
CONTINUOUS
 10
62.0403711971
 20
44.9511696726
 11
62.8888958018
 21
44.4612848464
  0
LINE
  5
2C6
100
AcDbEntity
  8
0
100
AcDbLine
 62
7
  6
CONTINUOUS
 10
62.0403711971
 20
46.4201405933
 11
65.9288849844
 21
44.1751568998
  0
LINE
  5
2C7
100
AcDbEntity
  8
0
100
AcDbLine
 62
7
  6
CONTINUOUS
 10
35.8738888931
 20
73.6945261974
 11
36.2311076345
 21
72.7738509116
  0
LINE
  5
2C8
100
AcDbEntity
  8
0
100
AcDbLine
 62
7
  6
CONTINUOUS
 10
53.5398947403
 20
19.9287091389
 11
53.3437431343
 21
20.660767136
  0
LINE
  5
2C9
100
AcDbEntity
  8
0
100
AcDbLine
 62
7
  6
CONTINUOUS
 10
46.342666011
 20
83.0003640147
 11
46.342666011
 21
73.3656354926
  0
LINE
  5
2CA
100
AcDbEntity
  8
0
100
AcDbLine
 62
7
  6
CONTINUOUS
 10
26.2255215099
 20
18.852213428
 11
25.695189216
 21
18.0603099336
  0
LINE
  5
2CB
100
AcDbEntity
  8
0
100
AcDbLine
 62
7
  6
CONTINUOUS
 10
39.0595229834
 20
74.4068275271
 11
38.702304242
 21
75.3275028129
  0
LINE
  5
2CC
100
AcDbEntity
  8
0
100
AcDbLine
 62
7
  6
CONTINUOUS
 10
54.428986559
 20
78.0342469699
 11
56.6647078044
 21
88.9597620499
  0
LINE
  5
2CD
100
AcDbEntity
  8
0
100
AcDbLine
 62
7
  6
CONTINUOUS
 10
11.9273811032
 20
26.8590086613
 11
11.5021535519
 21
26.6999481666
  0
LINE
  5
2CE
100
AcDbEntity
  8
0
100
AcDbLine
 62
7
  6
CONTINUOUS
 10
14.366909655
 20
25.4505780582
 11
13.9416821036
 21
25.2915175635
  0
LINE
  5
2CF
100
AcDbEntity
  8
0
100
AcDbLine
 62
7
  6
CONTINUOUS
 10
34.5817661845
 20
72.0930722653
 11
34.8168881842
 21
71.9573275864
  0
LINE
  5
2D0
100
AcDbEntity
  8
0
100
AcDbLine
 62
7
  6
CONTINUOUS
 10
24.9880794909
 20
77.6931607799
 11
31.0692231272
 21
74.1822902911
  0
LINE
  5
2D1
100
AcDbEntity
  8
0
100
AcDbLine
 62
7
  6
CONTINUOUS
 10
26.9674129177
 20
78.8359226454
 11
30.0786957083
 21
77.0396633255
  0
LINE
  5
2D2
100
AcDbEntity
  8
0
100
AcDbLine
 62
7
  6
CONTINUOUS
 10
35.8738888931
 20
73.6945261974
 11
33.0491138714
 21
75.3253739219
  0
LINE
  5
2D3
100
AcDbEntity
  8
0
100
AcDbLine
 62
7
  6
CONTINUOUS
 10
34.5199020997
 20
72.9452911204
 11
33.0491138714
 21
73.883437333
  0
LINE
  5
2D4
100
AcDbEntity
  8
0
100
AcDbLine
 62
7
  6
CONTINUOUS
 10
60.8192936666
 20
70.4571277965
 11
60.3306002415
 21
66.9746725154
  0
LINE
  5
2D5
100
AcDbEntity
  8
0
100
AcDbLine
 62
7
  6
CONTINUOUS
 10
65.1558597795
 20
76.7155509057
 11
64.5293767041
 21
74.8024983
  0
LINE
  5
2D6
100
AcDbEntity
  8
0
100
AcDbLine
 62
7
  6
CONTINUOUS
 10
28.4178877004
 20
15.6564252536
 11
29.6595355401
 21
16.7574582131
  0
LINE
  5
2D7
100
AcDbEntity
  8
0
100
AcDbLine
 62
7
  6
CONTINUOUS
 10
62.8888958018
 20
44.4612848464
 11
62.0403711971
 21
43.9713918617
  0
LINE
  5
2D8
100
AcDbEntity
  8
0
100
AcDbLine
 62
7
  6
CONTINUOUS
 10
65.9288849844
 20
44.1751568998
 11
62.8888958018
 21
42.4200288035
  0
LINE
  5
2D9
100
AcDbEntity
  8
0
100
AcDbLine
 62
7
  6
CONTINUOUS
 10
17.1943868393
 20
23.4136100927
 11
17.6196143906
 21
23.5726705874
  0
LINE
  5
2DA
100
AcDbEntity
  8
0
100
AcDbLine
 62
7
  6
CONTINUOUS
 10
29.8064348241
 20
78.9032557702
 11
31.5565078718
 21
77.8928734829
  0
LINE
  5
2DB
100
AcDbEntity
  8
0
100
AcDbLine
 62
7
  6
CONTINUOUS
 10
38.702304242
 20
75.3275028129
 11
35.8775292202
 21
76.9583505374
  0
LINE
  5
2DC
100
AcDbEntity
  8
0
100
AcDbLine
 62
7
  6
CONTINUOUS
 10
29.8064348241
 20
80.4750229232
 11
32.9177176147
 21
78.6787636033
  0
LINE
  5
2DD
100
AcDbEntity
  8
0
100
AcDbLine
 62
7
  6
CONTINUOUS
 10
62.0403711971
 20
43.9713918617
 11
62.0403711971
 21
65.9875581254
  0
LINE
  5
2DE
100
AcDbEntity
  8
0
100
AcDbLine
 62
7
  6
CONTINUOUS
 10
62.0403711971
 20
70.913492898
 11
62.0403711971
 21
73.3654788784
  0
LINE
  5
2DF
100
AcDbEntity
  8
0
100
AcDbLine
 62
7
  6
CONTINUOUS
 10
62.657778952
 20
69.3957018348
 11
62.1690855268
 21
65.9132465537
  0
LINE
  5
2E0
100
AcDbEntity
  8
0
100
AcDbLine
 62
7
  6
CONTINUOUS
 10
62.7795888704
 20
66.2040488979
 11
63.1700524614
 21
68.9865131678
  0
LINE
  5
2E1
100
AcDbEntity
  8
0
100
AcDbLine
 62
7
  6
CONTINUOUS
 10
65.9288849844
 20
82.224169538
 11
65.1558597795
 21
76.7155509057
  0
LINE
  5
2E2
100
AcDbEntity
  8
0
100
AcDbLine
 62
7
  6
CONTINUOUS
 10
35.8775527719
 20
9.0458320276
 11
35.2141465379
 21
8.1020247027
  0
LINE
  5
2E3
100
AcDbEntity
  8
0
100
AcDbLine
 62
7
  6
CONTINUOUS
 10
38.0425618868
 20
9.7350013182
 11
38.7059681208
 21
10.6788086431
  0
LINE
  5
2E4
100
AcDbEntity
  8
0
100
AcDbLine
 62
7
  6
CONTINUOUS
 10
21.0283486387
 20
17.1088715104
 11
31.0692231272
 21
22.9059384953
  0
LINE
  5
2E5
100
AcDbEntity
  8
0
100
AcDbLine
 62
7
  6
CONTINUOUS
 10
27.5254502005
 20
20.6601681017
 11
26.2255215099
 21
19.9096584022
  0
LINE
  5
2E6
100
AcDbEntity
  8
0
100
AcDbLine
 62
7
  6
CONTINUOUS
 10
26.2255215099
 20
18.852213428
 11
27.7708283852
 21
19.7443914428
  0
LINE
  5
2E7
100
AcDbEntity
  8
0
100
AcDbLine
 62
7
  6
CONTINUOUS
 10
25.695189216
 20
18.0603099336
 11
27.495304502
 21
19.0996007749
  0
LINE
  5
2E8
100
AcDbEntity
  8
0
100
AcDbLine
 62
7
  6
CONTINUOUS
 10
60.3306002415
 20
66.9746725154
 11
62.1690855268
 21
65.9132465537
  0
LINE
  5
2E9
100
AcDbEntity
  8
0
100
AcDbLine
 62
7
  6
CONTINUOUS
 10
62.8888958018
 20
42.4200288035
 11
62.8888958018
 21
44.4612848464
  0
LINE
  5
2EA
100
AcDbEntity
  8
0
100
AcDbLine
 62
7
  6
CONTINUOUS
 10
63.8788564825
 20
66.5522557698
 11
63.8788564825
 21
69.8520669362
  0
LINE
  5
2EB
100
AcDbEntity
  8
0
100
AcDbLine
 62
7
  6
CONTINUOUS
 10
65.9288849844
 20
28.3332418904
 11
65.9288849844
 21
44.1751568998
  0
LINE
  5
2EC
100
AcDbEntity
  8
0
100
AcDbLine
 62
7
  6
CONTINUOUS
 10
65.9288849844
 20
82.224169538
 11
65.9288849844
 21
86.4699821071
  0
LINE
  5
2ED
100
AcDbEntity
  8
0
100
AcDbLine
 62
7
  6
CONTINUOUS
 10
34.5508929949
 20
10.4249156517
 11
34.6742028613
 21
10.5570731225
  0
LINE
  5
2EE
100
AcDbEntity
  8
0
100
AcDbLine
 62
7
  6
CONTINUOUS
 10
60.8192936666
 20
70.4571277965
 11
62.657778952
 21
69.3957018348
  0
LINE
  5
2EF
100
AcDbEntity
  8
0
100
AcDbLine
 62
7
  6
CONTINUOUS
 10
62.0403711971
 20
70.913492898
 11
63.8788564825
 21
69.8520669362
  0
LINE
  5
2F0
100
AcDbEntity
  8
0
100
AcDbLine
 62
7
  6
CONTINUOUS
 10
25.695189216
 20
11.3115247214
 11
30.362113402
 21
14.0059585728
  0
LINE
  5
2F1
100
AcDbEntity
  8
0
100
AcDbLine
 62
7
  6
CONTINUOUS
 10
54.428986559
 20
78.0342469699
 11
49.0549526479
 21
81.1368767043
  0
LINE
  5
2F2
100
AcDbEntity
  8
0
100
AcDbLine
 62
7
  6
CONTINUOUS
 10
46.342666011
 20
83.0003640147
 11
40.9686320999
 21
86.1029937491
  0
LINE
  5
2F3
100
AcDbEntity
  8
0
100
AcDbLine
 62
7
  6
CONTINUOUS
 10
62.657778952
 20
69.3957018348
 11
63.1700524614
 21
68.9865131678
  0
LINE
  5
2F4
100
AcDbEntity
  8
0
100
AcDbLine
 62
7
  6
CONTINUOUS
 10
65.9288849844
 20
28.3332418904
 11
64.77130093
 21
23.9924216543
  0
LINE
  5
2F5
100
AcDbEntity
  8
0
100
AcDbLine
 62
7
  6
CONTINUOUS
 10
37.7867095807
 20
14.9449729087
 11
42.7788306534
 21
17.8271581496
  0
LINE
  5
2F6
100
AcDbEntity
  8
0
100
AcDbLine
 62
7
  6
CONTINUOUS
 10
35.8775292202
 20
12.4268918222
 11
33.0491138714
 21
10.7939152068
  0
LINE
  5
2F7
100
AcDbEntity
  8
0
100
AcDbLine
 62
7
  6
CONTINUOUS
 10
34.6742028613
 20
10.5570731225
 11
37.5026182101
 21
12.190049738
  0
LINE
  5
2F8
100
AcDbEntity
  8
0
100
AcDbLine
 62
7
  6
CONTINUOUS
 10
31.0692231272
 20
8.208894987
 11
33.0491138714
 21
9.3519786178
  0
LINE
  5
2F9
100
AcDbEntity
  8
0
100
AcDbLine
 62
7
  6
CONTINUOUS
 10
37.7337243242
 20
12.0566235793
 11
37.7867095807
 21
12.0872144488
  0
LINE
  5
2FA
100
AcDbEntity
  8
0
100
AcDbLine
 62
7
  6
CONTINUOUS
 10
35.1704430468
 20
10.2705751992
 11
37.9988583956
 21
11.9035518147
  0
LINE
  5
2FB
100
AcDbEntity
  8
0
100
AcDbLine
 62
7
  6
CONTINUOUS
 10
45.7070216924
 20
16.2517302742
 11
53.3437431343
 21
20.660767136
  0
LINE
  5
2FC
100
AcDbEntity
  8
0
100
AcDbLine
 62
7
  6
CONTINUOUS
 10
64.7319427316
 20
93.6173545047
 11
65.9288849844
 21
86.4699821071
  0
LINE
  5
2FD
100
AcDbEntity
  8
0
100
AcDbLine
 62
7
  6
CONTINUOUS
 10
35.8775527719
 20
9.0458320276
 11
38.7059681208
 21
10.6788086431
  0
LINE
  5
2FE
100
AcDbEntity
  8
0
100
AcDbLine
 62
7
  6
CONTINUOUS
 10
35.2141465379
 20
8.1020247027
 11
38.0425618868
 21
9.7350013182
  0
LINE
  5
2FF
100
AcDbEntity
  8
0
100
AcDbLine
 62
7
  6
CONTINUOUS
 10
56.2719341732
 20
19.0853392607
 11
64.77130093
 21
23.9924216543
  0
LINE
  5
300
100
AcDbEntity
  8
0
100
AcDbLine
 62
7
  6
CONTINUOUS
 10
56.6647078044
 20
88.9597620499
 11
51.2906738932
 21
92.0623917842
  0
LINE
  5
301
100
AcDbEntity
  8
0
100
AcDbLine
 62
7
  6
CONTINUOUS
 10
58.6507990954
 20
97.1282249936
 11
64.7319427316
 21
93.6173545047
  0
ARC
  5
302
100
AcDbEntity
  8
0
100
AcDbCircle
 62
7
  6
CONTINUOUS
 10
30.228691363
 20
39.0747566629
 40
16.6218181423
100
AcDbArc
 50
155.5078929431
 51
156.2404012129
  0
ARC
  5
303
100
AcDbEntity
  8
0
100
AcDbCircle
 62
7
  6
CONTINUOUS
 10
33.0571302632
 20
37.441793645
 40
16.6218181418
100
AcDbArc
 50
155.5078929432
 51
156.2404012129
  0
ARC
  5
304
100
AcDbEntity
  8
0
100
AcDbCircle
 62
7
  6
CONTINUOUS
 10
24.5437949071
 20
28.1147214941
 40
12.0827960159
100
AcDbArc
 50
142.6244387956
 51
143.1384196248
  0
ARC
  5
305
100
AcDbEntity
  8
0
100
AcDbCircle
 62
7
  6
CONTINUOUS
 10
24.454809859
 20
28.182867409
 40
11.9707148592
100
AcDbArc
 50
141.7160889939
 51
142.625092367
  0
ARC
  5
306
100
AcDbEntity
  8
0
100
AcDbCircle
 62
7
  6
CONTINUOUS
 10
29.1002682841
 20
41.3076648971
 40
11.9344009513
100
AcDbArc
 50
185.535642203
 51
185.9260041963
  0
ARC
  5
307
100
AcDbEntity
  8
0
100
AcDbCircle
 62
7
  6
CONTINUOUS
 10
28.399990985
 20
13.6129308404
 40
3.427686534
100
AcDbArc
 50
64.4156338789
 51
64.8199563673
  0
ARC
  5
308
100
AcDbEntity
  8
0
100
AcDbCircle
 62
7
  6
CONTINUOUS
 10
28.4484398718
 20
13.7163910383
 40
3.3134443526
100
AcDbArc
 50
64.8169552651
 51
65.7504156226
  0
ARC
  5
309
100
AcDbEntity
  8
0
100
AcDbCircle
 62
7
  6
CONTINUOUS
 10
31.396256388
 20
20.9096245382
 40
3.2967159262
100
AcDbArc
 50
239.9976451817
 51
240.8653435325
  0
ARC
  5
30A
100
AcDbEntity
  8
0
100
AcDbCircle
 62
7
  6
CONTINUOUS
 10
25.8465036728
 20
55.1350631242
 40
1.7136249865
100
AcDbArc
 50
308.7255421984
 51
309.8079136603
  0
ARC
  5
30B
100
AcDbEntity
  8
0
100
AcDbCircle
 62
7
  6
CONTINUOUS
 10
15.9309356887
 20
20.2339854225
 40
0.9505927927
100
AcDbArc
 50
341.0847282195
 51
346.2658326679
  0
SPLINE
  5
30C
100
AcDbEntity
  8
0
100
AcDbSpline
 62
7
  6
CONTINUOUS
 70
0
 71
3
 72
15
 73
11
 74
0
 42
0.0000001
 43
0.0000001
 44
0.0000000001
 40
0.0
 40
0.0
 40
0.0
 40
0.0
 40
0.1141229605
 40
0.2373462928
 40
0.366971064
 40
0.4999983279
 40
0.633025824
 40
0.762651271
 40
0.8858756957
 40
1.0
 40
1.0
 40
1.0
 40
1.0
 10
14.9472050025
 20
57.1990502866
 30
0.0
 10
14.8504181198
 20
57.1431706874
 30
0.0
 10
14.65920383
 20
57.0090780933
 30
0.0
 10
14.3960486133
 20
56.7629637045
 30
0.0
 10
14.1535911079
 20
56.4719244254
 30
0.0
 10
13.9408673266
 20
56.1470712387
 30
0.0
 10
13.7658994678
 20
55.8004190222
 30
0.0
 10
13.635081572
 20
55.4449226693
 30
0.0
 10
13.5535180726
 20
55.0939632176
 30
0.0
 10
13.532997328
 20
54.8613181594
 30
0.0
 10
13.532997328
 20
54.7495571446
 30
0.0
  0
SPLINE
  5
30D
100
AcDbEntity
  8
0
100
AcDbSpline
 62
7
  6
CONTINUOUS
 70
0
 71
3
 72
12
 73
8
 74
0
 42
0.0000001
 43
0.0000001
 44
0.0000000001
 40
0.0
 40
0.0
 40
0.0
 40
0.0
 40
0.2626357167
 40
0.5234189258
 40
0.7720265963
 40
0.8890976057
 40
1.0
 40
1.0
 40
1.0
 40
1.0
 10
13.532997328
 20
36.1386532736
 30
0.0
 10
13.1730968317
 20
35.6586455544
 30
0.0
 10
12.5253418976
 20
34.6478057658
 30
0.0
 10
11.7895799669
 20
33.0391536442
 30
0.0
 10
11.3910118419
 20
31.6575012644
 30
0.0
 10
11.2282701193
 20
30.5798259534
 30
0.0
 10
11.1995546652
 20
30.0587691773
 30
0.0
 10
11.1995546652
 20
29.8054315818
 30
0.0
  0
SPLINE
  5
30E
100
AcDbEntity
  8
0
100
AcDbSpline
 62
7
  6
CONTINUOUS
 70
0
 71
3
 72
11
 73
7
 74
0
 42
0.0000001
 43
0.0000001
 44
0.0000000001
 40
0.0
 40
0.0
 40
0.0
 40
0.0
 40
0.2816833494
 40
0.5410631535
 40
0.779199773
 40
1.0
 40
1.0
 40
1.0
 40
1.0
 10
11.1995546652
 20
29.8054315818
 30
0.0
 10
11.1995546652
 20
29.5215816341
 30
0.0
 10
11.2331405678
 20
28.9754029977
 30
0.0
 10
11.3981821203
 20
28.2042356992
 30
0.0
 10
11.6740677604
 20
27.5304452149
 30
0.0
 10
11.9378989085
 20
27.1448624223
 30
0.0
 10
12.0853036905
 20
26.9781968025
 30
0.0
  0
SPLINE
  5
30F
100
AcDbEntity
  8
0
100
AcDbSpline
 62
7
  6
CONTINUOUS
 70
0
 71
3
 72
9
 73
5
 74
0
 42
0.0000001
 43
0.0000001
 44
0.0000000001
 40
0.0
 40
0.0
 40
0.0
 40
0.0
 40
0.5043647844
 40
1.0
 40
1.0
 40
1.0
 40
1.0
 10
12.0853036905
 20
26.9781968025
 30
0.0
 10
12.1758745515
 20
26.8757913819
 30
0.0
 10
12.3713157166
 20
26.6861367456
 30
0.0
 10
12.5951210658
 20
26.5307524376
 30
0.0
 10
12.7114749578
 20
26.463593308
 30
0.0
  0
SPLINE
  5
310
100
AcDbEntity
  8
0
100
AcDbSpline
 62
7
  6
CONTINUOUS
 70
0
 71
3
 72
17
 73
13
 74
0
 42
0.0000001
 43
0.0000001
 44
0.0000000001
 40
0.0
 40
0.0
 40
0.0
 40
0.0
 40
0.0428524532
 40
0.0874703825
 40
0.1353095387
 40
0.1872644534
 40
0.3045313435
 40
0.4381999449
 40
0.5825499749
 40
0.7296753051
 40
0.8713435052
 40
1.0
 40
1.0
 40
1.0
 40
1.0
 10
34.8565872015
 20
55.2561835926
 30
0.0
 10
34.8726189201
 20
55.2469215225
 30
0.0
 10
34.903018824
 20
55.2236662356
 30
0.0
 10
34.9395829399
 20
55.1773942746
 30
0.0
 10
34.9669033458
 20
55.1208192655
 30
0.0
 10
34.9915206723
 20
55.0298717848
 30
0.0
 10
34.9945640423
 20
54.897236428
 30
0.0
 10
34.9602481655
 20
54.7289148255
 30
0.0
 10
34.891052914
 20
54.5577376241
 30
0.0
 10
34.7926210153
 20
54.3975241664
 30
0.0
 10
34.6729432315
 20
54.2614465222
 30
0.0
 10
34.5794812263
 20
54.1894811053
 30
0.0
 10
34.5313409097
 20
54.1616874464
 30
0.0
  0
SPLINE
  5
311
100
AcDbEntity
  8
0
100
AcDbSpline
 62
7
  6
CONTINUOUS
 70
0
 71
3
 72
12
 73
8
 74
0
 42
0.0000001
 43
0.0000001
 44
0.0000000001
 40
0.0
 40
0.0
 40
0.0
 40
0.0
 40
0.0994612502
 40
0.202607625
 40
0.4300364485
 40
0.6964667823
 40
1.0
 40
1.0
 40
1.0
 40
1.0
 10
19.1822227982
 20
19.0762639302
 30
0.0
 10
19.1671399316
 20
19.0849795733
 30
0.0
 10
19.1341062825
 20
19.0990144484
 30
0.0
 10
19.0592489337
 20
19.111582378
 30
0.0
 10
18.9533703028
 20
19.0949159105
 30
0.0
 10
18.8271249888
 20
19.0321302658
 30
0.0
 10
18.7489894463
 20
18.9687607979
 30
0.0
 10
18.71074696
 20
18.9318326354
 30
0.0
  0
SPLINE
  5
312
100
AcDbEntity
  8
0
100
AcDbSpline
 62
7
  6
CONTINUOUS
 70
0
 71
3
 72
12
 73
8
 74
0
 42
0.0000001
 43
0.0000001
 44
0.0000000001
 40
0.0
 40
0.0
 40
0.0
 40
0.0
 40
0.2895594633
 40
0.5486416486
 40
0.7816264989
 40
0.8918342417
 40
1.0
 40
1.0
 40
1.0
 40
1.0
 10
56.2719341732
 20
19.0853392607
 30
0.0
 10
56.0963734688
 20
18.9839798458
 30
0.0
 10
55.7471748516
 20
18.8178672157
 30
0.0
 10
55.2108550166
 20
18.6881446813
 30
0.0
 10
54.7825845607
 20
18.6995740593
 30
0.0
 10
54.4768136732
 20
18.78417113
 30
0.0
 10
54.3375712156
 20
18.8494026472
 30
0.0
 10
54.271987109
 20
18.887260707
 30
0.0
  0
SPLINE
  5
313
100
AcDbEntity
  8
0
100
AcDbSpline
 62
7
  6
CONTINUOUS
 70
0
 71
3
 72
12
 73
8
 74
0
 42
0.0000001
 43
0.0000001
 44
0.0000000001
 40
0.0
 40
0.0
 40
0.0
 40
0.0
 40
0.2895594633
 40
0.5486416486
 40
0.7816264989
 40
0.8918342417
 40
1.0
 40
1.0
 40
1.0
 40
1.0
 10
45.7070216924
 20
16.2517302742
 30
0.0
 10
45.531460988
 20
16.1503708593
 30
0.0
 10
45.1822623707
 20
15.9842582292
 30
0.0
 10
44.6459425357
 20
15.8545356949
 30
0.0
 10
44.2176720799
 20
15.8659650729
 30
0.0
 10
43.9119011923
 20
15.9505621435
 30
0.0
 10
43.7726587347
 20
16.0157936608
 30
0.0
 10
43.7070746281
 20
16.0536517205
 30
0.0
  0
SPLINE
  5
314
100
AcDbEntity
  8
0
100
AcDbSpline
 62
7
  6
CONTINUOUS
 70
0
 71
3
 72
11
 73
7
 74
0
 42
0.0000001
 43
0.0000001
 44
0.0000000001
 40
0.0
 40
0.0
 40
0.0
 40
0.0
 40
0.289702809
 40
0.549088757
 40
0.7822160314
 40
1.0
 40
1.0
 40
1.0
 40
1.0
 10
21.0283486387
 20
17.1088715104
 30
0.0
 10
20.940592236
 20
17.0582056301
 30
0.0
 10
20.7660164772
 20
16.9751548719
 30
0.0
 10
20.4976897727
 20
16.9103564019
 30
0.0
 10
20.24592054
 20
16.9167290014
 30
0.0
 10
20.0943417068
 20
16.9717367992
 30
0.0
 10
20.0283705955
 20
17.009824384
 30
0.0
  0
SPLINE
  5
315
100
AcDbEntity
  8
0
100
AcDbSpline
 62
7
  6
CONTINUOUS
 70
0
 71
3
 72
11
 73
7
 74
0
 42
0.0000001
 43
0.0000001
 44
0.0000000001
 40
0.0
 40
0.0
 40
0.0
 40
0.0
 40
0.2250591393
 40
0.4671036729
 40
0.7258509719
 40
1.0
 40
1.0
 40
1.0
 40
1.0
 10
32.0357879678
 20
57.4851209151
 30
0.0
 10
31.6687314143
 20
57.4027844602
 30
0.0
 10
30.9199228837
 20
57.1706529724
 30
0.0
 10
29.8161523736
 20
56.6602227963
 30
0.0
 10
28.7087777296
 20
55.9834952282
 30
0.0
 10
27.9984628599
 20
55.443438639
 30
0.0
 10
27.6464422505
 20
55.1500855503
 30
0.0
  0
SPLINE
  5
316
100
AcDbEntity
  8
0
100
AcDbSpline
 62
7
  6
CONTINUOUS
 70
0
 71
3
 72
11
 73
7
 74
0
 42
0.0000001
 43
0.0000001
 44
0.0000000001
 40
0.0
 40
0.0
 40
0.0
 40
0.0
 40
0.2494167041
 40
0.5119870524
 40
0.7681852206
 40
1.0
 40
1.0
 40
1.0
 40
1.0
 10
27.6464422505
 20
55.1500855503
 30
0.0
 10
27.5319829126
 20
55.0547019296
 30
0.0
 10
27.3209909471
 20
54.8293739008
 30
0.0
 10
27.0771690406
 20
54.4375356703
 30
0.0
 10
26.9154056029
 20
54.0165381586
 30
0.0
 10
26.8707602725
 20
53.7247191585
 30
0.0
 10
26.8707602725
 20
53.5862407553
 30
0.0
  0
SPLINE
  5
317
100
AcDbEntity
  8
0
100
AcDbSpline
 62
7
  6
CONTINUOUS
 70
0
 71
3
 72
11
 73
7
 74
0
 42
0.0000001
 43
0.0000001
 44
0.0000000001
 40
0.0
 40
0.0
 40
0.0
 40
0.0
 40
0.2896009975
 40
0.549115296
 40
0.7822446402
 40
1.0
 40
1.0
 40
1.0
 40
1.0
 10
26.8707602725
 20
53.5862407553
 30
0.0
 10
26.8707602725
 20
53.5153309702
 30
0.0
 10
26.8815568599
 20
53.3804261672
 30
0.0
 10
26.9361366653
 20
53.1950626992
 30
0.0
 10
27.0281160694
 20
53.044605206
 30
0.0
 10
27.1145719035
 20
52.9720496431
 30
0.0
 10
27.1607385989
 20
52.9453764354
 30
0.0
  0
SPLINE
  5
318
100
AcDbEntity
  8
0
100
AcDbSpline
 62
7
  6
CONTINUOUS
 70
0
 71
3
 72
9
 73
5
 74
0
 42
0.0000001
 43
0.0000001
 44
0.0000000001
 40
0.0
 40
0.0
 40
0.0
 40
0.0
 40
0.4826334377
 40
1.0
 40
1.0
 40
1.0
 40
1.0
 10
42.7306386606
 20
16.617345497
 30
0.0
 10
42.5749998198
 20
16.7071958705
 30
0.0
 10
42.2662279712
 20
16.9170212298
 30
0.0
 10
41.9758258538
 20
17.1502054837
 30
0.0
 10
41.8274442778
 20
17.2730680421
 30
0.0
  0
SPLINE
  5
319
100
AcDbEntity
  8
0
100
AcDbSpline
 62
7
  6
CONTINUOUS
 70
0
 71
3
 72
9
 73
5
 74
0
 42
0.0000001
 43
0.0000001
 44
0.0000000001
 40
0.0
 40
0.0
 40
0.0
 40
0.0
 40
0.4840511241
 40
1.0
 40
1.0
 40
1.0
 40
1.0
 10
53.2689812022
 20
19.4662898262
 30
0.0
 10
53.1165541954
 20
19.5542856263
 30
0.0
 10
52.8141891906
 20
19.7577309857
 30
0.0
 10
52.5286274453
 20
19.9829346093
 30
0.0
 10
52.3830314196
 20
20.1012402083
 30
0.0
  0
SPLINE
  5
31A
100
AcDbEntity
  8
0
100
AcDbSpline
 62
7
  6
CONTINUOUS
 70
0
 71
3
 72
9
 73
5
 74
0
 42
0.0000001
 43
0.0000001
 44
0.0000000001
 40
0.0
 40
0.0
 40
0.0
 40
0.0
 40
0.2457987586
 40
1.0
 40
1.0
 40
1.0
 40
1.0
 10
34.3950083041
 20
54.1068421375
 30
0.0
 10
34.348782647
 20
54.096718802
 30
0.0
 10
34.1612150269
 20
54.0532915917
 30
0.0
 10
33.9757038344
 20
54.0010721762
 30
0.0
 10
33.8372632109
 20
53.9572899048
 30
0.0
  0
SPLINE
  5
31B
100
AcDbEntity
  8
0
100
AcDbSpline
 62
7
  6
CONTINUOUS
 70
0
 71
3
 72
9
 73
5
 74
0
 42
0.0000001
 43
0.0000001
 44
0.0000000001
 40
0.0
 40
0.0
 40
0.0
 40
0.0
 40
0.2661058004
 40
1.0
 40
1.0
 40
1.0
 40
1.0
 10
34.5313409097
 20
54.1616874464
 30
0.0
 10
34.5200285526
 20
54.155156293
 30
0.0
 10
34.47677182
 20
54.1319880643
 30
0.0
 10
34.4301990557
 20
54.1145488486
 30
0.0
 10
34.3950083041
 20
54.1068421375
 30
0.0
  0
SPLINE
  5
31C
100
AcDbEntity
  8
0
100
AcDbSpline
 62
7
  6
CONTINUOUS
 70
0
 71
3
 72
13
 73
9
 74
0
 42
0.0000001
 43
0.0000001
 44
0.0000000001
 40
0.0
 40
0.0
 40
0.0
 40
0.0
 40
0.3168988429
 40
0.5835691449
 40
0.6995884839
 40
0.8058432858
 40
0.9048693723
 40
1.0
 40
1.0
 40
1.0
 40
1.0
 10
29.8093120197
 20
16.7374737043
 30
0.0
 10
29.6828904869
 20
16.7944115106
 30
0.0
 10
29.443151011
 20
16.8850451148
 30
0.0
 10
29.138956996
 20
16.9397860379
 30
0.0
 10
28.9243538241
 20
16.9330621074
 30
0.0
 10
28.7857355105
 20
16.9054406486
 30
0.0
 10
28.6633487447
 20
16.855103855
 30
0.0
 10
28.5930485246
 20
16.8059069305
 30
0.0
 10
28.5619171506
 20
16.7782800191
 30
0.0
  0
SPLINE
  5
31D
100
AcDbEntity
  8
0
100
AcDbSpline
 62
7
  6
CONTINUOUS
 70
0
 71
3
 72
15
 73
11
 74
0
 42
0.0000001
 43
0.0000001
 44
0.0000000001
 40
0.0
 40
0.0
 40
0.0
 40
0.0
 40
0.1141241598
 40
0.2373483675
 40
0.3669736385
 40
0.5000010132
 40
0.6330282465
 40
0.7626531028
 40
0.8858766831
 40
1.0
 40
1.0
 40
1.0
 40
1.0
 10
29.8317811081
 20
17.8276305541
 30
0.0
 10
29.8317811081
 20
17.9701257526
 30
0.0
 10
29.8056170103
 20
18.2667479377
 30
0.0
 10
29.7016226964
 20
18.7142206577
 30
0.0
 10
29.5348285595
 20
19.167477665
 30
0.0
 10
29.3117427112
 20
19.6094582121
 30
0.0
 10
29.0405176205
 20
20.0236448117
 30
0.0
 10
28.731381637
 20
20.3947185637
 30
0.0
 10
28.3958557607
 20
20.7085129105
 30
0.0
 10
28.1520555574
 20
20.8794797776
 30
0.0
 10
28.028651309
 20
20.9507256418
 30
0.0
  0
SPLINE
  5
31E
100
AcDbEntity
  8
0
100
AcDbSpline
 62
7
  6
CONTINUOUS
 70
0
 71
3
 72
9
 73
5
 74
0
 42
0.0000001
 43
0.0000001
 44
0.0000000001
 40
0.0
 40
0.0
 40
0.0
 40
0.0
 40
0.2564133157
 40
1.0
 40
1.0
 40
1.0
 40
1.0
 10
28.028651309
 20
20.9507256418
 30
0.0
 10
28.0085591471
 20
20.9623255945
 30
0.0
 10
27.9295452149
 20
21.0064130068
 30
0.0
 10
27.847880368
 20
21.0458044673
 30
0.0
 10
27.7858580866
 20
21.0718775645
 30
0.0
  0
SPLINE
  5
31F
100
AcDbEntity
  8
0
100
AcDbSpline
 62
7
  6
CONTINUOUS
 70
0
 71
3
 72
10
 73
6
 74
0
 42
0.0000001
 43
0.0000001
 44
0.0000000001
 40
0.0
 40
0.0
 40
0.0
 40
0.0
 40
0.2696834506
 40
0.5258488347
 40
1.0
 40
1.0
 40
1.0
 40
1.0
 10
17.2296440391
 20
40.0755098338
 30
0.0
 10
17.2643108807
 20
39.7415497026
 30
0.0
 10
17.3596535021
 20
39.0925392445
 30
0.0
 10
17.6580393862
 20
37.8830552345
 30
0.0
 10
18.0146892095
 20
37.0346323059
 30
0.0
 10
18.3149034683
 20
36.5263564844
 30
0.0
  0
SPLINE
  5
320
100
AcDbEntity
  8
0
100
AcDbSpline
 62
7
  6
CONTINUOUS
 70
0
 71
3
 72
13
 73
9
 74
0
 42
0.0000001
 43
0.0000001
 44
0.0000000001
 40
0.0
 40
0.0
 40
0.0
 40
0.0
 40
0.202909569
 40
0.3274604174
 40
0.4624751065
 40
0.7430778801
 40
0.8786797445
 40
1.0
 40
1.0
 40
1.0
 40
1.0
 10
15.1365042793
 20
45.5739521481
 30
0.0
 10
15.1460799808
 20
45.5582820124
 30
0.0
 10
15.1507436288
 20
45.5268575314
 30
0.0
 10
15.1448447563
 20
45.485549428
 30
0.0
 10
15.1298963308
 20
45.4387171489
 30
0.0
 10
15.1039015797
 20
45.3951617545
 30
0.0
 10
15.0707076259
 20
45.3594669677
 30
0.0
 10
15.0518579517
 20
45.3453882784
 30
0.0
 10
15.0421477182
 20
45.3402625368
 30
0.0
  0
SPLINE
  5
321
100
AcDbEntity
  8
0
100
AcDbSpline
 62
7
  6
CONTINUOUS
 70
0
 71
3
 72
13
 73
9
 74
0
 42
0.0000001
 43
0.0000001
 44
0.0000000001
 40
0.0
 40
0.0
 40
0.0
 40
0.0
 40
0.1231405512
 40
0.2610864265
 40
0.5451716462
 40
0.6802556202
 40
0.8033153513
 40
1.0
 40
1.0
 40
1.0
 40
1.0
 10
14.8478820914
 20
45.2377155291
 30
0.0
 10
14.8358140913
 20
45.2313451932
 30
0.0
 10
14.8124371534
 20
45.2136878836
 30
0.0
 10
14.7716624126
 20
45.1689461972
 30
0.0
 10
14.7403414059
 20
45.1144398573
 30
0.0
 10
14.7237060902
 20
45.0562898631
 30
0.0
 10
14.7186238747
 20
45.0063608025
 30
0.0
 10
14.7272162357
 20
44.9686537748
 30
0.0
 10
14.7409059847
 20
44.9516931341
 30
0.0
  0
SPLINE
  5
322
100
AcDbEntity
  8
0
100
AcDbSpline
 62
7
  6
CONTINUOUS
 70
0
 71
3
 72
12
 73
8
 74
0
 42
0.0000001
 43
0.0000001
 44
0.0000000001
 40
0.0
 40
0.0
 40
0.0
 40
0.0
 40
0.196176743
 40
0.3183351656
 40
0.4527491972
 40
0.7367280918
 40
1.0
 40
1.0
 40
1.0
 40
1.0
 10
14.8402499109
 20
44.8286129635
 30
0.0
 10
14.8514691322
 20
44.8147131336
 30
0.0
 10
14.858761827
 20
44.7840123665
 30
0.0
 10
14.8550830206
 20
44.7431199858
 30
0.0
 10
14.8420344865
 20
44.6953043859
 30
0.0
 10
14.8117857624
 20
44.6401986958
 30
0.0
 10
14.7755823734
 20
44.6042062863
 30
0.0
 10
14.7552695379
 20
44.5914765836
 30
0.0
  0
SPLINE
  5
323
100
AcDbEntity
  8
0
100
AcDbSpline
 62
7
  6
CONTINUOUS
 70
0
 71
3
 72
12
 73
8
 74
0
 42
0.0000001
 43
0.0000001
 44
0.0000000001
 40
0.0
 40
0.0
 40
0.0
 40
0.0
 40
0.2675477752
 40
0.5548027433
 40
0.689212913
 40
0.8095489641
 40
1.0
 40
1.0
 40
1.0
 40
1.0
 10
14.5702720524
 20
44.4755418586
 30
0.0
 10
14.5450294772
 20
44.4597227733
 30
0.0
 10
14.5004454927
 20
44.4146609902
 30
0.0
 10
14.4641697524
 20
44.3458274535
 30
0.0
 10
14.4499410367
 20
44.28668043
 30
0.0
 10
14.4476245052
 20
44.2374011004
 30
0.0
 10
14.4597495674
 20
44.2009203686
 30
0.0
 10
14.4752322938
 20
44.1864303703
 30
0.0
  0
SPLINE
  5
324
100
AcDbEntity
  8
0
100
AcDbSpline
 62
7
  6
CONTINUOUS
 70
0
 71
3
 72
12
 73
8
 74
0
 42
0.0000001
 43
0.0000001
 44
0.0000000001
 40
0.0
 40
0.0
 40
0.0
 40
0.0
 40
0.1892991032
 40
0.3080655043
 40
0.4405325305
 40
0.7266930512
 40
1.0
 40
1.0
 40
1.0
 40
1.0
 10
14.5875604345
 20
44.0813045334
 30
0.0
 10
14.5999885305
 20
44.0696733074
 30
0.0
 10
14.6101988347
 20
44.0408262861
 30
0.0
 10
14.6092519296
 20
44.0013821848
 30
0.0
 10
14.5991126964
 20
43.9537580186
 30
0.0
 10
14.5712641586
 20
43.8971565433
 30
0.0
 10
14.5366881792
 20
43.8591263551
 30
0.0
 10
14.5168028658
 20
43.8446852051
 30
0.0
  0
SPLINE
  5
325
100
AcDbEntity
  8
0
100
AcDbSpline
 62
7
  6
CONTINUOUS
 70
0
 71
3
 72
14
 73
10
 74
0
 42
0.0000001
 43
0.0000001
 44
0.0000000001
 40
0.0
 40
0.0
 40
0.0
 40
0.0
 40
0.1337799084
 40
0.2776410638
 40
0.4959831172
 40
0.6974859893
 40
0.7863510078
 40
0.8658716877
 40
1.0
 40
1.0
 40
1.0
 40
1.0
 10
14.3331566384
 20
43.711317294
 30
0.0
 10
14.3212118235
 20
43.7026427078
 30
0.0
 10
14.2983680269
 20
43.6819021784
 30
0.0
 10
14.2644084884
 20
43.6387249775
 30
0.0
 10
14.2358814378
 20
43.5828369729
 30
0.0
 10
14.2224983168
 20
43.5275181383
 30
0.0
 10
14.2229533116
 20
43.4864354134
 30
0.0
 10
14.2296864404
 20
43.4537008598
 30
0.0
 10
14.2436323757
 20
43.4323314064
 30
0.0
 10
14.2557915576
 20
43.4238923353
 30
0.0
  0
SPLINE
  5
326
100
AcDbEntity
  8
0
100
AcDbSpline
 62
7
  6
CONTINUOUS
 70
0
 71
3
 72
13
 73
9
 74
0
 42
0.0000001
 43
0.0000001
 44
0.0000000001
 40
0.0
 40
0.0
 40
0.0
 40
0.0
 40
0.0871428547
 40
0.1863555641
 40
0.3639717686
 40
0.5711472099
 40
0.7908131938
 40
1.0
 40
1.0
 40
1.0
 40
1.0
 10
14.3802828606
 20
43.3374892397
 30
0.0
 10
14.3866484166
 20
43.3330712304
 30
0.0
 10
14.3979562957
 20
43.3201532258
 30
0.0
 10
14.4089121239
 20
43.2891383486
 30
0.0
 10
14.4080201786
 20
43.2451470968
 30
0.0
 10
14.3925076518
 20
43.1932273504
 30
0.0
 10
14.3644544529
 20
43.1436264733
 30
0.0
 10
14.3385920325
 20
43.1149788521
 30
0.0
 10
14.3242652921
 20
43.1031165102
 30
0.0
  0
SPLINE
  5
327
100
AcDbEntity
  8
0
100
AcDbSpline
 62
7
  6
CONTINUOUS
 70
0
 71
3
 72
13
 73
9
 74
0
 42
0.0000001
 43
0.0000001
 44
0.0000000001
 40
0.0
 40
0.0
 40
0.0
 40
0.0
 40
0.2862042509
 40
0.5749951365
 40
0.7040852852
 40
0.8167267995
 40
0.9133956554
 40
1.0
 40
1.0
 40
1.0
 40
1.0
 10
14.1433126679
 20
42.9532902533
 30
0.0
 10
14.1193411287
 20
42.9334421521
 30
0.0
 10
14.0790595536
 20
42.8839432218
 30
0.0
 10
14.0492054048
 20
42.8119674368
 30
0.0
 10
14.04225353
 20
42.7543244718
 30
0.0
 10
14.0463759402
 20
42.7173152463
 30
0.0
 10
14.0599759413
 20
42.6873609985
 30
0.0
 10
14.0757441763
 20
42.6738233007
 30
0.0
 10
14.0841877578
 20
42.6696527305
 30
0.0
  0
SPLINE
  5
328
100
AcDbEntity
  8
0
100
AcDbSpline
 62
7
  6
CONTINUOUS
 70
0
 71
3
 72
10
 73
6
 74
0
 42
0.0000001
 43
0.0000001
 44
0.0000000001
 40
0.0
 40
0.0
 40
0.0
 40
0.0
 40
0.4365160827
 40
0.7023960934
 40
1.0
 40
1.0
 40
1.0
 40
1.0
 10
14.2293629197
 20
42.596501918
 30
0.0
 10
14.2404946278
 20
42.5873705038
 30
0.0
 10
14.2518184259
 20
42.5647702368
 30
0.0
 10
14.2546920264
 20
42.5319472944
 30
0.0
 10
14.2529093317
 20
42.5132885994
 30
0.0
 10
14.2511950309
 20
42.503623431
 30
0.0
  0
SPLINE
  5
329
100
AcDbEntity
  8
0
100
AcDbSpline
 62
7
  6
CONTINUOUS
 70
0
 71
3
 72
9
 73
5
 74
0
 42
0.0000001
 43
0.0000001
 44
0.0000000001
 40
0.0
 40
0.0
 40
0.0
 40
0.0
 40
0.4965769512
 40
1.0
 40
1.0
 40
1.0
 40
1.0
 10
14.2511950309
 20
42.503623431
 30
0.0
 10
14.2468093882
 20
42.4788973293
 30
0.0
 10
14.2285360922
 20
42.4307257824
 30
0.0
 10
14.1976729678
 20
42.3895642926
 30
0.0
 10
14.1790641524
 20
42.3721909268
 30
0.0
  0
SPLINE
  5
32A
100
AcDbEntity
  8
0
100
AcDbSpline
 62
7
  6
CONTINUOUS
 70
0
 71
3
 72
11
 73
7
 74
0
 42
0.0000001
 43
0.0000001
 44
0.0000000001
 40
0.0
 40
0.0
 40
0.0
 40
0.0
 40
0.2623247215
 40
0.5323922527
 40
0.7847588461
 40
1.0
 40
1.0
 40
1.0
 40
1.0
 10
14.0108742118
 20
42.2151672092
 30
0.0
 10
13.9931504166
 20
42.1986201065
 30
0.0
 10
13.9615392381
 20
42.1602502823
 30
0.0
 10
13.9277154103
 20
42.0954747044
 30
0.0
 10
13.9100840887
 20
42.0290693274
 30
0.0
 10
13.9104967178
 20
41.9848220817
 30
0.0
 10
13.9151047585
 20
41.9654676911
 30
0.0
  0
SPLINE
  5
32B
100
AcDbEntity
  8
0
100
AcDbSpline
 62
7
  6
CONTINUOUS
 70
0
 71
3
 72
9
 73
5
 74
0
 42
0.0000001
 43
0.0000001
 44
0.0000000001
 40
0.0
 40
0.0
 40
0.0
 40
0.0
 40
0.5106473291
 40
1.0
 40
1.0
 40
1.0
 40
1.0
 10
17.6196143906
 20
23.5726705874
 30
0.0
 10
17.7428154369
 20
23.3722471971
 30
0.0
 10
18.0277917649
 20
23.0040578745
 30
0.0
 10
18.397369334
 20
22.7190250067
 30
0.0
 10
18.5926273083
 20
22.6063199191
 30
0.0
  0
SPLINE
  5
32C
100
AcDbEntity
  8
0
100
AcDbSpline
 62
7
  6
CONTINUOUS
 70
0
 71
3
 72
13
 73
9
 74
0
 42
0.0000001
 43
0.0000001
 44
0.0000000001
 40
0.0
 40
0.0
 40
0.0
 40
0.0
 40
0.3062174482
 40
0.5753445704
 40
0.6940354508
 40
0.802759196
 40
0.903581263
 40
1.0
 40
1.0
 40
1.0
 40
1.0
 10
19.9875219703
 20
20.9598915489
 30
0.0
 10
19.967477718
 20
20.9012285474
 30
0.0
 10
19.9396663754
 20
20.7872834339
 30
0.0
 10
19.937777316
 20
20.6448465926
 30
0.0
 10
19.9609351773
 20
20.546523534
 30
0.0
 10
19.9883455654
 20
20.4854541278
 30
0.0
 10
20.0261341624
 20
20.4356281933
 30
0.0
 10
20.0581223256
 20
20.410795371
 30
0.0
 10
20.0750232319
 20
20.4010291727
 30
0.0
  0
SPLINE
  5
32D
100
AcDbEntity
  8
0
100
AcDbSpline
 62
7
  6
CONTINUOUS
 70
0
 71
3
 72
12
 73
8
 74
0
 42
0.0000001
 43
0.0000001
 44
0.0000000001
 40
0.0
 40
0.0
 40
0.0
 40
0.0
 40
0.1993381995
 40
0.3167016359
 40
0.4443093085
 40
0.7195011266
 40
1.0
 40
1.0
 40
1.0
 40
1.0
 10
20.5533752923
 20
19.796694275
 30
0.0
 10
20.4939994492
 20
19.7961126459
 30
0.0
 10
20.4000905633
 20
19.7662865001
 30
0.0
 10
20.2879076182
 20
19.6962078294
 30
0.0
 10
20.1694324379
 20
19.5953609326
 30
0.0
 10
20.0414979046
 20
19.434654602
 30
0.0
 10
19.9679113664
 20
19.2846025734
 30
0.0
 10
19.940366634
 20
19.2057185685
 30
0.0
  0
SPLINE
  5
32E
100
AcDbEntity
  8
0
100
AcDbSpline
 62
7
  6
CONTINUOUS
 70
0
 71
3
 72
9
 73
5
 74
0
 42
0.0000001
 43
0.0000001
 44
0.0000000001
 40
0.0
 40
0.0
 40
0.0
 40
0.0
 40
0.5451435643
 40
1.0
 40
1.0
 40
1.0
 40
1.0
 10
19.940366634
 20
19.2057185685
 30
0.0
 10
19.9146438389
 20
19.1320523206
 30
0.0
 10
19.8820569243
 20
18.9912299723
 30
0.0
 10
19.8934769167
 20
18.8441135123
 30
0.0
 10
19.9149877871
 20
18.7826648182
 30
0.0
  0
SPLINE
  5
32F
100
AcDbEntity
  8
0
100
AcDbSpline
 62
7
  6
CONTINUOUS
 70
0
 71
3
 72
14
 73
10
 74
0
 42
0.0000001
 43
0.0000001
 44
0.0000000001
 40
0.0
 40
0.0
 40
0.0
 40
0.0
 40
0.1080578171
 40
0.2181294197
 40
0.3321081678
 40
0.4514991969
 40
0.5774437442
 40
0.7107282604
 40
1.0
 40
1.0
 40
1.0
 40
1.0
 10
18.7926185941
 20
22.9527228192
 30
0.0
 10
18.6729117783
 20
23.0218172466
 30
0.0
 10
18.4428144991
 20
23.1824125665
 30
0.0
 10
18.1387416377
 20
23.4816387532
 30
0.0
 10
17.8773359489
 20
23.8368417309
 30
0.0
 10
17.6607318747
 20
24.2438390433
 30
0.0
 10
17.4908810505
 20
24.698751041
 30
0.0
 10
17.323902013
 20
25.3814062718
 30
0.0
 10
17.2806983015
 20
25.9245546701
 30
0.0
 10
17.2806983015
 20
26.2945610929
 30
0.0
  0
SPLINE
  5
330
100
AcDbEntity
  8
0
100
AcDbSpline
 62
7
  6
CONTINUOUS
 70
0
 71
3
 72
9
 73
5
 74
0
 42
0.0000001
 43
0.0000001
 44
0.0000000001
 40
0.0
 40
0.0
 40
0.0
 40
0.0
 40
0.2436244424
 40
1.0
 40
1.0
 40
1.0
 40
1.0
 10
26.2420005935
 20
20.1805487702
 30
0.0
 10
26.2392374515
 20
20.158675168
 30
0.0
 10
26.2294186889
 20
20.0687020813
 30
0.0
 10
26.2255215099
 20
19.9781086011
 30
0.0
 10
26.2255215099
 20
19.9096584022
 30
0.0
  0
SPLINE
  5
331
100
AcDbEntity
  8
0
100
AcDbSpline
 62
7
  6
CONTINUOUS
 70
0
 71
3
 72
12
 73
8
 74
0
 42
0.0000001
 43
0.0000001
 44
0.0000000001
 40
0.0
 40
0.0
 40
0.0
 40
0.0
 40
0.097687302
 40
0.1988212097
 40
0.4222155062
 40
0.6874403517
 40
1.0
 40
1.0
 40
1.0
 40
1.0
 10
28.5619171506
 20
16.7782800191
 30
0.0
 10
28.5330438292
 20
16.7526569709
 30
0.0
 10
28.4796897536
 20
16.6940663915
 30
0.0
 10
28.3941852328
 20
16.549630556
 30
0.0
 10
28.3356226226
 20
16.3193913715
 30
0.0
 10
28.3407172348
 20
16.0006790107
 30
0.0
 10
28.385920177
 20
15.7757313434
 30
0.0
 10
28.4178877004
 20
15.6564252536
 30
0.0
  0
SPLINE
  5
332
100
AcDbEntity
  8
0
100
AcDbSpline
 62
7
  6
CONTINUOUS
 70
0
 71
3
 72
11
 73
7
 74
0
 42
0.0000001
 43
0.0000001
 44
0.0000000001
 40
0.0
 40
0.0
 40
0.0
 40
0.0
 40
0.2324664353
 40
0.4726062898
 40
0.7270667764
 40
1.0
 40
1.0
 40
1.0
 40
1.0
 10
43.7070746281
 20
16.0536517205
 30
0.0
 10
43.6195015094
 20
16.1042028148
 30
0.0
 10
43.4527414191
 20
16.2279214802
 30
0.0
 10
43.2450373258
 20
16.4694278241
 30
0.0
 10
43.0813865891
 20
16.7626398166
 30
0.0
 10
43.0057083278
 20
16.9804273004
 30
0.0
 10
42.9749822594
 20
17.0951001524
 30
0.0
  0
SPLINE
  5
333
100
AcDbEntity
  8
0
100
AcDbSpline
 62
7
  6
CONTINUOUS
 70
0
 71
3
 72
15
 73
11
 74
0
 42
0.0000001
 43
0.0000001
 44
0.0000000001
 40
0.0
 40
0.0
 40
0.0
 40
0.0
 40
0.1141242661
 40
0.2373486253
 40
0.3669740476
 40
0.5000015346
 40
0.6330288076
 40
0.7626536034
 40
0.8858770013
 40
1.0
 40
1.0
 40
1.0
 40
1.0
 10
19.6141409643
 20
51.2386866558
 30
0.0
 10
19.6141409643
 20
51.3504476331
 30
0.0
 10
19.6346616648
 20
51.5830925926
 30
0.0
 10
19.7162251407
 20
51.9340519212
 30
0.0
 10
19.8470429606
 20
52.2895481962
 30
0.0
 10
20.0220107681
 20
52.6362004123
 30
0.0
 10
20.234734524
 20
52.9610536437
 30
0.0
 10
20.4771920589
 20
53.2520930275
 30
0.0
 10
20.7403473703
 20
53.4982074982
 30
0.0
 10
20.9315617236
 20
53.6323001798
 30
0.0
 10
21.0283486387
 20
53.6881797978
 30
0.0
  0
SPLINE
  5
334
100
AcDbEntity
  8
0
100
AcDbSpline
 62
7
  6
CONTINUOUS
 70
0
 71
3
 72
10
 73
6
 74
0
 42
0.0000001
 43
0.0000001
 44
0.0000000001
 40
0.0
 40
0.0
 40
0.0
 40
0.0
 40
0.4735109152
 40
0.7301519491
 40
1.0
 40
1.0
 40
1.0
 40
1.0
 10
18.8796996554
 20
36.6824885026
 30
0.0
 10
18.6183616506
 20
37.264948178
 30
0.0
 10
18.330781252
 20
38.2175284672
 30
0.0
 10
18.1322090789
 20
39.551715431
 30
0.0
 10
18.090733285
 20
40.2615686343
 30
0.0
 10
18.0840117508
 20
40.625323864
 30
0.0
  0
SPLINE
  5
335
100
AcDbEntity
  8
0
100
AcDbSpline
 62
7
  6
CONTINUOUS
 70
0
 71
3
 72
11
 73
7
 74
0
 42
0.0000001
 43
0.0000001
 44
0.0000000001
 40
0.0
 40
0.0
 40
0.0
 40
0.0
 40
0.2324664353
 40
0.4726062898
 40
0.7270667764
 40
1.0
 40
1.0
 40
1.0
 40
1.0
 10
54.271987109
 20
18.887260707
 30
0.0
 10
54.1844139903
 20
18.9378118013
 30
0.0
 10
54.0176539
 20
19.0615304667
 30
0.0
 10
53.8099498066
 20
19.3030368106
 30
0.0
 10
53.64629907
 20
19.5962488031
 30
0.0
 10
53.5706208087
 20
19.8140362869
 30
0.0
 10
53.5398947403
 20
19.9287091389
 30
0.0
  0
SPLINE
  5
336
100
AcDbEntity
  8
0
100
AcDbSpline
 62
7
  6
CONTINUOUS
 70
0
 71
3
 72
11
 73
7
 74
0
 42
0.0000001
 43
0.0000001
 44
0.0000000001
 40
0.0
 40
0.0
 40
0.0
 40
0.0
 40
0.2152396009
 40
0.4676046309
 40
0.7376736879
 40
1.0
 40
1.0
 40
1.0
 40
1.0
 10
16.7435436591
 20
40.332504673
 30
0.0
 10
16.7389356514
 20
40.3518589249
 30
0.0
 10
16.7385227674
 20
40.3961058617
 30
0.0
 10
16.7561541029
 20
40.4625111247
 30
0.0
 10
16.7899779916
 20
40.5272868049
 30
0.0
 10
16.8215892089
 20
40.5656569873
 30
0.0
 10
16.8393131124
 20
40.5822041911
 30
0.0
  0
SPLINE
  5
337
100
AcDbEntity
  8
0
100
AcDbSpline
 62
7
  6
CONTINUOUS
 70
0
 71
3
 72
13
 73
9
 74
0
 42
0.0000001
 43
0.0000001
 44
0.0000000001
 40
0.0
 40
0.0
 40
0.0
 40
0.0
 40
0.291155818
 40
0.5783521805
 40
0.7056118324
 40
0.8170604136
 40
0.9133382401
 40
1.0
 40
1.0
 40
1.0
 40
1.0
 10
17.007503053
 20
40.7392279087
 30
0.0
 10
17.0261118684
 20
40.7566012745
 30
0.0
 10
17.0569608532
 20
40.7977862944
 30
0.0
 10
17.0793062582
 20
40.8564720864
 30
0.0
 10
17.0834421988
 20
40.9025539338
 30
0.0
 10
17.0793852661
 20
40.9319244844
 30
0.0
 10
17.0678538358
 20
40.9555418384
 30
0.0
 10
17.0551651625
 20
40.9662851293
 30
0.0
 10
17.0483711662
 20
40.9696409137
 30
0.0
  0
SPLINE
  5
338
100
AcDbEntity
  8
0
100
AcDbSpline
 62
7
  6
CONTINUOUS
 70
0
 71
3
 72
11
 73
7
 74
0
 42
0.0000001
 43
0.0000001
 44
0.0000000001
 40
0.0
 40
0.0
 40
0.0
 40
0.0
 40
0.1947105743
 40
0.4204557504
 40
0.6908326622
 40
1.0
 40
1.0
 40
1.0
 40
1.0
 10
16.9126266584
 20
41.0366897124
 30
0.0
 10
16.9024506998
 20
41.0417159622
 30
0.0
 10
16.8837024311
 20
41.0596803421
 30
0.0
 10
16.8712653661
 20
41.0991189898
 30
0.0
 10
16.8721127453
 20
41.1465774023
 30
0.0
 10
16.880617263
 20
41.1795788805
 30
0.0
 10
16.8867212359
 20
41.1965348908
 30
0.0
  0
SPLINE
  5
339
100
AcDbEntity
  8
0
100
AcDbSpline
 62
7
  6
CONTINUOUS
 70
0
 71
3
 72
9
 73
5
 74
0
 42
0.0000001
 43
0.0000001
 44
0.0000000001
 40
0.0
 40
0.0
 40
0.0
 40
0.0
 40
0.5097858147
 40
1.0
 40
1.0
 40
1.0
 40
1.0
 10
16.8867212359
 20
41.1965348908
 30
0.0
 10
16.8954375702
 20
41.2207476877
 30
0.0
 10
16.9189293186
 20
41.2660638856
 30
0.0
 10
16.9526911849
 20
41.3045455026
 30
0.0
 10
16.9717515685
 20
41.3203272352
 30
0.0
  0
SPLINE
  5
33A
100
AcDbEntity
  8
0
100
AcDbSpline
 62
7
  6
CONTINUOUS
 70
0
 71
3
 72
13
 73
9
 74
0
 42
0.0000001
 43
0.0000001
 44
0.0000000001
 40
0.0
 40
0.0
 40
0.0
 40
0.0
 40
0.1373309648
 40
0.2831770963
 40
0.5011968318
 40
0.700199913
 40
0.8660641367
 40
1.0
 40
1.0
 40
1.0
 40
1.0
 10
17.1527041927
 20
41.4701534921
 30
0.0
 10
17.1621002466
 20
41.4779332942
 30
0.0
 10
17.1799009374
 20
41.495916771
 30
0.0
 10
17.2061189519
 20
41.5320622452
 30
0.0
 10
17.2276672563
 20
41.5776992925
 30
0.0
 10
17.2384021464
 20
41.6288972805
 30
0.0
 10
17.2343564416
 20
41.6740075171
 30
0.0
 10
17.2184956044
 20
41.6977426931
 30
0.0
 10
17.2087217612
 20
41.7045262217
 30
0.0
  0
SPLINE
  5
33B
100
AcDbEntity
  8
0
100
AcDbSpline
 62
7
  6
CONTINUOUS
 70
0
 71
3
 72
13
 73
9
 74
0
 42
0.0000001
 43
0.0000001
 44
0.0000000001
 40
0.0
 40
0.0
 40
0.0
 40
0.0
 40
0.087310706
 40
0.1871840357
 40
0.3670398011
 40
0.5765245397
 40
0.7954375252
 40
1.0
 40
1.0
 40
1.0
 40
1.0
 10
17.0842304582
 20
41.7909293172
 30
0.0
 10
17.0763141192
 20
41.7964236464
 30
0.0
 10
17.0622911651
 20
41.8126739354
 30
0.0
 10
17.0495431579
 20
41.851865132
 30
0.0
 10
17.0520565008
 20
41.9070033878
 30
0.0
 10
17.0732731899
 20
41.9713069287
 30
0.0
 10
17.1099316423
 20
42.0314296548
 30
0.0
 10
17.1433276867
 20
42.0650877616
 30
0.0
 10
17.161595539
 20
42.0783542759
 30
0.0
  0
SPLINE
  5
33C
100
AcDbEntity
  8
0
100
AcDbSpline
 62
7
  6
CONTINUOUS
 70
0
 71
3
 72
12
 73
8
 74
0
 42
0.0000001
 43
0.0000001
 44
0.0000000001
 40
0.0
 40
0.0
 40
0.0
 40
0.0
 40
0.2733069488
 40
0.5594674695
 40
0.6919344957
 40
0.8107008968
 40
1.0
 40
1.0
 40
1.0
 40
1.0
 10
17.3452417663
 20
42.211722187
 30
0.0
 10
17.3651270798
 20
42.2261633371
 30
0.0
 10
17.3997030592
 20
42.2641935253
 30
0.0
 10
17.4275515969
 20
42.3207950005
 30
0.0
 10
17.4376908302
 20
42.3684191667
 30
0.0
 10
17.4386377353
 20
42.407863268
 30
0.0
 10
17.4284274311
 20
42.4367102893
 30
0.0
 10
17.4159993351
 20
42.4483415153
 30
0.0
  0
SPLINE
  5
33D
100
AcDbEntity
  8
0
100
AcDbSpline
 62
7
  6
CONTINUOUS
 70
0
 71
3
 72
12
 73
8
 74
0
 42
0.0000001
 43
0.0000001
 44
0.0000000001
 40
0.0
 40
0.0
 40
0.0
 40
0.0
 40
0.1904518159
 40
0.3107882793
 40
0.4451985534
 40
0.7324532456
 40
1.0
 40
1.0
 40
1.0
 40
1.0
 10
17.3036711944
 20
42.5534673522
 30
0.0
 10
17.2881884049
 20
42.5679574096
 30
0.0
 10
17.2760633503
 20
42.6044383221
 30
0.0
 10
17.278379997
 20
42.6537177842
 30
0.0
 10
17.2926088048
 20
42.7128648107
 30
0.0
 10
17.3288845699
 20
42.7816981802
 30
0.0
 10
17.3734684747
 20
42.8267598159
 30
0.0
 10
17.398710953
 20
42.8425788406
 30
0.0
  0
SPLINE
  5
33E
100
AcDbEntity
  8
0
100
AcDbSpline
 62
7
  6
CONTINUOUS
 70
0
 71
3
 72
12
 73
8
 74
0
 42
0.0000001
 43
0.0000001
 44
0.0000000001
 40
0.0
 40
0.0
 40
0.0
 40
0.0
 40
0.2632719082
 40
0.5472508028
 40
0.6816648344
 40
0.803823257
 40
1.0
 40
1.0
 40
1.0
 40
1.0
 10
17.5837084385
 20
42.9585135655
 30
0.0
 10
17.604021274
 20
42.9712432683
 30
0.0
 10
17.640224663
 20
43.0072356777
 30
0.0
 10
17.670473387
 20
43.0623413678
 30
0.0
 10
17.6835219212
 20
43.1101569677
 30
0.0
 10
17.6872007276
 20
43.1510493484
 30
0.0
 10
17.6799080328
 20
43.1817501155
 30
0.0
 10
17.6686888114
 20
43.1956499454
 30
0.0
  0
SPLINE
  5
33F
100
AcDbEntity
  8
0
100
AcDbSpline
 62
7
  6
CONTINUOUS
 70
0
 71
3
 72
13
 73
9
 74
0
 42
0.0000001
 43
0.0000001
 44
0.0000000001
 40
0.0
 40
0.0
 40
0.0
 40
0.0
 40
0.1966857001
 40
0.3197460464
 40
0.4548306157
 40
0.7389145059
 40
0.8768595659
 40
1.0
 40
1.0
 40
1.0
 40
1.0
 10
17.5693448853
 20
43.3187301161
 30
0.0
 10
17.5556550618
 20
43.3356908491
 30
0.0
 10
17.5470627647
 20
43.373398123
 30
0.0
 10
17.5521450651
 20
43.4233274205
 30
0.0
 10
17.5687805182
 20
43.4814773815
 30
0.0
 10
17.6001016804
 20
43.5359834253
 30
0.0
 10
17.6408762607
 20
43.5807249021
 30
0.0
 10
17.6642530725
 20
43.5983822177
 30
0.0
 10
17.6763210623
 20
43.6047525482
 30
0.0
  0
SPLINE
  5
340
100
AcDbEntity
  8
0
100
AcDbSpline
 62
7
  6
CONTINUOUS
 70
0
 71
3
 72
13
 73
9
 74
0
 42
0.0000001
 43
0.0000001
 44
0.0000000001
 40
0.0
 40
0.0
 40
0.0
 40
0.0
 40
0.1213202555
 40
0.2569221199
 40
0.5375248935
 40
0.6725395826
 40
0.797090431
 40
1.0
 40
1.0
 40
1.0
 40
1.0
 10
17.8705866188
 20
43.7072995188
 30
0.0
 10
17.8802968523
 20
43.7124252603
 30
0.0
 10
17.8991465265
 20
43.7265039496
 30
0.0
 10
17.9323404803
 20
43.7621987364
 30
0.0
 10
17.9583352314
 20
43.8057541308
 30
0.0
 10
17.9732836568
 20
43.8525864099
 30
0.0
 10
17.9791825294
 20
43.8938945133
 30
0.0
 10
17.9745188814
 20
43.9253189944
 30
0.0
 10
17.9649431799
 20
43.94098913
 30
0.0
  0
SPLINE
  5
341
100
AcDbEntity
  8
0
100
AcDbSpline
 62
7
  6
CONTINUOUS
 70
0
 71
3
 72
16
 73
12
 74
0
 42
0.0000001
 43
0.0000001
 44
0.0000000001
 40
0.0
 40
0.0
 40
0.0
 40
0.0
 40
0.0428631485
 40
0.0875099587
 40
0.1869096316
 40
0.3042228761
 40
0.4379523554
 40
0.582367856
 40
0.729550588
 40
0.8712953453
 40
1.0
 40
1.0
 40
1.0
 40
1.0
 10
33.6134644058
 20
53.9705693469
 30
0.0
 10
33.5974339072
 20
53.9798265242
 30
0.0
 10
33.5670242184
 20
54.0030746563
 30
0.0
 10
33.5165805418
 20
54.0669933154
 30
0.0
 10
33.4788561689
 20
54.1765556571
 30
0.0
 10
33.4755299313
 20
54.3293651362
 30
0.0
 10
33.5097807941
 20
54.4978761223
 30
0.0
 10
33.5790030003
 20
54.6689913859
 30
0.0
 10
33.6774246157
 20
54.8292287777
 30
0.0
 10
33.7971125492
 20
54.9652937442
 30
0.0
 10
33.8905706972
 20
55.0372682556
 30
0.0
 10
33.9387079069
 20
55.0650601206
 30
0.0
  0
SPLINE
  5
342
100
AcDbEntity
  8
0
100
AcDbSpline
 62
7
  6
CONTINUOUS
 70
0
 71
3
 72
9
 73
5
 74
0
 42
0.0000001
 43
0.0000001
 44
0.0000000001
 40
0.0
 40
0.0
 40
0.0
 40
0.0
 40
0.2615523362
 40
1.0
 40
1.0
 40
1.0
 40
1.0
 10
33.9387079069
 20
55.0650601206
 30
0.0
 10
33.9471111827
 20
55.0699117252
 30
0.0
 10
33.9796682559
 20
55.0876924347
 30
0.0
 10
34.0140322551
 20
55.1022900416
 30
0.0
 10
34.0401526029
 20
55.1105506816
 30
0.0
  0
SPLINE
  5
343
100
AcDbEntity
  8
0
100
AcDbSpline
 62
7
  6
CONTINUOUS
 70
0
 71
3
 72
10
 73
6
 74
0
 42
0.0000001
 43
0.0000001
 44
0.0000000001
 40
0.0
 40
0.0
 40
0.0
 40
0.0
 40
0.5157825653
 40
0.7600900157
 40
1.0
 40
1.0
 40
1.0
 40
1.0
 10
14.4327468237
 20
26.0924753282
 30
0.0
 10
14.5554840008
 20
25.8268529363
 30
0.0
 10
14.7879412418
 20
25.4541214541
 30
0.0
 10
15.195270436
 20
25.056498515
 30
0.0
 10
15.4220334646
 20
24.8986619196
 30
0.0
 10
15.5399157671
 20
24.8306335981
 30
0.0
  0
SPLINE
  5
344
100
AcDbEntity
  8
0
100
AcDbSpline
 62
7
  6
CONTINUOUS
 70
0
 71
3
 72
9
 73
5
 74
0
 42
0.0000001
 43
0.0000001
 44
0.0000000001
 40
0.0
 40
0.0
 40
0.0
 40
0.0
 40
0.2542961969
 40
1.0
 40
1.0
 40
1.0
 40
1.0
 10
34.0401526029
 20
55.1105506816
 30
0.0
 10
34.0926704261
 20
55.1271596041
 30
0.0
 10
34.2998872903
 20
55.1902461543
 30
0.0
 10
34.5098904771
 20
55.2442582095
 30
0.0
 10
34.6676735152
 20
55.2788124102
 30
0.0
  0
SPLINE
  5
345
100
AcDbEntity
  8
0
100
AcDbSpline
 62
7
  6
CONTINUOUS
 70
0
 71
3
 72
12
 73
8
 74
0
 42
0.0000001
 43
0.0000001
 44
0.0000000001
 40
0.0
 40
0.0
 40
0.0
 40
0.0
 40
0.1109023943
 40
0.2279734037
 40
0.4765810742
 40
0.7373642833
 40
1.0
 40
1.0
 40
1.0
 40
1.0
 10
17.2806983015
 20
26.2945610929
 30
0.0
 10
17.2806983015
 20
26.5478986884
 30
0.0
 10
17.3094137556
 20
27.0689554646
 30
0.0
 10
17.4721554782
 20
28.1466307756
 30
0.0
 10
17.8707236032
 20
29.5282831553
 30
0.0
 10
18.6064855338
 20
31.1369352769
 30
0.0
 10
19.254240468
 20
32.1477750655
 30
0.0
 10
19.6141409643
 20
32.6277827847
 30
0.0
  0
SPLINE
  5
346
100
AcDbEntity
  8
0
100
AcDbSpline
 62
7
  6
CONTINUOUS
 70
0
 71
3
 72
9
 73
5
 74
0
 42
0.0000001
 43
0.0000001
 44
0.0000000001
 40
0.0
 40
0.0
 40
0.0
 40
0.0
 40
0.238148468
 40
1.0
 40
1.0
 40
1.0
 40
1.0
 10
31.4569239357
 20
54.9646052
 30
0.0
 10
31.4742784166
 20
54.9684980781
 30
0.0
 10
31.5465970014
 20
54.987293924
 30
0.0
 10
31.6164136309
 20
55.0151551895
 30
0.0
 10
31.6676126048
 20
55.0399747316
 30
0.0
  0
SPLINE
  5
347
100
AcDbEntity
  8
0
100
AcDbSpline
 62
7
  6
CONTINUOUS
 70
0
 71
3
 72
9
 73
5
 74
0
 42
0.0000001
 43
0.0000001
 44
0.0000000001
 40
0.0
 40
0.0
 40
0.0
 40
0.0
 40
0.2594524812
 40
1.0
 40
1.0
 40
1.0
 40
1.0
 10
32.7122711392
 20
56.5324408568
 30
0.0
 10
32.7162103099
 20
56.5550386471
 30
0.0
 10
32.7296967527
 20
56.6424131304
 30
0.0
 10
32.7363013238
 20
56.7309320432
 30
0.0
 10
32.7363013238
 20
56.796404873
 30
0.0
  0
SPLINE
  5
348
100
AcDbEntity
  8
0
100
AcDbSpline
 62
7
  6
CONTINUOUS
 70
0
 71
3
 72
11
 73
7
 74
0
 42
0.0000001
 43
0.0000001
 44
0.0000000001
 40
0.0
 40
0.0
 40
0.0
 40
0.0
 40
0.2895438663
 40
0.5491515066
 40
0.782307736
 40
1.0
 40
1.0
 40
1.0
 40
1.0
 10
32.7363013238
 20
56.796404873
 30
0.0
 10
32.7363013238
 20
56.86730056
 30
0.0
 10
32.7254787521
 20
57.0022082439
 30
0.0
 10
32.6709329936
 20
57.1876030211
 30
0.0
 10
32.5789107419
 20
57.3380443834
 30
0.0
 10
32.4924921641
 20
57.4106310176
 30
0.0
 10
32.4463328378
 20
57.4372859309
 30
0.0
  0
SPLINE
  5
349
100
AcDbEntity
  8
0
100
AcDbSpline
 62
7
  6
CONTINUOUS
 70
0
 71
3
 72
9
 73
5
 74
0
 42
0.0000001
 43
0.0000001
 44
0.0000000001
 40
0.0
 40
0.0
 40
0.0
 40
0.0
 40
0.516299661
 40
1.0
 40
1.0
 40
1.0
 40
1.0
 10
29.4853591515
 20
56.4077599293
 30
0.0
 10
29.4963030593
 20
56.3845778566
 30
0.0
 10
29.5231443512
 20
56.3419153088
 30
0.0
 10
29.5621408685
 20
56.3095519637
 30
0.0
 10
29.5829389662
 20
56.2975416385
 30
0.0
  0
SPLINE
  5
34A
100
AcDbEntity
  8
0
100
AcDbSpline
 62
7
  6
CONTINUOUS
 70
0
 71
3
 72
12
 73
8
 74
0
 42
0.0000001
 43
0.0000001
 44
0.0000000001
 40
0.0
 40
0.0
 40
0.0
 40
0.0
 40
0.1021101526
 40
0.2073306135
 40
0.4360762607
 40
0.7000125528
 40
1.0
 40
1.0
 40
1.0
 40
1.0
 10
27.1607385989
 20
52.9453764354
 30
0.0
 10
27.190099252
 20
52.928413064
 30
0.0
 10
27.253722052
 20
52.9004508311
 30
0.0
 10
27.3965693416
 20
52.8714979259
 30
0.0
 10
27.5985603732
 20
52.8914724069
 30
0.0
 10
27.8439133093
 20
52.9934702631
 30
0.0
 10
27.9984391969
 20
53.1017041617
 30
0.0
 10
28.0749690388
 20
53.1654795911
 30
0.0
  0
SPLINE
  5
34B
100
AcDbEntity
  8
0
100
AcDbSpline
 62
7
  6
CONTINUOUS
 70
0
 71
3
 72
15
 73
11
 74
0
 42
0.0000001
 43
0.0000001
 44
0.0000000001
 40
0.0
 40
0.0
 40
0.0
 40
0.0
 40
0.1067119255
 40
0.2258098832
 40
0.3540834429
 40
0.4879728521
 40
0.6234816828
 40
0.7565200047
 40
0.8832633023
 40
1.0
 40
1.0
 40
1.0
 40
1.0
 10
27.5035532547
 20
20.7490012305
 30
0.0
 10
27.5412210815
 20
20.6276772543
 30
0.0
 10
27.6402214837
 20
20.3768415704
 30
0.0
 10
27.8366683087
 20
20.0032249837
 30
0.0
 10
28.0838768772
 20
19.6218902301
 30
0.0
 10
28.3729971852
 20
19.2464093253
 30
0.0
 10
28.693977196
 20
18.8901161835
 30
0.0
 10
29.0353860872
 20
18.5655123042
 30
0.0
 10
29.3850667159
 20
18.284276225
 30
0.0
 10
29.6274279527
 20
18.1241368879
 30
0.0
 10
29.747781086
 20
18.0546525459
 30
0.0
  0
SPLINE
  5
34C
100
AcDbEntity
  8
0
100
AcDbSpline
 62
7
  6
CONTINUOUS
 70
0
 71
3
 72
9
 73
5
 74
0
 42
0.0000001
 43
0.0000001
 44
0.0000000001
 40
0.0
 40
0.0
 40
0.0
 40
0.0
 40
0.4548564357
 40
1.0
 40
1.0
 40
1.0
 40
1.0
 10
16.9027296912
 20
22.1030588878
 30
0.0
 10
16.9242405616
 20
22.0416101937
 30
0.0
 10
16.935660554
 20
21.8944937337
 30
0.0
 10
16.9030736394
 20
21.7536713854
 30
0.0
 10
16.8773508443
 20
21.6800051375
 30
0.0
  0
SPLINE
  5
34D
100
AcDbEntity
  8
0
100
AcDbSpline
 62
7
  6
CONTINUOUS
 70
0
 71
3
 72
12
 73
8
 74
0
 42
0.0000001
 43
0.0000001
 44
0.0000000001
 40
0.0
 40
0.0
 40
0.0
 40
0.0
 40
0.280499139
 40
0.5556910115
 40
0.6832986642
 40
0.8006620083
 40
1.0
 40
1.0
 40
1.0
 40
1.0
 10
16.8773508443
 20
21.6800051375
 30
0.0
 10
16.8498060857
 20
21.6011210578
 30
0.0
 10
16.7762194881
 20
21.4510689469
 30
0.0
 10
16.6482848573
 20
21.2903625768
 30
0.0
 10
16.5298096591
 20
21.1895157265
 30
0.0
 10
16.4176267659
 20
21.1194371499
 30
0.0
 10
16.3237179673
 20
21.0896110595
 30
0.0
 10
16.264342186
 20
21.089029431
 30
0.0
  0
SPLINE
  5
34E
100
AcDbEntity
  8
0
100
AcDbSpline
 62
7
  6
CONTINUOUS
 70
0
 71
3
 72
11
 73
7
 74
0
 42
0.0000001
 43
0.0000001
 44
0.0000000001
 40
0.0
 40
0.0
 40
0.0
 40
0.0
 40
0.2250591393
 40
0.4671036729
 40
0.7258509719
 40
1.0
 40
1.0
 40
1.0
 40
1.0
 10
30.3255483755
 20
55.6177904072
 30
0.0
 10
30.0427343097
 20
55.5543508436
 30
0.0
 10
29.4657834746
 20
55.375495435
 30
0.0
 10
28.6153373439
 20
54.9822131682
 30
0.0
 10
27.7621142576
 20
54.4608001239
 30
0.0
 10
27.2148224727
 20
54.0446909486
 30
0.0
 10
26.9435934786
 20
53.8186647983
 30
0.0
  0
SPLINE
  5
34F
100
AcDbEntity
  8
0
100
AcDbSpline
 62
7
  6
CONTINUOUS
 70
0
 71
3
 72
9
 73
5
 74
0
 42
0.0000001
 43
0.0000001
 44
0.0000000001
 40
0.0
 40
0.0
 40
0.0
 40
0.0
 40
0.2447270194
 40
1.0
 40
1.0
 40
1.0
 40
1.0
 10
31.6009165359
 20
57.3449548494
 30
0.0
 10
31.5999380102
 20
57.3318885353
 30
0.0
 10
31.5952424895
 20
57.2785507208
 30
0.0
 10
31.5878392319
 20
57.225458852
 30
0.0
 10
31.5808948324
 20
57.1856216032
 30
0.0
  0
SPLINE
  5
350
100
AcDbEntity
  8
0
100
AcDbSpline
 62
7
  6
CONTINUOUS
 70
0
 71
3
 72
9
 73
5
 74
0
 42
0.0000001
 43
0.0000001
 44
0.0000000001
 40
0.0
 40
0.0
 40
0.0
 40
0.0
 40
0.262205077
 40
1.0
 40
1.0
 40
1.0
 40
1.0
 10
30.5362308746
 20
55.6931569869
 30
0.0
 10
30.5186117503
 20
55.6846159541
 30
0.0
 10
30.4506278297
 20
55.6537391404
 30
0.0
 10
30.3793073015
 20
55.6298493648
 30
0.0
 10
30.3255483755
 20
55.6177904072
 30
0.0
  0
SPLINE
  5
351
100
AcDbEntity
  8
0
100
AcDbSpline
 62
7
  6
CONTINUOUS
 70
0
 71
3
 72
11
 73
7
 74
0
 42
0.0000001
 43
0.0000001
 44
0.0000000001
 40
0.0
 40
0.0
 40
0.0
 40
0.0
 40
0.2741490281
 40
0.5328963271
 40
0.7749408607
 40
1.0
 40
1.0
 40
1.0
 40
1.0
 10
28.0749690388
 20
53.1654795911
 30
0.0
 10
28.346198033
 20
53.3915057414
 30
0.0
 10
28.8934898178
 20
53.8076149167
 30
0.0
 10
29.7467129042
 20
54.3290279609
 30
0.0
 10
30.5971590348
 20
54.7223102277
 30
0.0
 10
31.1741098699
 20
54.9011656363
 30
0.0
 10
31.4569239357
 20
54.9646052
 30
0.0
  0
SPLINE
  5
352
100
AcDbEntity
  8
0
100
AcDbSpline
 62
7
  6
CONTINUOUS
 70
0
 71
3
 72
13
 73
9
 74
0
 42
0.0000001
 43
0.0000001
 44
0.0000000001
 40
0.0
 40
0.0
 40
0.0
 40
0.0
 40
0.3062174482
 40
0.5753445704
 40
0.6940354508
 40
0.802759196
 40
0.903581263
 40
1.0
 40
1.0
 40
1.0
 40
1.0
 10
19.2697240597
 20
18.517401554
 30
0.0
 10
19.2897683121
 20
18.5760645555
 30
0.0
 10
19.3175796547
 20
18.6900096691
 30
0.0
 10
19.319468714
 20
18.8324465103
 30
0.0
 10
19.2963108527
 20
18.9307695689
 30
0.0
 10
19.2689004647
 20
18.9918389751
 30
0.0
 10
19.2311118676
 20
19.0416649096
 30
0.0
 10
19.1991237044
 20
19.0664977319
 30
0.0
 10
19.1822227982
 20
19.0762639302
 30
0.0
  0
SPLINE
  5
353
100
AcDbEntity
  8
0
100
AcDbSpline
 62
7
  6
CONTINUOUS
 70
0
 71
3
 72
12
 73
8
 74
0
 42
0.0000001
 43
0.0000001
 44
0.0000000001
 40
0.0
 40
0.0
 40
0.0
 40
0.0
 40
0.1993381995
 40
0.3167016359
 40
0.4443093085
 40
0.7195011266
 40
1.0
 40
1.0
 40
1.0
 40
1.0
 10
18.7038707378
 20
19.6805988279
 30
0.0
 10
18.7632465808
 20
19.681180457
 30
0.0
 10
18.8571554668
 20
19.7110066028
 30
0.0
 10
18.9693384119
 20
19.7810852735
 30
0.0
 10
19.0878135922
 20
19.8819321703
 30
0.0
 10
19.2157481255
 20
20.0426385009
 30
0.0
 10
19.2893346636
 20
20.1926905295
 30
0.0
 10
19.3168793961
 20
20.2715745344
 30
0.0
  0
SPLINE
  5
354
100
AcDbEntity
  8
0
100
AcDbSpline
 62
7
  6
CONTINUOUS
 70
0
 71
3
 72
9
 73
5
 74
0
 42
0.0000001
 43
0.0000001
 44
0.0000000001
 40
0.0
 40
0.0
 40
0.0
 40
0.0
 40
0.5451435643
 40
1.0
 40
1.0
 40
1.0
 40
1.0
 10
19.3168793961
 20
20.2715745344
 30
0.0
 10
19.3426021911
 20
20.3452407823
 30
0.0
 10
19.3751891058
 20
20.4860631306
 30
0.0
 10
19.3637691134
 20
20.6331795906
 30
0.0
 10
19.3422582429
 20
20.6946282847
 30
0.0
  0
SPLINE
  5
355
100
AcDbEntity
  8
0
100
AcDbSpline
 62
7
  6
CONTINUOUS
 70
0
 71
3
 72
12
 73
8
 74
0
 42
0.0000001
 43
0.0000001
 44
0.0000000001
 40
0.0
 40
0.0
 40
0.0
 40
0.0
 40
0.0994612502
 40
0.202607625
 40
0.4300364485
 40
0.6964667823
 40
1.0
 40
1.0
 40
1.0
 40
1.0
 10
20.0750232319
 20
20.4010291727
 30
0.0
 10
20.0901060985
 20
20.3923135296
 30
0.0
 10
20.1231397476
 20
20.3782786545
 30
0.0
 10
20.1979970963
 20
20.3657107249
 30
0.0
 10
20.3038757273
 20
20.3823771924
 30
0.0
 10
20.4301210413
 20
20.4451628372
 30
0.0
 10
20.5082565838
 20
20.508532305
 30
0.0
 10
20.54649907
 20
20.5454604675
 30
0.0
  0
SPLINE
  5
356
100
AcDbEntity
  8
0
100
AcDbSpline
 62
7
  6
CONTINUOUS
 70
0
 71
3
 72
11
 73
7
 74
0
 42
0.0000001
 43
0.0000001
 44
0.0000000001
 40
0.0
 40
0.0
 40
0.0
 40
0.0
 40
0.2177825102
 40
0.4509091639
 40
0.7102957096
 40
1.0
 40
1.0
 40
1.0
 40
1.0
 10
20.0283705955
 20
17.009824384
 30
0.0
 10
19.9623973129
 20
17.0479132224
 30
0.0
 10
19.8389638419
 20
17.1516825291
 30
0.0
 10
19.7075544573
 20
17.3665424194
 30
0.0
 10
19.6295050552
 20
17.6313304581
 30
0.0
 10
19.6141409643
 20
17.8240512907
 30
0.0
 10
19.6141409643
 20
17.9253880369
 30
0.0
  0
ELLIPSE
  5
357
100
AcDbEntity
  8
0
100
AcDbEllipse
 62
7
  6
CONTINUOUS
 10
29.3285799996
 20
19.6191541777
 30
0.0
 11
-1.6834344222
 21
1.9638896654
 31
0.0
 40
0.4107626802
 41
6.8720715011
 42
6.9918477496
  0
ENDSEC
  0
SECTION
  2
OBJECTS
  0
DICTIONARY
  5
C
100
AcDbDictionary
280
0
281
1
  3
ACAD_GROUP
350
D
  3
ACAD_MLINESTYLE
350
17
  3
ACAD_LAYOUT
350
1A
  3
ACAD_PLOTSETTINGS
350
19
  3
ACAD_PLOTSTYLENAME
350
E
  0
DICTIONARY
  5
D
102
{ACAD_REACTORS
330
C
102
}
100
AcDbDictionary
280
0
281
1
  0
ACDBDICTIONARYWDFLT
  5
E
102
{ACAD_REACTORS
330
C
102
}
100
AcDbDictionary
281
1
  3
Normal
350
F
100
AcDbDictionaryWithDefault
340
F
  0
DICTIONARY
  5
17
102
{ACAD_REACTORS
330
C
102
}
100
AcDbDictionary
280
0
281
1
  3
Standard
350
18
  0
DICTIONARY
  5
19
102
{ACAD_REACTORS
330
C
102
}
100
AcDbDictionary
281
1
  0
DICTIONARY
  5
1A
102
{ACAD_REACTORS
330
C
102
}
100
AcDbDictionary
281
1
  3
Model
350
358
  3
Layout1
350
359
  0
ACDBPLACEHOLDER
  5
F
102
{ACAD_REACTORS
330
E
102
}
  0
MLINESTYLE
  5
18
102
{ACAD_REACTORS
330
17
102
}
100
AcDbMlineStyle
  2
STANDARD
 70
0
  3

 62
256
 51
90.0
 52
90.0
 71
2
 49
0.5
 62
256
  6
BYLAYER
 49
-0.5
 62
256
  6
BYLAYER
  0
LAYOUT
  5
358
102
{ACAD_REACTORS
330
1A
102
}
100
AcDbPlotSettings
  1

  2
none_device
  4

  6

 40
0.0
 41
0.0
 42
0.0
 43
0.0
 44
210.0
 45
297.0
 46
0.0
 47
0.0
 48
0.0
 49
0.0
140
0.0
141
0.0
142
1.0
143
1.0
 70
1024
 72
1
 73
0
 74
0
  7

 75
0
147
1.0
148
0.0
149
0.0
100
AcDbLayout
  1
Model
 70
0
 71
0
 10
0.0
 20
0.0
 11
210.0
 21
297.0
 12
0.0
 22
0.0
 32
0.0
 14
0.0
 24
0.0
 34
0.0
 15
0.0
 25
0.0
 35
0.0
146
0.0
 13
0.0
 23
0.0
 33
0.0
 16
1.0
 26
0.0
 36
0.0
 17
0.0
 27
1.0
 37
0.0
 76
0
330
210
345
0
346
0
  0
LAYOUT
  5
359
102
{ACAD_REACTORS
330
1A
102
}
100
AcDbPlotSettings
  1

  2
none_device
  4

  6

 40
0.0
 41
0.0
 42
0.0
 43
0.0
 44
210.0
 45
297.0
 46
0.0
 47
0.0
 48
0.0
 49
0.0
140
0.0
141
0.0
142
1.0
143
1.0
 70
0
 72
1
 73
0
 74
0
  7

 75
0
147
1.0
148
0.0
149
0.0
100
AcDbLayout
  1
Layout1
 70
0
 71
1
 10
0.0
 20
0.0
 11
210.0
 21
297.0
 12
0.0
 22
0.0
 32
0.0
 14
0.0
 24
0.0
 34
0.0
 15
0.0
 25
0.0
 35
0.0
146
0.0
 13
0.0
 23
0.0
 33
0.0
 16
1.0
 26
0.0
 36
0.0
 17
0.0
 27
1.0
 37
0.0
 76
0
330
211
345
0
346
0
  0
ENDSEC
  0
EOF
