999
DXF file: C:\Users\sesa63760\Dev\_Creo\CAD\MCADID0004354_3D-CAD\drw0001_5.dxf
999
Pro/ENGINEER 2019471 by Parametric Technology Corporation
  0
SECTION
  2
HEADER
  9
$ACADVER
  1
AC1024
  9
$DWGCODEPAGE
  3
ANSI_1252
  9
$EXTMAX
 10
36.2100597815
 20
51.2113702624
 30
0.0
  9
$EXTMIN
 10
0.0
 20
0.0
 30
0.0
  9
$LIMMIN
 10
0.0
 20
0.0
  9
$LIMMAX
 10
36.2100597815
 20
51.2113702624
  9
$VIEWCTR
 10
18.1050298907
 20
25.6056851312
  9
$VIEWSIZE
 40
51.2113702624
  9
$CLAYER
  8
0
  9
$LTSCALE
 40
3.3382226541
  9
$CELTYPE
  6
BYLAYER
  9
$DIMSCALE
 40
1.0
  9
$DIMASZ
 40
0.4310721403
  9
$DIMEXO
 40
1.0
  9
$DIMDLI
 40
2.3064083792
  9
$DIMEXE
 40
1.0
  9
$DIMCEN
 40
0.5462546161
  9
$DIMLFAC
 40
1.0
  9
$DIMBLK
  1
_FILLED
  9
$DIMALT
 70
0
  9
$DIMALTF
 40
0.0393700787
  9
$DIMTXT
 40
0.6035009964
  9
$DIMTOL
 70
1
  9
$DIMLIM
 70
0
  9
$DIMTFAC
 40
1.0
  9
$DIMTP
 40
0.01
  9
$DIMTM
 40
0.01
  9
$DIMGAP
 40
0.625
  9
$DIMDSEP
 70
46
  9
$AUNITS
 70
0
  9
$PDMODE
 70
3
  9
$PDSIZE
 40
0.3125
  9
$HANDSEED
  5
23A
  9
$TILEMODE
 70
1
  9
$MEASUREMENT
 70
1
  9
$INSUNITS
 70
4
  0
ENDSEC
  0
SECTION
  2
CLASSES
  0
CLASS
  1
ACDBDICTIONARYWDFLT
  2
AcDbDictionaryWithDefault
  3
AutoCAD 2000
 90
0
 91
1
280
0
281
0
  0
CLASS
  1
ACDBPLACEHOLDER
  2
AcDbPlaceHolder
  3
AutoCAD 2000
 90
0
 91
1
280
0
281
0
  0
CLASS
  1
LAYOUT
  2
AcDbLayout
  3
AutoCAD 2000
 90
0
 91
0
280
0
281
0
  0
ENDSEC
  0
SECTION
  2
TABLES
  0
TABLE
  2
VPORT
  5
8
100
AcDbSymbolTable
 70
2
  0
VPORT
  5
1F4
100
AcDbSymbolTableRecord
100
AcDbViewportTableRecord
  2
*ACTIVE
 70
0
 10
0.0
 20
0.0
 11
1.0
 21
1.0
 12
18.1050298907
 22
25.6056851312
 13
0.0
 23
0.0
 14
1.0
 24
1.0
 15
0.0
 25
0.0
 16
0.0
 26
0.0
 36
1.0
 17
0.0
 27
0.0
 37
0.0
 40
51.2113702624
 41
0.7070707071
 42
50.0
 43
0.0
 44
0.0
 50
0.0
 51
0.0
 71
0
 72
100
 73
1
 74
1
 75
0
 76
0
 77
0
 78
0
  0
ENDTAB
  0
TABLE
  2
LTYPE
  5
5
100
AcDbSymbolTable
 70
6
  0
LTYPE
  5
14
100
AcDbSymbolTableRecord
100
AcDbLinetypeTableRecord
  2
BYBLOCK
 70
0
  3

 72
65
 73
0
 40
0.0
  0
LTYPE
  5
15
100
AcDbSymbolTableRecord
100
AcDbLinetypeTableRecord
  2
BYLAYER
 70
0
  3

 72
65
 73
0
 40
0.0
  0
LTYPE
  5
16
100
AcDbSymbolTableRecord
100
AcDbLinetypeTableRecord
  2
CONTINUOUS
 70
64
  3
Solid line
 72
65
 73
0
 40
0.0
  0
LTYPE
  5
1F5
100
AcDbSymbolTableRecord
100
AcDbLinetypeTableRecord
  2
CENTER
 70
64
  3
____ _ ____ _ ____ _ ____ _ ____ _ ____ _ ____
 72
65
 73
4
 40
0.6
 49
0.375
 74
0
 49
-0.075
 74
0
 49
0.075
 74
0
 49
-0.075
 74
0
  0
LTYPE
  5
1F6
100
AcDbSymbolTableRecord
100
AcDbLinetypeTableRecord
  2
HIDDEN
 70
64
  3
- - - - - - - - - - - - - - - - - - - -
 72
65
 73
2
 40
0.2
 49
0.1
 74
0
 49
-0.1
 74
0
  0
LTYPE
  5
1F7
100
AcDbSymbolTableRecord
100
AcDbLinetypeTableRecord
  2
PHANTOM
 70
64
  3
_____ _ _ _____ _ _ _____ _ _ _____
 72
65
 73
6
 40
0.8
 49
0.45
 74
0
 49
-0.05
 74
0
 49
0.1
 74
0
 49
-0.05
 74
0
 49
0.1
 74
0
 49
-0.05
 74
0
  0
LTYPE
  5
1F8
100
AcDbSymbolTableRecord
100
AcDbLinetypeTableRecord
  2
DOT
 70
64
  3
. . . . . . . . . . . . . . . . . . . .
 72
65
 73
2
 40
0.2
 49
0.1
 74
0
 49
-0.1
 74
0
  0
LTYPE
  5
1F9
100
AcDbSymbolTableRecord
100
AcDbLinetypeTableRecord
  2
DASHED
 70
64
  3
- - - - - - - - - - - - - - - - - - - -
 72
65
 73
2
 40
0.2
 49
0.1
 74
0
 49
-0.1
 74
0
  0
ENDTAB
  0
TABLE
  2
LAYER
  5
2
100
AcDbSymbolTable
 70
36
  0
LAYER
  5
10
100
AcDbSymbolTableRecord
100
AcDbLayerTableRecord
  2
0
 70
0
 62
7
  6
CONTINUOUS
370
-3
390
F
  0
LAYER
  5
1FA
100
AcDbSymbolTableRecord
100
AcDbLayerTableRecord
  2
DEFAULT_1
 70
0
 62
7
  6
CENTER
370
-3
390
F
  0
LAYER
  5
1FB
100
AcDbSymbolTableRecord
100
AcDbLayerTableRecord
  2
DEFAULT_2
 70
0
 62
7
  6
HIDDEN
370
-3
390
F
  0
LAYER
  5
1FC
100
AcDbSymbolTableRecord
100
AcDbLayerTableRecord
  2
DEFAULT_3
 70
0
 62
7
  6
PHANTOM
370
-3
390
F
  0
LAYER
  5
1FD
100
AcDbSymbolTableRecord
100
AcDbLayerTableRecord
  2
00_COMPONENTS
 70
0
 62
7
  6
CONTINUOUS
370
-3
390
F
  0
LAYER
  5
1FE
100
AcDbSymbolTableRecord
100
AcDbLayerTableRecord
  2
01_1_DEFAULT_DATUMS
 70
0
 62
7
  6
CONTINUOUS
370
-3
390
F
  0
LAYER
  5
1FF
100
AcDbSymbolTableRecord
100
AcDbLayerTableRecord
  2
01_PLANES
 70
0
 62
7
  6
CONTINUOUS
370
-3
390
F
  0
LAYER
  5
200
100
AcDbSymbolTableRecord
100
AcDbLayerTableRecord
  2
02_COORD_SYS
 70
0
 62
7
  6
CONTINUOUS
370
-3
390
F
  0
LAYER
  5
201
100
AcDbSymbolTableRecord
100
AcDbLayerTableRecord
  2
03_AXES
 70
0
 62
7
  6
CONTINUOUS
370
-3
390
F
  0
LAYER
  5
202
100
AcDbSymbolTableRecord
100
AcDbLayerTableRecord
  2
04_POINTS
 70
0
 62
7
  6
CONTINUOUS
370
-3
390
F
  0
LAYER
  5
203
100
AcDbSymbolTableRecord
100
AcDbLayerTableRecord
  2
05_CURVES
 70
0
 62
7
  6
CONTINUOUS
370
-3
390
F
  0
LAYER
  5
204
100
AcDbSymbolTableRecord
100
AcDbLayerTableRecord
  2
06_SURFS
 70
0
 62
7
  6
CONTINUOUS
370
-3
390
F
  0
LAYER
  5
205
100
AcDbSymbolTableRecord
100
AcDbLayerTableRecord
  2
07_COSMETICS
 70
0
 62
7
  6
CONTINUOUS
370
-3
390
F
  0
LAYER
  5
206
100
AcDbSymbolTableRecord
100
AcDbLayerTableRecord
  2
10_NOTES
 70
0
 62
7
  6
CONTINUOUS
370
-3
390
F
  0
LAYER
  5
207
100
AcDbSymbolTableRecord
100
AcDbLayerTableRecord
  2
11_NOTES_PUB
 70
0
 62
7
  6
CONTINUOUS
370
-3
390
F
  0
LAYER
  5
208
100
AcDbSymbolTableRecord
100
AcDbLayerTableRecord
  2
13_REF_GTOL
 70
0
 62
7
  6
CONTINUOUS
370
-3
390
F
  0
LAYER
  5
209
100
AcDbSymbolTableRecord
100
AcDbLayerTableRecord
  2
16_MISC
 70
0
 62
7
  6
CONTINUOUS
370
-3
390
F
  0
LAYER
  5
20A
100
AcDbSymbolTableRecord
100
AcDbLayerTableRecord
  2
17_NO_PRINT
 70
0
 62
7
  6
CONTINUOUS
370
-3
390
F
  0
LAYER
  5
20B
100
AcDbSymbolTableRecord
100
AcDbLayerTableRecord
  2
18_DATUM_CAMS_JOINTS
 70
0
 62
7
  6
CONTINUOUS
370
-3
390
F
  0
LAYER
  5
20C
100
AcDbSymbolTableRecord
100
AcDbLayerTableRecord
  2
19_DATUM_FUNCTIONAL
 70
0
 62
7
  6
CONTINUOUS
370
-3
390
F
  0
LAYER
  5
20D
100
AcDbSymbolTableRecord
100
AcDbLayerTableRecord
  2
20_DATUM_KINEMATIC_SCHEME
 70
0
 62
7
  6
CONTINUOUS
370
-3
390
F
  0
ENDTAB
  0
TABLE
  2
STYLE
  5
3
100
AcDbSymbolTable
 70
1
  0
STYLE
  5
11
100
AcDbSymbolTableRecord
100
AcDbTextStyleTableRecord
  2
STANDARD
 70
0
 40
0.0
 41
1.0
 50
0.0
 71
0
 42
0.2
  3
ARIAL.TTF
  4

  0
STYLE
  5
20E
100
AcDbSymbolTableRecord
100
AcDbTextStyleTableRecord
  2
TEXTSTYLE_1
 70
0
 40
0.0
 41
0.8
 50
0.0
 71
0
 42
0.2
  3
gdt
  4

  0
ENDTAB
  0
TABLE
  2
VIEW
  5
6
100
AcDbSymbolTable
 70
0
  0
ENDTAB
  0
TABLE
  2
UCS
  5
7
100
AcDbSymbolTable
 70
0
  0
ENDTAB
  0
TABLE
  2
APPID
  5
9
100
AcDbSymbolTable
 70
1
  0
APPID
  5
20F
100
AcDbSymbolTableRecord
100
AcDbRegAppTableRecord
  2
ACAD
 70
0
  0
ENDTAB
  0
TABLE
  2
BLOCK_RECORD
  5
1
100
AcDbSymbolTable
 70
0
  0
BLOCK_RECORD
  5
210
100
AcDbSymbolTableRecord
100
AcDbBlockTableRecord
  2
*Model_Space
  0
BLOCK_RECORD
  5
211
100
AcDbSymbolTableRecord
100
AcDbBlockTableRecord
  2
*Paper_Space
  0
BLOCK_RECORD
  5
212
100
AcDbSymbolTableRecord
100
AcDbBlockTableRecord
  2
_FILLED
  0
ENDTAB
  0
TABLE
  2
DIMSTYLE
  5
A
100
AcDbSymbolTable
 70
1
100
AcDbDimStyleTable
 71
0
  0
DIMSTYLE
105
213
100
AcDbSymbolTableRecord
100
AcDbDimStyleTableRecord
  2
STANDARD
 70
0
  3

  4

 40
1.0
 41
0.4310721403
 42
1.0
 43
0.38
 44
1.0
 45
0.0
 46
0.0
 47
0.01
 48
0.01
140
0.6035009964
141
0.09
142
0.0
143
25.4
144
1.0
145
0.0
146
1.0
147
0.625
 71
1
 72
0
 73
0
 74
0
 75
0
 76
0
 77
1
 78
8
 79
2
170
0
171
1
172
0
173
0
174
0
175
0
176
0
177
0
178
0
270
2
179
2
271
2
272
2
273
2
274
2
275
0
280
0
281
0
282
0
283
1
284
8
285
0
286
0
287
3
288
0
340
11
278
46
341
212
342
212
343
212
344
212
  0
ENDTAB
  0
ENDSEC
  0
SECTION
  2
BLOCKS
  0
BLOCK
  5
20
100
AcDbEntity
  8
0
100
AcDbBlockBegin
  2
*Model_Space
 70
0
 10
0.0
 20
0.0
 30
0.0
  3
*Model_Space
  1

  0
ENDBLK
  5
21
100
AcDbEntity
  8
0
100
AcDbBlockEnd
  0
BLOCK
  5
1C
100
AcDbEntity
  8
0
100
AcDbBlockBegin
  2
*Paper_Space
 70
0
 10
0.0
 20
0.0
 30
0.0
  3
*Paper_Space
  1

  0
ENDBLK
  5
1D
100
AcDbEntity
  8
0
100
AcDbBlockEnd
  0
BLOCK
  5
214
100
AcDbEntity
  8
0
100
AcDbBlockBegin
  2
_FILLED
 70
64
 10
0.0
 20
0.0
  3
_FILLED
  1

  0
SOLID
  5
215
100
AcDbEntity
  8
0
  6
BYBLOCK
 62
0
100
AcDbTrace
 10
0.0
 20
0.0
 11
-1.0
 21
0.25
 12
-1.0
 22
-0.25
 13
-1.0
 23
-0.25
  0
ENDBLK
  5
216
100
AcDbEntity
  8
0
  6
BYBLOCK
 62
0
100
AcDbBlockEnd
  0
ENDSEC
  0
SECTION
  2
ENTITIES
  0
LINE
  5
217
100
AcDbEntity
  8
0
100
AcDbLine
 62
7
  6
BYLAYER
 10
19.3614710602
 20
4.1683673469
 11
17.8515041732
 21
4.1683673469
  0
LINE
  5
218
100
AcDbEntity
  8
0
100
AcDbLine
 62
7
  6
BYLAYER
 10
21.6064820469
 20
17.1683673469
 11
15.6064931865
 21
17.1683673469
  0
LINE
  5
219
100
AcDbEntity
  8
0
100
AcDbLine
 62
7
  6
BYLAYER
 10
22.606487627
 20
18.1683673469
 11
14.6064876064
 21
18.1683673469
  0
LINE
  5
21A
100
AcDbEntity
  8
0
100
AcDbLine
 62
7
  6
BYLAYER
 10
15.6064876177
 20
17.1683673469
 11
14.6064876137
 21
18.1683673469
  0
LINE
  5
21B
100
AcDbEntity
  8
0
100
AcDbLine
 62
7
  6
BYLAYER
 10
14.6064876167
 20
47.1683673469
 11
14.6064876167
 21
39.1683673469
  0
LINE
  5
21C
100
AcDbEntity
  8
0
100
AcDbLine
 62
7
  6
BYLAYER
 10
14.6064876167
 20
29.1683673469
 11
14.6064876167
 21
27.1683673469
  0
LINE
  5
21D
100
AcDbEntity
  8
0
100
AcDbLine
 62
7
  6
BYLAYER
 10
14.6064876064
 20
18.1683673543
 11
14.6064876064
 21
22.9183673749
  0
LINE
  5
21E
100
AcDbEntity
  8
0
100
AcDbLine
 62
7
  6
BYLAYER
 10
15.6064876167
 20
22.9183673749
 11
15.6064876167
 21
27.1683673469
  0
LINE
  5
21F
100
AcDbEntity
  8
0
100
AcDbLine
 62
7
  6
BYLAYER
 10
15.6064876167
 20
29.1683673469
 11
15.6064876167
 21
39.1683673469
  0
LINE
  5
220
100
AcDbEntity
  8
0
100
AcDbLine
 62
7
  6
BYLAYER
 10
14.6065926754
 20
22.9183673749
 11
22.606382558
 21
22.9183673749
  0
LINE
  5
221
100
AcDbEntity
  8
0
100
AcDbLine
 62
7
  6
BYLAYER
 10
17.5064876167
 20
5.2264670265
 11
17.5064876167
 21
17.1683673469
  0
LINE
  5
222
100
AcDbEntity
  8
0
100
AcDbLine
 62
7
  6
BYLAYER
 10
18.6064876167
 20
28.811101757
 11
18.6064876167
 21
27.5256329368
  0
LINE
  5
223
100
AcDbEntity
  8
0
100
AcDbLine
 62
7
  6
BYLAYER
 10
19.7064876167
 20
17.1683673469
 11
19.7064876167
 21
5.2264670266
  0
LINE
  5
224
100
AcDbEntity
  8
0
100
AcDbLine
 62
7
  6
BYLAYER
 10
22.6064876167
 20
27.1683673469
 11
14.6064876167
 21
27.1683673469
  0
LINE
  5
225
100
AcDbEntity
  8
0
100
AcDbLine
 62
7
  6
BYLAYER
 10
21.6064876167
 20
22.9183673749
 11
21.6064876167
 21
27.1683673469
  0
LINE
  5
226
100
AcDbEntity
  8
0
100
AcDbLine
 62
7
  6
BYLAYER
 10
21.6064876167
 20
29.1683673469
 11
21.6064876167
 21
39.1683673469
  0
LINE
  5
227
100
AcDbEntity
  8
0
100
AcDbLine
 62
7
  6
BYLAYER
 10
22.606487627
 20
18.1683673543
 11
22.606487627
 21
22.9183673749
  0
LINE
  5
228
100
AcDbEntity
  8
0
100
AcDbLine
 62
7
  6
BYLAYER
 10
22.6064876167
 20
27.1683673469
 11
22.6064876167
 21
29.1683673469
  0
LINE
  5
229
100
AcDbEntity
  8
0
100
AcDbLine
 62
7
  6
BYLAYER
 10
22.6064876167
 20
39.1683673469
 11
22.6064876167
 21
47.1683673469
  0
LINE
  5
22A
100
AcDbEntity
  8
0
100
AcDbLine
 62
7
  6
BYLAYER
 10
14.6064876167
 20
29.1683673469
 11
22.6064876167
 21
29.1683673469
  0
LINE
  5
22B
100
AcDbEntity
  8
0
100
AcDbLine
 62
7
  6
BYLAYER
 10
21.6064876157
 20
17.1683673469
 11
22.6064876196
 21
18.1683673469
  0
LINE
  5
22C
100
AcDbEntity
  8
0
100
AcDbLine
 62
7
  6
BYLAYER
 10
14.6064876167
 20
39.1683673469
 11
22.6064876167
 21
39.1683673469
  0
LINE
  5
22D
100
AcDbEntity
  8
0
100
AcDbLine
 62
7
  6
BYLAYER
 10
14.6064876167
 20
47.1683673469
 11
22.6064876167
 21
47.1683673469
  0
SPLINE
  5
22E
100
AcDbEntity
  8
0
100
AcDbSpline
 62
7
  6
BYLAYER
 70
0
 71
3
 72
13
 73
9
 74
0
 42
0.0000001
 43
0.0000001
 44
0.0000000001
 40
0.0
 40
0.0
 40
0.0
 40
0.0
 40
0.2513855782
 40
0.5016831749
 40
0.6264930183
 40
0.7511112818
 40
0.8755962448
 40
1.0
 40
1.0
 40
1.0
 40
1.0
 10
14.6064876167
 20
28.811101757
 30
0.0
 10
14.7686889047
 20
28.865168853
 30
0.0
 10
15.0954171153
 20
28.9643246578
 30
0.0
 10
15.5111327002
 20
29.059824889
 30
0.0
 10
15.8465379396
 20
29.1153644
 30
0.0
 10
16.0991185982
 20
29.1457525491
 30
0.0
 10
16.3525708412
 20
29.1642360577
 30
0.0
 10
16.521876744
 20
29.1683673469
 30
0.0
 10
16.6064876167
 20
29.1683673469
 30
0.0
  0
SPLINE
  5
22F
100
AcDbEntity
  8
0
100
AcDbSpline
 62
7
  6
BYLAYER
 70
0
 71
3
 72
13
 73
9
 74
0
 42
0.0000001
 43
0.0000001
 44
0.0000000001
 40
0.0
 40
0.0
 40
0.0
 40
0.0
 40
0.1244037923
 40
0.2488888388
 40
0.3735071292
 40
0.4983169576
 40
0.7486145012
 40
1.0
 40
1.0
 40
1.0
 40
1.0
 10
20.6064876167
 20
29.1683673469
 30
0.0
 10
20.6910985149
 20
29.1683673469
 30
0.0
 10
20.8604044958
 20
29.1642359698
 30
0.0
 10
21.1138568519
 20
29.1457525912
 30
0.0
 10
21.3664375417
 20
29.1153641623
 30
0.0
 10
21.7018428063
 20
29.059825005
 30
0.0
 10
22.1175583019
 20
28.9643247529
 30
0.0
 10
22.4442863796
 20
28.865168836
 30
0.0
 10
22.6064876167
 20
28.811101757
 30
0.0
  0
SPLINE
  5
230
100
AcDbEntity
  8
0
100
AcDbSpline
 62
7
  6
BYLAYER
 70
0
 71
3
 72
13
 73
9
 74
0
 42
0.0000001
 43
0.0000001
 44
0.0000000001
 40
0.0
 40
0.0
 40
0.0
 40
0.0
 40
0.1244037923
 40
0.2488888388
 40
0.3735071292
 40
0.4983169576
 40
0.7486145012
 40
1.0
 40
1.0
 40
1.0
 40
1.0
 10
16.6064876167
 20
27.1683673469
 30
0.0
 10
16.5218767185
 20
27.1683673469
 30
0.0
 10
16.3525707376
 20
27.172498724
 30
0.0
 10
16.0991183815
 20
27.1909821027
 30
0.0
 10
15.8465376917
 20
27.2213705316
 30
0.0
 10
15.5111324271
 20
27.2769096888
 30
0.0
 10
15.0954169315
 20
27.372409941
 30
0.0
 10
14.7686888537
 20
27.4715658578
 30
0.0
 10
14.6064876167
 20
27.5256329368
 30
0.0
  0
SPLINE
  5
231
100
AcDbEntity
  8
0
100
AcDbSpline
 62
7
  6
BYLAYER
 70
0
 71
3
 72
13
 73
9
 74
0
 42
0.0000001
 43
0.0000001
 44
0.0000000001
 40
0.0
 40
0.0
 40
0.0
 40
0.0
 40
0.2513855782
 40
0.5016831749
 40
0.6264930183
 40
0.7511112818
 40
0.8755962448
 40
1.0
 40
1.0
 40
1.0
 40
1.0
 10
18.6064876167
 20
27.5256329368
 30
0.0
 10
18.4442863287
 20
27.4715658409
 30
0.0
 10
18.1175581181
 20
27.3724100361
 30
0.0
 10
17.7018425332
 20
27.2769098049
 30
0.0
 10
17.3664372938
 20
27.2213702939
 30
0.0
 10
17.1138566352
 20
27.1909821447
 30
0.0
 10
16.8604043922
 20
27.1724986361
 30
0.0
 10
16.6910984894
 20
27.1683673469
 30
0.0
 10
16.6064876167
 20
27.1683673469
 30
0.0
  0
SPLINE
  5
232
100
AcDbEntity
  8
0
100
AcDbSpline
 62
7
  6
BYLAYER
 70
0
 71
3
 72
13
 73
9
 74
0
 42
0.0000001
 43
0.0000001
 44
0.0000000001
 40
0.0
 40
0.0
 40
0.0
 40
0.0
 40
0.1244037923
 40
0.2488888388
 40
0.3735071292
 40
0.4983169576
 40
0.7486145012
 40
1.0
 40
1.0
 40
1.0
 40
1.0
 10
20.6064876167
 20
27.1683673469
 30
0.0
 10
20.5218767185
 20
27.1683673469
 30
0.0
 10
20.3525707376
 20
27.172498724
 30
0.0
 10
20.0991183815
 20
27.1909821027
 30
0.0
 10
19.8465376917
 20
27.2213705316
 30
0.0
 10
19.5111324271
 20
27.2769096888
 30
0.0
 10
19.0954169315
 20
27.372409941
 30
0.0
 10
18.7686888537
 20
27.4715658578
 30
0.0
 10
18.6064876167
 20
27.5256329368
 30
0.0
  0
SPLINE
  5
233
100
AcDbEntity
  8
0
100
AcDbSpline
 62
7
  6
BYLAYER
 70
0
 71
3
 72
13
 73
9
 74
0
 42
0.0000001
 43
0.0000001
 44
0.0000000001
 40
0.0
 40
0.0
 40
0.0
 40
0.0
 40
0.2513855782
 40
0.5016831749
 40
0.6264930183
 40
0.7511112818
 40
0.8755962448
 40
1.0
 40
1.0
 40
1.0
 40
1.0
 10
18.6064876167
 20
28.811101757
 30
0.0
 10
18.7686889047
 20
28.865168853
 30
0.0
 10
19.0954171153
 20
28.9643246578
 30
0.0
 10
19.5111327002
 20
29.059824889
 30
0.0
 10
19.8465379396
 20
29.1153644
 30
0.0
 10
20.0991185982
 20
29.1457525491
 30
0.0
 10
20.3525708412
 20
29.1642360577
 30
0.0
 10
20.521876744
 20
29.1683673469
 30
0.0
 10
20.6064876167
 20
29.1683673469
 30
0.0
  0
SPLINE
  5
234
100
AcDbEntity
  8
0
100
AcDbSpline
 62
7
  6
BYLAYER
 70
0
 71
3
 72
13
 73
9
 74
0
 42
0.0000001
 43
0.0000001
 44
0.0000000001
 40
0.0
 40
0.0
 40
0.0
 40
0.0
 40
0.1244037923
 40
0.2488888388
 40
0.3735071292
 40
0.4983169576
 40
0.7486145012
 40
1.0
 40
1.0
 40
1.0
 40
1.0
 10
16.6064876167
 20
29.1683673469
 30
0.0
 10
16.6910985149
 20
29.1683673469
 30
0.0
 10
16.8604044958
 20
29.1642359698
 30
0.0
 10
17.1138568519
 20
29.1457525912
 30
0.0
 10
17.3664375417
 20
29.1153641623
 30
0.0
 10
17.7018428063
 20
29.059825005
 30
0.0
 10
18.1175583019
 20
28.9643247529
 30
0.0
 10
18.4442863796
 20
28.865168836
 30
0.0
 10
18.6064876167
 20
28.811101757
 30
0.0
  0
SPLINE
  5
235
100
AcDbEntity
  8
0
100
AcDbSpline
 62
7
  6
BYLAYER
 70
0
 71
3
 72
13
 73
9
 74
0
 42
0.0000001
 43
0.0000001
 44
0.0000000001
 40
0.0
 40
0.0
 40
0.0
 40
0.0
 40
0.2513855782
 40
0.5016831749
 40
0.6264930183
 40
0.7511112818
 40
0.8755962448
 40
1.0
 40
1.0
 40
1.0
 40
1.0
 10
22.6064876167
 20
27.5256329368
 30
0.0
 10
22.4442863287
 20
27.4715658409
 30
0.0
 10
22.1175581181
 20
27.3724100361
 30
0.0
 10
21.7018425332
 20
27.2769098049
 30
0.0
 10
21.3664372938
 20
27.2213702939
 30
0.0
 10
21.1138566352
 20
27.1909821447
 30
0.0
 10
20.8604043922
 20
27.1724986361
 30
0.0
 10
20.6910984894
 20
27.1683673469
 30
0.0
 10
20.6064876167
 20
27.1683673469
 30
0.0
  0
SPLINE
  5
236
100
AcDbEntity
  8
0
100
AcDbSpline
 62
7
  6
BYLAYER
 70
0
 71
3
 72
19
 73
15
 74
0
 42
0.0000001
 43
0.0000001
 44
0.0000000001
 40
0.0
 40
0.0
 40
0.0
 40
0.0
 40
0.0819474667
 40
0.1633498843
 40
0.3224623163
 40
0.4742813446
 40
0.6159522106
 40
0.7440782118
 40
0.8017263399
 40
0.8542430977
 40
0.9009309638
 40
0.941109104
 40
0.9741902877
 40
1.0
 40
1.0
 40
1.0
 40
1.0
 10
17.8515041732
 20
4.1683673469
 30
0.0
 10
17.8515041732
 20
4.1990276631
 30
0.0
 10
17.8487737238
 20
4.2601788047
 30
0.0
 10
17.8330596594
 20
4.3799220456
 30
0.0
 10
17.7971531176
 20
4.5227655506
 30
0.0
 10
17.7382207681
 20
4.681708056
 30
0.0
 10
17.6738745765
 20
4.8257958752
 30
0.0
 10
17.6205118286
 20
4.9360767241
 30
0.0
 10
17.5818733709
 20
5.0164243128
 30
0.0
 10
17.5570932423
 20
5.0696267916
 30
0.0
 10
17.5363270592
 20
5.1174694969
 30
0.0
 10
17.5202756129
 20
5.1594153554
 30
0.0
 10
17.5098036877
 20
5.1950075624
 30
0.0
 10
17.5066551512
 20
5.2170031964
 30
0.0
 10
17.5066551512
 20
5.2266597968
 30
0.0
  0
SPLINE
  5
237
100
AcDbEntity
  8
0
100
AcDbSpline
 62
7
  6
BYLAYER
 70
0
 71
3
 72
19
 73
15
 74
0
 42
0.0000001
 43
0.0000001
 44
0.0000000001
 40
0.0
 40
0.0
 40
0.0
 40
0.0
 40
0.0258097101
 40
0.0588908922
 40
0.0990690287
 40
0.1457568904
 40
0.1982736458
 40
0.2559217673
 40
0.3840477651
 40
0.5257186383
 40
0.6775376436
 40
0.8366500941
 40
0.9180525331
 40
1.0
 40
1.0
 40
1.0
 40
1.0
 10
19.7063200822
 20
5.226659797
 30
0.0
 10
19.7063200822
 20
5.2170031974
 30
0.0
 10
19.7031715585
 20
5.195007563
 30
0.0
 10
19.6926996152
 20
5.159415363
 30
0.0
 10
19.6766481786
 20
5.1174695058
 30
0.0
 10
19.6558819985
 20
5.069626803
 30
0.0
 10
19.6311018692
 20
5.0164243302
 30
0.0
 10
19.5924634158
 20
4.9360767445
 30
0.0
 10
19.5391006657
 20
4.8257958979
 30
0.0
 10
19.474754479
 20
4.6817080844
 30
0.0
 10
19.4158221252
 20
4.5227655791
 30
0.0
 10
19.379915586
 20
4.3799220674
 30
0.0
 10
19.3642015078
 20
4.2601788131
 30
0.0
 10
19.3614710602
 20
4.1990276632
 30
0.0
 10
19.3614710602
 20
4.1683673469
 30
0.0
  0
ENDSEC
  0
SECTION
  2
OBJECTS
  0
DICTIONARY
  5
C
100
AcDbDictionary
280
0
281
1
  3
ACAD_GROUP
350
D
  3
ACAD_MLINESTYLE
350
17
  3
ACAD_LAYOUT
350
1A
  3
ACAD_PLOTSETTINGS
350
19
  3
ACAD_PLOTSTYLENAME
350
E
  0
DICTIONARY
  5
D
102
{ACAD_REACTORS
330
C
102
}
100
AcDbDictionary
280
0
281
1
  0
ACDBDICTIONARYWDFLT
  5
E
102
{ACAD_REACTORS
330
C
102
}
100
AcDbDictionary
281
1
  3
Normal
350
F
100
AcDbDictionaryWithDefault
340
F
  0
DICTIONARY
  5
17
102
{ACAD_REACTORS
330
C
102
}
100
AcDbDictionary
280
0
281
1
  3
Standard
350
18
  0
DICTIONARY
  5
19
102
{ACAD_REACTORS
330
C
102
}
100
AcDbDictionary
281
1
  0
DICTIONARY
  5
1A
102
{ACAD_REACTORS
330
C
102
}
100
AcDbDictionary
281
1
  3
Model
350
238
  3
Layout1
350
239
  0
ACDBPLACEHOLDER
  5
F
102
{ACAD_REACTORS
330
E
102
}
  0
MLINESTYLE
  5
18
102
{ACAD_REACTORS
330
17
102
}
100
AcDbMlineStyle
  2
STANDARD
 70
0
  3

 62
256
 51
90.0
 52
90.0
 71
2
 49
0.5
 62
256
  6
BYLAYER
 49
-0.5
 62
256
  6
BYLAYER
  0
LAYOUT
  5
238
102
{ACAD_REACTORS
330
1A
102
}
100
AcDbPlotSettings
  1

  2
none_device
  4

  6

 40
0.0
 41
0.0
 42
0.0
 43
0.0
 44
210.0
 45
297.0
 46
0.0
 47
0.0
 48
0.0
 49
0.0
140
0.0
141
0.0
142
1.0
143
1.0
 70
1024
 72
1
 73
0
 74
0
  7

 75
0
147
1.0
148
0.0
149
0.0
100
AcDbLayout
  1
Model
 70
0
 71
0
 10
0.0
 20
0.0
 11
210.0
 21
297.0
 12
0.0
 22
0.0
 32
0.0
 14
0.0
 24
0.0
 34
0.0
 15
0.0
 25
0.0
 35
0.0
146
0.0
 13
0.0
 23
0.0
 33
0.0
 16
1.0
 26
0.0
 36
0.0
 17
0.0
 27
1.0
 37
0.0
 76
0
330
210
345
0
346
0
  0
LAYOUT
  5
239
102
{ACAD_REACTORS
330
1A
102
}
100
AcDbPlotSettings
  1

  2
none_device
  4

  6

 40
0.0
 41
0.0
 42
0.0
 43
0.0
 44
210.0
 45
297.0
 46
0.0
 47
0.0
 48
0.0
 49
0.0
140
0.0
141
0.0
142
1.0
143
1.0
 70
0
 72
1
 73
0
 74
0
  7

 75
0
147
1.0
148
0.0
149
0.0
100
AcDbLayout
  1
Layout1
 70
0
 71
1
 10
0.0
 20
0.0
 11
210.0
 21
297.0
 12
0.0
 22
0.0
 32
0.0
 14
0.0
 24
0.0
 34
0.0
 15
0.0
 25
0.0
 35
0.0
146
0.0
 13
0.0
 23
0.0
 33
0.0
 16
1.0
 26
0.0
 36
0.0
 17
0.0
 27
1.0
 37
0.0
 76
0
330
211
345
0
346
0
  0
ENDSEC
  0
EOF
