999
DXF file: C:\Users\sesa63760\Dev\_Creo\CAD\MCADPE0010548_3D-CAD\drw0001_1.dxf
999
Pro/ENGINEER 2019471 by Parametric Technology Corporation
  0
SECTION
  2
HEADER
  9
$ACADVER
  1
AC1024
  9
$DWGCODEPAGE
  3
ANSI_1252
  9
$EXTMAX
 10
71.2389988952
 20
100.7522984375
 30
0.0
  9
$EXTMIN
 10
0.0
 20
0.0
 30
0.0
  9
$LIMMIN
 10
0.0
 20
0.0
  9
$LIMMAX
 10
71.2389988952
 20
100.7522984375
  9
$VIEWCTR
 10
35.6194994476
 20
50.3761492187
  9
$VIEWSIZE
 40
100.7522984375
  9
$CLAYER
  8
0
  9
$LTSCALE
 40
6.5675572315
  9
$CELTYPE
  6
BYLAYER
  9
$DIMSCALE
 40
1.0
  9
$DIMASZ
 40
0.8480833202
  9
$DIMEXO
 40
1.0
  9
$DIMDLI
 40
4.5375849963
  9
$DIMEXE
 40
1.0
  9
$DIMCEN
 40
1.0746911833
  9
$DIMLFAC
 40
1.0
  9
$DIMBLK
  1
_FILLED
  9
$DIMALT
 70
0
  9
$DIMALTF
 40
0.0393700787
  9
$DIMTXT
 40
1.1873166483
  9
$DIMTOL
 70
1
  9
$DIMLIM
 70
0
  9
$DIMTFAC
 40
1.0
  9
$DIMTP
 40
0.01
  9
$DIMTM
 40
0.01
  9
$DIMGAP
 40
0.625
  9
$DIMDSEP
 70
46
  9
$AUNITS
 70
0
  9
$PDMODE
 70
3
  9
$PDSIZE
 40
0.3125
  9
$HANDSEED
  5
3A0
  9
$TILEMODE
 70
1
  9
$MEASUREMENT
 70
1
  9
$INSUNITS
 70
4
  0
ENDSEC
  0
SECTION
  2
CLASSES
  0
CLASS
  1
ACDBDICTIONARYWDFLT
  2
AcDbDictionaryWithDefault
  3
AutoCAD 2000
 90
0
 91
1
280
0
281
0
  0
CLASS
  1
ACDBPLACEHOLDER
  2
AcDbPlaceHolder
  3
AutoCAD 2000
 90
0
 91
1
280
0
281
0
  0
CLASS
  1
LAYOUT
  2
AcDbLayout
  3
AutoCAD 2000
 90
0
 91
0
280
0
281
0
  0
ENDSEC
  0
SECTION
  2
TABLES
  0
TABLE
  2
VPORT
  5
8
100
AcDbSymbolTable
 70
2
  0
VPORT
  5
1F4
100
AcDbSymbolTableRecord
100
AcDbViewportTableRecord
  2
*ACTIVE
 70
0
 10
0.0
 20
0.0
 11
1.0
 21
1.0
 12
35.6194994476
 22
50.3761492187
 13
0.0
 23
0.0
 14
1.0
 24
1.0
 15
0.0
 25
0.0
 16
0.0
 26
0.0
 36
1.0
 17
0.0
 27
0.0
 37
0.0
 40
100.7522984375
 41
0.7070707071
 42
50.0
 43
0.0
 44
0.0
 50
0.0
 51
0.0
 71
0
 72
100
 73
1
 74
1
 75
0
 76
0
 77
0
 78
0
  0
ENDTAB
  0
TABLE
  2
LTYPE
  5
5
100
AcDbSymbolTable
 70
6
  0
LTYPE
  5
14
100
AcDbSymbolTableRecord
100
AcDbLinetypeTableRecord
  2
BYBLOCK
 70
0
  3

 72
65
 73
0
 40
0.0
  0
LTYPE
  5
15
100
AcDbSymbolTableRecord
100
AcDbLinetypeTableRecord
  2
BYLAYER
 70
0
  3

 72
65
 73
0
 40
0.0
  0
LTYPE
  5
16
100
AcDbSymbolTableRecord
100
AcDbLinetypeTableRecord
  2
CONTINUOUS
 70
64
  3
Solid line
 72
65
 73
0
 40
0.0
  0
LTYPE
  5
1F5
100
AcDbSymbolTableRecord
100
AcDbLinetypeTableRecord
  2
CENTER
 70
64
  3
____ _ ____ _ ____ _ ____ _ ____ _ ____ _ ____
 72
65
 73
4
 40
0.6
 49
0.375
 74
0
 49
-0.075
 74
0
 49
0.075
 74
0
 49
-0.075
 74
0
  0
LTYPE
  5
1F6
100
AcDbSymbolTableRecord
100
AcDbLinetypeTableRecord
  2
HIDDEN
 70
64
  3
- - - - - - - - - - - - - - - - - - - -
 72
65
 73
2
 40
0.2
 49
0.1
 74
0
 49
-0.1
 74
0
  0
LTYPE
  5
1F7
100
AcDbSymbolTableRecord
100
AcDbLinetypeTableRecord
  2
PHANTOM
 70
64
  3
_____ _ _ _____ _ _ _____ _ _ _____
 72
65
 73
6
 40
0.8
 49
0.45
 74
0
 49
-0.05
 74
0
 49
0.1
 74
0
 49
-0.05
 74
0
 49
0.1
 74
0
 49
-0.05
 74
0
  0
LTYPE
  5
1F8
100
AcDbSymbolTableRecord
100
AcDbLinetypeTableRecord
  2
DOT
 70
64
  3
. . . . . . . . . . . . . . . . . . . .
 72
65
 73
2
 40
0.2
 49
0.1
 74
0
 49
-0.1
 74
0
  0
LTYPE
  5
1F9
100
AcDbSymbolTableRecord
100
AcDbLinetypeTableRecord
  2
DASHED
 70
64
  3
- - - - - - - - - - - - - - - - - - - -
 72
65
 73
2
 40
0.2
 49
0.1
 74
0
 49
-0.1
 74
0
  0
ENDTAB
  0
TABLE
  2
LAYER
  5
2
100
AcDbSymbolTable
 70
36
  0
LAYER
  5
10
100
AcDbSymbolTableRecord
100
AcDbLayerTableRecord
  2
0
 70
0
 62
7
  6
CONTINUOUS
370
-3
390
F
  0
LAYER
  5
1FA
100
AcDbSymbolTableRecord
100
AcDbLayerTableRecord
  2
DEFAULT_1
 70
0
 62
7
  6
CENTER
370
-3
390
F
  0
LAYER
  5
1FB
100
AcDbSymbolTableRecord
100
AcDbLayerTableRecord
  2
DEFAULT_2
 70
0
 62
7
  6
HIDDEN
370
-3
390
F
  0
LAYER
  5
1FC
100
AcDbSymbolTableRecord
100
AcDbLayerTableRecord
  2
DEFAULT_3
 70
0
 62
7
  6
PHANTOM
370
-3
390
F
  0
LAYER
  5
1FD
100
AcDbSymbolTableRecord
100
AcDbLayerTableRecord
  2
00_COMPONENTS
 70
0
 62
7
  6
CONTINUOUS
370
-3
390
F
  0
LAYER
  5
1FE
100
AcDbSymbolTableRecord
100
AcDbLayerTableRecord
  2
01_1_DEFAULT_DATUMS
 70
0
 62
7
  6
CONTINUOUS
370
-3
390
F
  0
LAYER
  5
1FF
100
AcDbSymbolTableRecord
100
AcDbLayerTableRecord
  2
01_PLANES
 70
0
 62
7
  6
CONTINUOUS
370
-3
390
F
  0
LAYER
  5
200
100
AcDbSymbolTableRecord
100
AcDbLayerTableRecord
  2
02_COORD_SYS
 70
0
 62
7
  6
CONTINUOUS
370
-3
390
F
  0
LAYER
  5
201
100
AcDbSymbolTableRecord
100
AcDbLayerTableRecord
  2
03_AXES
 70
0
 62
7
  6
CONTINUOUS
370
-3
390
F
  0
LAYER
  5
202
100
AcDbSymbolTableRecord
100
AcDbLayerTableRecord
  2
04_POINTS
 70
0
 62
7
  6
CONTINUOUS
370
-3
390
F
  0
LAYER
  5
203
100
AcDbSymbolTableRecord
100
AcDbLayerTableRecord
  2
05_CURVES
 70
0
 62
7
  6
CONTINUOUS
370
-3
390
F
  0
LAYER
  5
204
100
AcDbSymbolTableRecord
100
AcDbLayerTableRecord
  2
06_SURFS
 70
0
 62
7
  6
CONTINUOUS
370
-3
390
F
  0
LAYER
  5
205
100
AcDbSymbolTableRecord
100
AcDbLayerTableRecord
  2
07_COSMETICS
 70
0
 62
7
  6
CONTINUOUS
370
-3
390
F
  0
LAYER
  5
206
100
AcDbSymbolTableRecord
100
AcDbLayerTableRecord
  2
10_NOTES
 70
0
 62
7
  6
CONTINUOUS
370
-3
390
F
  0
LAYER
  5
207
100
AcDbSymbolTableRecord
100
AcDbLayerTableRecord
  2
11_NOTES_PUB
 70
0
 62
7
  6
CONTINUOUS
370
-3
390
F
  0
LAYER
  5
208
100
AcDbSymbolTableRecord
100
AcDbLayerTableRecord
  2
13_REF_GTOL
 70
0
 62
7
  6
CONTINUOUS
370
-3
390
F
  0
LAYER
  5
209
100
AcDbSymbolTableRecord
100
AcDbLayerTableRecord
  2
16_MISC
 70
0
 62
7
  6
CONTINUOUS
370
-3
390
F
  0
LAYER
  5
20A
100
AcDbSymbolTableRecord
100
AcDbLayerTableRecord
  2
17_NO_PRINT
 70
0
 62
7
  6
CONTINUOUS
370
-3
390
F
  0
LAYER
  5
20B
100
AcDbSymbolTableRecord
100
AcDbLayerTableRecord
  2
18_DATUM_CAMS_JOINTS
 70
0
 62
7
  6
CONTINUOUS
370
-3
390
F
  0
LAYER
  5
20C
100
AcDbSymbolTableRecord
100
AcDbLayerTableRecord
  2
19_DATUM_FUNCTIONAL
 70
0
 62
7
  6
CONTINUOUS
370
-3
390
F
  0
LAYER
  5
20D
100
AcDbSymbolTableRecord
100
AcDbLayerTableRecord
  2
20_DATUM_KINEMATIC_SCHEME
 70
0
 62
7
  6
CONTINUOUS
370
-3
390
F
  0
ENDTAB
  0
TABLE
  2
STYLE
  5
3
100
AcDbSymbolTable
 70
1
  0
STYLE
  5
11
100
AcDbSymbolTableRecord
100
AcDbTextStyleTableRecord
  2
STANDARD
 70
0
 40
0.0
 41
1.0
 50
0.0
 71
0
 42
0.2
  3
ARIAL.TTF
  4

  0
STYLE
  5
20E
100
AcDbSymbolTableRecord
100
AcDbTextStyleTableRecord
  2
TEXTSTYLE_1
 70
0
 40
0.0
 41
0.8
 50
0.0
 71
0
 42
0.2
  3
gdt
  4

  0
ENDTAB
  0
TABLE
  2
VIEW
  5
6
100
AcDbSymbolTable
 70
0
  0
ENDTAB
  0
TABLE
  2
UCS
  5
7
100
AcDbSymbolTable
 70
0
  0
ENDTAB
  0
TABLE
  2
APPID
  5
9
100
AcDbSymbolTable
 70
1
  0
APPID
  5
20F
100
AcDbSymbolTableRecord
100
AcDbRegAppTableRecord
  2
ACAD
 70
0
  0
ENDTAB
  0
TABLE
  2
BLOCK_RECORD
  5
1
100
AcDbSymbolTable
 70
0
  0
BLOCK_RECORD
  5
210
100
AcDbSymbolTableRecord
100
AcDbBlockTableRecord
  2
*Model_Space
  0
BLOCK_RECORD
  5
211
100
AcDbSymbolTableRecord
100
AcDbBlockTableRecord
  2
*Paper_Space
  0
BLOCK_RECORD
  5
212
100
AcDbSymbolTableRecord
100
AcDbBlockTableRecord
  2
_FILLED
  0
ENDTAB
  0
TABLE
  2
DIMSTYLE
  5
A
100
AcDbSymbolTable
 70
1
100
AcDbDimStyleTable
 71
0
  0
DIMSTYLE
105
213
100
AcDbSymbolTableRecord
100
AcDbDimStyleTableRecord
  2
STANDARD
 70
0
  3

  4

 40
1.0
 41
0.8480833202
 42
1.0
 43
0.38
 44
1.0
 45
0.0
 46
0.0
 47
0.01
 48
0.01
140
1.1873166483
141
0.09
142
0.0
143
25.4
144
1.0
145
0.0
146
1.0
147
0.625
 71
1
 72
0
 73
0
 74
0
 75
0
 76
0
 77
1
 78
8
 79
2
170
0
171
1
172
0
173
0
174
0
175
0
176
0
177
0
178
0
270
2
179
2
271
2
272
2
273
2
274
2
275
0
280
0
281
0
282
0
283
1
284
8
285
0
286
0
287
3
288
0
340
11
278
46
341
212
342
212
343
212
344
212
  0
ENDTAB
  0
ENDSEC
  0
SECTION
  2
BLOCKS
  0
BLOCK
  5
20
100
AcDbEntity
  8
0
100
AcDbBlockBegin
  2
*Model_Space
 70
0
 10
0.0
 20
0.0
 30
0.0
  3
*Model_Space
  1

  0
ENDBLK
  5
21
100
AcDbEntity
  8
0
100
AcDbBlockEnd
  0
BLOCK
  5
1C
100
AcDbEntity
  8
0
100
AcDbBlockBegin
  2
*Paper_Space
 70
0
 10
0.0
 20
0.0
 30
0.0
  3
*Paper_Space
  1

  0
ENDBLK
  5
1D
100
AcDbEntity
  8
0
100
AcDbBlockEnd
  0
BLOCK
  5
214
100
AcDbEntity
  8
0
100
AcDbBlockBegin
  2
_FILLED
 70
64
 10
0.0
 20
0.0
  3
_FILLED
  1

  0
SOLID
  5
215
100
AcDbEntity
  8
0
  6
BYBLOCK
 62
0
100
AcDbTrace
 10
0.0
 20
0.0
 11
-1.0
 21
0.25
 12
-1.0
 22
-0.25
 13
-1.0
 23
-0.25
  0
ENDBLK
  5
216
100
AcDbEntity
  8
0
  6
BYBLOCK
 62
0
100
AcDbBlockEnd
  0
ENDSEC
  0
SECTION
  2
ENTITIES
  0
LINE
  5
217
100
AcDbEntity
  8
0
100
AcDbLine
 62
7
  6
BYLAYER
 10
25.5570151442
 20
11.6934940011
 11
21.2082903345
 21
14.2041746414
  0
LINE
  5
218
100
AcDbEntity
  8
0
100
AcDbLine
 62
7
  6
BYLAYER
 10
25.5241213959
 20
11.7341232029
 11
21.1753965862
 21
14.2448038432
  0
LINE
  5
219
100
AcDbEntity
  8
0
100
AcDbLine
 62
7
  6
BYLAYER
 10
24.8897117299
 20
13.0096713808
 11
25.0735066903
 21
12.9035597115
  0
LINE
  5
21A
100
AcDbEntity
  8
0
100
AcDbLine
 62
7
  6
BYLAYER
 10
24.1641804627
 20
14.8925720974
 11
24.347975423
 21
14.7864604281
  0
LINE
  5
21B
100
AcDbEntity
  8
0
100
AcDbLine
 62
7
  6
BYLAYER
 10
32.4650304902
 20
10.2959616108
 11
36.8137552999
 21
7.7852809705
  0
LINE
  5
21C
100
AcDbEntity
  8
0
100
AcDbLine
 62
7
  6
BYLAYER
 10
32.4323465521
 20
10.3360463129
 11
36.7810713602
 21
7.8253656764
  0
LINE
  5
21D
100
AcDbEntity
  8
0
100
AcDbLine
 62
7
  6
BYLAYER
 10
36.1410718143
 20
9.1154207259
 11
36.3248667747
 21
9.0093090567
  0
LINE
  5
21E
100
AcDbEntity
  8
0
100
AcDbLine
 62
7
  6
BYLAYER
 10
22.848425952
 20
17.7506412791
 11
19.418943785
 21
19.7306089385
  0
LINE
  5
21F
100
AcDbEntity
  8
0
100
AcDbLine
 62
7
  6
BYLAYER
 10
35.4155405471
 20
10.9983214426
 11
35.5993355075
 21
10.8922097733
  0
LINE
  5
220
100
AcDbEntity
  8
0
100
AcDbLine
 62
7
  6
BYLAYER
 10
21.2082922478
 20
14.2041779613
 11
21.1753965862
 21
14.2448038432
  0
LINE
  5
221
100
AcDbEntity
  8
0
100
AcDbLine
 62
7
  6
BYLAYER
 10
45.1761349058
 20
93.0316725777
 11
45.1080961965
 21
92.992390645
  0
LINE
  5
222
100
AcDbEntity
  8
0
100
AcDbLine
 62
7
  6
BYLAYER
 10
36.0516877177
 20
87.7637019709
 11
35.2019664389
 21
87.2731180903
  0
LINE
  5
223
100
AcDbEntity
  8
0
100
AcDbLine
 62
7
  6
BYLAYER
 10
27.7468908391
 20
15.860073839
 11
27.9306857995
 21
15.7539621697
  0
LINE
  5
224
100
AcDbEntity
  8
0
100
AcDbLine
 62
7
  6
BYLAYER
 10
18.3306468842
 20
22.5549600134
 11
21.7601290511
 21
20.574992354
  0
LINE
  5
225
100
AcDbEntity
  8
0
100
AcDbLine
 62
7
  6
BYLAYER
 10
22.1489587983
 20
20.4933543492
 11
17.8002339886
 21
23.0040349895
  0
LINE
  5
226
100
AcDbEntity
  8
0
100
AcDbLine
 62
7
  6
BYLAYER
 10
34.0997860364
 20
13.8563906242
 11
31.3043949397
 21
15.4702739155
  0
LINE
  5
227
100
AcDbEntity
  8
0
100
AcDbLine
 62
7
  6
BYLAYER
 10
17.8002339887
 20
23.5310429528
 11
22.1489587983
 21
21.0203623125
  0
LINE
  5
228
100
AcDbEntity
  8
0
100
AcDbLine
 62
7
  6
BYLAYER
 10
38.9982509235
 20
11.9658231841
 11
39.1820458839
 21
11.8597115149
  0
LINE
  5
229
100
AcDbEntity
  8
0
100
AcDbLine
 62
7
  6
BYLAYER
 10
22.5715802109
 20
22.0118684698
 11
18.2228554012
 21
24.5225491101
  0
LINE
  5
22A
100
AcDbEntity
  8
0
100
AcDbLine
 62
7
  6
BYLAYER
 10
25.5241213958
 20
11.7341232029
 11
25.557017176
 21
11.6934975269
  0
LINE
  5
22B
100
AcDbEntity
  8
0
100
AcDbLine
 62
7
  6
BYLAYER
 10
32.6987346289
 20
16.8613065129
 11
33.0114891355
 21
16.6807416992
  0
LINE
  5
22C
100
AcDbEntity
  8
0
100
AcDbLine
 62
7
  6
BYLAYER
 10
19.1201179015
 20
25.4958918657
 11
23.4688427111
 21
22.9852112254
  0
LINE
  5
22D
100
AcDbEntity
  8
0
100
AcDbLine
 62
7
  6
BYLAYER
 10
19.2534784715
 20
25.5439624763
 11
23.6022032811
 21
23.0332818361
  0
LINE
  5
22E
100
AcDbEntity
  8
0
100
AcDbLine
 62
7
  6
BYLAYER
 10
24.3940134814
 20
23.173865039
 11
20.0452886718
 21
25.6845456793
  0
LINE
  5
22F
100
AcDbEntity
  8
0
100
AcDbLine
 62
7
  6
BYLAYER
 10
19.7069411447
 20
27.4970207361
 11
15.3582163351
 21
30.0077013764
  0
LINE
  5
230
100
AcDbEntity
  8
0
100
AcDbLine
 62
7
  6
BYLAYER
 10
32.4650235328
 20
10.2959495705
 11
32.4323465521
 21
10.3360463128
  0
LINE
  5
231
100
AcDbEntity
  8
0
100
AcDbLine
 62
7
  6
BYLAYER
 10
39.5506912485
 20
84.76243745
 11
40.4004125273
 21
85.2530213306
  0
LINE
  5
232
100
AcDbEntity
  8
0
100
AcDbLine
 62
7
  6
BYLAYER
 10
49.4568210061
 20
90.4817100047
 11
49.5248597155
 21
90.5209919374
  0
LINE
  5
233
100
AcDbEntity
  8
0
100
AcDbLine
 62
7
  6
BYLAYER
 10
22.3560917478
 20
27.4416447017
 11
22.5715802106
 21
27.3958872792
  0
LINE
  5
234
100
AcDbEntity
  8
0
100
AcDbLine
 62
7
  6
BYLAYER
 10
19.6033849843
 20
27.72591381
 11
15.2546601747
 21
30.2365944503
  0
LINE
  5
235
100
AcDbEntity
  8
0
100
AcDbLine
 62
7
  6
BYLAYER
 10
15.2546601747
 20
30.6754644995
 11
19.6033849843
 21
28.1647838592
  0
LINE
  5
236
100
AcDbEntity
  8
0
100
AcDbLine
 62
7
  6
BYLAYER
 10
22.356071119
 20
27.441609029
 11
21.0870588806
 21
28.1742570117
  0
LINE
  5
237
100
AcDbEntity
  8
0
100
AcDbLine
 62
7
  6
BYLAYER
 10
22.1489587983
 20
27.8993951768
 11
21.3799636838
 21
28.3433646692
  0
LINE
  5
238
100
AcDbEntity
  8
0
100
AcDbLine
 62
7
  6
BYLAYER
 10
20.0260063969
 20
29.1562900166
 11
15.6772815873
 21
31.6669706569
  0
LINE
  5
239
100
AcDbEntity
  8
0
100
AcDbLine
 62
7
  6
BYLAYER
 10
16.5745440875
 20
32.6403134125
 11
20.9232688971
 21
30.1296327722
  0
LINE
  5
23A
100
AcDbEntity
  8
0
100
AcDbLine
 62
7
  6
BYLAYER
 10
16.7079046575
 20
32.6883840232
 11
21.0566294671
 21
30.1777033829
  0
LINE
  5
23B
100
AcDbEntity
  8
0
100
AcDbLine
 62
7
  6
BYLAYER
 10
36.7810713603
 20
7.8253656764
 11
36.813748946
 21
7.7852699763
  0
LINE
  5
23C
100
AcDbEntity
  8
0
100
AcDbLine
 62
7
  6
BYLAYER
 10
28.1088265036
 20
17.6702627791
 11
27.9470165579
 21
17.8753060829
  0
LINE
  5
23D
100
AcDbEntity
  8
0
100
AcDbLine
 62
7
  6
BYLAYER
 10
15.3582217582
 20
30.0077107698
 11
15.2546601747
 21
30.2365944503
  0
LINE
  5
23E
100
AcDbEntity
  8
0
100
AcDbLine
 62
7
  6
BYLAYER
 10
21.1753965862
 20
14.2448038432
 11
17.8002339886
 21
23.0040349895
  0
LINE
  5
23F
100
AcDbEntity
  8
0
100
AcDbLine
 62
7
  6
BYLAYER
 10
20.5369515241
 20
16.4010965177
 11
20.6820577775
 21
16.0245163744
  0
LINE
  5
240
100
AcDbEntity
  8
0
100
AcDbLine
 62
7
  6
BYLAYER
 10
18.3306468841
 20
22.5549600134
 11
19.418943785
 21
19.7306089385
  0
LINE
  5
241
100
AcDbEntity
  8
0
100
AcDbLine
 62
7
  6
BYLAYER
 10
22.5715802106
 20
27.3958872792
 11
23.4688427118
 21
27.4586078313
  0
LINE
  5
242
100
AcDbEntity
  8
0
100
AcDbLine
 62
7
  6
BYLAYER
 10
21.8484396675
 20
30.3182865858
 11
17.4997148578
 21
32.8289672261
  0
LINE
  5
243
100
AcDbEntity
  8
0
100
AcDbLine
 62
7
  6
BYLAYER
 10
15.4617724954
 20
37.0967112161
 11
19.8104973051
 21
34.5860305758
  0
LINE
  5
244
100
AcDbEntity
  8
0
100
AcDbLine
 62
7
  6
BYLAYER
 10
19.6033849843
 20
27.72591381
 11
19.7069465678
 21
27.4970301295
  0
LINE
  5
245
100
AcDbEntity
  8
0
100
AcDbLine
 62
7
  6
BYLAYER
 10
22.848425952
 20
17.7506412791
 11
21.7601290511
 21
20.574992354
  0
LINE
  5
246
100
AcDbEntity
  8
0
100
AcDbLine
 62
7
  6
BYLAYER
 10
22.1489587983
 20
20.4933543492
 11
24.347975423
 21
14.7864604281
  0
LINE
  5
247
100
AcDbEntity
  8
0
100
AcDbLine
 62
7
  6
BYLAYER
 10
25.0735066903
 20
12.9035597115
 11
25.5241213958
 21
11.7341232029
  0
LINE
  5
248
100
AcDbEntity
  8
0
100
AcDbLine
 62
7
  6
BYLAYER
 10
15.2546601747
 20
38.6196467935
 11
15.2546601747
 21
37.5544973639
  0
LINE
  5
249
100
AcDbEntity
  8
0
100
AcDbLine
 62
7
  6
BYLAYER
 10
15.2546601747
 20
30.6754644995
 11
15.2546601747
 21
30.2365944503
  0
LINE
  5
24A
100
AcDbEntity
  8
0
100
AcDbLine
 62
7
  6
BYLAYER
 10
17.4997148578
 20
35.9201312623
 11
17.4997148578
 21
32.8289672261
  0
LINE
  5
24B
100
AcDbEntity
  8
0
100
AcDbLine
 62
7
  6
BYLAYER
 10
19.7069465678
 20
27.4970301295
 11
19.9569369029
 21
27.5217846784
  0
LINE
  5
24C
100
AcDbEntity
  8
0
100
AcDbLine
 62
7
  6
BYLAYER
 10
19.8105179339
 20
34.5860662485
 11
20.0260063969
 21
34.540308826
  0
LINE
  5
24D
100
AcDbEntity
  8
0
100
AcDbLine
 62
7
  6
BYLAYER
 10
19.6033849843
 20
35.0438167236
 11
15.2546601747
 21
37.5544973639
  0
LINE
  5
24E
100
AcDbEntity
  8
0
100
AcDbLine
 62
7
  6
BYLAYER
 10
19.6033849843
 20
36.1089661532
 11
15.2546601747
 21
38.6196467935
  0
LINE
  5
24F
100
AcDbEntity
  8
0
100
AcDbLine
 62
7
  6
BYLAYER
 10
15.2965239227
 20
38.77663151
 11
19.6452487324
 21
36.2659508697
  0
LINE
  5
250
100
AcDbEntity
  8
0
100
AcDbLine
 62
7
  6
BYLAYER
 10
19.9595226141
 20
36.7154900996
 11
15.6107978044
 21
39.2261707399
  0
LINE
  5
251
100
AcDbEntity
  8
0
100
AcDbLine
 62
7
  6
BYLAYER
 10
21.0287671145
 20
37.3956027078
 11
16.6800423049
 21
39.906283348
  0
LINE
  5
252
100
AcDbEntity
  8
0
100
AcDbLine
 62
7
  6
BYLAYER
 10
52.0895723993
 20
19.4963056235
 11
54.4488170606
 21
18.1342258976
  0
LINE
  5
253
100
AcDbEntity
  8
0
100
AcDbLine
 62
7
  6
BYLAYER
 10
54.2624159719
 20
18.5462334306
 11
52.3531867221
 21
19.6485025153
  0
LINE
  5
254
100
AcDbEntity
  8
0
100
AcDbLine
 62
7
  6
BYLAYER
 10
39.3606449399
 20
13.7751011185
 11
39.1983849638
 21
13.9810698796
  0
LINE
  5
255
100
AcDbEntity
  8
0
100
AcDbLine
 62
7
  6
BYLAYER
 10
28.1598272971
 20
17.5465868923
 11
28.3049335507
 21
17.1700067487
  0
LINE
  5
256
100
AcDbEntity
  8
0
100
AcDbLine
 62
7
  6
BYLAYER
 10
17.8002339887
 20
23.5310429528
 11
17.8002339887
 21
23.0040349895
  0
LINE
  5
257
100
AcDbEntity
  8
0
100
AcDbLine
 62
7
  6
BYLAYER
 10
19.6033849843
 20
27.72591381
 11
19.6033849843
 21
28.1647838592
  0
LINE
  5
258
100
AcDbEntity
  8
0
100
AcDbLine
 62
7
  6
BYLAYER
 10
19.6033849843
 20
35.0438167236
 11
19.6033849843
 21
36.1089661532
  0
LINE
  5
259
100
AcDbEntity
  8
0
100
AcDbLine
 62
7
  6
BYLAYER
 10
20.0452886718
 20
27.5727942915
 11
20.0452886718
 21
25.6845456793
  0
LINE
  5
25A
100
AcDbEntity
  8
0
100
AcDbLine
 62
7
  6
BYLAYER
 10
15.2546601747
 20
38.6196467935
 11
15.2965239227
 21
38.77663151
  0
LINE
  5
25B
100
AcDbEntity
  8
0
100
AcDbLine
 62
7
  6
BYLAYER
 10
20.8040584032
 20
58.3585746108
 11
20.6589521498
 21
57.8144411986
  0
LINE
  5
25C
100
AcDbEntity
  8
0
100
AcDbLine
 62
7
  6
BYLAYER
 10
19.5409444107
 20
52.7040793609
 11
18.4526475352
 21
48.6230788648
  0
LINE
  5
25D
100
AcDbEntity
  8
0
100
AcDbLine
 62
7
  6
BYLAYER
 10
17.7390902701
 20
47.9362018834
 11
21.3057851244
 21
61.3085263473
  0
LINE
  5
25E
100
AcDbEntity
  8
0
100
AcDbLine
 62
7
  6
BYLAYER
 10
27.4854174166
 20
64.9595663789
 11
21.4302892635
 21
61.4636573775
  0
LINE
  5
25F
100
AcDbEntity
  8
0
100
AcDbLine
 62
7
  6
BYLAYER
 10
52.8482082975
 20
36.7542518343
 11
48.60059649
 21
35.6161371848
  0
LINE
  5
260
100
AcDbEntity
  8
0
100
AcDbLine
 62
7
  6
BYLAYER
 10
48.8044040159
 20
36.9771496985
 11
52.4031504083
 21
37.9414058911
  0
LINE
  5
261
100
AcDbEntity
  8
0
100
AcDbLine
 62
7
  6
BYLAYER
 10
53.5553030813
 20
20.3425301218
 11
54.2624159719
 21
19.9342875397
  0
LINE
  5
262
100
AcDbEntity
  8
0
100
AcDbLine
 62
7
  6
BYLAYER
 10
23.8859462237
 20
37.8443668118
 11
23.4263249023
 21
38.1097233023
  0
LINE
  5
263
100
AcDbEntity
  8
0
100
AcDbLine
 62
7
  6
BYLAYER
 10
19.9968427354
 20
40.0896909617
 11
19.537221414
 21
40.3550474521
  0
LINE
  5
264
100
AcDbEntity
  8
0
100
AcDbLine
 62
7
  6
BYLAYER
 10
32.4323465521
 20
10.3360463128
 11
30.6901259797
 21
14.8574618772
  0
LINE
  5
265
100
AcDbEntity
  8
0
100
AcDbLine
 62
7
  6
BYLAYER
 10
31.7883116085
 20
12.5068458628
 11
31.933417862
 21
12.1302657195
  0
LINE
  5
266
100
AcDbEntity
  8
0
100
AcDbLine
 62
7
  6
BYLAYER
 10
21.0918385617
 20
35.0458431295
 11
21.0918385617
 21
34.8274287329
  0
LINE
  5
267
100
AcDbEntity
  8
0
100
AcDbLine
 62
7
  6
BYLAYER
 10
21.0918385617
 20
30.0998797377
 11
21.0918385617
 21
29.8814653412
  0
LINE
  5
268
100
AcDbEntity
  8
0
100
AcDbLine
 62
7
  6
BYLAYER
 10
21.8484396675
 20
30.3182865858
 11
21.8484396675
 21
35.4826643742
  0
LINE
  5
269
100
AcDbEntity
  8
0
100
AcDbLine
 62
7
  6
BYLAYER
 10
22.1489587983
 20
20.4933543492
 11
22.1489587983
 21
21.0203623125
  0
LINE
  5
26A
100
AcDbEntity
  8
0
100
AcDbLine
 62
7
  6
BYLAYER
 10
22.1489587983
 20
27.8993951768
 11
22.1489587983
 21
28.7873415554
  0
LINE
  5
26B
100
AcDbEntity
  8
0
100
AcDbLine
 62
7
  6
BYLAYER
 10
23.6374123756
 20
27.9014215827
 11
23.6374123756
 21
27.6830071861
  0
LINE
  5
26C
100
AcDbEntity
  8
0
100
AcDbLine
 62
7
  6
BYLAYER
 10
23.6374123756
 20
22.9554581909
 11
23.6374123756
 21
22.7370437943
  0
LINE
  5
26D
100
AcDbEntity
  8
0
100
AcDbLine
 62
7
  6
BYLAYER
 10
20.446028309
 20
48.9361701002
 11
21.1960157077
 21
51.7485451191
  0
LINE
  5
26E
100
AcDbEntity
  8
0
100
AcDbLine
 62
7
  6
BYLAYER
 10
24.1805915169
 20
58.3675690479
 11
24.3256977704
 21
58.91170246
  0
LINE
  5
26F
100
AcDbEntity
  8
0
100
AcDbLine
 62
7
  6
BYLAYER
 10
19.537221414
 20
40.3550474521
 11
20.9722421952
 21
45.7362266614
  0
LINE
  5
270
100
AcDbEntity
  8
0
100
AcDbLine
 62
7
  6
BYLAYER
 10
21.4318635166
 20
45.4708701709
 11
21.1697849507
 21
44.4881027098
  0
LINE
  5
271
100
AcDbEntity
  8
0
100
AcDbLine
 62
7
  6
BYLAYER
 10
20.758650566
 20
42.9463913754
 11
19.9968427354
 21
40.0896909617
  0
LINE
  5
272
100
AcDbEntity
  8
0
100
AcDbLine
 62
7
  6
BYLAYER
 10
21.8821297021
 20
46.6431112054
 11
22.9704265777
 21
50.7241117015
  0
LINE
  5
273
100
AcDbEntity
  8
0
100
AcDbLine
 62
7
  6
BYLAYER
 10
24.4699760487
 20
54.3583779981
 11
22.0878150797
 21
45.425521243
  0
LINE
  5
274
100
AcDbEntity
  8
0
100
AcDbLine
 62
7
  6
BYLAYER
 10
19.644364688
 20
36.2626357951
 11
19.6033849843
 21
36.1089661532
  0
LINE
  5
275
100
AcDbEntity
  8
0
100
AcDbLine
 62
7
  6
BYLAYER
 10
25.654509934
 20
58.797845707
 11
25.195507316
 21
57.0790450588
  0
LINE
  5
276
100
AcDbEntity
  8
0
100
AcDbLine
 62
7
  6
BYLAYER
 10
25.7790140731
 20
58.9529767372
 11
31.8341422262
 21
62.4488857386
  0
LINE
  5
277
100
AcDbEntity
  8
0
100
AcDbLine
 62
7
  6
BYLAYER
 10
20.0260063969
 20
34.540308826
 11
20.9232688972
 21
34.603029378
  0
LINE
  5
278
100
AcDbEntity
  8
0
100
AcDbLine
 62
7
  6
BYLAYER
 10
48.60059649
 20
35.6161371848
 11
48.3470768994
 21
35.6388976898
  0
LINE
  5
279
100
AcDbEntity
  8
0
100
AcDbLine
 62
7
  6
BYLAYER
 10
24.1881327329
 20
40.966423716
 11
20.758650566
 21
42.9463913754
  0
LINE
  5
27A
100
AcDbEntity
  8
0
100
AcDbLine
 62
7
  6
BYLAYER
 10
21.1697849507
 20
44.4881027098
 11
24.5992671177
 21
42.5081350504
  0
LINE
  5
27B
100
AcDbEntity
  8
0
100
AcDbLine
 62
7
  6
BYLAYER
 10
34.0997860364
 20
13.8563906242
 11
33.0114891355
 21
16.6807416992
  0
LINE
  5
27C
100
AcDbEntity
  8
0
100
AcDbLine
 62
7
  6
BYLAYER
 10
33.1325291988
 20
17.2940722098
 11
35.5993355075
 21
10.8922097733
  0
LINE
  5
27D
100
AcDbEntity
  8
0
100
AcDbLine
 62
7
  6
BYLAYER
 10
36.3248667747
 20
9.0093090566
 11
36.7810713603
 21
7.8253656764
  0
LINE
  5
27E
100
AcDbEntity
  8
0
100
AcDbLine
 62
7
  6
BYLAYER
 10
24.3940134814
 20
23.173865039
 11
24.3940134814
 21
28.3382428273
  0
LINE
  5
27F
100
AcDbEntity
  8
0
100
AcDbLine
 62
7
  6
BYLAYER
 10
26.3924663665
 20
56.2292121201
 11
26.6813287889
 21
57.3124162675
  0
LINE
  5
280
100
AcDbEntity
  8
0
100
AcDbLine
 62
7
  6
BYLAYER
 10
31.430858895
 20
73.4460138134
 11
35.0692841959
 21
87.0897316186
  0
LINE
  5
281
100
AcDbEntity
  8
0
100
AcDbLine
 62
7
  6
BYLAYER
 10
34.4949429838
 20
83.8650714662
 11
34.3498367304
 21
83.3209380541
  0
LINE
  5
282
100
AcDbEntity
  8
0
100
AcDbLine
 62
7
  6
BYLAYER
 10
33.2318289913
 20
78.2105762164
 11
32.1435321158
 21
74.1295757203
  0
LINE
  5
283
100
AcDbEntity
  8
0
100
AcDbLine
 62
7
  6
BYLAYER
 10
23.4263249023
 20
38.1097233023
 11
24.1881327329
 21
40.966423716
  0
LINE
  5
284
100
AcDbEntity
  8
0
100
AcDbLine
 62
7
  6
BYLAYER
 10
24.5992671177
 20
42.5081350504
 11
25.2671247668
 21
45.0125320202
  0
LINE
  5
285
100
AcDbEntity
  8
0
100
AcDbLine
 62
7
  6
BYLAYER
 10
23.8859462237
 20
37.8443668118
 11
21.0287671145
 21
37.3956027078
  0
LINE
  5
286
100
AcDbEntity
  8
0
100
AcDbLine
 62
7
  6
BYLAYER
 10
22.1799554593
 20
45.0394034774
 11
22.9634615739
 21
44.650706139
  0
LINE
  5
287
100
AcDbEntity
  8
0
100
AcDbLine
 62
7
  6
BYLAYER
 10
17.8213246408
 20
47.5553686051
 11
22.1799554593
 21
45.0394034774
  0
LINE
  5
288
100
AcDbEntity
  8
0
100
AcDbLine
 62
7
  6
BYLAYER
 10
22.0878150798
 20
45.4255212431
 11
17.7390902701
 21
47.9362018834
  0
LINE
  5
289
100
AcDbEntity
  8
0
100
AcDbLine
 62
7
  6
BYLAYER
 10
18.4526475352
 20
48.6230788648
 11
21.8821297021
 21
46.6431112054
  0
LINE
  5
28A
100
AcDbEntity
  8
0
100
AcDbLine
 62
7
  6
BYLAYER
 10
22.220439179
 20
47.9117366826
 11
20.446028309
 21
48.9361701002
  0
LINE
  5
28B
100
AcDbEntity
  8
0
100
AcDbLine
 62
7
  6
BYLAYER
 10
39.4111873816
 20
13.6523362374
 11
39.5562936353
 21
13.2757560934
  0
LINE
  5
28C
100
AcDbEntity
  8
0
100
AcDbLine
 62
7
  6
BYLAYER
 10
28.2818279228
 20
55.9997726716
 11
28.4269341762
 21
56.5439060838
  0
LINE
  5
28D
100
AcDbEntity
  8
0
100
AcDbLine
 62
7
  6
BYLAYER
 10
25.8206962697
 20
45.0994789738
 11
23.8859462237
 21
37.8443668118
  0
LINE
  5
28E
100
AcDbEntity
  8
0
100
AcDbLine
 62
7
  6
BYLAYER
 10
34.1369128897
 20
74.4426669557
 11
34.8869002883
 21
77.2550419746
  0
LINE
  5
28F
100
AcDbEntity
  8
0
100
AcDbLine
 62
7
  6
BYLAYER
 10
37.8714760975
 20
83.8740659033
 11
38.016582351
 21
84.4181993155
  0
LINE
  5
290
100
AcDbEntity
  8
0
100
AcDbLine
 62
7
  6
BYLAYER
 10
33.2281059946
 20
65.8615443076
 11
34.6631267758
 21
71.2427235168
  0
LINE
  5
291
100
AcDbEntity
  8
0
100
AcDbLine
 62
7
  6
BYLAYER
 10
35.1227480972
 20
70.9773670264
 11
34.8606695313
 21
69.9945995653
  0
LINE
  5
292
100
AcDbEntity
  8
0
100
AcDbLine
 62
7
  6
BYLAYER
 10
34.4495351466
 20
68.4528882309
 11
33.687727316
 21
65.5961878171
  0
LINE
  5
293
100
AcDbEntity
  8
0
100
AcDbLine
 62
7
  6
BYLAYER
 10
35.5730142827
 20
72.1496080609
 11
36.6613111583
 21
76.2306085569
  0
LINE
  5
294
100
AcDbEntity
  8
0
100
AcDbLine
 62
7
  6
BYLAYER
 10
19.9968427354
 20
40.0896909617
 11
24.1273377953
 21
40.7384490004
  0
LINE
  5
295
100
AcDbEntity
  8
0
100
AcDbLine
 62
7
  6
BYLAYER
 10
16.6800423049
 20
39.9062833481
 11
19.537221414
 21
40.3550474521
  0
LINE
  5
296
100
AcDbEntity
  8
0
100
AcDbLine
 62
7
  6
BYLAYER
 10
48.6005964897
 20
35.6161371847
 11
48.2466669552
 21
35.820473874
  0
LINE
  5
297
100
AcDbEntity
  8
0
100
AcDbLine
 62
7
  6
BYLAYER
 10
22.9704265777
 20
50.7241117015
 11
19.5409444107
 21
52.7040793609
  0
LINE
  5
298
100
AcDbEntity
  8
0
100
AcDbLine
 62
7
  6
BYLAYER
 10
39.4180090071
 20
84.5790509838
 11
38.8863918966
 21
82.5855419143
  0
LINE
  5
299
100
AcDbEntity
  8
0
100
AcDbLine
 62
7
  6
BYLAYER
 10
38.1608606293
 20
79.8648748536
 11
35.7786996604
 21
70.9320180986
  0
LINE
  5
29A
100
AcDbEntity
  8
0
100
AcDbLine
 62
7
  6
BYLAYER
 10
40.0833509471
 20
81.7357089756
 11
40.3722133695
 21
82.818913123
  0
LINE
  5
29B
100
AcDbEntity
  8
0
100
AcDbLine
 62
7
  6
BYLAYER
 10
53.5553121347
 20
65.4951298626
 11
52.8482082975
 21
65.0868857087
  0
LINE
  5
29C
100
AcDbEntity
  8
0
100
AcDbLine
 62
7
  6
BYLAYER
 10
22.9634615739
 20
44.650706139
 11
25.8206962697
 21
45.0994789738
  0
LINE
  5
29D
100
AcDbEntity
  8
0
100
AcDbLine
 62
7
  6
BYLAYER
 10
21.1697849507
 20
44.4881027098
 11
22.7810863474
 21
44.7411824784
  0
LINE
  5
29E
100
AcDbEntity
  8
0
100
AcDbLine
 62
7
  6
BYLAYER
 10
56.7594515362
 20
38.9298385986
 11
56.5201891135
 21
39.0025882202
  0
LINE
  5
29F
100
AcDbEntity
  8
0
100
AcDbLine
 62
7
  6
BYLAYER
 10
51.3026793479
 20
37.6465432031
 11
52.8482082975
 21
36.7542518343
  0
LINE
  5
2A0
100
AcDbEntity
  8
0
100
AcDbLine
 62
7
  6
BYLAYER
 10
53.6260225185
 20
37.2033204036
 11
52.3652032921
 21
37.9312382556
  0
LINE
  5
2A1
100
AcDbEntity
  8
0
100
AcDbLine
 62
7
  6
BYLAYER
 10
37.1172094829
 20
63.6162201577
 11
37.8790173135
 21
66.4729205715
  0
LINE
  5
2A2
100
AcDbEntity
  8
0
100
AcDbLine
 62
7
  6
BYLAYER
 10
38.2901516983
 20
68.0146319059
 11
38.9580093474
 21
70.5190288757
  0
LINE
  5
2A3
100
AcDbEntity
  8
0
100
AcDbLine
 62
7
  6
BYLAYER
 10
41.9727125034
 20
81.5062695271
 11
42.1178187568
 21
82.0504029393
  0
LINE
  5
2A4
100
AcDbEntity
  8
0
100
AcDbLine
 62
7
  6
BYLAYER
 10
39.5115808503
 20
70.6059758293
 11
37.5768308042
 21
63.3508636673
  0
LINE
  5
2A5
100
AcDbEntity
  8
0
100
AcDbLine
 62
7
  6
BYLAYER
 10
15.6772815874
 20
31.6669706571
 11
16.5745440875
 21
32.6403134125
  0
LINE
  5
2A6
100
AcDbEntity
  8
0
100
AcDbLine
 62
7
  6
BYLAYER
 10
15.6133792413
 20
39.2278127103
 11
16.6800423049
 21
39.9062833481
  0
LINE
  5
2A7
100
AcDbEntity
  8
0
100
AcDbLine
 62
7
  6
BYLAYER
 10
55.5453989918
 20
64.4803687815
 11
54.9733669712
 21
64.1501079117
  0
LINE
  5
2A8
100
AcDbEntity
  8
0
100
AcDbLine
 62
7
  6
BYLAYER
 10
24.4699760487
 20
54.3583779981
 11
24.2861810883
 21
54.4644896674
  0
LINE
  5
2A9
100
AcDbEntity
  8
0
100
AcDbLine
 62
7
  6
BYLAYER
 10
53.8723307912
 20
38.4069788446
 11
52.8482082975
 21
38.9982428658
  0
LINE
  5
2AA
100
AcDbEntity
  8
0
100
AcDbLine
 62
7
  6
BYLAYER
 10
24.4959695833
 20
55.4994012043
 11
25.8602906566
 21
54.7117278849
  0
LINE
  5
2AB
100
AcDbEntity
  8
0
100
AcDbLine
 62
7
  6
BYLAYER
 10
52.8482082975
 20
39.3670198438
 11
54.1917055882
 21
38.5913688689
  0
LINE
  5
2AC
100
AcDbEntity
  8
0
100
AcDbLine
 62
7
  6
BYLAYER
 10
27.1433601975
 20
54.9132537715
 11
27.3271551579
 21
54.8071421022
  0
LINE
  5
2AD
100
AcDbEntity
  8
0
100
AcDbLine
 62
7
  6
BYLAYER
 10
27.7206823362
 20
55.1816478608
 11
26.5983494027
 21
55.8296124232
  0
LINE
  5
2AE
100
AcDbEntity
  8
0
100
AcDbLine
 62
7
  6
BYLAYER
 10
25.195507316
 20
57.0790450588
 11
25.0117123556
 21
57.1851567281
  0
LINE
  5
2AF
100
AcDbEntity
  8
0
100
AcDbLine
 62
7
  6
BYLAYER
 10
56.5201891136
 20
39.0025882202
 11
52.8482082975
 21
41.1225593726
  0
LINE
  5
2B0
100
AcDbEntity
  8
0
100
AcDbLine
 62
7
  6
BYLAYER
 10
52.8482082975
 20
41.1879450152
 11
56.7594516076
 21
38.9298387225
  0
LINE
  5
2B1
100
AcDbEntity
  8
0
100
AcDbLine
 62
7
  6
BYLAYER
 10
20.9232688972
 20
30.1296327722
 11
20.0260063971
 21
29.1562900167
  0
LINE
  5
2B2
100
AcDbEntity
  8
0
100
AcDbLine
 62
7
  6
BYLAYER
 10
21.0287671145
 20
37.3956027078
 11
19.9595226141
 21
36.7154900996
  0
LINE
  5
2B3
100
AcDbEntity
  8
0
100
AcDbLine
 62
7
  6
BYLAYER
 10
18.4526475352
 20
48.6230788648
 11
20.446028309
 21
48.9361701002
  0
LINE
  5
2B4
100
AcDbEntity
  8
0
100
AcDbLine
 62
7
  6
BYLAYER
 10
21.3051138987
 20
61.3084209209
 11
25.6538387084
 21
58.7977402806
  0
LINE
  5
2B5
100
AcDbEntity
  8
0
100
AcDbLine
 62
7
  6
BYLAYER
 10
25.7790140731
 20
58.9529767372
 11
21.4302892635
 21
61.4636573775
  0
LINE
  5
2B6
100
AcDbEntity
  8
0
100
AcDbLine
 62
7
  6
BYLAYER
 10
24.8897117299
 20
13.0096713808
 11
24.7808492744
 21
12.7875754903
  0
LINE
  5
2B7
100
AcDbEntity
  8
0
100
AcDbLine
 62
7
  6
BYLAYER
 10
18.2228554013
 20
24.5225491102
 11
19.1201179012
 21
25.4958918654
  0
LINE
  5
2B8
100
AcDbEntity
  8
0
100
AcDbLine
 62
7
  6
BYLAYER
 10
21.8484396675
 20
35.4826643742
 11
21.0918385617
 21
35.0458431295
  0
LINE
  5
2B9
100
AcDbEntity
  8
0
100
AcDbLine
 62
7
  6
BYLAYER
 10
17.4997148578
 20
32.8289672261
 11
16.9820626887
 21
32.5301023909
  0
LINE
  5
2BA
100
AcDbEntity
  8
0
100
AcDbLine
 62
7
  6
BYLAYER
 10
27.3271551579
 20
54.8071421022
 11
24.4699760487
 21
54.3583779981
  0
LINE
  5
2BB
100
AcDbEntity
  8
0
100
AcDbLine
 62
7
  6
BYLAYER
 10
24.2861810883
 20
54.4644896674
 11
27.1433601975
 21
54.9132537715
  0
LINE
  5
2BC
100
AcDbEntity
  8
0
100
AcDbLine
 62
7
  6
BYLAYER
 10
24.4959695833
 20
55.4994012043
 11
26.5983494027
 21
55.8296124232
  0
LINE
  5
2BD
100
AcDbEntity
  8
0
100
AcDbLine
 62
7
  6
BYLAYER
 10
24.7344199418
 20
58.3063909765
 11
24.1805915169
 21
58.3675690479
  0
LINE
  5
2BE
100
AcDbEntity
  8
0
100
AcDbLine
 62
7
  6
BYLAYER
 10
22.4047059262
 20
60.0395375602
 11
23.5560234978
 21
59.8046545814
  0
LINE
  5
2BF
100
AcDbEntity
  8
0
100
AcDbLine
 62
7
  6
BYLAYER
 10
23.4688427106
 20
22.9852112249
 11
22.5715802111
 21
22.0118684701
  0
LINE
  5
2C0
100
AcDbEntity
  8
0
100
AcDbLine
 62
7
  6
BYLAYER
 10
24.3829540474
 20
55.9135871764
 11
26.3924663665
 21
56.2292121201
  0
LINE
  5
2C1
100
AcDbEntity
  8
0
100
AcDbLine
 62
7
  6
BYLAYER
 10
25.195507316
 20
57.0790450588
 11
28.0526864252
 21
57.5278091629
  0
LINE
  5
2C2
100
AcDbEntity
  8
0
100
AcDbLine
 62
7
  6
BYLAYER
 10
20.6589521498
 20
57.8144411986
 11
24.1805915169
 21
58.3675690479
  0
LINE
  5
2C3
100
AcDbEntity
  8
0
100
AcDbLine
 62
7
  6
BYLAYER
 10
24.3256977704
 20
58.91170246
 11
24.452899984
 21
58.897651202
  0
LINE
  5
2C4
100
AcDbEntity
  8
0
100
AcDbLine
 62
7
  6
BYLAYER
 10
31.8341422262
 20
62.4488857386
 11
27.4854174166
 21
64.9595663789
  0
LINE
  5
2C5
100
AcDbEntity
  8
0
100
AcDbLine
 62
7
  6
BYLAYER
 10
48.1813229719
 20
36.065339297
 11
48.1813229719
 21
36.0050155688
  0
LINE
  5
2C6
100
AcDbEntity
  8
0
100
AcDbLine
 62
7
  6
BYLAYER
 10
48.1813229719
 20
16.8316394173
 11
48.1813229719
 21
15.1169843414
  0
LINE
  5
2C7
100
AcDbEntity
  8
0
100
AcDbLine
 62
7
  6
BYLAYER
 10
19.418943785
 20
19.7306089385
 11
20.8132834742
 21
21.1216415359
  0
LINE
  5
2C8
100
AcDbEntity
  8
0
100
AcDbLine
 62
7
  6
BYLAYER
 10
21.3685154307
 20
17.2306881229
 11
20.5369515241
 21
16.4010965177
  0
LINE
  5
2C9
100
AcDbEntity
  8
0
100
AcDbLine
 62
7
  6
BYLAYER
 10
21.0918385617
 20
29.8814653412
 11
21.8484396675
 21
30.3182865858
  0
LINE
  5
2CA
100
AcDbEntity
  8
0
100
AcDbLine
 62
7
  6
BYLAYER
 10
22.1489587983
 20
28.7873415554
 11
19.9569369029
 21
27.5217846784
  0
LINE
  5
2CB
100
AcDbEntity
  8
0
100
AcDbLine
 62
7
  6
BYLAYER
 10
24.3256977704
 20
58.91170246
 11
20.8040584032
 21
58.3585746108
  0
LINE
  5
2CC
100
AcDbEntity
  8
0
100
AcDbLine
 62
7
  6
BYLAYER
 10
37.5768308042
 20
63.3508636673
 11
31.8341422263
 21
62.4488857386
  0
LINE
  5
2CD
100
AcDbEntity
  8
0
100
AcDbLine
 62
7
  6
BYLAYER
 10
37.5768308043
 20
63.3508636673
 11
37.1172094829
 21
63.6162201577
  0
LINE
  5
2CE
100
AcDbEntity
  8
0
100
AcDbLine
 62
7
  6
BYLAYER
 10
33.687727316
 20
65.5961878171
 11
33.2281059946
 21
65.8615443076
  0
LINE
  5
2CF
100
AcDbEntity
  8
0
100
AcDbLine
 62
7
  6
BYLAYER
 10
56.1862527058
 20
65.3217972221
 11
56.9583310742
 21
67.679445166
  0
LINE
  5
2D0
100
AcDbEntity
  8
0
100
AcDbLine
 62
7
  6
BYLAYER
 10
20.6820577775
 20
16.0245163744
 11
21.7487501303
 21
17.0886787486
  0
LINE
  5
2D1
100
AcDbEntity
  8
0
100
AcDbLine
 62
7
  6
BYLAYER
 10
24.3940134814
 20
28.3382428273
 11
23.6374123756
 21
27.9014215827
  0
LINE
  5
2D2
100
AcDbEntity
  8
0
100
AcDbLine
 62
7
  6
BYLAYER
 10
20.0452886718
 20
25.6845456793
 11
19.5276365026
 21
25.3856808441
  0
LINE
  5
2D3
100
AcDbEntity
  8
0
100
AcDbLine
 62
7
  6
BYLAYER
 10
33.687727316
 20
65.5961878171
 11
37.8182223759
 21
66.2449458558
  0
LINE
  5
2D4
100
AcDbEntity
  8
0
100
AcDbLine
 62
7
  6
BYLAYER
 10
27.4854174166
 20
64.9595663789
 11
33.2281059946
 21
65.8615443076
  0
LINE
  5
2D5
100
AcDbEntity
  8
0
100
AcDbLine
 62
7
  6
BYLAYER
 10
37.8790173135
 20
66.4729205715
 11
34.4495351466
 21
68.4528882309
  0
LINE
  5
2D6
100
AcDbEntity
  8
0
100
AcDbLine
 62
7
  6
BYLAYER
 10
34.8606695313
 20
69.9945995653
 11
38.2901516983
 21
68.0146319059
  0
LINE
  5
2D7
100
AcDbEntity
  8
0
100
AcDbLine
 62
7
  6
BYLAYER
 10
52.8482082975
 20
65.0868857087
 11
52.8482082975
 21
38.5926990353
  0
LINE
  5
2D8
100
AcDbEntity
  8
0
100
AcDbLine
 62
7
  6
BYLAYER
 10
54.2624159719
 20
18.5462334306
 11
54.2624159719
 21
19.9342875397
  0
LINE
  5
2D9
100
AcDbEntity
  8
0
100
AcDbLine
 62
7
  6
BYLAYER
 10
36.1410718143
 20
9.1154207259
 11
36.0322093588
 21
8.8933248354
  0
LINE
  5
2DA
100
AcDbEntity
  8
0
100
AcDbLine
 62
7
  6
BYLAYER
 10
24.347975423
 20
14.7864604281
 11
27.2051545323
 21
17.6368628863
  0
LINE
  5
2DB
100
AcDbEntity
  8
0
100
AcDbLine
 62
7
  6
BYLAYER
 10
24.8897117299
 20
13.0096713808
 11
27.7468908391
 21
15.860073839
  0
LINE
  5
2DC
100
AcDbEntity
  8
0
100
AcDbLine
 62
7
  6
BYLAYER
 10
27.9306857995
 20
15.7539621697
 11
25.0735066903
 21
12.9035597115
  0
LINE
  5
2DD
100
AcDbEntity
  8
0
100
AcDbLine
 62
7
  6
BYLAYER
 10
23.6374123756
 20
22.7370437943
 11
24.3940134814
 21
23.173865039
  0
LINE
  5
2DE
100
AcDbEntity
  8
0
100
AcDbLine
 62
7
  6
BYLAYER
 10
53.8723307912
 20
38.4069788446
 11
54.1917055882
 21
38.5913688689
  0
LINE
  5
2DF
100
AcDbEntity
  8
0
100
AcDbLine
 62
7
  6
BYLAYER
 10
36.6543461545
 20
70.1572029945
 11
39.5115808503
 21
70.6059758293
  0
LINE
  5
2E0
100
AcDbEntity
  8
0
100
AcDbLine
 62
7
  6
BYLAYER
 10
35.8721021152
 20
70.5452742174
 11
36.6543461545
 21
70.1572029945
  0
LINE
  5
2E1
100
AcDbEntity
  8
0
100
AcDbLine
 62
7
  6
BYLAYER
 10
35.8610698115
 20
70.5514170628
 11
35.8721021152
 21
70.5452742174
  0
LINE
  5
2E2
100
AcDbEntity
  8
0
100
AcDbLine
 62
7
  6
BYLAYER
 10
31.5122092215
 20
73.0618654606
 11
35.8609340311
 21
70.5511848203
  0
LINE
  5
2E3
100
AcDbEntity
  8
0
100
AcDbLine
 62
7
  6
BYLAYER
 10
35.7786996604
 20
70.9320180985
 11
31.4299748507
 21
73.4426987388
  0
LINE
  5
2E4
100
AcDbEntity
  8
0
100
AcDbLine
 62
7
  6
BYLAYER
 10
32.1435321158
 20
74.1295757203
 11
35.5730142827
 21
72.1496080609
  0
LINE
  5
2E5
100
AcDbEntity
  8
0
100
AcDbLine
 62
7
  6
BYLAYER
 10
57.0908313208
 20
68.9044696656
 11
57.0908313208
 21
68.4460814268
  0
LINE
  5
2E6
100
AcDbEntity
  8
0
100
AcDbLine
 62
7
  6
BYLAYER
 10
57.0908313208
 20
38.197380886
 11
57.0908313208
 21
20.2608602878
  0
LINE
  5
2E7
100
AcDbEntity
  8
0
100
AcDbLine
 62
7
  6
BYLAYER
 10
53.8723307912
 20
38.4069788446
 11
53.6260225185
 21
37.2033204036
  0
LINE
  5
2E8
100
AcDbEntity
  8
0
100
AcDbLine
 62
7
  6
BYLAYER
 10
30.0995436184
 20
14.2682802578
 11
33.1325291988
 21
17.2940722098
  0
LINE
  5
2E9
100
AcDbEntity
  8
0
100
AcDbLine
 62
7
  6
BYLAYER
 10
52.8482082975
 20
36.7542518343
 11
53.6260225185
 21
37.2033204036
  0
LINE
  5
2EA
100
AcDbEntity
  8
0
100
AcDbLine
 62
7
  6
BYLAYER
 10
34.8606695313
 20
69.9945995653
 11
36.4719709279
 21
70.2476793339
  0
LINE
  5
2EB
100
AcDbEntity
  8
0
100
AcDbLine
 62
7
  6
BYLAYER
 10
35.9113237596
 20
73.418233538
 11
34.1369128896
 21
74.4426669557
  0
LINE
  5
2EC
100
AcDbEntity
  8
0
100
AcDbLine
 62
7
  6
BYLAYER
 10
52.9530730217
 20
65.1474290241
 11
54.723368012
 21
64.1253458175
  0
LINE
  5
2ED
100
AcDbEntity
  8
0
100
AcDbLine
 62
7
  6
BYLAYER
 10
53.75121966
 20
64.7639828
 11
53.0200640995
 21
65.18610611
  0
LINE
  5
2EE
100
AcDbEntity
  8
0
100
AcDbLine
 62
7
  6
BYLAYER
 10
36.6613111583
 20
76.2306085569
 11
33.2318289913
 21
78.2105762164
  0
LINE
  5
2EF
100
AcDbEntity
  8
0
100
AcDbLine
 62
7
  6
BYLAYER
 10
53.5553121347
 20
65.4951298626
 11
53.75121966
 21
64.7639828
  0
LINE
  5
2F0
100
AcDbEntity
  8
0
100
AcDbLine
 62
7
  6
BYLAYER
 10
32.6198755152
 20
13.336437468
 11
31.7883116085
 21
12.5068458628
  0
LINE
  5
2F1
100
AcDbEntity
  8
0
100
AcDbLine
 62
7
  6
BYLAYER
 10
31.933417862
 20
12.1302657195
 11
33.0001102147
 21
13.1944280937
  0
LINE
  5
2F2
100
AcDbEntity
  8
0
100
AcDbLine
 62
7
  6
BYLAYER
 10
32.1435321158
 20
74.1295757203
 11
34.1369128897
 21
74.4426669557
  0
LINE
  5
2F3
100
AcDbEntity
  8
0
100
AcDbLine
 62
7
  6
BYLAYER
 10
57.0335345801
 20
69.3315144308
 11
50.8824849591
 21
90.1291050843
  0
LINE
  5
2F4
100
AcDbEntity
  8
0
100
AcDbLine
 62
7
  6
BYLAYER
 10
35.5993355075
 20
10.8922097733
 11
38.4565146167
 21
13.7426122315
  0
LINE
  5
2F5
100
AcDbEntity
  8
0
100
AcDbLine
 62
7
  6
BYLAYER
 10
30.0995436183
 20
14.2682802578
 11
25.6570134475
 21
11.703399578
  0
LINE
  5
2F6
100
AcDbEntity
  8
0
100
AcDbLine
 62
7
  6
BYLAYER
 10
41.0180397385
 20
80.3136389577
 11
38.1608606293
 21
79.8648748536
  0
LINE
  5
2F7
100
AcDbEntity
  8
0
100
AcDbLine
 62
7
  6
BYLAYER
 10
37.9770656689
 20
79.9709865229
 11
40.8342447781
 21
80.419750627
  0
LINE
  5
2F8
100
AcDbEntity
  8
0
100
AcDbLine
 62
7
  6
BYLAYER
 10
38.1608606293
 20
79.8648748536
 11
37.9770656689
 21
79.9709865229
  0
LINE
  5
2F9
100
AcDbEntity
  8
0
100
AcDbLine
 62
7
  6
BYLAYER
 10
38.1868541639
 20
81.0058980598
 11
39.5511752372
 21
80.2182247404
  0
LINE
  5
2FA
100
AcDbEntity
  8
0
100
AcDbLine
 62
7
  6
BYLAYER
 10
40.8342447781
 20
80.419750627
 11
41.0180397385
 21
80.3136389577
  0
LINE
  5
2FB
100
AcDbEntity
  8
0
100
AcDbLine
 62
7
  6
BYLAYER
 10
41.4115669168
 20
80.6881447163
 11
40.2892339833
 21
81.3361092787
  0
LINE
  5
2FC
100
AcDbEntity
  8
0
100
AcDbLine
 62
7
  6
BYLAYER
 10
36.1410718143
 20
9.1154207259
 11
38.9982509235
 21
11.9658231841
  0
LINE
  5
2FD
100
AcDbEntity
  8
0
100
AcDbLine
 62
7
  6
BYLAYER
 10
39.1820458839
 20
11.8597115148
 11
36.3248667747
 21
9.0093090566
  0
LINE
  5
2FE
100
AcDbEntity
  8
0
100
AcDbLine
 62
7
  6
BYLAYER
 10
38.1868541639
 20
81.0058980598
 11
40.2892339833
 21
81.3361092787
  0
LINE
  5
2FF
100
AcDbEntity
  8
0
100
AcDbLine
 62
7
  6
BYLAYER
 10
38.073838628
 20
81.4200840319
 11
40.0833509471
 21
81.7357089756
  0
LINE
  5
300
100
AcDbEntity
  8
0
100
AcDbLine
 62
7
  6
BYLAYER
 10
38.8863918966
 20
82.5855419143
 11
41.7435710058
 21
83.0343060184
  0
LINE
  5
301
100
AcDbEntity
  8
0
100
AcDbLine
 62
7
  6
BYLAYER
 10
38.8863918966
 20
82.5855419143
 11
38.7025969362
 21
82.6916535836
  0
LINE
  5
302
100
AcDbEntity
  8
0
100
AcDbLine
 62
7
  6
BYLAYER
 10
39.4180090071
 20
84.5790509838
 11
35.0692841959
 21
87.0897316186
  0
LINE
  5
303
100
AcDbEntity
  8
0
100
AcDbLine
 62
7
  6
BYLAYER
 10
39.5506912485
 20
84.76243745
 11
35.2019664389
 21
87.2731180903
  0
LINE
  5
304
100
AcDbEntity
  8
0
100
AcDbLine
 62
7
  6
BYLAYER
 10
53.5553121347
 20
20.342545803
 11
48.5348743259
 21
17.4440119845
  0
LINE
  5
305
100
AcDbEntity
  8
0
100
AcDbLine
 62
7
  6
BYLAYER
 10
34.3498367304
 20
83.3209380541
 11
37.8714760975
 21
83.8740659033
  0
LINE
  5
306
100
AcDbEntity
  8
0
100
AcDbLine
 62
7
  6
BYLAYER
 10
38.016582351
 20
84.4181993155
 11
34.4949429838
 21
83.8650714662
  0
LINE
  5
307
100
AcDbEntity
  8
0
100
AcDbLine
 62
7
  6
BYLAYER
 10
38.4253045224
 20
83.812887832
 11
37.8714760975
 21
83.8740659033
  0
LINE
  5
308
100
AcDbEntity
  8
0
100
AcDbLine
 62
7
  6
BYLAYER
 10
38.016582351
 20
84.4181993155
 11
38.1437845646
 21
84.4041480575
  0
LINE
  5
309
100
AcDbEntity
  8
0
100
AcDbLine
 62
7
  6
BYLAYER
 10
36.0955905068
 20
85.5460344157
 11
37.2469080784
 21
85.3111514369
  0
LINE
  5
30A
100
AcDbEntity
  8
0
100
AcDbLine
 62
7
  6
BYLAYER
 10
40.4004125273
 20
85.2530213306
 11
36.0516877177
 21
87.7637019709
  0
LINE
  5
30B
100
AcDbEntity
  8
0
100
AcDbLine
 62
7
  6
BYLAYER
 10
36.5844713654
 20
87.9510107102
 11
40.9331961751
 21
85.4403300699
  0
LINE
  5
30C
100
AcDbEntity
  8
0
100
AcDbLine
 62
7
  6
BYLAYER
 10
56.3837274836
 20
19.0361137168
 11
54.8988094254
 21
18.1788009937
  0
LINE
  5
30D
100
AcDbEntity
  8
0
100
AcDbLine
 62
7
  6
BYLAYER
 10
47.4742191347
 20
13.8922377704
 11
47.2601463883
 21
13.7686435504
  0
LINE
  5
30E
100
AcDbEntity
  8
0
100
AcDbLine
 62
7
  6
BYLAYER
 10
40.4757770694
 20
9.8517094788
 11
36.9137536032
 21
7.7951865475
  0
LINE
  5
30F
100
AcDbEntity
  8
0
100
AcDbLine
 62
7
  6
BYLAYER
 10
44.5753696445
 20
92.5645304437
 11
48.9240944542
 21
90.0538498034
  0
LINE
  5
310
100
AcDbEntity
  8
0
100
AcDbLine
 62
7
  6
BYLAYER
 10
49.4568210061
 20
90.4817100047
 11
45.1080961965
 21
92.992390645
  0
LINE
  5
311
100
AcDbEntity
  8
0
100
AcDbLine
 62
7
  6
BYLAYER
 10
45.1761349058
 20
93.0316725777
 11
49.5248597155
 21
90.5209919374
  0
LINE
  5
312
100
AcDbEntity
  8
0
100
AcDbLine
 62
7
  6
BYLAYER
 10
46.1761179655
 20
93.1307283502
 11
50.5248427752
 21
90.6200477099
  0
ARC
  5
313
100
AcDbEntity
  8
0
100
AcDbCircle
 62
7
  6
BYLAYER
 10
27.3870877672
 20
58.0955538811
 40
3.1683129921
100
AcDbArc
 50
162.8082297193
 51
165.072463434
  0
ARC
  5
314
100
AcDbEntity
  8
0
100
AcDbCircle
 62
7
  6
BYLAYER
 10
41.0779723476
 20
83.6020507366
 40
3.1683129918
100
AcDbArc
 50
162.8082297194
 51
165.0724634344
  0
ARC
  5
315
100
AcDbEntity
  8
0
100
AcDbCircle
 62
7
  6
BYLAYER
 10
28.1432586985
 20
57.1964729058
 40
0.3353665908
100
AcDbArc
 50
60.0195072122
 51
67.618246996
  0
ARC
  5
316
100
AcDbEntity
  8
0
100
AcDbCircle
 62
7
  6
BYLAYER
 10
41.8341472326
 20
82.702978725
 40
0.3353567445
100
AcDbArc
 50
60.0193271862
 51
67.603608975
  0
ARC
  5
317
100
AcDbEntity
  8
0
100
AcDbCircle
 62
7
  6
BYLAYER
 10
39.0368536042
 20
13.7008650814
 40
0.3238218559
100
AcDbArc
 50
60.0375411964
 51
66.4589668683
  0
ARC
  5
318
100
AcDbEntity
  8
0
100
AcDbCircle
 62
7
  6
BYLAYER
 10
27.7855598948
 20
17.5952609634
 40
0.3236654018
100
AcDbArc
 50
60.0348765904
 51
66.4475302858
  0
ARC
  5
319
100
AcDbEntity
  8
0
100
AcDbCircle
 62
7
  6
BYLAYER
 10
23.6471959669
 20
22.8210882513
 40
0.242376225
100
AcDbArc
 50
132.1820398283
 51
137.3793371005
  0
ARC
  5
31A
100
AcDbEntity
  8
0
100
AcDbCircle
 62
7
  6
BYLAYER
 10
21.1016221482
 20
29.9655098034
 40
0.242376218
100
AcDbArc
 50
132.1820398443
 51
137.3793370934
  0
SPLINE
  5
31B
100
AcDbEntity
  8
0
100
AcDbSpline
 62
7
  6
BYLAYER
 70
0
 71
3
 72
15
 73
11
 74
0
 42
0.0000001
 43
0.0000001
 44
0.0000000001
 40
0.0
 40
0.0
 40
0.0
 40
0.0
 40
0.0795044441
 40
0.1660402935
 40
0.2648020407
 40
0.3788457793
 40
0.509566261
 40
0.6572561867
 40
0.8212734574
 40
1.0
 40
1.0
 40
1.0
 40
1.0
 10
20.5394374829
 20
17.2701998907
 30
0.0
 10
20.5665463692
 20
17.2972514677
 30
0.0
 10
20.6332765541
 20
17.3443066624
 30
0.0
 10
20.7564177685
 20
17.3829673153
 30
0.0
 10
20.9012756199
 20
17.3928095654
 30
0.0
 10
21.0663903543
 20
17.3746650996
 30
0.0
 10
21.2503231738
 20
17.3292178605
 30
0.0
 10
21.4511445194
 20
17.256989043
 30
0.0
 10
21.6662944035
 20
17.1589108895
 30
0.0
 10
21.8116641311
 20
17.0803812031
 30
0.0
 10
21.8862228353
 20
17.037335689
 30
0.0
  0
SPLINE
  5
31C
100
AcDbEntity
  8
0
100
AcDbSpline
 62
7
  6
BYLAYER
 70
0
 71
3
 72
9
 73
5
 74
0
 42
0.0000001
 43
0.0000001
 44
0.0000000001
 40
0.0
 40
0.0
 40
0.0
 40
0.0
 40
0.2471908414
 40
1.0
 40
1.0
 40
1.0
 40
1.0
 10
27.9148929374
 20
17.8919632661
 30
0.0
 10
27.9088859868
 20
17.894583956
 30
0.0
 10
27.8842733011
 20
17.904462969
 30
0.0
 10
27.8585169114
 20
17.911436243
 30
0.0
 10
27.8389000467
 20
17.9151166463
 30
0.0
  0
SPLINE
  5
31D
100
AcDbEntity
  8
0
100
AcDbSpline
 62
7
  6
BYLAYER
 70
0
 71
3
 72
11
 73
7
 74
0
 42
0.0000001
 43
0.0000001
 44
0.0000000001
 40
0.0
 40
0.0
 40
0.0
 40
0.0
 40
0.2056882923
 40
0.3783077867
 40
0.5691165459
 40
1.0
 40
1.0
 40
1.0
 40
1.0
 10
27.8389000467
 20
17.9151166463
 30
0.0
 10
27.790639156
 20
17.9241710769
 30
0.0
 10
27.6982370509
 20
17.9234257784
 30
0.0
 10
27.5665455089
 20
17.8872570601
 30
0.0
 10
27.3950707004
 20
17.8043968941
 30
0.0
 10
27.2779756856
 20
17.7095113226
 30
0.0
 10
27.2051545323
 20
17.6368628863
 30
0.0
  0
SPLINE
  5
31E
100
AcDbEntity
  8
0
100
AcDbSpline
 62
7
  6
BYLAYER
 70
0
 71
3
 72
11
 73
7
 74
0
 42
0.0000001
 43
0.0000001
 44
0.0000000001
 40
0.0
 40
0.0
 40
0.0
 40
0.0
 40
0.2897142079
 40
0.5490873409
 40
0.7822210271
 40
1.0
 40
1.0
 40
1.0
 40
1.0
 10
45.176134799
 20
93.031672512
 30
0.0
 10
45.2638945951
 20
93.0823403514
 30
0.0
 10
45.438468859
 20
93.1653909425
 30
0.0
 10
45.7067973802
 20
93.2301971687
 30
0.0
 10
45.9585619974
 20
93.2237989273
 30
0.0
 10
46.1101404833
 20
93.1688013144
 30
0.0
 10
46.1761153625
 20
93.1307238556
 30
0.0
  0
SPLINE
  5
31F
100
AcDbEntity
  8
0
100
AcDbSpline
 62
7
  6
BYLAYER
 70
0
 71
3
 72
9
 73
5
 74
0
 42
0.0000001
 43
0.0000001
 44
0.0000000001
 40
0.0
 40
0.0
 40
0.0
 40
0.0
 40
0.5187826787
 40
1.0
 40
1.0
 40
1.0
 40
1.0
 10
44.5753696445
 20
92.5645304437
 30
0.0
 10
44.6571861559
 20
92.6501851837
 30
0.0
 10
44.8249327471
 20
92.8060852445
 30
0.0
 10
45.0129423471
 20
92.9374538724
 30
0.0
 10
45.1080961965
 20
92.992390645
 30
0.0
  0
SPLINE
  5
320
100
AcDbEntity
  8
0
100
AcDbSpline
 62
7
  6
BYLAYER
 70
0
 71
3
 72
10
 73
6
 74
0
 42
0.0000001
 43
0.0000001
 44
0.0000000001
 40
0.0
 40
0.0
 40
0.0
 40
0.0
 40
0.2354853459
 40
0.4813990973
 40
1.0
 40
1.0
 40
1.0
 40
1.0
 10
40.579920505
 20
89.3555789339
 30
0.0
 10
40.929271882
 20
89.5572758415
 30
0.0
 10
41.626128648
 20
90.0002854546
 30
0.0
 10
42.9986933059
 20
91.0270644887
 30
0.0
 10
43.9617458095
 20
91.9221198934
 30
0.0
 10
44.5753696445
 20
92.5645304437
 30
0.0
  0
SPLINE
  5
321
100
AcDbEntity
  8
0
100
AcDbSpline
 62
7
  6
BYLAYER
 70
0
 71
3
 72
10
 73
6
 74
0
 42
0.0000001
 43
0.0000001
 44
0.0000000001
 40
0.0
 40
0.0
 40
0.0
 40
0.0
 40
0.4723896376
 40
0.7293118831
 40
1.0
 40
1.0
 40
1.0
 40
1.0
 10
36.5844713654
 20
87.9510107102
 30
0.0
 10
37.2514290003
 20
88.0228960735
 30
0.0
 10
38.2686907168
 20
88.2734412091
 30
0.0
 10
39.582224009
 20
88.814864439
 30
0.0
 10
40.2470262032
 20
89.1633834664
 30
0.0
 10
40.579920505
 20
89.3555789339
 30
0.0
  0
SPLINE
  5
322
100
AcDbEntity
  8
0
100
AcDbSpline
 62
7
  6
BYLAYER
 70
0
 71
3
 72
9
 73
5
 74
0
 42
0.0000001
 43
0.0000001
 44
0.0000000001
 40
0.0
 40
0.0
 40
0.0
 40
0.0
 40
0.271259176
 40
1.0
 40
1.0
 40
1.0
 40
1.0
 10
36.0517450822
 20
87.7637350942
 30
0.0
 10
36.0961309647
 20
87.7893611424
 30
0.0
 10
36.2632819439
 20
87.8770463537
 30
0.0
 10
36.4475742693
 20
87.9362558037
 30
0.0
 10
36.5844713654
 20
87.9510107102
 30
0.0
  0
SPLINE
  5
323
100
AcDbEntity
  8
0
100
AcDbSpline
 62
7
  6
BYLAYER
 70
0
 71
3
 72
10
 73
6
 74
0
 42
0.0000001
 43
0.0000001
 44
0.0000000001
 40
0.0
 40
0.0
 40
0.0
 40
0.0
 40
0.5165648363
 40
0.7700831301
 40
1.0
 40
1.0
 40
1.0
 40
1.0
 10
35.0692841959
 20
87.0897316186
 30
0.0
 10
35.0796330318
 20
87.1281007783
 30
0.0
 10
35.1065340185
 20
87.1828107469
 30
0.0
 10
35.1569658235
 20
87.2411800176
 30
0.0
 10
35.1866482177
 20
87.264274164
 30
0.0
 10
35.2019664389
 20
87.2731180903
 30
0.0
  0
SPLINE
  5
324
100
AcDbEntity
  8
0
100
AcDbSpline
 62
7
  6
BYLAYER
 70
0
 71
3
 72
11
 73
7
 74
0
 42
0.0000001
 43
0.0000001
 44
0.0000000001
 40
0.0
 40
0.0
 40
0.0
 40
0.0
 40
0.22789587
 40
0.4702946914
 40
0.7286682047
 40
1.0
 40
1.0
 40
1.0
 40
1.0
 10
28.2866137111
 20
57.4719334905
 30
0.0
 10
28.3281102338
 20
57.4279954359
 30
0.0
 10
28.401378568
 20
57.324969241
 30
0.0
 10
28.4709083614
 20
57.1427547363
 30
0.0
 10
28.4990839283
 20
56.9384082711
 30
0.0
 10
28.4877178636
 20
56.7968561078
 30
0.0
 10
28.4729594523
 20
56.7264310248
 30
0.0
  0
SPLINE
  5
325
100
AcDbEntity
  8
0
100
AcDbSpline
 62
7
  6
BYLAYER
 70
0
 71
3
 72
10
 73
6
 74
0
 42
0.0000001
 43
0.0000001
 44
0.0000000001
 40
0.0
 40
0.0
 40
0.0
 40
0.0
 40
0.2613541691
 40
0.5236369582
 40
1.0
 40
1.0
 40
1.0
 40
1.0
 10
21.3057851244
 20
61.3085263473
 30
0.0
 10
21.3119869788
 20
61.324968252
 30
0.0
 10
21.3278045358
 20
61.3566813892
 30
0.0
 10
21.3655746869
 20
61.4122470727
 30
0.0
 10
21.4025510804
 20
61.4476428256
 30
0.0
 10
21.4302892635
 20
61.4636573775
 30
0.0
  0
SPLINE
  5
326
100
AcDbEntity
  8
0
100
AcDbSpline
 62
7
  6
BYLAYER
 70
0
 71
3
 72
9
 73
5
 74
0
 42
0.0000001
 43
0.0000001
 44
0.0000000001
 40
0.0
 40
0.0
 40
0.0
 40
0.0
 40
0.2446750617
 40
1.0
 40
1.0
 40
1.0
 40
1.0
 10
28.2709582195
 20
57.5065754414
 30
0.0
 10
28.2618427014
 20
57.5103300843
 30
0.0
 10
28.2239241968
 20
57.5240502772
 30
0.0
 10
28.1836888404
 20
57.5310529668
 30
0.0
 10
28.1533135788
 20
57.5329382657
 30
0.0
  0
SPLINE
  5
327
100
AcDbEntity
  8
0
100
AcDbSpline
 62
7
  6
BYLAYER
 70
0
 71
3
 72
9
 73
5
 74
0
 42
0.0000001
 43
0.0000001
 44
0.0000000001
 40
0.0
 40
0.0
 40
0.0
 40
0.0
 40
0.2430758743
 40
1.0
 40
1.0
 40
1.0
 40
1.0
 10
28.1533135788
 20
57.5329382657
 30
0.0
 10
28.1451561089
 20
57.5334445747
 30
0.0
 10
28.1115385575
 20
57.5345389117
 30
0.0
 10
28.0778289545
 20
57.5317581855
 30
0.0
 10
28.0526864252
 20
57.5278091629
 30
0.0
  0
SPLINE
  5
328
100
AcDbEntity
  8
0
100
AcDbSpline
 62
7
  6
BYLAYER
 70
0
 71
3
 72
11
 73
7
 74
0
 42
0.0000001
 43
0.0000001
 44
0.0000000001
 40
0.0
 40
0.0
 40
0.0
 40
0.0
 40
0.2005539353
 40
0.4281347861
 40
0.6955697358
 40
1.0
 40
1.0
 40
1.0
 40
1.0
 10
17.8213317265
 20
47.555374165
 30
0.0
 10
17.7973226687
 20
47.5692857914
 30
0.0
 10
17.7535869707
 20
47.6130200353
 30
0.0
 10
17.7198075041
 20
47.7053322775
 30
0.0
 10
17.714491834
 20
47.8169744972
 30
0.0
 10
17.7282371225
 20
47.8955037047
 30
0.0
 10
17.7390902701
 20
47.9362018834
 30
0.0
  0
SPLINE
  5
329
100
AcDbEntity
  8
0
100
AcDbSpline
 62
7
  6
BYLAYER
 70
0
 71
3
 72
10
 73
6
 74
0
 42
0.0000001
 43
0.0000001
 44
0.0000000001
 40
0.0
 40
0.0
 40
0.0
 40
0.0
 40
0.2542012598
 40
0.5159664515
 40
1.0
 40
1.0
 40
1.0
 40
1.0
 10
15.2965239227
 20
38.77663151
 30
0.0
 10
15.3087741189
 20
38.822568476
 30
0.0
 10
15.342990176
 20
38.9135575216
 30
0.0
 10
15.4368574456
 20
39.0755388809
 30
0.0
 10
15.5369948833
 20
39.1792270361
 30
0.0
 10
15.6133792413
 20
39.2278127103
 30
0.0
  0
SPLINE
  5
32A
100
AcDbEntity
  8
0
100
AcDbSpline
 62
7
  6
BYLAYER
 70
0
 71
3
 72
11
 73
7
 74
0
 42
0.0000001
 43
0.0000001
 44
0.0000000001
 40
0.0
 40
0.0
 40
0.0
 40
0.0
 40
0.2177382977
 40
0.4508602761
 40
0.7103539614
 40
1.0
 40
1.0
 40
1.0
 40
1.0
 10
15.4617753361
 20
37.096716084
 30
0.0
 10
15.4288001195
 20
37.1157646246
 30
0.0
 10
15.3670710135
 20
37.1676167508
 30
0.0
 10
15.3013740548
 20
37.2750709669
 30
0.0
 10
15.2623607028
 20
37.4074720081
 30
0.0
 10
15.2546601747
 20
37.5038393115
 30
0.0
 10
15.2546601747
 20
37.5544973639
 30
0.0
  0
SPLINE
  5
32B
100
AcDbEntity
  8
0
100
AcDbSpline
 62
7
  6
BYLAYER
 70
0
 71
3
 72
10
 73
6
 74
0
 42
0.0000001
 43
0.0000001
 44
0.0000000001
 40
0.0
 40
0.0
 40
0.0
 40
0.0
 40
0.5468975249
 40
0.7816166469
 40
1.0
 40
1.0
 40
1.0
 40
1.0
 10
16.6229060997
 20
32.6799642828
 30
0.0
 10
16.6369426049
 20
32.6880682145
 30
0.0
 10
16.6593895331
 20
32.6969055902
 30
0.0
 10
16.6893958993
 20
32.6963359438
 30
0.0
 10
16.7023075198
 20
32.691633572
 30
0.0
 10
16.7079125054
 20
32.688397609
 30
0.0
  0
SPLINE
  5
32C
100
AcDbEntity
  8
0
100
AcDbSpline
 62
7
  6
BYLAYER
 70
0
 71
3
 72
9
 73
5
 74
0
 42
0.0000001
 43
0.0000001
 44
0.0000000001
 40
0.0
 40
0.0
 40
0.0
 40
0.0
 40
0.2644203965
 40
1.0
 40
1.0
 40
1.0
 40
1.0
 10
16.5745440875
 20
32.6403134125
 30
0.0
 10
16.5782877217
 20
32.6443744752
 30
0.0
 10
16.5929310491
 20
32.6592619415
 30
0.0
 10
16.6095995349
 20
32.6722817799
 30
0.0
 10
16.6229060997
 20
32.6799642828
 30
0.0
  0
SPLINE
  5
32D
100
AcDbEntity
  8
0
100
AcDbSpline
 62
7
  6
BYLAYER
 70
0
 71
3
 72
11
 73
7
 74
0
 42
0.0000001
 43
0.0000001
 44
0.0000000001
 40
0.0
 40
0.0
 40
0.0
 40
0.0
 40
0.2288337186
 40
0.4804303557
 40
0.7422653267
 40
1.0
 40
1.0
 40
1.0
 40
1.0
 10
15.2546601747
 20
30.6754644996
 30
0.0
 10
15.2546601747
 20
30.7593056524
 30
0.0
 10
15.2776785172
 20
30.9355253544
 30
0.0
 10
15.3638961764
 20
31.1947899786
 30
0.0
 10
15.4970376766
 20
31.4453892197
 30
0.0
 10
15.6132781151
 20
31.5975402328
 30
0.0
 10
15.6772815874
 20
31.6669706571
 30
0.0
  0
SPLINE
  5
32E
100
AcDbEntity
  8
0
100
AcDbSpline
 62
7
  6
BYLAYER
 70
0
 71
3
 72
10
 73
6
 74
0
 42
0.0000001
 43
0.0000001
 44
0.0000000001
 40
0.0
 40
0.0
 40
0.0
 40
0.0
 40
0.5468975249
 40
0.7816166469
 40
1.0
 40
1.0
 40
1.0
 40
1.0
 10
19.1684799136
 20
25.535542736
 30
0.0
 10
19.1825164188
 20
25.5436466677
 30
0.0
 10
19.204963347
 20
25.5524840434
 30
0.0
 10
19.2349697133
 20
25.5519143969
 30
0.0
 10
19.2478813338
 20
25.5472120251
 30
0.0
 10
19.2534863193
 20
25.5439760622
 30
0.0
  0
SPLINE
  5
32F
100
AcDbEntity
  8
0
100
AcDbSpline
 62
7
  6
BYLAYER
 70
0
 71
3
 72
9
 73
5
 74
0
 42
0.0000001
 43
0.0000001
 44
0.0000000001
 40
0.0
 40
0.0
 40
0.0
 40
0.0
 40
0.2644203965
 40
1.0
 40
1.0
 40
1.0
 40
1.0
 10
19.1201179012
 20
25.4958918654
 30
0.0
 10
19.1238615355
 20
25.4999529281
 30
0.0
 10
19.1385048629
 20
25.5148403945
 30
0.0
 10
19.1551733488
 20
25.527860233
 30
0.0
 10
19.1684799136
 20
25.535542736
 30
0.0
  0
SPLINE
  5
330
100
AcDbEntity
  8
0
100
AcDbSpline
 62
7
  6
BYLAYER
 70
0
 71
3
 72
11
 73
7
 74
0
 42
0.0000001
 43
0.0000001
 44
0.0000000001
 40
0.0
 40
0.0
 40
0.0
 40
0.0
 40
0.2288337186
 40
0.4804303557
 40
0.7422653267
 40
1.0
 40
1.0
 40
1.0
 40
1.0
 10
17.8002339886
 20
23.5310429528
 30
0.0
 10
17.8002339886
 20
23.6148841057
 30
0.0
 10
17.8232523312
 20
23.7911038076
 30
0.0
 10
17.9094699903
 20
24.0503684318
 30
0.0
 10
18.0426114905
 20
24.3009676729
 30
0.0
 10
18.158851929
 20
24.4531186859
 30
0.0
 10
18.2228554013
 20
24.5225491102
 30
0.0
  0
SPLINE
  5
331
100
AcDbEntity
  8
0
100
AcDbSpline
 62
7
  6
BYLAYER
 70
0
 71
3
 72
9
 73
5
 74
0
 42
0.0000001
 43
0.0000001
 44
0.0000000001
 40
0.0
 40
0.0
 40
0.0
 40
0.0
 40
0.2408570905
 40
1.0
 40
1.0
 40
1.0
 40
1.0
 10
39.3606449399
 20
13.7751011185
 30
0.0
 10
39.3661485113
 20
13.7659563295
 30
0.0
 10
39.386493727
 20
13.726441698
 30
0.0
 10
39.3990918481
 20
13.6837265987
 30
0.0
 10
39.4111873816
 20
13.6523362374
 30
0.0
  0
SPLINE
  5
332
100
AcDbEntity
  8
0
100
AcDbSpline
 62
7
  6
BYLAYER
 70
0
 71
3
 72
9
 73
5
 74
0
 42
0.0000001
 43
0.0000001
 44
0.0000000001
 40
0.0
 40
0.0
 40
0.0
 40
0.0
 40
0.2408352745
 40
1.0
 40
1.0
 40
1.0
 40
1.0
 10
28.1088265036
 20
17.6702627791
 30
0.0
 10
28.1143717831
 20
17.6610486875
 30
0.0
 10
28.1349334296
 20
17.621263701
 30
0.0
 10
28.147638645
 20
17.5782189155
 30
0.0
 10
28.1598272971
 20
17.5465868923
 30
0.0
  0
SPLINE
  5
333
100
AcDbEntity
  8
0
100
AcDbSpline
 62
7
  6
BYLAYER
 70
0
 71
3
 72
10
 73
6
 74
0
 42
0.0000001
 43
0.0000001
 44
0.0000000001
 40
0.0
 40
0.0
 40
0.0
 40
0.0
 40
0.5468996234
 40
0.781618085
 40
1.0
 40
1.0
 40
1.0
 40
1.0
 10
23.6374123756
 20
22.9554581909
 30
0.0
 10
23.6374123756
 20
22.9716668304
 30
0.0
 10
23.6338422286
 20
22.9955261538
 30
0.0
 10
23.6183449773
 20
23.0212285697
 30
0.0
 10
23.6078162896
 20
23.0300593504
 30
0.0
 10
23.6022111224
 20
23.0332954257
 30
0.0
  0
SPLINE
  5
334
100
AcDbEntity
  8
0
100
AcDbSpline
 62
7
  6
BYLAYER
 70
0
 71
3
 72
11
 73
7
 74
0
 42
0.0000001
 43
0.0000001
 44
0.0000000001
 40
0.0
 40
0.0
 40
0.0
 40
0.0
 40
0.2370444772
 40
0.4999965441
 40
0.76295129
 40
1.0
 40
1.0
 40
1.0
 40
1.0
 10
23.5172047233
 20
27.474800269
 30
0.0
 10
23.5342555691
 20
27.4846445207
 30
0.0
 10
23.5664917081
 20
27.5118796832
 30
0.0
 10
23.6043127669
 20
27.563312148
 30
0.0
 10
23.6299438574
 20
27.6217828155
 30
0.0
 10
23.6374123756
 20
27.6633182431
 30
0.0
 10
23.6374123756
 20
27.6830071861
 30
0.0
  0
SPLINE
  5
335
100
AcDbEntity
  8
0
100
AcDbSpline
 62
7
  6
BYLAYER
 70
0
 71
3
 72
9
 73
5
 74
0
 42
0.0000001
 43
0.0000001
 44
0.0000000001
 40
0.0
 40
0.0
 40
0.0
 40
0.0
 40
0.2290783528
 40
1.0
 40
1.0
 40
1.0
 40
1.0
 10
23.4688427118
 20
27.4586078313
 30
0.0
 10
23.4727472336
 20
27.4588807657
 30
0.0
 10
23.4897072475
 20
27.4613209351
 30
0.0
 10
23.5057973991
 20
27.4682142866
 30
0.0
 10
23.5172047233
 20
27.474800269
 30
0.0
  0
SPLINE
  5
336
100
AcDbEntity
  8
0
100
AcDbSpline
 62
7
  6
BYLAYER
 70
0
 71
3
 72
10
 73
6
 74
0
 42
0.0000001
 43
0.0000001
 44
0.0000000001
 40
0.0
 40
0.0
 40
0.0
 40
0.0
 40
0.5468996234
 40
0.781618085
 40
1.0
 40
1.0
 40
1.0
 40
1.0
 10
21.0918385617
 20
30.0998797377
 30
0.0
 10
21.0918385617
 20
30.1160883773
 30
0.0
 10
21.0882684146
 20
30.1399477007
 30
0.0
 10
21.0727711633
 20
30.1656501166
 30
0.0
 10
21.0622424756
 20
30.1744808972
 30
0.0
 10
21.0566373084
 20
30.1777169726
 30
0.0
  0
SPLINE
  5
337
100
AcDbEntity
  8
0
100
AcDbSpline
 62
7
  6
BYLAYER
 70
0
 71
3
 72
11
 73
7
 74
0
 42
0.0000001
 43
0.0000001
 44
0.0000000001
 40
0.0
 40
0.0
 40
0.0
 40
0.0
 40
0.2370444772
 40
0.4999965441
 40
0.76295129
 40
1.0
 40
1.0
 40
1.0
 40
1.0
 10
20.9716309093
 20
34.6192218159
 30
0.0
 10
20.9886817551
 20
34.6290660675
 30
0.0
 10
21.0209178942
 20
34.6563012301
 30
0.0
 10
21.058738953
 20
34.7077336948
 30
0.0
 10
21.0843700435
 20
34.7662043623
 30
0.0
 10
21.0918385617
 20
34.80773979
 30
0.0
 10
21.0918385617
 20
34.8274287329
 30
0.0
  0
SPLINE
  5
338
100
AcDbEntity
  8
0
100
AcDbSpline
 62
7
  6
BYLAYER
 70
0
 71
3
 72
9
 73
5
 74
0
 42
0.0000001
 43
0.0000001
 44
0.0000000001
 40
0.0
 40
0.0
 40
0.0
 40
0.0
 40
0.2290783529
 40
1.0
 40
1.0
 40
1.0
 40
1.0
 10
20.9232688972
 20
34.603029378
 30
0.0
 10
20.927173419
 20
34.6033023124
 30
0.0
 10
20.9441334332
 20
34.6057424818
 30
0.0
 10
20.9602235849
 20
34.6126358334
 30
0.0
 10
20.9716309093
 20
34.6192218159
 30
0.0
  0
SPLINE
  5
339
100
AcDbEntity
  8
0
100
AcDbSpline
 62
7
  6
BYLAYER
 70
0
 71
3
 72
11
 73
7
 74
0
 42
0.0000001
 43
0.0000001
 44
0.0000000001
 40
0.0
 40
0.0
 40
0.0
 40
0.0
 40
0.2713101921
 40
0.5255125209
 40
0.7663568277
 40
1.0
 40
1.0
 40
1.0
 40
1.0
 10
50.8824849591
 20
90.1291050843
 30
0.0
 10
50.8665412883
 20
90.1830129472
 30
0.0
 10
50.8280488924
 20
90.2854330214
 30
0.0
 10
50.7474476537
 20
90.4232528417
 30
0.0
 10
50.6467367947
 20
90.5371008618
 30
0.0
 10
50.5667693509
 20
90.5958437429
 30
0.0
 10
50.5248401727
 20
90.6200432165
 30
0.0
  0
SPLINE
  5
33A
100
AcDbEntity
  8
0
100
AcDbSpline
 62
7
  6
BYLAYER
 70
0
 71
3
 72
9
 73
5
 74
0
 42
0.0000001
 43
0.0000001
 44
0.0000000001
 40
0.0
 40
0.0
 40
0.0
 40
0.0
 40
0.2651987032
 40
1.0
 40
1.0
 40
1.0
 40
1.0
 10
57.0908313208
 20
68.9044696656
 30
0.0
 10
57.0908313208
 20
68.9426298596
 30
0.0
 10
57.0865056083
 20
69.0864296287
 30
0.0
 10
57.0635217942
 20
69.2301233118
 30
0.0
 10
57.0335345801
 20
69.3315144308
 30
0.0
  0
SPLINE
  5
33B
100
AcDbEntity
  8
0
100
AcDbSpline
 62
7
  6
BYLAYER
 70
0
 71
3
 72
9
 73
5
 74
0
 42
0.0000001
 43
0.0000001
 44
0.0000000001
 40
0.0
 40
0.0
 40
0.0
 40
0.0
 40
0.5203605675
 40
1.0
 40
1.0
 40
1.0
 40
1.0
 10
56.9583310742
 20
67.679445166
 30
0.0
 10
57.0004575022
 20
67.8080840328
 30
0.0
 10
57.0653281739
 20
68.0609575142
 30
0.0
 10
57.0908313208
 20
68.3213132064
 30
0.0
 10
57.0908313208
 20
68.4460814268
 30
0.0
  0
SPLINE
  5
33C
100
AcDbEntity
  8
0
100
AcDbSpline
 62
7
  6
BYLAYER
 70
0
 71
3
 72
11
 73
7
 74
0
 42
0.0000001
 43
0.0000001
 44
0.0000000001
 40
0.0
 40
0.0
 40
0.0
 40
0.0
 40
0.2286108634
 40
0.4797616516
 40
0.7414830007
 40
1.0
 40
1.0
 40
1.0
 40
1.0
 10
55.5453989918
 20
64.4803687815
 30
0.0
 10
55.6165342661
 20
64.5214385061
 30
0.0
 10
55.754935733
 20
64.626864449
 30
0.0
 10
55.9336996117
 20
64.8260279122
 30
0.0
 10
56.0831209761
 20
65.0608440523
 30
0.0
 10
56.1573454324
 20
65.2335248698
 30
0.0
 10
56.1862527058
 20
65.3217972221
 30
0.0
  0
SPLINE
  5
33D
100
AcDbEntity
  8
0
100
AcDbSpline
 62
7
  6
BYLAYER
 70
0
 71
3
 72
11
 73
7
 74
0
 42
0.0000001
 43
0.0000001
 44
0.0000000001
 40
0.0
 40
0.0
 40
0.0
 40
0.0
 40
0.2177182217
 40
0.4509432136
 40
0.7102956781
 40
1.0
 40
1.0
 40
1.0
 40
1.0
 10
54.723368012
 20
64.1253458175
 30
0.0
 10
54.7398558173
 20
64.1158263065
 30
0.0
 10
54.7777560235
 20
64.102084979
 30
0.0
 10
54.8406983851
 20
64.1004655501
 30
0.0
 10
54.9077838331
 20
64.1166864673
 30
0.0
 10
54.9514274676
 20
64.137441209
 30
0.0
 10
54.9733669712
 20
64.1501079117
 30
0.0
  0
SPLINE
  5
33E
100
AcDbEntity
  8
0
100
AcDbSpline
 62
7
  6
BYLAYER
 70
0
 71
3
 72
11
 73
7
 74
0
 42
0.0000001
 43
0.0000001
 44
0.0000000001
 40
0.0
 40
0.0
 40
0.0
 40
0.0
 40
0.2372423294
 40
0.4999983821
 40
0.7627553152
 40
1.0
 40
1.0
 40
1.0
 40
1.0
 10
52.4946563789
 20
37.9803257498
 30
0.0
 10
52.544851316
 20
38.0093056372
 30
0.0
 10
52.6398340368
 20
38.089253358
 30
0.0
 10
52.750694276
 20
38.2407495529
 30
0.0
 10
52.826463046
 20
38.4125063586
 30
0.0
 10
52.8482082975
 20
38.5347384255
 30
0.0
 10
52.8482082975
 20
38.5926990353
 30
0.0
  0
SPLINE
  5
33F
100
AcDbEntity
  8
0
100
AcDbSpline
 62
7
  6
BYLAYER
 70
0
 71
3
 72
9
 73
5
 74
0
 42
0.0000001
 43
0.0000001
 44
0.0000000001
 40
0.0
 40
0.0
 40
0.0
 40
0.0
 40
0.2366979575
 40
1.0
 40
1.0
 40
1.0
 40
1.0
 10
52.4031504083
 20
37.9414058911
 30
0.0
 10
52.4107412825
 20
37.943439807
 30
0.0
 10
52.4424784489
 20
37.9532680232
 30
0.0
 10
52.4727091117
 20
37.9676545648
 30
0.0
 10
52.4946563789
 20
37.9803257498
 30
0.0
  0
SPLINE
  5
340
100
AcDbEntity
  8
0
100
AcDbSpline
 62
7
  6
BYLAYER
 70
0
 71
3
 72
9
 73
5
 74
0
 42
0.0000001
 43
0.0000001
 44
0.0000000001
 40
0.0
 40
0.0
 40
0.0
 40
0.0
 40
0.2638121518
 40
1.0
 40
1.0
 40
1.0
 40
1.0
 10
48.676295658
 20
36.9226618967
 30
0.0
 10
48.6869139981
 20
36.9287923617
 30
0.0
 10
48.7277876799
 20
36.9508972047
 30
0.0
 10
48.7713546041
 20
36.9682943649
 30
0.0
 10
48.8044040159
 20
36.9771496985
 30
0.0
  0
SPLINE
  5
341
100
AcDbEntity
  8
0
100
AcDbSpline
 62
7
  6
BYLAYER
 70
0
 71
3
 72
11
 73
7
 74
0
 42
0.0000001
 43
0.0000001
 44
0.0000000001
 40
0.0
 40
0.0
 40
0.0
 40
0.0
 40
0.2372542275
 40
0.5000017852
 40
0.7627483734
 40
1.0
 40
1.0
 40
1.0
 40
1.0
 10
48.1813229719
 20
36.065339297
 30
0.0
 10
48.1813229719
 20
36.1464874587
 30
0.0
 10
48.2117477074
 20
36.3176186524
 30
0.0
 10
48.3178707802
 20
36.5580524696
 30
0.0
 10
48.4730294547
 20
36.7701747058
 30
0.0
 10
48.606019954
 20
36.8820884423
 30
0.0
 10
48.676295658
 20
36.9226618967
 30
0.0
  0
SPLINE
  5
342
100
AcDbEntity
  8
0
100
AcDbSpline
 62
7
  6
BYLAYER
 70
0
 71
3
 72
11
 73
7
 74
0
 42
0.0000001
 43
0.0000001
 44
0.0000000001
 40
0.0
 40
0.0
 40
0.0
 40
0.0
 40
0.2897034791
 40
0.5490978059
 40
0.7822037886
 40
1.0
 40
1.0
 40
1.0
 40
1.0
 10
57.0908313208
 20
38.197380886
 30
0.0
 10
57.0908313208
 20
38.2784502529
 30
0.0
 10
57.0785443932
 20
38.4326310133
 30
0.0
 10
57.0160855216
 20
38.6444509781
 30
0.0
 10
56.9109848813
 20
38.8163513246
 30
0.0
 10
56.8122391337
 20
38.8993751054
 30
0.0
 10
56.7594498781
 20
38.9298357261
 30
0.0
  0
SPLINE
  5
343
100
AcDbEntity
  8
0
100
AcDbSpline
 62
7
  6
BYLAYER
 70
0
 71
3
 72
13
 73
9
 74
0
 42
0.0000001
 43
0.0000001
 44
0.0000000001
 40
0.0
 40
0.0
 40
0.0
 40
0.0
 40
0.114175582
 40
0.23756922
 40
0.49999856
 40
0.7624286893
 40
0.8858231943
 40
1.0
 40
1.0
 40
1.0
 40
1.0
 10
56.3837274836
 20
19.0361137168
 30
0.0
 10
56.4320997065
 20
19.064041266
 30
0.0
 10
56.5276972293
 20
19.1311217073
 30
0.0
 10
56.7067896287
 20
19.2985834447
 30
0.0
 10
56.8957876329
 20
19.5569706114
 30
0.0
 10
57.0250569936
 20
19.8498423081
 30
0.0
 10
57.0805366545
 20
20.0886732362
 30
0.0
 10
57.0908313208
 20
20.2050043407
 30
0.0
 10
57.0908313208
 20
20.2608602878
 30
0.0
  0
SPLINE
  5
344
100
AcDbEntity
  8
0
100
AcDbSpline
 62
7
  6
BYLAYER
 70
0
 71
3
 72
11
 73
7
 74
0
 42
0.0000001
 43
0.0000001
 44
0.0000000001
 40
0.0
 40
0.0
 40
0.0
 40
0.0
 40
0.2895396729
 40
0.5491163863
 40
0.7822545095
 40
1.0
 40
1.0
 40
1.0
 40
1.0
 10
53.5553121347
 20
20.342545803
 30
0.0
 10
53.5991647699
 20
20.3678639826
 30
0.0
 10
53.6864745775
 20
20.4093442702
 30
0.0
 10
53.8206169856
 20
20.4418140981
 30
0.0
 10
53.9465468698
 20
20.4386517553
 30
0.0
 10
54.0222965981
 20
20.4110652966
 30
0.0
 10
54.0552756748
 20
20.3920252308
 30
0.0
  0
SPLINE
  5
345
100
AcDbEntity
  8
0
100
AcDbSpline
 62
7
  6
BYLAYER
 70
0
 71
3
 72
11
 73
7
 74
0
 42
0.0000001
 43
0.0000001
 44
0.0000000001
 40
0.0
 40
0.0
 40
0.0
 40
0.0
 40
0.2372446283
 40
0.5000015006
 40
0.7627576
 40
1.0
 40
1.0
 40
1.0
 40
1.0
 10
48.1813229719
 20
16.8316394173
 30
0.0
 10
48.1813229719
 20
16.8895998984
 30
0.0
 10
48.2030681282
 20
17.0118316959
 30
0.0
 10
48.2788366252
 20
17.183588191
 30
0.0
 10
48.3896964451
 20
17.3350842325
 30
0.0
 10
48.4846789091
 20
17.4150319509
 30
0.0
 10
48.5348737616
 20
17.4440117895
 30
0.0
  0
SPLINE
  5
346
100
AcDbEntity
  8
0
100
AcDbSpline
 62
7
  6
BYLAYER
 70
0
 71
3
 72
13
 73
9
 74
0
 42
0.0000001
 43
0.0000001
 44
0.0000000001
 40
0.0
 40
0.0
 40
0.0
 40
0.0
 40
0.114175582
 40
0.23756922
 40
0.49999856
 40
0.7624286893
 40
0.8858231943
 40
1.0
 40
1.0
 40
1.0
 40
1.0
 10
47.4742191347
 20
13.8922377704
 30
0.0
 10
47.5225913576
 20
13.9201653196
 30
0.0
 10
47.6181888804
 20
13.9872457608
 30
0.0
 10
47.7972812798
 20
14.1547074983
 30
0.0
 10
47.986279284
 20
14.413094665
 30
0.0
 10
48.1155486447
 20
14.7059663617
 30
0.0
 10
48.1710283056
 20
14.9447972898
 30
0.0
 10
48.1813229719
 20
15.0611283942
 30
0.0
 10
48.1813229719
 20
15.1169843414
 30
0.0
  0
SPLINE
  5
347
100
AcDbEntity
  8
0
100
AcDbSpline
 62
7
  6
BYLAYER
 70
0
 71
3
 72
9
 73
5
 74
0
 42
0.0000001
 43
0.0000001
 44
0.0000000001
 40
0.0
 40
0.0
 40
0.0
 40
0.0
 40
0.235450666
 40
1.0
 40
1.0
 40
1.0
 40
1.0
 10
46.8612854152
 20
13.6046573784
 30
0.0
 10
46.8942511131
 20
13.6124963695
 30
0.0
 10
47.0328079839
 20
13.6518745436
 30
0.0
 10
47.1645199547
 20
13.7134339327
 30
0.0
 10
47.2598090466
 20
13.7684487872
 30
0.0
  0
SPLINE
  5
348
100
AcDbEntity
  8
0
100
AcDbSpline
 62
7
  6
BYLAYER
 70
0
 71
3
 72
9
 73
5
 74
0
 42
0.0000001
 43
0.0000001
 44
0.0000000001
 40
0.0
 40
0.0
 40
0.0
 40
0.0
 40
0.5199030861
 40
1.0
 40
1.0
 40
1.0
 40
1.0
 10
43.8679895649
 20
12.3743238749
 30
0.0
 10
44.3549698424
 20
12.6554803909
 30
0.0
 10
45.3249260347
 20
13.1415378363
 30
0.0
 10
46.356096694
 20
13.4845846179
 30
0.0
 10
46.8612854152
 20
13.6046573784
 30
0.0
  0
SPLINE
  5
349
100
AcDbEntity
  8
0
100
AcDbSpline
 62
7
  6
BYLAYER
 70
0
 71
3
 72
9
 73
5
 74
0
 42
0.0000001
 43
0.0000001
 44
0.0000000001
 40
0.0
 40
0.0
 40
0.0
 40
0.0
 40
0.5150160428
 40
1.0
 40
1.0
 40
1.0
 40
1.0
 10
40.8744233969
 20
10.1480698684
 30
0.0
 10
41.3471469533
 20
10.5815642851
 30
0.0
 10
42.3054481296
 20
11.3805777436
 30
0.0
 10
43.3449168032
 20
12.0723294778
 30
0.0
 10
43.8679895649
 20
12.3743238749
 30
0.0
  0
SPLINE
  5
34A
100
AcDbEntity
  8
0
100
AcDbSpline
 62
7
  6
BYLAYER
 70
0
 71
3
 72
9
 73
5
 74
0
 42
0.0000001
 43
0.0000001
 44
0.0000000001
 40
0.0
 40
0.0
 40
0.0
 40
0.0
 40
0.238671283
 40
1.0
 40
1.0
 40
1.0
 40
1.0
 10
40.4758330524
 20
9.8517417966
 30
0.0
 10
40.5100921812
 20
9.8715211957
 30
0.0
 10
40.6510112246
 20
9.9589121494
 30
0.0
 10
40.7814144704
 20
10.0627898639
 30
0.0
 10
40.8744233969
 20
10.1480698684
 30
0.0
  0
SPLINE
  5
34B
100
AcDbEntity
  8
0
100
AcDbSpline
 62
7
  6
BYLAYER
 70
0
 71
3
 72
12
 73
8
 74
0
 42
0.0000001
 43
0.0000001
 44
0.0000000001
 40
0.0
 40
0.0
 40
0.0
 40
0.0
 40
0.1120882579
 40
0.2323430129
 40
0.4885093968
 40
0.7506165555
 40
1.0
 40
1.0
 40
1.0
 40
1.0
 10
33.1375829198
 20
13.1430850341
 30
0.0
 10
33.2395084749
 20
13.0842396187
 30
0.0
 10
33.446164283
 20
12.9541536572
 30
0.0
 10
33.8626431225
 20
12.654340333
 30
0.0
 10
34.3730273391
 20
12.2174763596
 30
0.0
 10
34.933000203
 20
11.6362499763
 30
0.0
 10
35.2664431275
 20
11.2135815999
 30
0.0
 10
35.4155405471
 20
10.9983214426
 30
0.0
  0
SPLINE
  5
34C
100
AcDbEntity
  8
0
100
AcDbSpline
 62
7
  6
BYLAYER
 70
0
 71
3
 72
11
 73
7
 74
0
 42
0.0000001
 43
0.0000001
 44
0.0000000001
 40
0.0
 40
0.0
 40
0.0
 40
0.0
 40
0.2177348863
 40
0.4510035134
 40
0.710938958
 40
1.0
 40
1.0
 40
1.0
 40
1.0
 10
25.5570144837
 20
11.6934928678
 30
0.0
 10
25.5636053813
 20
11.6896772812
 30
0.0
 10
25.5787669159
 20
11.6841714487
 30
0.0
 10
25.6039694932
 20
11.6835502022
 30
0.0
 10
25.6307878791
 20
11.6900792677
 30
0.0
 10
25.6482575292
 20
11.6983443764
 30
0.0
 10
25.6570134475
 20
11.703399578
 30
0.0
  0
SPLINE
  5
34D
100
AcDbEntity
  8
0
100
AcDbSpline
 62
7
  6
BYLAYER
 70
0
 71
3
 72
11
 73
7
 74
0
 42
0.0000001
 43
0.0000001
 44
0.0000000001
 40
0.0
 40
0.0
 40
0.0
 40
0.0
 40
0.2278890494
 40
0.4702972236
 40
0.7286660743
 40
1.0
 40
1.0
 40
1.0
 40
1.0
 10
41.9774945251
 20
82.9784339037
 30
0.0
 10
42.0190135562
 20
82.9344719002
 30
0.0
 10
42.0923152893
 20
82.8313784545
 30
0.0
 10
42.1618624801
 20
82.64904959
 30
0.0
 10
42.1899801565
 20
82.4445691098
 30
0.0
 10
42.1785266517
 20
82.3029431022
 30
0.0
 10
42.1637274465
 20
82.2324838167
 30
0.0
  0
SPLINE
  5
34E
100
AcDbEntity
  8
0
100
AcDbSpline
 62
7
  6
BYLAYER
 70
0
 71
3
 72
9
 73
5
 74
0
 42
0.0000001
 43
0.0000001
 44
0.0000000001
 40
0.0
 40
0.0
 40
0.0
 40
0.0
 40
0.2446741988
 40
1.0
 40
1.0
 40
1.0
 40
1.0
 10
41.9619222235
 20
83.013039522
 30
0.0
 10
41.9528012137
 20
83.0167991445
 30
0.0
 10
41.9148587252
 20
83.0305374879
 30
0.0
 10
41.8745944769
 20
83.037548466
 30
0.0
 10
41.8441975824
 20
83.0394350907
 30
0.0
  0
SPLINE
  5
34F
100
AcDbEntity
  8
0
100
AcDbSpline
 62
7
  6
BYLAYER
 70
0
 71
3
 72
9
 73
5
 74
0
 42
0.0000001
 43
0.0000001
 44
0.0000000001
 40
0.0
 40
0.0
 40
0.0
 40
0.0
 40
0.2430761954
 40
1.0
 40
1.0
 40
1.0
 40
1.0
 10
41.8441975824
 20
83.0394350907
 30
0.0
 10
41.8360401483
 20
83.039941393
 30
0.0
 10
41.80242279
 20
83.0410357139
 30
0.0
 10
41.7687133801
 20
83.0382550166
 30
0.0
 10
41.7435710058
 20
83.0343060184
 30
0.0
  0
SPLINE
  5
350
100
AcDbEntity
  8
0
100
AcDbSpline
 62
7
  6
BYLAYER
 70
0
 71
3
 72
9
 73
5
 74
0
 42
0.0000001
 43
0.0000001
 44
0.0000000001
 40
0.0
 40
0.0
 40
0.0
 40
0.0
 40
0.2580934547
 40
1.0
 40
1.0
 40
1.0
 40
1.0
 10
39.6024392036
 20
13.1473748765
 30
0.0
 10
39.6007151058
 20
13.1549399558
 30
0.0
 10
39.5929173659
 20
13.1840017795
 30
0.0
 10
39.5820512089
 20
13.2121104024
 30
0.0
 10
39.5736659892
 20
13.232778073
 30
0.0
  0
SPLINE
  5
351
100
AcDbEntity
  8
0
100
AcDbSpline
 62
7
  6
BYLAYER
 70
0
 71
3
 72
8
 73
4
 74
0
 42
0.0000001
 43
0.0000001
 44
0.0000000001
 40
0.0
 40
0.0
 40
0.0
 40
0.0
 40
1.0
 40
1.0
 40
1.0
 40
1.0
 10
39.5736659892
 20
13.232778073
 30
0.0
 10
39.5678567248
 20
13.2470965961
 30
0.0
 10
39.5618495481
 20
13.2613373733
 30
0.0
 10
39.5562936353
 20
13.2757560934
 30
0.0
  0
SPLINE
  5
352
100
AcDbEntity
  8
0
100
AcDbSpline
 62
7
  6
BYLAYER
 70
0
 71
3
 72
15
 73
11
 74
0
 42
0.0000001
 43
0.0000001
 44
0.0000000001
 40
0.0
 40
0.0
 40
0.0
 40
0.0
 40
0.1395675965
 40
0.2835999893
 40
0.4258076693
 40
0.5616691234
 40
0.6882267161
 40
0.8034411571
 40
0.9064654033
 40
1.0
 40
1.0
 40
1.0
 40
1.0
 10
38.9982509235
 20
11.9658231841
 30
0.0
 10
39.0440376141
 20
12.0115012779
 30
0.0
 10
39.1345357576
 20
12.1068925782
 30
0.0
 10
39.2628577127
 20
12.2569092782
 30
0.0
 10
39.380819728
 20
12.4131281265
 30
0.0
 10
39.4817223541
 20
12.5714855103
 30
0.0
 10
39.5597158072
 20
12.7285919972
 30
0.0
 10
39.6098921802
 20
12.8811548693
 30
0.0
 10
39.6255258372
 20
13.0261336326
 30
0.0
 10
39.61051866
 20
13.1174548542
 30
0.0
 10
39.5970963498
 20
13.1586680302
 30
0.0
  0
SPLINE
  5
353
100
AcDbEntity
  8
0
100
AcDbSpline
 62
7
  6
BYLAYER
 70
0
 71
3
 72
11
 73
7
 74
0
 42
0.0000001
 43
0.0000001
 44
0.0000000001
 40
0.0
 40
0.0
 40
0.0
 40
0.0
 40
0.2001962833
 40
0.4277773006
 40
0.6954587701
 40
1.0
 40
1.0
 40
1.0
 40
1.0
 10
31.5122145235
 20
73.0618720035
 30
0.0
 10
31.4880501615
 20
73.0758692121
 30
0.0
 10
31.4440582426
 20
73.1200216149
 30
0.0
 10
31.4102843373
 20
73.2131975484
 30
0.0
 10
31.4056015525
 20
73.3258653028
 30
0.0
 10
31.4199129055
 20
73.4049674873
 30
0.0
 10
31.430858895
 20
73.4460138134
 30
0.0
  0
SPLINE
  5
354
100
AcDbEntity
  8
0
100
AcDbSpline
 62
7
  6
BYLAYER
 70
0
 71
3
 72
11
 73
7
 74
0
 42
0.0000001
 43
0.0000001
 44
0.0000000001
 40
0.0
 40
0.0
 40
0.0
 40
0.0
 40
0.2176732262
 40
0.4508319884
 40
0.7104838574
 40
1.0
 40
1.0
 40
1.0
 40
1.0
 10
48.3470219935
 20
35.6388025878
 30
0.0
 10
48.3206465067
 20
35.6540301254
 30
0.0
 10
48.2712719543
 20
35.6955115617
 30
0.0
 10
48.2186722015
 20
35.7814714983
 30
0.0
 10
48.1875198673
 20
35.8874189498
 30
0.0
 10
48.1813229719
 20
35.9645081027
 30
0.0
 10
48.1813229719
 20
36.0050155688
 30
0.0
  0
SPLINE
  5
355
100
AcDbEntity
  8
0
100
AcDbSpline
 62
7
  6
BYLAYER
 70
0
 71
3
 72
11
 73
7
 74
0
 42
0.0000001
 43
0.0000001
 44
0.0000000001
 40
0.0
 40
0.0
 40
0.0
 40
0.0
 40
0.2177456295
 40
0.4508837762
 40
0.7104602913
 40
1.0
 40
1.0
 40
1.0
 40
1.0
 10
54.4488422387
 20
18.134269509
 30
0.0
 10
54.4785234364
 20
18.1171334544
 30
0.0
 10
54.5466982074
 20
18.0923056063
 30
0.0
 10
54.6600351024
 20
18.0894595542
 30
0.0
 10
54.7807632617
 20
18.1186823305
 30
0.0
 10
54.8593420483
 20
18.1560146288
 30
0.0
 10
54.8988094254
 20
18.1788009937
 30
0.0
  0
SPLINE
  5
356
100
AcDbEntity
  8
0
100
AcDbSpline
 62
7
  6
BYLAYER
 70
0
 71
3
 72
15
 73
11
 74
0
 42
0.0000001
 43
0.0000001
 44
0.0000000001
 40
0.0
 40
0.0
 40
0.0
 40
0.0
 40
0.0795044441
 40
0.1660402935
 40
0.2648020407
 40
0.3788457793
 40
0.509566261
 40
0.6572561867
 40
0.8212734574
 40
1.0
 40
1.0
 40
1.0
 40
1.0
 10
31.7907975674
 20
13.3759492358
 30
0.0
 10
31.8179064536
 20
13.4030008128
 30
0.0
 10
31.8846366386
 20
13.4500560075
 30
0.0
 10
32.007777853
 20
13.4887166604
 30
0.0
 10
32.1526357043
 20
13.4985589105
 30
0.0
 10
32.3177504388
 20
13.4804144447
 30
0.0
 10
32.5016832582
 20
13.4349672056
 30
0.0
 10
32.7025046038
 20
13.3627383881
 30
0.0
 10
32.9176544879
 20
13.2646602346
 30
0.0
 10
33.0630242156
 20
13.1861305482
 30
0.0
 10
33.1375829198
 20
13.1430850341
 30
0.0
  0
SPLINE
  5
357
100
AcDbEntity
  8
0
100
AcDbSpline
 62
7
  6
BYLAYER
 70
0
 71
3
 72
9
 73
5
 74
0
 42
0.0000001
 43
0.0000001
 44
0.0000000001
 40
0.0
 40
0.0
 40
0.0
 40
0.0
 40
0.247204563
 40
1.0
 40
1.0
 40
1.0
 40
1.0
 10
39.1661899093
 20
13.9977366269
 30
0.0
 10
39.1602058531
 20
14.0003459038
 30
0.0
 10
39.1356898535
 20
14.0101840712
 30
0.0
 10
39.1100394677
 20
14.0171402162
 30
0.0
 10
39.0905030305
 20
14.0208193853
 30
0.0
  0
SPLINE
  5
358
100
AcDbEntity
  8
0
100
AcDbSpline
 62
7
  6
BYLAYER
 70
0
 71
3
 72
11
 73
7
 74
0
 42
0.0000001
 43
0.0000001
 44
0.0000000001
 40
0.0
 40
0.0
 40
0.0
 40
0.0
 40
0.2056715405
 40
0.378281409
 40
0.5690889054
 40
1.0
 40
1.0
 40
1.0
 40
1.0
 10
39.0905030305
 20
14.0208193853
 30
0.0
 10
39.0422358339
 20
14.0299092299
 30
0.0
 10
38.9498046412
 20
14.0292103437
 30
0.0
 10
38.8180630461
 20
13.99306965
 30
0.0
 10
38.6465104961
 20
13.910209374
 30
0.0
 10
38.5293652688
 20
13.8152900965
 30
0.0
 10
38.4565146167
 20
13.7426122315
 30
0.0
  0
SPLINE
  5
359
100
AcDbEntity
  8
0
100
AcDbSpline
 62
7
  6
BYLAYER
 70
0
 71
3
 72
11
 73
7
 74
0
 42
0.0000001
 43
0.0000001
 44
0.0000000001
 40
0.0
 40
0.0
 40
0.0
 40
0.0
 40
0.2177100932
 40
0.4509650494
 40
0.710919738
 40
1.0
 40
1.0
 40
1.0
 40
1.0
 10
36.8137510219
 20
7.7852735682
 30
0.0
 10
36.8203407283
 20
7.7814568536
 30
0.0
 10
36.8355017418
 20
7.7759495493
 30
0.0
 10
36.8607053092
 20
7.7753319751
 30
0.0
 10
36.8875250256
 20
7.7818644385
 30
0.0
 10
36.9049966409
 20
7.7901307431
 30
0.0
 10
36.9137536032
 20
7.7951865475
 30
0.0
  0
SPLINE
  5
35A
100
AcDbEntity
  8
0
100
AcDbSpline
 62
7
  6
BYLAYER
 70
0
 71
3
 72
11
 73
7
 74
0
 42
0.0000001
 43
0.0000001
 44
0.0000000001
 40
0.0
 40
0.0
 40
0.0
 40
0.0
 40
0.2271385137
 40
0.473316622
 40
0.7337069541
 40
1.0
 40
1.0
 40
1.0
 40
1.0
 10
37.2469080784
 20
85.3111514369
 30
0.0
 10
37.4504385996
 20
85.193645694
 30
0.0
 10
37.8352263503
 20
84.8774678937
 30
0.0
 10
38.2789134027
 20
84.2528403385
 30
0.0
 10
38.5852412526
 20
83.507459383
 30
0.0
 10
38.6825838595
 20
82.9664536428
 30
0.0
 10
38.7025969362
 20
82.6916535836
 30
0.0
  0
SPLINE
  5
35B
100
AcDbEntity
  8
0
100
AcDbSpline
 62
7
  6
BYLAYER
 70
0
 71
3
 72
11
 73
7
 74
0
 42
0.0000001
 43
0.0000001
 44
0.0000000001
 40
0.0
 40
0.0
 40
0.0
 40
0.0
 40
0.2632638004
 40
0.5158589523
 40
0.7601104661
 40
1.0
 40
1.0
 40
1.0
 40
1.0
 10
37.9770656689
 20
79.9709865229
 30
0.0
 10
37.9038292402
 20
79.8771954118
 30
0.0
 10
37.7454085386
 20
79.7043542026
 30
0.0
 10
37.4709365785
 20
79.4945499521
 30
0.0
 10
37.1708412578
 20
79.3454345245
 30
0.0
 10
36.9575380875
 20
79.2890425497
 30
0.0
 10
36.8504217454
 20
79.2722030706
 30
0.0
  0
SPLINE
  5
35C
100
AcDbEntity
  8
0
100
AcDbSpline
 62
7
  6
BYLAYER
 70
0
 71
3
 72
15
 73
11
 74
0
 42
0.0000001
 43
0.0000001
 44
0.0000000001
 40
0.0
 40
0.0
 40
0.0
 40
0.0
 40
0.1395930283
 40
0.2836509333
 40
0.4258760148
 40
0.5617417611
 40
0.688294827
 40
0.8034925517
 40
0.9064776857
 40
1.0
 40
1.0
 40
1.0
 40
1.0
 10
27.7468908391
 20
15.860073839
 30
0.0
 10
27.7927053201
 20
15.9057796573
 30
0.0
 10
27.8832566327
 20
16.0012301615
 30
0.0
 10
28.0116467492
 20
16.1513407703
 30
0.0
 10
28.129657124
 20
16.3076550226
 30
0.0
 10
28.2305773424
 20
16.4661062133
 30
0.0
 10
28.3085485652
 20
16.6232986618
 30
0.0
 10
28.3586663691
 20
16.7759261547
 30
0.0
 10
28.374151734
 20
16.9209600362
 30
0.0
 10
28.359006758
 20
17.0122709348
 30
0.0
 10
28.3455419914
 20
17.0534836331
 30
0.0
  0
SPLINE
  5
35D
100
AcDbEntity
  8
0
100
AcDbSpline
 62
7
  6
BYLAYER
 70
0
 71
3
 72
9
 73
5
 74
0
 42
0.0000001
 43
0.0000001
 44
0.0000000001
 40
0.0
 40
0.0
 40
0.0
 40
0.0
 40
0.2580805706
 40
1.0
 40
1.0
 40
1.0
 40
1.0
 10
28.3507983189
 20
17.0425753032
 30
0.0
 10
28.3490907481
 20
17.0500563461
 30
0.0
 10
28.3413620406
 20
17.0787947075
 30
0.0
 10
28.3306008035
 20
17.106588377
 30
0.0
 10
28.3223059048
 20
17.1270287278
 30
0.0
  0
SPLINE
  5
35E
100
AcDbEntity
  8
0
100
AcDbSpline
 62
7
  6
BYLAYER
 70
0
 71
3
 72
8
 73
4
 74
0
 42
0.0000001
 43
0.0000001
 44
0.0000000001
 40
0.0
 40
0.0
 40
0.0
 40
0.0
 40
1.0
 40
1.0
 40
1.0
 40
1.0
 10
28.3223059048
 20
17.1270287278
 30
0.0
 10
28.3164954936
 20
17.1413467858
 30
0.0
 10
28.3104894636
 20
17.1555880284
 30
0.0
 10
28.3049335507
 20
17.1700067487
 30
0.0
  0
SPLINE
  5
35F
100
AcDbEntity
  8
0
100
AcDbSpline
 62
7
  6
BYLAYER
 70
0
 71
3
 72
9
 73
5
 74
0
 42
0.0000001
 43
0.0000001
 44
0.0000000001
 40
0.0
 40
0.0
 40
0.0
 40
0.0
 40
0.5044182838
 40
1.0
 40
1.0
 40
1.0
 40
1.0
 10
42.1178187568
 20
82.0504029393
 30
0.0
 10
42.1258842202
 20
82.0806475911
 30
0.0
 10
42.143019864
 20
82.1402662341
 30
0.0
 10
42.158223129
 20
82.2005295505
 30
0.0
 10
42.1636835496
 20
82.2307941596
 30
0.0
  0
SPLINE
  5
360
100
AcDbEntity
  8
0
100
AcDbSpline
 62
7
  6
BYLAYER
 70
0
 71
3
 72
13
 73
9
 74
0
 42
0.0000001
 43
0.0000001
 44
0.0000000001
 40
0.0
 40
0.0
 40
0.0
 40
0.0
 40
0.2462432425
 40
0.36959849
 40
0.4961430136
 40
0.6237725869
 40
0.750240891
 40
1.0
 40
1.0
 40
1.0
 40
1.0
 10
41.9231643597
 20
81.3280378633
 30
0.0
 10
41.9282273658
 20
81.3423602062
 30
0.0
 10
41.9319859675
 20
81.3650037573
 30
0.0
 10
41.9390751744
 20
81.3947732275
 30
0.0
 10
41.9462016046
 20
81.4169652298
 30
0.0
 10
41.9537064712
 20
81.4392117237
 30
0.0
 10
41.9628048475
 20
81.4689406628
 30
0.0
 10
41.9687423865
 20
81.4913820004
 30
0.0
 10
41.9727125033
 20
81.5062695269
 30
0.0
  0
SPLINE
  5
361
100
AcDbEntity
  8
0
100
AcDbSpline
 62
7
  6
BYLAYER
 70
0
 71
3
 72
14
 73
10
 74
0
 42
0.0000001
 43
0.0000001
 44
0.0000000001
 40
0.0
 40
0.0
 40
0.0
 40
0.0
 40
0.0995589697
 40
0.2143416859
 40
0.4712987545
 40
0.6061460637
 40
0.7409135914
 40
0.8728375088
 40
1.0
 40
1.0
 40
1.0
 40
1.0
 10
40.8342447781
 20
80.419750627
 30
0.0
 10
40.8826300403
 20
80.4273502796
 30
0.0
 10
40.985222272
 20
80.453907318
 30
0.0
 10
41.2007089268
 20
80.5403563402
 30
0.0
 10
41.4152605586
 20
80.6720473305
 30
0.0
 10
41.6110966614
 20
80.8422509205
 30
0.0
 10
41.7431286941
 20
80.9901332762
 30
0.0
 10
41.8486422166
 20
81.1536254689
 30
0.0
 10
41.8991014143
 20
81.2714815798
 30
0.0
 10
41.9185321606
 20
81.3309455499
 30
0.0
  0
SPLINE
  5
362
100
AcDbEntity
  8
0
100
AcDbSpline
 62
7
  6
BYLAYER
 70
0
 71
3
 72
12
 73
8
 74
0
 42
0.0000001
 43
0.0000001
 44
0.0000000001
 40
0.0
 40
0.0
 40
0.0
 40
0.0
 40
0.1120882579
 40
0.2323430129
 40
0.4885093968
 40
0.7506165555
 40
1.0
 40
1.0
 40
1.0
 40
1.0
 10
21.8862228353
 20
17.037335689
 30
0.0
 10
21.9881483905
 20
16.9784902736
 30
0.0
 10
22.1948041986
 20
16.8484043121
 30
0.0
 10
22.6112830381
 20
16.5485909879
 30
0.0
 10
23.1216672547
 20
16.1117270144
 30
0.0
 10
23.6816401186
 20
15.5305006311
 30
0.0
 10
24.0150830431
 20
15.1078322547
 30
0.0
 10
24.1641804627
 20
14.8925720974
 30
0.0
  0
SPLINE
  5
363
100
AcDbEntity
  8
0
100
AcDbSpline
 62
7
  6
BYLAYER
 70
0
 71
3
 72
11
 73
7
 74
0
 42
0.0000001
 43
0.0000001
 44
0.0000000001
 40
0.0
 40
0.0
 40
0.0
 40
0.0
 40
0.2271385137
 40
0.473316622
 40
0.7337069541
 40
1.0
 40
1.0
 40
1.0
 40
1.0
 10
23.5560234978
 20
59.8046545814
 30
0.0
 10
23.7595540189
 20
59.6871488386
 30
0.0
 10
24.1443417697
 20
59.3709710382
 30
0.0
 10
24.5880288221
 20
58.746343483
 30
0.0
 10
24.894356672
 20
58.0009625275
 30
0.0
 10
24.9916992789
 20
57.4599567873
 30
0.0
 10
25.0117123556
 20
57.1851567281
 30
0.0
  0
SPLINE
  5
364
100
AcDbEntity
  8
0
100
AcDbSpline
 62
7
  6
BYLAYER
 70
0
 71
3
 72
11
 73
7
 74
0
 42
0.0000001
 43
0.0000001
 44
0.0000000001
 40
0.0
 40
0.0
 40
0.0
 40
0.0
 40
0.2632638004
 40
0.5158589523
 40
0.7601104661
 40
1.0
 40
1.0
 40
1.0
 40
1.0
 10
24.2861810883
 20
54.4644896674
 30
0.0
 10
24.2129446596
 20
54.3706985563
 30
0.0
 10
24.054523958
 20
54.1978573471
 30
0.0
 10
23.7800519979
 20
53.9880530966
 30
0.0
 10
23.4799566772
 20
53.838937669
 30
0.0
 10
23.2666535069
 20
53.7825456943
 30
0.0
 10
23.1595371647
 20
53.7657062151
 30
0.0
  0
SPLINE
  5
365
100
AcDbEntity
  8
0
100
AcDbSpline
 62
7
  6
BYLAYER
 70
0
 71
3
 72
10
 73
6
 74
0
 42
0.0000001
 43
0.0000001
 44
0.0000000001
 40
0.0
 40
0.0
 40
0.0
 40
0.0
 40
0.2522506612
 40
0.629854676
 40
1.0
 40
1.0
 40
1.0
 40
1.0
 10
28.4269341762
 20
56.5439060838
 30
0.0
 10
28.4309959743
 20
56.5591374054
 30
0.0
 10
28.4415954293
 20
56.59704688
 30
0.0
 10
28.4582040823
 20
56.6572812854
 30
0.0
 10
28.4689719763
 20
56.7028044338
 30
0.0
 10
28.473079032
 20
56.7255679615
 30
0.0
  0
SPLINE
  5
366
100
AcDbEntity
  8
0
100
AcDbSpline
 62
7
  6
BYLAYER
 70
0
 71
3
 72
13
 73
9
 74
0
 42
0.0000001
 43
0.0000001
 44
0.0000000001
 40
0.0
 40
0.0
 40
0.0
 40
0.0
 40
0.2462432425
 40
0.36959849
 40
0.4961430136
 40
0.6237725869
 40
0.750240891
 40
1.0
 40
1.0
 40
1.0
 40
1.0
 10
28.2322797791
 20
55.8215410079
 30
0.0
 10
28.2373427852
 20
55.8358633508
 30
0.0
 10
28.2411013869
 20
55.8585069019
 30
0.0
 10
28.2481905938
 20
55.8882763721
 30
0.0
 10
28.255317024
 20
55.9104683745
 30
0.0
 10
28.2628218907
 20
55.9327148685
 30
0.0
 10
28.271920267
 20
55.9624438076
 30
0.0
 10
28.277857806
 20
55.9848851453
 30
0.0
 10
28.2818279228
 20
55.9997726718
 30
0.0
  0
SPLINE
  5
367
100
AcDbEntity
  8
0
100
AcDbSpline
 62
7
  6
BYLAYER
 70
0
 71
3
 72
14
 73
10
 74
0
 42
0.0000001
 43
0.0000001
 44
0.0000000001
 40
0.0
 40
0.0
 40
0.0
 40
0.0
 40
0.0995589697
 40
0.2143416859
 40
0.4712987545
 40
0.6061460637
 40
0.7409135914
 40
0.8728375088
 40
1.0
 40
1.0
 40
1.0
 40
1.0
 10
27.1433601975
 20
54.9132537715
 30
0.0
 10
27.1917454597
 20
54.9208534242
 30
0.0
 10
27.2943376914
 20
54.9474104626
 30
0.0
 10
27.5098243462
 20
55.0338594847
 30
0.0
 10
27.724375978
 20
55.165550475
 30
0.0
 10
27.9202120808
 20
55.335754065
 30
0.0
 10
28.0522441135
 20
55.4836364207
 30
0.0
 10
28.157757636
 20
55.6471286134
 30
0.0
 10
28.2082168337
 20
55.7649847243
 30
0.0
 10
28.22764758
 20
55.8244486945
 30
0.0
  0
SPLINE
  5
368
100
AcDbEntity
  8
0
100
AcDbSpline
 62
7
  6
BYLAYER
 70
0
 71
3
 72
11
 73
7
 74
0
 42
0.0000001
 43
0.0000001
 44
0.0000000001
 40
0.0
 40
0.0
 40
0.0
 40
0.0
 40
0.2896460386
 40
0.5491397239
 40
0.7822617023
 40
1.0
 40
1.0
 40
1.0
 40
1.0
 10
19.6033849843
 20
35.0438167236
 30
0.0
 10
19.6033849843
 20
34.9931586712
 30
0.0
 10
19.6110855124
 20
34.8967913678
 30
0.0
 10
19.6500988645
 20
34.7643903266
 30
0.0
 10
19.7157958231
 20
34.6569361105
 30
0.0
 10
19.7775249292
 20
34.6050839843
 30
0.0
 10
19.8105001458
 20
34.5860354437
 30
0.0
  0
SPLINE
  5
369
100
AcDbEntity
  8
0
100
AcDbSpline
 62
7
  6
BYLAYER
 70
0
 71
3
 72
11
 73
7
 74
0
 42
0.0000001
 43
0.0000001
 44
0.0000000001
 40
0.0
 40
0.0
 40
0.0
 40
0.0
 40
0.2177790265
 40
0.4509127526
 40
0.710285809
 40
1.0
 40
1.0
 40
1.0
 40
1.0
 10
50.5248401727
 20
90.6200432165
 30
0.0
 10
50.4588652912
 20
90.6581206956
 30
0.0
 10
50.3072867655
 20
90.7131182722
 30
0.0
 10
50.0555221747
 20
90.7195165226
 30
0.0
 10
49.787193683
 20
90.6547103401
 30
0.0
 10
49.6126194722
 20
90.5716597501
 30
0.0
 10
49.5248596888
 20
90.520991918
 30
0.0
  0
SPLINE
  5
36A
100
AcDbEntity
  8
0
100
AcDbSpline
 62
7
  6
BYLAYER
 70
0
 71
3
 72
10
 73
6
 74
0
 42
0.0000001
 43
0.0000001
 44
0.0000000001
 40
0.0
 40
0.0
 40
0.0
 40
0.0
 40
0.2328700029
 40
0.4869519105
 40
1.0
 40
1.0
 40
1.0
 40
1.0
 10
19.9595226141
 20
36.7154900996
 30
0.0
 10
19.9227355995
 20
36.6920910431
 30
0.0
 10
19.8519349014
 20
36.633268072
 30
0.0
 10
19.7321109885
 20
36.4887604075
 30
0.0
 10
19.6691147019
 20
36.355445782
 30
0.0
 10
19.644364688
 20
36.2626357951
 30
0.0
  0
SPLINE
  5
36B
100
AcDbEntity
  8
0
100
AcDbSpline
 62
7
  6
BYLAYER
 70
0
 71
3
 72
11
 73
7
 74
0
 42
0.0000001
 43
0.0000001
 44
0.0000000001
 40
0.0
 40
0.0
 40
0.0
 40
0.0
 40
0.3044279332
 40
0.5718692413
 40
0.7994522684
 40
1.0
 40
1.0
 40
1.0
 40
1.0
 10
22.0878150797
 20
45.425521243
 30
0.0
 10
22.0769619773
 20
45.3848232337
 30
0.0
 10
22.0632165066
 20
45.3062929361
 30
0.0
 10
22.0685329703
 20
45.1946504067
 30
0.0
 10
22.1023077571
 20
45.102334531
 30
0.0
 10
22.1460474015
 20
45.0586042766
 30
0.0
 10
22.1700561239
 20
45.0446935898
 30
0.0
  0
SPLINE
  5
36C
100
AcDbEntity
  8
0
100
AcDbSpline
 62
7
  6
BYLAYER
 70
0
 71
3
 72
11
 73
7
 74
0
 42
0.0000001
 43
0.0000001
 44
0.0000000001
 40
0.0
 40
0.0
 40
0.0
 40
0.0
 40
0.2177442246
 40
0.4508817658
 40
0.7104588047
 40
1.0
 40
1.0
 40
1.0
 40
1.0
 10
54.0552756748
 20
20.3920252308
 30
0.0
 10
54.0882558669
 20
20.3729845211
 30
0.0
 10
54.1500243111
 20
20.321175519
 30
0.0
 10
54.2157308209
 20
20.2136943515
 30
0.0
 10
54.2546839909
 20
20.0812832341
 30
0.0
 10
54.2624159719
 20
19.9849263987
 30
0.0
 10
54.2624159719
 20
19.9342875397
 30
0.0
  0
SPLINE
  5
36D
100
AcDbEntity
  8
0
100
AcDbSpline
 62
7
  6
BYLAYER
 70
0
 71
3
 72
15
 73
11
 74
0
 42
0.0000001
 43
0.0000001
 44
0.0000000001
 40
0.0
 40
0.0
 40
0.0
 40
0.0
 40
0.0795158501
 40
0.1660241857
 40
0.2648083638
 40
0.3788673752
 40
0.509584233
 40
0.6572068854
 40
0.8211941222
 40
1.0
 40
1.0
 40
1.0
 40
1.0
 10
36.0322088298
 20
8.8933253657
 30
0.0
 10
36.0051001204
 20
8.8662649877
 30
0.0
 10
35.9383252166
 20
8.8192890446
 30
0.0
 10
35.8152190554
 20
8.7805285464
 30
0.0
 10
35.6703353808
 20
8.7707970317
 30
0.0
 10
35.505204958
 20
8.7888829296
 30
0.0
 10
35.3212977602
 20
8.8343568753
 30
0.0
 10
35.1205100514
 20
8.9065353746
 30
0.0
 10
34.9053621222
 20
9.0046112396
 30
0.0
 10
34.7599759208
 20
9.0831648783
 30
0.0
 10
34.6853829566
 20
9.126230172
 30
0.0
  0
SPLINE
  5
36E
100
AcDbEntity
  8
0
100
AcDbSpline
 62
7
  6
BYLAYER
 70
0
 71
3
 72
10
 73
6
 74
0
 42
0.0000001
 43
0.0000001
 44
0.0000000001
 40
0.0
 40
0.0
 40
0.0
 40
0.0
 40
0.4763632215
 40
0.7386458532
 40
1.0
 40
1.0
 40
1.0
 40
1.0
 10
25.7790140731
 20
58.9529767372
 30
0.0
 10
25.7512758792
 20
58.936962179
 30
0.0
 10
25.7142994797
 20
58.9015664286
 30
0.0
 10
25.6765293318
 20
58.8460007409
 30
0.0
 10
25.660711788
 20
58.8142876105
 30
0.0
 10
25.654509934
 20
58.797845707
 30
0.0
  0
SPLINE
  5
36F
100
AcDbEntity
  8
0
100
AcDbSpline
 62
7
  6
BYLAYER
 70
0
 71
3
 72
10
 73
6
 74
0
 42
0.0000001
 43
0.0000001
 44
0.0000000001
 40
0.0
 40
0.0
 40
0.0
 40
0.0
 40
0.2183826989
 40
0.4531032533
 40
1.0
 40
1.0
 40
1.0
 40
1.0
 10
21.0566373084
 20
30.1777169726
 30
0.0
 10
21.0510323476
 20
30.1809529288
 30
0.0
 10
21.0381206991
 20
30.1856553059
 30
0.0
 10
21.008114364
 20
30.1862246558
 30
0.0
 10
20.985667383
 20
30.177387556
 30
0.0
 10
20.9716309093
 20
30.1692836425
 30
0.0
  0
SPLINE
  5
370
100
AcDbEntity
  8
0
100
AcDbSpline
 62
7
  6
BYLAYER
 70
0
 71
3
 72
11
 73
7
 74
0
 42
0.0000001
 43
0.0000001
 44
0.0000000001
 40
0.0
 40
0.0
 40
0.0
 40
0.0
 40
0.3044037062
 40
0.5720462948
 40
0.7994711019
 40
1.0
 40
1.0
 40
1.0
 40
1.0
 10
35.7786996604
 20
70.9320180986
 30
0.0
 10
35.7678485393
 20
70.891327519
 30
0.0
 10
35.7541339631
 20
70.8127708253
 30
0.0
 10
35.7593639665
 20
70.7011699872
 30
0.0
 10
35.7931783081
 20
70.6087493462
 30
0.0
 10
35.8371088624
 20
70.565397949
 30
0.0
 10
35.860999035
 20
70.5512953796
 30
0.0
  0
SPLINE
  5
371
100
AcDbEntity
  8
0
100
AcDbSpline
 62
7
  6
BYLAYER
 70
0
 71
3
 72
10
 73
6
 74
0
 42
0.0000001
 43
0.0000001
 44
0.0000000001
 40
0.0
 40
0.0
 40
0.0
 40
0.0
 40
0.2299515333
 40
0.4834927275
 40
1.0
 40
1.0
 40
1.0
 40
1.0
 10
39.5506912485
 20
84.76243745
 30
0.0
 10
39.5353707604
 20
84.7535922148
 30
0.0
 10
39.5056893636
 20
84.73048971
 30
0.0
 10
39.4552524332
 20
84.6721259809
 30
0.0
 10
39.428356661
 20
84.6174157615
 30
0.0
 10
39.4180090071
 20
84.5790509838
 30
0.0
  0
SPLINE
  5
372
100
AcDbEntity
  8
0
100
AcDbSpline
 62
7
  6
BYLAYER
 70
0
 71
3
 72
9
 73
5
 74
0
 42
0.0000001
 43
0.0000001
 44
0.0000000001
 40
0.0
 40
0.0
 40
0.0
 40
0.0
 40
0.2303930912
 40
1.0
 40
1.0
 40
1.0
 40
1.0
 10
40.9331961751
 20
85.4403300699
 30
0.0
 10
40.889896819
 20
85.4356632218
 30
0.0
 10
40.7032826758
 20
85.4029728907
 30
0.0
 10
40.5264551332
 20
85.3257916327
 30
0.0
 10
40.4004697306
 20
85.2530543608
 30
0.0
  0
SPLINE
  5
373
100
AcDbEntity
  8
0
100
AcDbSpline
 62
7
  6
BYLAYER
 70
0
 71
3
 72
10
 73
6
 74
0
 42
0.0000001
 43
0.0000001
 44
0.0000000001
 40
0.0
 40
0.0
 40
0.0
 40
0.0
 40
0.2706881169
 40
0.5276103624
 40
1.0
 40
1.0
 40
1.0
 40
1.0
 10
44.9286453146
 20
86.8448982936
 30
0.0
 10
44.5957510128
 20
86.6527028261
 30
0.0
 10
43.9309488186
 20
86.3041837987
 30
0.0
 10
42.6174155265
 20
85.7627605688
 30
0.0
 10
41.6001538099
 20
85.5122154332
 30
0.0
 10
40.9331961751
 20
85.4403300699
 30
0.0
  0
SPLINE
  5
374
100
AcDbEntity
  8
0
100
AcDbSpline
 62
7
  6
BYLAYER
 70
0
 71
3
 72
10
 73
6
 74
0
 42
0.0000001
 43
0.0000001
 44
0.0000000001
 40
0.0
 40
0.0
 40
0.0
 40
0.0
 40
0.5186009027
 40
0.7645146541
 40
1.0
 40
1.0
 40
1.0
 40
1.0
 10
48.9240944542
 20
90.0538498034
 30
0.0
 10
48.3104706192
 20
89.4114392531
 30
0.0
 10
47.3474181155
 20
88.5163838484
 30
0.0
 10
45.9748534577
 20
87.4896048143
 30
0.0
 10
45.2779966916
 20
87.0465952012
 30
0.0
 10
44.9286453146
 20
86.8448982936
 30
0.0
  0
SPLINE
  5
375
100
AcDbEntity
  8
0
100
AcDbSpline
 62
7
  6
BYLAYER
 70
0
 71
3
 72
9
 73
5
 74
0
 42
0.0000001
 43
0.0000001
 44
0.0000000001
 40
0.0
 40
0.0
 40
0.0
 40
0.0
 40
0.4812173213
 40
1.0
 40
1.0
 40
1.0
 40
1.0
 10
49.4568210061
 20
90.4817100047
 30
0.0
 10
49.3616671567
 20
90.4267732321
 30
0.0
 10
49.1736575567
 20
90.2954046042
 30
0.0
 10
49.0059109655
 20
90.1395045434
 30
0.0
 10
48.9240944542
 20
90.0538498034
 30
0.0
  0
SPLINE
  5
376
100
AcDbEntity
  8
0
100
AcDbSpline
 62
7
  6
BYLAYER
 70
0
 71
3
 72
11
 73
7
 74
0
 42
0.0000001
 43
0.0000001
 44
0.0000000001
 40
0.0
 40
0.0
 40
0.0
 40
0.0
 40
0.2417244886
 40
0.4869892902
 40
0.7390945824
 40
1.0
 40
1.0
 40
1.0
 40
1.0
 10
23.1595371647
 20
53.7657062151
 30
0.0
 10
23.0642734565
 20
53.7507300575
 30
0.0
 10
22.8691353931
 20
53.738131352
 30
0.0
 10
22.5747887043
 20
53.7724605591
 30
0.0
 10
22.2835105832
 20
53.859078835
 30
0.0
 10
22.0983648792
 20
53.9485228571
 30
0.0
 10
22.008223461
 20
54.0005648518
 30
0.0
  0
SPLINE
  5
377
100
AcDbEntity
  8
0
100
AcDbSpline
 62
7
  6
BYLAYER
 70
0
 71
3
 72
9
 73
5
 74
0
 42
0.0000001
 43
0.0000001
 44
0.0000000001
 40
0.0
 40
0.0
 40
0.0
 40
0.0
 40
0.5278949473
 40
1.0
 40
1.0
 40
1.0
 40
1.0
 10
53.75121966
 20
64.7639828
 30
0.0
 10
53.7586121946
 20
64.7363930995
 30
0.0
 10
53.7799818618
 20
64.685332792
 30
0.0
 10
53.8206037786
 20
64.646571893
 30
0.0
 10
53.84272563
 20
64.633799471
 30
0.0
  0
SPLINE
  5
378
100
AcDbEntity
  8
0
100
AcDbSpline
 62
7
  6
BYLAYER
 70
0
 71
3
 72
13
 73
9
 74
0
 42
0.0000001
 43
0.0000001
 44
0.0000000001
 40
0.0
 40
0.0
 40
0.0
 40
0.0
 40
0.2767631688
 40
0.5334821371
 40
0.6548891598
 40
0.7723580067
 40
0.8869420359
 40
1.0
 40
1.0
 40
1.0
 40
1.0
 10
34.4949429838
 20
83.8650714662
 30
0.0
 10
34.553211232
 20
84.0835713584
 30
0.0
 10
34.709895028
 20
84.4948568934
 30
0.0
 10
35.0208926873
 20
84.9389101235
 30
0.0
 10
35.3214397204
 20
85.212399165
 30
0.0
 10
35.5636445768
 20
85.3720609755
 30
0.0
 10
35.8227546582
 20
85.4865386859
 30
0.0
 10
36.0043355815
 20
85.531682348
 30
0.0
 10
36.0955905284
 20
85.5460342787
 30
0.0
  0
SPLINE
  5
379
100
AcDbEntity
  8
0
100
AcDbSpline
 62
7
  6
BYLAYER
 70
0
 71
3
 72
14
 73
10
 74
0
 42
0.0000001
 43
0.0000001
 44
0.0000000001
 40
0.0
 40
0.0
 40
0.0
 40
0.0
 40
0.1109670412
 40
0.2287017333
 40
0.3524575155
 40
0.4809575783
 40
0.6122608767
 40
0.7441206413
 40
1.0
 40
1.0
 40
1.0
 40
1.0
 10
35.6991080416
 20
79.5070617073
 30
0.0
 10
35.5610985626
 20
79.5867397146
 30
0.0
 10
35.294593781
 20
79.7833786205
 30
0.0
 10
34.950519404
 20
80.1581277264
 30
0.0
 10
34.662240854
 20
80.6073792906
 30
0.0
 10
34.440085553
 20
81.1136657942
 30
0.0
 10
34.2922533221
 20
81.6586644567
 30
0.0
 10
34.2020715545
 20
82.4000191101
 30
0.0
 10
34.2551520425
 20
82.9658802876
 30
0.0
 10
34.3498367304
 20
83.3209380541
 30
0.0
  0
SPLINE
  5
37A
100
AcDbEntity
  8
0
100
AcDbSpline
 62
7
  6
BYLAYER
 70
0
 71
3
 72
14
 73
10
 74
0
 42
0.0000001
 43
0.0000001
 44
0.0000000001
 40
0.0
 40
0.0
 40
0.0
 40
0.0
 40
0.2698588543
 40
0.4078939147
 40
0.5431373677
 40
0.6725601359
 40
0.7931557931
 40
0.9022524884
 40
1.0
 40
1.0
 40
1.0
 40
1.0
 10
27.9306857995
 20
15.7539621697
 30
0.0
 10
28.0210245696
 20
15.8440866745
 30
0.0
 10
28.1402627317
 20
15.9987001554
 30
0.0
 10
28.2619042117
 20
16.2252329395
 30
0.0
 10
28.3323132385
 20
16.4026940828
 30
0.0
 10
28.3788232438
 20
16.5792819256
 30
0.0
 10
28.4001370585
 20
16.7484278499
 30
0.0
 10
28.392433564
 20
16.903993262
 30
0.0
 10
28.367455272
 20
16.9994595918
 30
0.0
 10
28.3507983189
 20
17.0425753032
 30
0.0
  0
SPLINE
  5
37B
100
AcDbEntity
  8
0
100
AcDbSpline
 62
7
  6
BYLAYER
 70
0
 71
3
 72
10
 73
6
 74
0
 42
0.0000001
 43
0.0000001
 44
0.0000000001
 40
0.0
 40
0.0
 40
0.0
 40
0.0
 40
0.4737096016
 40
0.7298873404
 40
1.0
 40
1.0
 40
1.0
 40
1.0
 10
56.5201891135
 20
39.0025882202
 30
0.0
 10
56.1452879299
 20
39.0331683941
 30
0.0
 10
55.5586829549
 20
38.9949794896
 30
0.0
 10
54.7858051179
 20
38.8103955922
 30
0.0
 10
54.3906146613
 20
38.6716024929
 30
0.0
 10
54.1917055885
 20
38.5913688691
 30
0.0
  0
SPLINE
  5
37C
100
AcDbEntity
  8
0
100
AcDbSpline
 62
7
  6
BYLAYER
 70
0
 71
3
 72
11
 73
7
 74
0
 42
0.0000001
 43
0.0000001
 44
0.0000000001
 40
0.0
 40
0.0
 40
0.0
 40
0.0
 40
0.2895411595
 40
0.5491183966
 40
0.7822559144
 40
1.0
 40
1.0
 40
1.0
 40
1.0
 10
54.2624159719
 20
18.5462334306
 30
0.0
 10
54.2624159719
 20
18.5006584639
 30
0.0
 10
54.2693748093
 20
18.4139372968
 30
0.0
 10
54.3044326066
 20
18.2947672499
 30
0.0
 10
54.3635685147
 20
18.1980342267
 30
0.0
 10
54.4191600762
 20
18.1514061207
 30
0.0
 10
54.4488422387
 20
18.134269509
 30
0.0
  0
SPLINE
  5
37D
100
AcDbEntity
  8
0
100
AcDbSpline
 62
7
  6
BYLAYER
 70
0
 71
3
 72
9
 73
5
 74
0
 42
0.0000001
 43
0.0000001
 44
0.0000000001
 40
0.0
 40
0.0
 40
0.0
 40
0.0
 40
0.260996929
 40
1.0
 40
1.0
 40
1.0
 40
1.0
 10
26.4733397092
 20
16.8489676822
 30
0.0
 10
26.513919743
 20
16.819518945
 30
0.0
 10
26.6706986323
 20
16.7085039972
 30
0.0
 10
26.8327135954
 20
16.6047504045
 30
0.0
 10
26.9556622393
 20
16.5337675777
 30
0.0
  0
SPLINE
  5
37E
100
AcDbEntity
  8
0
100
AcDbSpline
 62
7
  6
BYLAYER
 70
0
 71
3
 72
12
 73
8
 74
0
 42
0.0000001
 43
0.0000001
 44
0.0000000001
 40
0.0
 40
0.0
 40
0.0
 40
0.0
 40
0.3169288578
 40
0.5905129228
 40
0.7098286222
 40
0.8174899253
 40
1.0
 40
1.0
 40
1.0
 40
1.0
 10
26.9556622393
 20
16.5337675777
 30
0.0
 10
27.0673815244
 20
16.4692678775
 30
0.0
 10
27.2807167976
 20
16.3576806322
 30
0.0
 10
27.5509499558
 20
16.2528017172
 30
0.0
 10
27.7489477299
 20
16.2031507693
 30
0.0
 10
27.9137545397
 20
16.1786784327
 30
0.0
 10
28.0342577633
 20
16.1813910815
 30
0.0
 10
28.1066825365
 20
16.197925774
 30
0.0
  0
SPLINE
  5
37F
100
AcDbEntity
  8
0
100
AcDbSpline
 62
7
  6
BYLAYER
 70
0
 71
3
 72
14
 73
10
 74
0
 42
0.0000001
 43
0.0000001
 44
0.0000000001
 40
0.0
 40
0.0
 40
0.0
 40
0.0
 40
0.1563334409
 40
0.3051504389
 40
0.5714758585
 40
0.6897297246
 40
0.79904586
 40
0.9014149748
 40
1.0
 40
1.0
 40
1.0
 40
1.0
 10
42.1636835496
 20
82.2307941596
 30
0.0
 10
42.1748982069
 20
82.2727722491
 30
0.0
 10
42.1935782906
 20
82.3556600062
 30
0.0
 10
42.2138642739
 20
82.5132822467
 30
0.0
 10
42.2064291396
 20
82.6636989042
 30
0.0
 10
42.1669873398
 20
82.7957777103
 30
0.0
 10
42.1252674381
 20
82.8781049665
 30
0.0
 10
42.0705309306
 20
82.9456621912
 30
0.0
 10
42.0254582872
 20
82.9797652777
 30
0.0
 10
42.0017276275
 20
82.9934627304
 30
0.0
  0
SPLINE
  5
380
100
AcDbEntity
  8
0
100
AcDbSpline
 62
7
  6
BYLAYER
 70
0
 71
3
 72
10
 73
6
 74
0
 42
0.0000001
 43
0.0000001
 44
0.0000000001
 40
0.0
 40
0.0
 40
0.0
 40
0.0
 40
0.2183826989
 40
0.4531032533
 40
1.0
 40
1.0
 40
1.0
 40
1.0
 10
23.6022111224
 20
23.0332954257
 30
0.0
 10
23.5966061615
 20
23.036531382
 30
0.0
 10
23.583694513
 20
23.0412337591
 30
0.0
 10
23.553688178
 20
23.041803109
 30
0.0
 10
23.5312411969
 20
23.0329660091
 30
0.0
 10
23.5172047233
 20
23.0248620957
 30
0.0
  0
SPLINE
  5
381
100
AcDbEntity
  8
0
100
AcDbSpline
 62
7
  6
BYLAYER
 70
0
 71
3
 72
9
 73
5
 74
0
 42
0.0000001
 43
0.0000001
 44
0.0000000001
 40
0.0
 40
0.0
 40
0.0
 40
0.0
 40
0.4947493109
 40
1.0
 40
1.0
 40
1.0
 40
1.0
 10
38.073838628
 20
81.4200840319
 30
0.0
 10
38.2477289198
 20
81.5741382349
 30
0.0
 10
38.5952504104
 20
81.8899766557
 30
0.0
 10
38.92942163
 20
82.2203695722
 30
0.0
 10
39.0912743522
 20
82.3938332928
 30
0.0
  0
SPLINE
  5
382
100
AcDbEntity
  8
0
100
AcDbSpline
 62
7
  6
BYLAYER
 70
0
 71
3
 72
9
 73
5
 74
0
 42
0.0000001
 43
0.0000001
 44
0.0000000001
 40
0.0
 40
0.0
 40
0.0
 40
0.0
 40
0.2483445681
 40
1.0
 40
1.0
 40
1.0
 40
1.0
 10
39.0912743522
 20
82.3938332928
 30
0.0
 10
39.1109349196
 20
82.414904271
 30
0.0
 10
39.1896721621
 20
82.5001475109
 30
0.0
 10
39.2665154417
 20
82.5871561962
 30
0.0
 10
39.3228016997
 20
82.6537897598
 30
0.0
  0
SPLINE
  5
383
100
AcDbEntity
  8
0
100
AcDbSpline
 62
7
  6
BYLAYER
 70
0
 71
3
 72
10
 73
6
 74
0
 42
0.0000001
 43
0.0000001
 44
0.0000000001
 40
0.0
 40
0.0
 40
0.0
 40
0.0
 40
0.4942918809
 40
0.7486522399
 40
1.0
 40
1.0
 40
1.0
 40
1.0
 10
37.8714760975
 20
83.8740659033
 30
0.0
 10
37.7653283178
 20
83.4760227302
 30
0.0
 10
37.7180027737
 20
82.8377946514
 30
0.0
 10
37.8542858148
 20
82.0137805
 30
0.0
 10
37.9899459875
 20
81.6120302031
 30
0.0
 10
38.073838628
 20
81.4200840319
 30
0.0
  0
SPLINE
  5
384
100
AcDbEntity
  8
0
100
AcDbSpline
 62
7
  6
BYLAYER
 70
0
 71
3
 72
9
 73
5
 74
0
 42
0.0000001
 43
0.0000001
 44
0.0000000001
 40
0.0
 40
0.0
 40
0.0
 40
0.0
 40
0.2527483809
 40
1.0
 40
1.0
 40
1.0
 40
1.0
 10
40.0833509471
 20
81.7357089756
 30
0.0
 10
40.0985238426
 20
81.700993425
 30
0.0
 10
40.1607022319
 20
81.5645923844
 30
0.0
 10
40.2315138685
 20
81.4321039616
 30
0.0
 10
40.2892339833
 20
81.3361092787
 30
0.0
  0
SPLINE
  5
385
100
AcDbEntity
  8
0
100
AcDbSpline
 62
7
  6
BYLAYER
 70
0
 71
3
 72
15
 73
11
 74
0
 42
0.0000001
 43
0.0000001
 44
0.0000000001
 40
0.0
 40
0.0
 40
0.0
 40
0.0
 40
0.098157096
 40
0.2078805593
 40
0.3282527069
 40
0.4574258077
 40
0.5926815524
 40
0.7306292243
 40
0.8675437612
 40
1.0
 40
1.0
 40
1.0
 40
1.0
 10
41.0180397385
 20
80.3136389577
 30
0.0
 10
41.0640415567
 20
80.3208642537
 30
0.0
 10
41.1595592971
 20
80.3491328299
 30
0.0
 10
41.298004491
 20
80.4219802523
 30
0.0
 10
41.4346888447
 20
80.5248758679
 30
0.0
 10
41.5644692961
 20
80.6539555545
 30
0.0
 10
41.6829691772
 20
80.8041294052
 30
0.0
 10
41.7859177106
 20
80.9697477652
 30
0.0
 10
41.8674404399
 20
81.1454604316
 30
0.0
 10
41.9071263823
 20
81.2672816979
 30
0.0
 10
41.9231643597
 20
81.3280378633
 30
0.0
  0
SPLINE
  5
386
100
AcDbEntity
  8
0
100
AcDbSpline
 62
7
  6
BYLAYER
 70
0
 71
3
 72
13
 73
9
 74
0
 42
0.0000001
 43
0.0000001
 44
0.0000000001
 40
0.0
 40
0.0
 40
0.0
 40
0.0
 40
0.3251221881
 40
0.5941561779
 40
0.7090626004
 40
0.8129855844
 40
0.9087013448
 40
1.0
 40
1.0
 40
1.0
 40
1.0
 10
31.7883116085
 20
12.5068458628
 30
0.0
 10
31.7527264334
 20
12.5991966061
 30
0.0
 10
31.6971340116
 20
12.7718678587
 30
0.0
 10
31.6664231614
 20
12.987517815
 30
0.0
 10
31.6762100877
 20
13.1362404273
 30
0.0
 10
31.6982571131
 20
13.2299730337
 30
0.0
 10
31.7356210324
 20
13.3110024475
 30
0.0
 10
31.7711248993
 20
13.3563181566
 30
0.0
 10
31.7907975674
 20
13.3759492358
 30
0.0
  0
SPLINE
  5
387
100
AcDbEntity
  8
0
100
AcDbSpline
 62
7
  6
BYLAYER
 70
0
 71
3
 72
15
 73
11
 74
0
 42
0.0000001
 43
0.0000001
 44
0.0000000001
 40
0.0
 40
0.0
 40
0.0
 40
0.0
 40
0.1189130008
 40
0.248421839
 40
0.3841484378
 40
0.5216478397
 40
0.6562398117
 40
0.7834073784
 40
0.8991631192
 40
1.0
 40
1.0
 40
1.0
 40
1.0
 10
34.6853829566
 20
9.126230172
 30
0.0
 10
34.5434890499
 20
9.2081508039
 30
0.0
 10
34.2560104453
 20
9.3949718599
 30
0.0
 10
33.8364274683
 20
9.7183533011
 30
0.0
 10
33.4218184426
 20
10.0878413749
 30
0.0
 10
33.0279858639
 20
10.489227063
 30
0.0
 10
32.6699077483
 20
10.9074246549
 30
0.0
 10
32.3608791068
 20
11.3265278425
 30
0.0
 10
32.1126431234
 20
11.7305740826
 30
0.0
 10
31.9833739472
 20
12.0006195514
 30
0.0
 10
31.933417862
 20
12.1302657195
 30
0.0
  0
SPLINE
  5
388
100
AcDbEntity
  8
0
100
AcDbSpline
 62
7
  6
BYLAYER
 70
0
 71
3
 72
13
 73
9
 74
0
 42
0.0000001
 43
0.0000001
 44
0.0000000001
 40
0.0
 40
0.0
 40
0.0
 40
0.0
 40
0.3251221881
 40
0.5941561779
 40
0.7090626004
 40
0.8129855844
 40
0.9087013448
 40
1.0
 40
1.0
 40
1.0
 40
1.0
 10
20.5369515241
 20
16.4010965177
 30
0.0
 10
20.5013663489
 20
16.493447261
 30
0.0
 10
20.4457739272
 20
16.6661185136
 30
0.0
 10
20.4150630769
 20
16.8817684699
 30
0.0
 10
20.4248500032
 20
17.0304910822
 30
0.0
 10
20.4468970287
 20
17.1242236886
 30
0.0
 10
20.484260948
 20
17.2052531024
 30
0.0
 10
20.5197648149
 20
17.2505688115
 30
0.0
 10
20.5394374829
 20
17.2701998907
 30
0.0
  0
SPLINE
  5
389
100
AcDbEntity
  8
0
100
AcDbSpline
 62
7
  6
BYLAYER
 70
0
 71
3
 72
15
 73
11
 74
0
 42
0.0000001
 43
0.0000001
 44
0.0000000001
 40
0.0
 40
0.0
 40
0.0
 40
0.0
 40
0.1189130008
 40
0.248421839
 40
0.3841484378
 40
0.5216478397
 40
0.6562398117
 40
0.7834073784
 40
0.8991631192
 40
1.0
 40
1.0
 40
1.0
 40
1.0
 10
23.4340228721
 20
13.0204808269
 30
0.0
 10
23.2921289655
 20
13.1024014588
 30
0.0
 10
23.0046503609
 20
13.2892225148
 30
0.0
 10
22.5850673839
 20
13.612603956
 30
0.0
 10
22.1704583582
 20
13.9820920298
 30
0.0
 10
21.7766257795
 20
14.3834777179
 30
0.0
 10
21.4185476639
 20
14.8016753097
 30
0.0
 10
21.1095190224
 20
15.2207784974
 30
0.0
 10
20.861283039
 20
15.6248247375
 30
0.0
 10
20.7320138627
 20
15.8948702063
 30
0.0
 10
20.6820577775
 20
16.0245163744
 30
0.0
  0
SPLINE
  5
38A
100
AcDbEntity
  8
0
100
AcDbSpline
 62
7
  6
BYLAYER
 70
0
 71
3
 72
11
 73
7
 74
0
 42
0.0000001
 43
0.0000001
 44
0.0000000001
 40
0.0
 40
0.0
 40
0.0
 40
0.0
 40
0.2577346733
 40
0.5195696442
 40
0.7711662814
 40
1.0
 40
1.0
 40
1.0
 40
1.0
 10
22.5715802111
 20
22.0118684701
 30
0.0
 10
22.5075767388
 20
21.9424380457
 30
0.0
 10
22.3913363002
 20
21.7902870327
 30
0.0
 10
22.2581948
 20
21.5396877916
 30
0.0
 10
22.1719771408
 20
21.2804231673
 30
0.0
 10
22.1489587983
 20
21.1042034654
 30
0.0
 10
22.1489587983
 20
21.0203623125
 30
0.0
  0
SPLINE
  5
38B
100
AcDbEntity
  8
0
100
AcDbSpline
 62
7
  6
BYLAYER
 70
0
 71
3
 72
9
 73
5
 74
0
 42
0.0000001
 43
0.0000001
 44
0.0000000001
 40
0.0
 40
0.0
 40
0.0
 40
0.0
 40
0.2389404513
 40
1.0
 40
1.0
 40
1.0
 40
1.0
 10
23.5172047233
 20
23.0248620957
 30
0.0
 10
23.5143935417
 20
23.0232390689
 30
0.0
 10
23.5028360254
 20
23.0160885684
 30
0.0
 10
23.4921110732
 20
23.007628256
 30
0.0
 10
23.4844431577
 20
23.0006926989
 30
0.0
  0
SPLINE
  5
38C
100
AcDbEntity
  8
0
100
AcDbSpline
 62
7
  6
BYLAYER
 70
0
 71
3
 72
11
 73
7
 74
0
 42
0.0000001
 43
0.0000001
 44
0.0000000001
 40
0.0
 40
0.0
 40
0.0
 40
0.0
 40
0.2417244886
 40
0.4869892902
 40
0.7390945824
 40
1.0
 40
1.0
 40
1.0
 40
1.0
 10
36.8504217454
 20
79.2722030706
 30
0.0
 10
36.7551580371
 20
79.2572269129
 30
0.0
 10
36.5600199737
 20
79.2446282075
 30
0.0
 10
36.2656732849
 20
79.2789574146
 30
0.0
 10
35.9743951639
 20
79.3655756905
 30
0.0
 10
35.7892494598
 20
79.4550197126
 30
0.0
 10
35.6991080416
 20
79.5070617073
 30
0.0
  0
SPLINE
  5
38D
100
AcDbEntity
  8
0
100
AcDbSpline
 62
7
  6
BYLAYER
 70
0
 71
3
 72
15
 73
11
 74
0
 42
0.0000001
 43
0.0000001
 44
0.0000000001
 40
0.0
 40
0.0
 40
0.0
 40
0.0
 40
0.0795158501
 40
0.1660241857
 40
0.2648083638
 40
0.3788673752
 40
0.509584233
 40
0.6572068854
 40
0.8211941222
 40
1.0
 40
1.0
 40
1.0
 40
1.0
 10
24.7808487454
 20
12.7875760205
 30
0.0
 10
24.753740036
 20
12.7605156425
 30
0.0
 10
24.6869651321
 20
12.7135396994
 30
0.0
 10
24.5638589709
 20
12.6747792013
 30
0.0
 10
24.4189752964
 20
12.6650476866
 30
0.0
 10
24.2538448735
 20
12.6831335845
 30
0.0
 10
24.0699376757
 20
12.7286075301
 30
0.0
 10
23.869149967
 20
12.8007860294
 30
0.0
 10
23.6540020378
 20
12.8988618944
 30
0.0
 10
23.5086158364
 20
12.9774155331
 30
0.0
 10
23.4340228721
 20
13.0204808269
 30
0.0
  0
SPLINE
  5
38E
100
AcDbEntity
  8
0
100
AcDbSpline
 62
7
  6
BYLAYER
 70
0
 71
3
 72
11
 73
7
 74
0
 42
0.0000001
 43
0.0000001
 44
0.0000000001
 40
0.0
 40
0.0
 40
0.0
 40
0.0
 40
0.2896460386
 40
0.5491397239
 40
0.7822617023
 40
1.0
 40
1.0
 40
1.0
 40
1.0
 10
22.1489587983
 20
27.8993951768
 30
0.0
 10
22.1489587983
 20
27.8487371244
 30
0.0
 10
22.1566593264
 20
27.752369821
 30
0.0
 10
22.1956726785
 20
27.6199687798
 30
0.0
 10
22.2613696371
 20
27.5125145637
 30
0.0
 10
22.3230987431
 20
27.4606624375
 30
0.0
 10
22.3560739597
 20
27.4416138969
 30
0.0
  0
SPLINE
  5
38F
100
AcDbEntity
  8
0
100
AcDbSpline
 62
7
  6
BYLAYER
 70
0
 71
3
 72
11
 73
7
 74
0
 42
0.0000001
 43
0.0000001
 44
0.0000000001
 40
0.0
 40
0.0
 40
0.0
 40
0.0
 40
0.2577346733
 40
0.5195696443
 40
0.7711662814
 40
1.0
 40
1.0
 40
1.0
 40
1.0
 10
20.0260063971
 20
29.1562900167
 30
0.0
 10
19.9620029247
 20
29.0868595924
 30
0.0
 10
19.8457624862
 20
28.9347085794
 30
0.0
 10
19.712620986
 20
28.6841093383
 30
0.0
 10
19.6264033268
 20
28.4248447141
 30
0.0
 10
19.6033849843
 20
28.2486250121
 30
0.0
 10
19.6033849843
 20
28.1647838593
 30
0.0
  0
SPLINE
  5
390
100
AcDbEntity
  8
0
100
AcDbSpline
 62
7
  6
BYLAYER
 70
0
 71
3
 72
12
 73
8
 74
0
 42
0.0000001
 43
0.0000001
 44
0.0000000001
 40
0.0
 40
0.0
 40
0.0
 40
0.0
 40
0.3169402186
 40
0.5905273914
 40
0.7098417262
 40
0.8174997249
 40
1.0
 40
1.0
 40
1.0
 40
1.0
 10
38.2070223237
 20
12.6395169228
 30
0.0
 10
38.3187545969
 20
12.5750097242
 30
0.0
 10
38.5321127597
 20
12.4634115171
 30
0.0
 10
38.8023753276
 20
12.3585282232
 30
0.0
 10
39.0003910066
 20
12.3088829663
 30
0.0
 10
39.1652068528
 20
12.2844212863
 30
0.0
 10
39.2857156233
 20
12.2871477907
 30
0.0
 10
39.3581391769
 20
12.3036967338
 30
0.0
  0
SPLINE
  5
391
100
AcDbEntity
  8
0
100
AcDbSpline
 62
7
  6
BYLAYER
 70
0
 71
3
 72
9
 73
5
 74
0
 42
0.0000001
 43
0.0000001
 44
0.0000000001
 40
0.0
 40
0.0
 40
0.0
 40
0.0
 40
0.260996929
 40
1.0
 40
1.0
 40
1.0
 40
1.0
 10
37.7246997937
 20
12.9547170273
 30
0.0
 10
37.7652798275
 20
12.9252682902
 30
0.0
 10
37.9220587167
 20
12.8142533423
 30
0.0
 10
38.0840736798
 20
12.7104997496
 30
0.0
 10
38.2070223237
 20
12.6395169228
 30
0.0
  0
SPLINE
  5
392
100
AcDbEntity
  8
0
100
AcDbSpline
 62
7
  6
BYLAYER
 70
0
 71
3
 72
13
 73
9
 74
0
 42
0.0000001
 43
0.0000001
 44
0.0000000001
 40
0.0
 40
0.0
 40
0.0
 40
0.0
 40
0.2767631688
 40
0.5334821371
 40
0.6548891598
 40
0.7723580067
 40
0.8869420359
 40
1.0
 40
1.0
 40
1.0
 40
1.0
 10
20.8040584032
 20
58.3585746108
 30
0.0
 10
20.8623266514
 20
58.5770745029
 30
0.0
 10
21.0190104474
 20
58.9883600379
 30
0.0
 10
21.3300081067
 20
59.432413268
 30
0.0
 10
21.6305551398
 20
59.7059023095
 30
0.0
 10
21.8727599962
 20
59.86556412
 30
0.0
 10
22.1318700776
 20
59.9800418304
 30
0.0
 10
22.3134510009
 20
60.0251854925
 30
0.0
 10
22.4047059478
 20
60.0395374233
 30
0.0
  0
SPLINE
  5
393
100
AcDbEntity
  8
0
100
AcDbSpline
 62
7
  6
BYLAYER
 70
0
 71
3
 72
14
 73
10
 74
0
 42
0.0000001
 43
0.0000001
 44
0.0000000001
 40
0.0
 40
0.0
 40
0.0
 40
0.0
 40
0.1109670412
 40
0.2287017333
 40
0.3524575155
 40
0.4809575783
 40
0.6122608767
 40
0.7441206413
 40
1.0
 40
1.0
 40
1.0
 40
1.0
 10
22.008223461
 20
54.0005648518
 30
0.0
 10
21.870213982
 20
54.0802428591
 30
0.0
 10
21.6037092004
 20
54.2768817651
 30
0.0
 10
21.2596348234
 20
54.651630871
 30
0.0
 10
20.9713562734
 20
55.1008824352
 30
0.0
 10
20.7492009724
 20
55.6071689387
 30
0.0
 10
20.6013687415
 20
56.1521676012
 30
0.0
 10
20.5111869739
 20
56.8935222546
 30
0.0
 10
20.5642674619
 20
57.4593834321
 30
0.0
 10
20.6589521498
 20
57.8144411986
 30
0.0
  0
SPLINE
  5
394
100
AcDbEntity
  8
0
100
AcDbSpline
 62
7
  6
BYLAYER
 70
0
 71
3
 72
9
 73
5
 74
0
 42
0.0000001
 43
0.0000001
 44
0.0000000001
 40
0.0
 40
0.0
 40
0.0
 40
0.0
 40
0.2389404513
 40
1.0
 40
1.0
 40
1.0
 40
1.0
 10
20.9716309093
 20
30.1692836425
 30
0.0
 10
20.9688197278
 20
30.1676606157
 30
0.0
 10
20.9572622114
 20
30.1605101152
 30
0.0
 10
20.9465372592
 20
30.1520498028
 30
0.0
 10
20.9388693437
 20
30.1451142457
 30
0.0
  0
SPLINE
  5
395
100
AcDbEntity
  8
0
100
AcDbSpline
 62
7
  6
BYLAYER
 70
0
 71
3
 72
14
 73
10
 74
0
 42
0.0000001
 43
0.0000001
 44
0.0000000001
 40
0.0
 40
0.0
 40
0.0
 40
0.0
 40
0.2697979541
 40
0.4078070359
 40
0.5430367177
 40
0.6724629101
 40
0.7930843844
 40
0.9022265022
 40
1.0
 40
1.0
 40
1.0
 40
1.0
 10
39.1820458839
 20
11.8597115148
 30
0.0
 10
39.2723010865
 20
11.9497526503
 30
0.0
 10
39.3914454233
 20
12.1042083093
 30
0.0
 10
39.5130366398
 20
12.3305092829
 30
0.0
 10
39.5834543912
 20
12.5078035663
 30
0.0
 10
39.6300239813
 20
12.6842501277
 30
0.0
 10
39.6514475749
 20
12.8532948333
 30
0.0
 10
39.6439218696
 20
13.0088021004
 30
0.0
 10
39.6190619828
 20
13.1042674708
 30
0.0
 10
39.6024392036
 20
13.1473748765
 30
0.0
  0
SPLINE
  5
396
100
AcDbEntity
  8
0
100
AcDbSpline
 62
7
  6
BYLAYER
 70
0
 71
3
 72
14
 73
10
 74
0
 42
0.0000001
 43
0.0000001
 44
0.0000000001
 40
0.0
 40
0.0
 40
0.0
 40
0.0
 40
0.1563411965
 40
0.3051416819
 40
0.5714237808
 40
0.6896708578
 40
0.7989953127
 40
0.901385828
 40
1.0
 40
1.0
 40
1.0
 40
1.0
 10
28.473079032
 20
56.7255679615
 30
0.0
 10
28.4842633352
 20
56.7674862371
 30
0.0
 10
28.5028708732
 20
56.8502530635
 30
0.0
 10
28.52299583
 20
57.007632653
 30
0.0
 10
28.5154383324
 20
57.1577881631
 30
0.0
 10
28.4759614108
 20
57.2896189431
 30
0.0
 10
28.4342518785
 20
57.3717962123
 30
0.0
 10
28.3795616208
 20
57.4392356328
 30
0.0
 10
28.3345437725
 20
57.4732858713
 30
0.0
 10
28.3108431008
 20
57.4869659665
 30
0.0
  0
SPLINE
  5
397
100
AcDbEntity
  8
0
100
AcDbSpline
 62
7
  6
BYLAYER
 70
0
 71
3
 72
9
 73
5
 74
0
 42
0.0000001
 43
0.0000001
 44
0.0000000001
 40
0.0
 40
0.0
 40
0.0
 40
0.0
 40
0.4947493109
 40
1.0
 40
1.0
 40
1.0
 40
1.0
 10
24.3829540474
 20
55.9135871764
 30
0.0
 10
24.5568443392
 20
56.0676413794
 30
0.0
 10
24.9043658298
 20
56.3834798002
 30
0.0
 10
25.2385370494
 20
56.7138727168
 30
0.0
 10
25.4003897716
 20
56.8873364373
 30
0.0
  0
SPLINE
  5
398
100
AcDbEntity
  8
0
100
AcDbSpline
 62
7
  6
BYLAYER
 70
0
 71
3
 72
9
 73
5
 74
0
 42
0.0000001
 43
0.0000001
 44
0.0000000001
 40
0.0
 40
0.0
 40
0.0
 40
0.0
 40
0.2483445681
 40
1.0
 40
1.0
 40
1.0
 40
1.0
 10
25.4003897716
 20
56.8873364373
 30
0.0
 10
25.420050339
 20
56.9084074155
 30
0.0
 10
25.4987875814
 20
56.9936506554
 30
0.0
 10
25.5756308611
 20
57.0806593407
 30
0.0
 10
25.6319171191
 20
57.1472929043
 30
0.0
  0
SPLINE
  5
399
100
AcDbEntity
  8
0
100
AcDbSpline
 62
7
  6
BYLAYER
 70
0
 71
3
 72
10
 73
6
 74
0
 42
0.0000001
 43
0.0000001
 44
0.0000000001
 40
0.0
 40
0.0
 40
0.0
 40
0.0
 40
0.4942918809
 40
0.7486522399
 40
1.0
 40
1.0
 40
1.0
 40
1.0
 10
24.1805915169
 20
58.3675690479
 30
0.0
 10
24.0744437372
 20
57.9695258747
 30
0.0
 10
24.0271181931
 20
57.331297796
 30
0.0
 10
24.1634012342
 20
56.5072836445
 30
0.0
 10
24.2990614069
 20
56.1055333477
 30
0.0
 10
24.3829540474
 20
55.9135871764
 30
0.0
  0
SPLINE
  5
39A
100
AcDbEntity
  8
0
100
AcDbSpline
 62
7
  6
BYLAYER
 70
0
 71
3
 72
9
 73
5
 74
0
 42
0.0000001
 43
0.0000001
 44
0.0000000001
 40
0.0
 40
0.0
 40
0.0
 40
0.0
 40
0.2527483809
 40
1.0
 40
1.0
 40
1.0
 40
1.0
 10
26.3924663665
 20
56.2292121201
 30
0.0
 10
26.407639262
 20
56.1944965696
 30
0.0
 10
26.4698176513
 20
56.058095529
 30
0.0
 10
26.5406292879
 20
55.9256071061
 30
0.0
 10
26.5983494027
 20
55.8296124232
 30
0.0
  0
SPLINE
  5
39B
100
AcDbEntity
  8
0
100
AcDbSpline
 62
7
  6
BYLAYER
 70
0
 71
3
 72
15
 73
11
 74
0
 42
0.0000001
 43
0.0000001
 44
0.0000000001
 40
0.0
 40
0.0
 40
0.0
 40
0.0
 40
0.098157096
 40
0.2078805593
 40
0.3282527069
 40
0.4574258077
 40
0.5926815524
 40
0.7306292243
 40
0.8675437612
 40
1.0
 40
1.0
 40
1.0
 40
1.0
 10
27.3271551579
 20
54.8071421022
 30
0.0
 10
27.3731569761
 20
54.8143673982
 30
0.0
 10
27.4686747165
 20
54.8426359744
 30
0.0
 10
27.6071199104
 20
54.9154833968
 30
0.0
 10
27.7438042641
 20
55.0183790124
 30
0.0
 10
27.8735847155
 20
55.147458699
 30
0.0
 10
27.9920845966
 20
55.2976325498
 30
0.0
 10
28.09503313
 20
55.4632509097
 30
0.0
 10
28.1765558593
 20
55.6389635761
 30
0.0
 10
28.2162418017
 20
55.7607848425
 30
0.0
 10
28.2322797791
 20
55.8215410079
 30
0.0
  0
ELLIPSE
  5
39C
100
AcDbEntity
  8
0
100
AcDbEllipse
 62
7
  6
BYLAYER
 10
44.9448496825
 20
83.4790690172
 30
0.0
 11
6.8885324787
 21
3.298954735
 31
0.0
 40
0.2597859461
 41
2.7872817483
 42
3.2520075554
  0
ELLIPSE
  5
39D
100
AcDbEntity
  8
0
100
AcDbEllipse
 62
7
  6
BYLAYER
 10
31.2539651019
 20
57.9725721617
 30
0.0
 11
6.8885324787
 21
3.298954735
 31
0.0
 40
0.2597859461
 41
2.7872817483
 42
3.2520075554
  0
ENDSEC
  0
SECTION
  2
OBJECTS
  0
DICTIONARY
  5
C
100
AcDbDictionary
280
0
281
1
  3
ACAD_GROUP
350
D
  3
ACAD_MLINESTYLE
350
17
  3
ACAD_LAYOUT
350
1A
  3
ACAD_PLOTSETTINGS
350
19
  3
ACAD_PLOTSTYLENAME
350
E
  0
DICTIONARY
  5
D
102
{ACAD_REACTORS
330
C
102
}
100
AcDbDictionary
280
0
281
1
  0
ACDBDICTIONARYWDFLT
  5
E
102
{ACAD_REACTORS
330
C
102
}
100
AcDbDictionary
281
1
  3
Normal
350
F
100
AcDbDictionaryWithDefault
340
F
  0
DICTIONARY
  5
17
102
{ACAD_REACTORS
330
C
102
}
100
AcDbDictionary
280
0
281
1
  3
Standard
350
18
  0
DICTIONARY
  5
19
102
{ACAD_REACTORS
330
C
102
}
100
AcDbDictionary
281
1
  0
DICTIONARY
  5
1A
102
{ACAD_REACTORS
330
C
102
}
100
AcDbDictionary
281
1
  3
Model
350
39E
  3
Layout1
350
39F
  0
ACDBPLACEHOLDER
  5
F
102
{ACAD_REACTORS
330
E
102
}
  0
MLINESTYLE
  5
18
102
{ACAD_REACTORS
330
17
102
}
100
AcDbMlineStyle
  2
STANDARD
 70
0
  3

 62
256
 51
90.0
 52
90.0
 71
2
 49
0.5
 62
256
  6
BYLAYER
 49
-0.5
 62
256
  6
BYLAYER
  0
LAYOUT
  5
39E
102
{ACAD_REACTORS
330
1A
102
}
100
AcDbPlotSettings
  1

  2
none_device
  4

  6

 40
0.0
 41
0.0
 42
0.0
 43
0.0
 44
210.0
 45
297.0
 46
0.0
 47
0.0
 48
0.0
 49
0.0
140
0.0
141
0.0
142
1.0
143
1.0
 70
1024
 72
1
 73
0
 74
0
  7

 75
0
147
1.0
148
0.0
149
0.0
100
AcDbLayout
  1
Model
 70
0
 71
0
 10
0.0
 20
0.0
 11
210.0
 21
297.0
 12
0.0
 22
0.0
 32
0.0
 14
0.0
 24
0.0
 34
0.0
 15
0.0
 25
0.0
 35
0.0
146
0.0
 13
0.0
 23
0.0
 33
0.0
 16
1.0
 26
0.0
 36
0.0
 17
0.0
 27
1.0
 37
0.0
 76
0
330
210
345
0
346
0
  0
LAYOUT
  5
39F
102
{ACAD_REACTORS
330
1A
102
}
100
AcDbPlotSettings
  1

  2
none_device
  4

  6

 40
0.0
 41
0.0
 42
0.0
 43
0.0
 44
210.0
 45
297.0
 46
0.0
 47
0.0
 48
0.0
 49
0.0
140
0.0
141
0.0
142
1.0
143
1.0
 70
0
 72
1
 73
0
 74
0
  7

 75
0
147
1.0
148
0.0
149
0.0
100
AcDbLayout
  1
Layout1
 70
0
 71
1
 10
0.0
 20
0.0
 11
210.0
 21
297.0
 12
0.0
 22
0.0
 32
0.0
 14
0.0
 24
0.0
 34
0.0
 15
0.0
 25
0.0
 35
0.0
146
0.0
 13
0.0
 23
0.0
 33
0.0
 16
1.0
 26
0.0
 36
0.0
 17
0.0
 27
1.0
 37
0.0
 76
0
330
211
345
0
346
0
  0
ENDSEC
  0
EOF
