999
DXF file: C:\Users\sesa63760\Dev\_Creo\CAD\MCADID0004739_3D-CAD\drw0001_5.dxf
999
Pro/ENGINEER 2019471 by Parametric Technology Corporation
  0
SECTION
  2
HEADER
  9
$ACADVER
  1
AC1024
  9
$DWGCODEPAGE
  3
ANSI_1252
  9
$EXTMAX
 10
24.1681096681
 20
34.1806122449
 30
0.0
  9
$EXTMIN
 10
0.0
 20
0.0
 30
0.0
  9
$LIMMIN
 10
0.0
 20
0.0
  9
$LIMMAX
 10
24.1681096681
 20
34.1806122449
  9
$VIEWCTR
 10
12.0840548341
 20
17.0903061224
  9
$VIEWSIZE
 40
34.1806122449
  9
$CLAYER
  8
0
  9
$LTSCALE
 40
2.2280695389
  9
$CELTYPE
  6
BYLAYER
  9
$DIMSCALE
 40
1.0
  9
$DIMASZ
 40
0.2877155913
  9
$DIMEXO
 40
1.0
  9
$DIMDLI
 40
1.5393934996
  9
$DIMEXE
 40
1.0
  9
$DIMCEN
 40
0.3645931973
  9
$DIMLFAC
 40
1.0
  9
$DIMBLK
  1
_FILLED
  9
$DIMALT
 70
0
  9
$DIMALTF
 40
0.0393700787
  9
$DIMTXT
 40
0.4028018278
  9
$DIMTOL
 70
1
  9
$DIMLIM
 70
0
  9
$DIMTFAC
 40
1.0
  9
$DIMTP
 40
0.01
  9
$DIMTM
 40
0.01
  9
$DIMGAP
 40
0.625
  9
$DIMDSEP
 70
46
  9
$AUNITS
 70
0
  9
$PDMODE
 70
3
  9
$PDSIZE
 40
0.3125
  9
$HANDSEED
  5
280
  9
$TILEMODE
 70
1
  9
$MEASUREMENT
 70
1
  9
$INSUNITS
 70
4
  0
ENDSEC
  0
SECTION
  2
CLASSES
  0
CLASS
  1
ACDBDICTIONARYWDFLT
  2
AcDbDictionaryWithDefault
  3
AutoCAD 2000
 90
0
 91
1
280
0
281
0
  0
CLASS
  1
ACDBPLACEHOLDER
  2
AcDbPlaceHolder
  3
AutoCAD 2000
 90
0
 91
1
280
0
281
0
  0
CLASS
  1
LAYOUT
  2
AcDbLayout
  3
AutoCAD 2000
 90
0
 91
0
280
0
281
0
  0
ENDSEC
  0
SECTION
  2
TABLES
  0
TABLE
  2
VPORT
  5
8
100
AcDbSymbolTable
 70
2
  0
VPORT
  5
1F4
100
AcDbSymbolTableRecord
100
AcDbViewportTableRecord
  2
*ACTIVE
 70
0
 10
0.0
 20
0.0
 11
1.0
 21
1.0
 12
12.0840548341
 22
17.0903061224
 13
0.0
 23
0.0
 14
1.0
 24
1.0
 15
0.0
 25
0.0
 16
0.0
 26
0.0
 36
1.0
 17
0.0
 27
0.0
 37
0.0
 40
34.1806122449
 41
0.7070707071
 42
50.0
 43
0.0
 44
0.0
 50
0.0
 51
0.0
 71
0
 72
100
 73
1
 74
1
 75
0
 76
0
 77
0
 78
0
  0
ENDTAB
  0
TABLE
  2
LTYPE
  5
5
100
AcDbSymbolTable
 70
6
  0
LTYPE
  5
14
100
AcDbSymbolTableRecord
100
AcDbLinetypeTableRecord
  2
BYBLOCK
 70
0
  3

 72
65
 73
0
 40
0.0
  0
LTYPE
  5
15
100
AcDbSymbolTableRecord
100
AcDbLinetypeTableRecord
  2
BYLAYER
 70
0
  3

 72
65
 73
0
 40
0.0
  0
LTYPE
  5
16
100
AcDbSymbolTableRecord
100
AcDbLinetypeTableRecord
  2
CONTINUOUS
 70
64
  3
Solid line
 72
65
 73
0
 40
0.0
  0
LTYPE
  5
1F5
100
AcDbSymbolTableRecord
100
AcDbLinetypeTableRecord
  2
CENTER
 70
64
  3
____ _ ____ _ ____ _ ____ _ ____ _ ____ _ ____
 72
65
 73
4
 40
0.6
 49
0.375
 74
0
 49
-0.075
 74
0
 49
0.075
 74
0
 49
-0.075
 74
0
  0
LTYPE
  5
1F6
100
AcDbSymbolTableRecord
100
AcDbLinetypeTableRecord
  2
HIDDEN
 70
64
  3
- - - - - - - - - - - - - - - - - - - -
 72
65
 73
2
 40
0.2
 49
0.1
 74
0
 49
-0.1
 74
0
  0
LTYPE
  5
1F7
100
AcDbSymbolTableRecord
100
AcDbLinetypeTableRecord
  2
PHANTOM
 70
64
  3
_____ _ _ _____ _ _ _____ _ _ _____
 72
65
 73
6
 40
0.8
 49
0.45
 74
0
 49
-0.05
 74
0
 49
0.1
 74
0
 49
-0.05
 74
0
 49
0.1
 74
0
 49
-0.05
 74
0
  0
LTYPE
  5
1F8
100
AcDbSymbolTableRecord
100
AcDbLinetypeTableRecord
  2
DOT
 70
64
  3
. . . . . . . . . . . . . . . . . . . .
 72
65
 73
2
 40
0.2
 49
0.1
 74
0
 49
-0.1
 74
0
  0
LTYPE
  5
1F9
100
AcDbSymbolTableRecord
100
AcDbLinetypeTableRecord
  2
DASHED
 70
64
  3
- - - - - - - - - - - - - - - - - - - -
 72
65
 73
2
 40
0.2
 49
0.1
 74
0
 49
-0.1
 74
0
  0
ENDTAB
  0
TABLE
  2
LAYER
  5
2
100
AcDbSymbolTable
 70
36
  0
LAYER
  5
10
100
AcDbSymbolTableRecord
100
AcDbLayerTableRecord
  2
0
 70
0
 62
7
  6
CONTINUOUS
370
-3
390
F
  0
LAYER
  5
1FA
100
AcDbSymbolTableRecord
100
AcDbLayerTableRecord
  2
DEFAULT_1
 70
0
 62
7
  6
CENTER
370
-3
390
F
  0
LAYER
  5
1FB
100
AcDbSymbolTableRecord
100
AcDbLayerTableRecord
  2
DEFAULT_2
 70
0
 62
7
  6
HIDDEN
370
-3
390
F
  0
LAYER
  5
1FC
100
AcDbSymbolTableRecord
100
AcDbLayerTableRecord
  2
DEFAULT_3
 70
0
 62
7
  6
PHANTOM
370
-3
390
F
  0
LAYER
  5
1FD
100
AcDbSymbolTableRecord
100
AcDbLayerTableRecord
  2
00_COMPONENTS
 70
0
 62
7
  6
CONTINUOUS
370
-3
390
F
  0
LAYER
  5
1FE
100
AcDbSymbolTableRecord
100
AcDbLayerTableRecord
  2
01_1_DEFAULT_DATUMS
 70
0
 62
7
  6
CONTINUOUS
370
-3
390
F
  0
LAYER
  5
1FF
100
AcDbSymbolTableRecord
100
AcDbLayerTableRecord
  2
01_PLANES
 70
0
 62
7
  6
CONTINUOUS
370
-3
390
F
  0
LAYER
  5
200
100
AcDbSymbolTableRecord
100
AcDbLayerTableRecord
  2
02_COORD_SYS
 70
0
 62
7
  6
CONTINUOUS
370
-3
390
F
  0
LAYER
  5
201
100
AcDbSymbolTableRecord
100
AcDbLayerTableRecord
  2
03_AXES
 70
0
 62
7
  6
CONTINUOUS
370
-3
390
F
  0
LAYER
  5
202
100
AcDbSymbolTableRecord
100
AcDbLayerTableRecord
  2
04_POINTS
 70
0
 62
7
  6
CONTINUOUS
370
-3
390
F
  0
LAYER
  5
203
100
AcDbSymbolTableRecord
100
AcDbLayerTableRecord
  2
05_CURVES
 70
0
 62
7
  6
CONTINUOUS
370
-3
390
F
  0
LAYER
  5
204
100
AcDbSymbolTableRecord
100
AcDbLayerTableRecord
  2
06_SURFS
 70
0
 62
7
  6
CONTINUOUS
370
-3
390
F
  0
LAYER
  5
205
100
AcDbSymbolTableRecord
100
AcDbLayerTableRecord
  2
07_COSMETICS
 70
0
 62
7
  6
CONTINUOUS
370
-3
390
F
  0
LAYER
  5
206
100
AcDbSymbolTableRecord
100
AcDbLayerTableRecord
  2
10_NOTES
 70
0
 62
7
  6
CONTINUOUS
370
-3
390
F
  0
LAYER
  5
207
100
AcDbSymbolTableRecord
100
AcDbLayerTableRecord
  2
11_NOTES_PUB
 70
0
 62
7
  6
CONTINUOUS
370
-3
390
F
  0
LAYER
  5
208
100
AcDbSymbolTableRecord
100
AcDbLayerTableRecord
  2
13_REF_GTOL
 70
0
 62
7
  6
CONTINUOUS
370
-3
390
F
  0
LAYER
  5
209
100
AcDbSymbolTableRecord
100
AcDbLayerTableRecord
  2
16_MISC
 70
0
 62
7
  6
CONTINUOUS
370
-3
390
F
  0
LAYER
  5
20A
100
AcDbSymbolTableRecord
100
AcDbLayerTableRecord
  2
17_NO_PRINT
 70
0
 62
7
  6
CONTINUOUS
370
-3
390
F
  0
LAYER
  5
20B
100
AcDbSymbolTableRecord
100
AcDbLayerTableRecord
  2
18_DATUM_CAMS_JOINTS
 70
0
 62
7
  6
CONTINUOUS
370
-3
390
F
  0
LAYER
  5
20C
100
AcDbSymbolTableRecord
100
AcDbLayerTableRecord
  2
19_DATUM_FUNCTIONAL
 70
0
 62
7
  6
CONTINUOUS
370
-3
390
F
  0
LAYER
  5
20D
100
AcDbSymbolTableRecord
100
AcDbLayerTableRecord
  2
20_DATUM_KINEMATIC_SCHEME
 70
0
 62
7
  6
CONTINUOUS
370
-3
390
F
  0
ENDTAB
  0
TABLE
  2
STYLE
  5
3
100
AcDbSymbolTable
 70
1
  0
STYLE
  5
11
100
AcDbSymbolTableRecord
100
AcDbTextStyleTableRecord
  2
STANDARD
 70
0
 40
0.0
 41
1.0
 50
0.0
 71
0
 42
0.2
  3
ARIAL.TTF
  4

  0
STYLE
  5
20E
100
AcDbSymbolTableRecord
100
AcDbTextStyleTableRecord
  2
TEXTSTYLE_1
 70
0
 40
0.0
 41
0.8
 50
0.0
 71
0
 42
0.2
  3
gdt
  4

  0
ENDTAB
  0
TABLE
  2
VIEW
  5
6
100
AcDbSymbolTable
 70
0
  0
ENDTAB
  0
TABLE
  2
UCS
  5
7
100
AcDbSymbolTable
 70
0
  0
ENDTAB
  0
TABLE
  2
APPID
  5
9
100
AcDbSymbolTable
 70
1
  0
APPID
  5
20F
100
AcDbSymbolTableRecord
100
AcDbRegAppTableRecord
  2
ACAD
 70
0
  0
ENDTAB
  0
TABLE
  2
BLOCK_RECORD
  5
1
100
AcDbSymbolTable
 70
0
  0
BLOCK_RECORD
  5
210
100
AcDbSymbolTableRecord
100
AcDbBlockTableRecord
  2
*Model_Space
  0
BLOCK_RECORD
  5
211
100
AcDbSymbolTableRecord
100
AcDbBlockTableRecord
  2
*Paper_Space
  0
BLOCK_RECORD
  5
212
100
AcDbSymbolTableRecord
100
AcDbBlockTableRecord
  2
_FILLED
  0
ENDTAB
  0
TABLE
  2
DIMSTYLE
  5
A
100
AcDbSymbolTable
 70
1
100
AcDbDimStyleTable
 71
0
  0
DIMSTYLE
105
213
100
AcDbSymbolTableRecord
100
AcDbDimStyleTableRecord
  2
STANDARD
 70
0
  3

  4

 40
1.0
 41
0.2877155913
 42
1.0
 43
0.38
 44
1.0
 45
0.0
 46
0.0
 47
0.01
 48
0.01
140
0.4028018278
141
0.09
142
0.0
143
25.4
144
1.0
145
0.0
146
1.0
147
0.625
 71
1
 72
0
 73
0
 74
0
 75
0
 76
0
 77
1
 78
8
 79
2
170
0
171
1
172
0
173
0
174
0
175
0
176
0
177
0
178
0
270
2
179
2
271
2
272
2
273
2
274
2
275
0
280
0
281
0
282
0
283
1
284
8
285
0
286
0
287
3
288
0
340
11
278
46
341
212
342
212
343
212
344
212
  0
ENDTAB
  0
ENDSEC
  0
SECTION
  2
BLOCKS
  0
BLOCK
  5
20
100
AcDbEntity
  8
0
100
AcDbBlockBegin
  2
*Model_Space
 70
0
 10
0.0
 20
0.0
 30
0.0
  3
*Model_Space
  1

  0
ENDBLK
  5
21
100
AcDbEntity
  8
0
100
AcDbBlockEnd
  0
BLOCK
  5
1C
100
AcDbEntity
  8
0
100
AcDbBlockBegin
  2
*Paper_Space
 70
0
 10
0.0
 20
0.0
 30
0.0
  3
*Paper_Space
  1

  0
ENDBLK
  5
1D
100
AcDbEntity
  8
0
100
AcDbBlockEnd
  0
BLOCK
  5
214
100
AcDbEntity
  8
0
100
AcDbBlockBegin
  2
_FILLED
 70
64
 10
0.0
 20
0.0
  3
_FILLED
  1

  0
SOLID
  5
215
100
AcDbEntity
  8
0
  6
BYBLOCK
 62
0
100
AcDbTrace
 10
0.0
 20
0.0
 11
-1.0
 21
0.25
 12
-1.0
 22
-0.25
 13
-1.0
 23
-0.25
  0
ENDBLK
  5
216
100
AcDbEntity
  8
0
  6
BYBLOCK
 62
0
100
AcDbBlockEnd
  0
ENDSEC
  0
SECTION
  2
ENTITIES
  0
LINE
  5
217
100
AcDbEntity
  8
0
100
AcDbLine
 62
7
  6
BYLAYER
 10
18.2687330992
 20
2.7821428571
 11
6.5688008339
 21
2.7821428571
  0
LINE
  5
218
100
AcDbEntity
  8
0
100
AcDbLine
 62
7
  6
BYLAYER
 10
18.6187433455
 20
3.2821428571
 11
6.2187433455
 21
3.2821428571
  0
LINE
  5
219
100
AcDbEntity
  8
0
100
AcDbLine
 62
7
  6
BYLAYER
 10
6.2187433455
 20
5.2821428571
 11
18.6187433455
 21
5.2821428571
  0
LINE
  5
21A
100
AcDbEntity
  8
0
100
AcDbLine
 62
7
  6
BYLAYER
 10
18.4187433455
 20
5.4821428571
 11
6.4187433455
 21
5.4821428571
  0
LINE
  5
21B
100
AcDbEntity
  8
0
100
AcDbLine
 62
7
  6
BYLAYER
 10
18.6187433455
 20
6.4821428571
 11
6.2187433455
 21
6.4821428571
  0
LINE
  5
21C
100
AcDbEntity
  8
0
100
AcDbLine
 62
7
  6
BYLAYER
 10
6.2187433455
 20
7.6321428571
 11
18.6187433455
 21
7.6321428571
  0
LINE
  5
21D
100
AcDbEntity
  8
0
100
AcDbLine
 62
7
  6
BYLAYER
 10
4.4687433455
 20
11.0821428571
 11
4.4687433455
 21
12.1321426149
  0
LINE
  5
21E
100
AcDbEntity
  8
0
100
AcDbLine
 62
7
  6
BYLAYER
 10
18.9687433455
 20
8.9721428571
 11
5.8687433455
 21
8.9721428571
  0
LINE
  5
21F
100
AcDbEntity
  8
0
100
AcDbLine
 62
7
  6
BYLAYER
 10
5.8687433455
 20
11.0821428571
 11
5.8687433455
 21
8.9721428571
  0
LINE
  5
220
100
AcDbEntity
  8
0
100
AcDbLine
 62
7
  6
BYLAYER
 10
6.6346011498
 20
20.1925807409
 11
7.5944219546
 21
22.1948086605
  0
LINE
  5
221
100
AcDbEntity
  8
0
100
AcDbLine
 62
7
  6
BYLAYER
 10
6.6247703107
 20
20.0628985464
 11
7.6333955632
 21
22.0651264659
  0
LINE
  5
222
100
AcDbEntity
  8
0
100
AcDbLine
 62
7
  6
BYLAYER
 10
6.2187433455
 20
7.6321428571
 11
6.2187433455
 21
6.4821428571
  0
LINE
  5
223
100
AcDbEntity
  8
0
100
AcDbLine
 62
7
  6
BYLAYER
 10
6.2187433455
 20
5.2821428571
 11
6.2187433455
 21
2.9251125744
  0
LINE
  5
224
100
AcDbEntity
  8
0
100
AcDbLine
 62
7
  6
BYLAYER
 10
6.3687433455
 20
16.2821428571
 11
6.3687433455
 21
12.5821428571
  0
LINE
  5
225
100
AcDbEntity
  8
0
100
AcDbLine
 62
7
  6
BYLAYER
 10
6.6051238446
 20
20.0628985463
 11
6.6051238446
 21
16.2821428571
  0
LINE
  5
226
100
AcDbEntity
  8
0
100
AcDbLine
 62
7
  6
BYLAYER
 10
6.6247703107
 20
20.0628985464
 11
6.6247703107
 21
16.2821428571
  0
LINE
  5
227
100
AcDbEntity
  8
0
100
AcDbLine
 62
7
  6
BYLAYER
 10
6.9687433455
 20
8.9721428571
 11
6.9687433455
 21
7.6321428571
  0
LINE
  5
228
100
AcDbEntity
  8
0
100
AcDbLine
 62
7
  6
BYLAYER
 10
20.3687433455
 20
11.0821428571
 11
4.4687433455
 21
11.0821428571
  0
LINE
  5
229
100
AcDbEntity
  8
0
100
AcDbLine
 62
7
  6
BYLAYER
 10
4.4687433455
 20
12.0821428571
 11
20.3687433455
 21
12.0821428571
  0
LINE
  5
22A
100
AcDbEntity
  8
0
100
AcDbLine
 62
7
  6
BYLAYER
 10
4.9187442105
 20
12.5821428571
 11
19.9187433455
 21
12.5821428571
  0
LINE
  5
22B
100
AcDbEntity
  8
0
100
AcDbLine
 62
7
  6
BYLAYER
 10
9.341091495
 20
11.0821428571
 11
9.3410914869
 21
8.9721428571
  0
LINE
  5
22C
100
AcDbEntity
  8
0
100
AcDbLine
 62
7
  6
BYLAYER
 10
9.3757618187
 20
11.0821428571
 11
9.3757618187
 21
8.9721428571
  0
LINE
  5
22D
100
AcDbEntity
  8
0
100
AcDbLine
 62
7
  6
BYLAYER
 10
9.3876544322
 20
28.1821438832
 11
9.3876544322
 21
24.2689645666
  0
LINE
  5
22E
100
AcDbEntity
  8
0
100
AcDbLine
 62
7
  6
BYLAYER
 10
9.8007464037
 20
8.9721428571
 11
9.8007464037
 21
11.0821428571
  0
LINE
  5
22F
100
AcDbEntity
  8
0
100
AcDbLine
 62
7
  6
BYLAYER
 10
4.9187433455
 20
12.5821428571
 11
4.4687433455
 21
12.1321428571
  0
LINE
  5
230
100
AcDbEntity
  8
0
100
AcDbLine
 62
7
  6
BYLAYER
 10
10.3867620601
 20
11.0821428571
 11
10.3867670237
 21
8.9721428571
  0
LINE
  5
231
100
AcDbEntity
  8
0
100
AcDbLine
 62
7
  6
BYLAYER
 10
10.9862716223
 20
11.0821428571
 11
10.9862715761
 21
8.9721428571
  0
LINE
  5
232
100
AcDbEntity
  8
0
100
AcDbLine
 62
7
  6
BYLAYER
 10
11.2252838606
 20
11.0821428571
 11
11.2252838606
 21
8.9721428571
  0
LINE
  5
233
100
AcDbEntity
  8
0
100
AcDbLine
 62
7
  6
BYLAYER
 10
12.5750267054
 20
26.5684698349
 11
12.634238772
 21
26.9042781517
  0
LINE
  5
234
100
AcDbEntity
  8
0
100
AcDbLine
 62
7
  6
BYLAYER
 10
11.6813484968
 20
8.9721428571
 11
11.6813484968
 21
11.0821428571
  0
LINE
  5
235
100
AcDbEntity
  8
0
100
AcDbLine
 62
7
  6
BYLAYER
 10
12.1084143606
 20
11.0821428571
 11
12.1084180344
 21
8.9721428571
  0
LINE
  5
236
100
AcDbEntity
  8
0
100
AcDbLine
 62
7
  6
BYLAYER
 10
6.3687433455
 20
16.2821428571
 11
6.6247703107
 21
16.2821428571
  0
LINE
  5
237
100
AcDbEntity
  8
0
100
AcDbLine
 62
7
  6
BYLAYER
 10
18.2127163803
 20
16.2821428571
 11
18.4687433455
 21
16.2821428571
  0
LINE
  5
238
100
AcDbEntity
  8
0
100
AcDbLine
 62
7
  6
BYLAYER
 10
12.7290723303
 20
11.0821428571
 11
12.7290722617
 21
8.9721428571
  0
LINE
  5
239
100
AcDbEntity
  8
0
100
AcDbLine
 62
7
  6
BYLAYER
 10
13.1561381941
 20
11.0821428571
 11
13.1561381941
 21
8.9721428571
  0
LINE
  5
23A
100
AcDbEntity
  8
0
100
AcDbLine
 62
7
  6
BYLAYER
 10
13.6122028303
 20
8.9721428571
 11
13.6122028303
 21
11.0821428571
  0
LINE
  5
23B
100
AcDbEntity
  8
0
100
AcDbLine
 62
7
  6
BYLAYER
 10
13.8512150686
 20
11.0821428571
 11
13.8512171543
 21
8.9721428571
  0
LINE
  5
23C
100
AcDbEntity
  8
0
100
AcDbLine
 62
7
  6
BYLAYER
 10
14.4507246308
 20
11.0821428571
 11
14.4507245525
 21
8.9721428571
  0
LINE
  5
23D
100
AcDbEntity
  8
0
100
AcDbLine
 62
7
  6
BYLAYER
 10
19.9187433455
 20
12.5821428571
 11
20.3687606935
 21
12.1321255091
  0
LINE
  5
23E
100
AcDbEntity
  8
0
100
AcDbLine
 62
7
  6
BYLAYER
 10
12.2624599856
 20
26.5684698349
 11
12.203247919
 21
26.9042781517
  0
LINE
  5
23F
100
AcDbEntity
  8
0
100
AcDbLine
 62
7
  6
BYLAYER
 10
15.0367402873
 20
11.0821428571
 11
15.0367402873
 21
8.9721428571
  0
LINE
  5
240
100
AcDbEntity
  8
0
100
AcDbLine
 62
7
  6
BYLAYER
 10
15.4498322587
 20
24.2689576794
 11
15.4498322587
 21
28.1821438821
  0
LINE
  5
241
100
AcDbEntity
  8
0
100
AcDbLine
 62
7
  6
BYLAYER
 10
15.4617248722
 20
8.9721428571
 11
15.4617248722
 21
11.0821428571
  0
LINE
  5
242
100
AcDbEntity
  8
0
100
AcDbLine
 62
7
  6
BYLAYER
 10
15.4963951959
 20
11.0821428571
 11
15.4963955025
 21
8.9721428571
  0
LINE
  5
243
100
AcDbEntity
  8
0
100
AcDbLine
 62
7
  6
BYLAYER
 10
6.6051238446
 20
20.0628985463
 11
6.6247703107
 21
20.0628985463
  0
LINE
  5
244
100
AcDbEntity
  8
0
100
AcDbLine
 62
7
  6
BYLAYER
 10
18.2127163803
 20
20.0628985463
 11
18.2323628463
 21
20.0628985463
  0
LINE
  5
245
100
AcDbEntity
  8
0
100
AcDbLine
 62
7
  6
BYLAYER
 10
17.8687433455
 20
7.6321428571
 11
17.8687433455
 21
8.9721428571
  0
LINE
  5
246
100
AcDbEntity
  8
0
100
AcDbLine
 62
7
  6
BYLAYER
 10
18.2127163803
 20
16.2821428571
 11
18.2127163803
 21
20.0628985464
  0
LINE
  5
247
100
AcDbEntity
  8
0
100
AcDbLine
 62
7
  6
BYLAYER
 10
18.2323628463
 20
16.2821428571
 11
18.2323628463
 21
20.0628985463
  0
LINE
  5
248
100
AcDbEntity
  8
0
100
AcDbLine
 62
7
  6
BYLAYER
 10
18.4687433455
 20
12.5821428571
 11
18.4687433455
 21
16.2821428571
  0
LINE
  5
249
100
AcDbEntity
  8
0
100
AcDbLine
 62
7
  6
BYLAYER
 10
18.6187433455
 20
2.9251125744
 11
18.6187433455
 21
5.2821428571
  0
LINE
  5
24A
100
AcDbEntity
  8
0
100
AcDbLine
 62
7
  6
BYLAYER
 10
18.6187433455
 20
6.4821428571
 11
18.6187433455
 21
7.6321428571
  0
LINE
  5
24B
100
AcDbEntity
  8
0
100
AcDbLine
 62
7
  6
BYLAYER
 10
18.9687433455
 20
8.9721428571
 11
18.9687433455
 21
11.0821428571
  0
LINE
  5
24C
100
AcDbEntity
  8
0
100
AcDbLine
 62
7
  6
BYLAYER
 10
17.2040911278
 20
22.0651264659
 11
18.2127163803
 21
20.0628985464
  0
LINE
  5
24D
100
AcDbEntity
  8
0
100
AcDbLine
 62
7
  6
BYLAYER
 10
17.2430647364
 20
22.1948086604
 11
18.2028855411
 21
20.1925807409
  0
LINE
  5
24E
100
AcDbEntity
  8
0
100
AcDbLine
 62
7
  6
BYLAYER
 10
9.3204626697
 20
23.9821428571
 11
10.7906899597
 21
23.9821428571
  0
LINE
  5
24F
100
AcDbEntity
  8
0
100
AcDbLine
 62
7
  6
BYLAYER
 10
14.0467422619
 20
23.9821428571
 11
15.5169591435
 21
23.9821428571
  0
LINE
  5
250
100
AcDbEntity
  8
0
100
AcDbLine
 62
7
  6
BYLAYER
 10
9.4704387479
 20
24.2821428571
 11
10.869550007
 21
24.2821428571
  0
LINE
  5
251
100
AcDbEntity
  8
0
100
AcDbLine
 62
7
  6
BYLAYER
 10
13.967936684
 20
24.2821428571
 11
15.367047943
 21
24.2821428571
  0
LINE
  5
252
100
AcDbEntity
  8
0
100
AcDbLine
 62
7
  6
BYLAYER
 10
20.3687433455
 20
11.0821428571
 11
20.3687433455
 21
12.1321081611
  0
LINE
  5
253
100
AcDbEntity
  8
0
100
AcDbLine
 62
7
  6
BYLAYER
 10
9.3876544322
 20
28.1821428571
 11
15.4498322587
 21
28.1821428571
  0
LINE
  5
254
100
AcDbEntity
  8
0
100
AcDbLine
 62
7
  6
BYLAYER
 10
9.6209763788
 20
28.3821428571
 11
15.2165103122
 21
28.3821428571
  0
ARC
  5
255
100
AcDbEntity
  8
0
100
AcDbCircle
 62
7
  6
BYLAYER
 10
-3.7069383135
 20
6.0701235779
 40
29.2561668831
100
AcDbArc
 50
49.0959473923
 51
49.6977816547
  0
ARC
  5
256
100
AcDbEntity
  8
0
100
AcDbCircle
 62
7
  6
BYLAYER
 10
6.4187433455
 20
5.9821428571
 40
0.5
100
AcDbArc
 50
90.0
 51
270.0
  0
ARC
  5
257
100
AcDbEntity
  8
0
100
AcDbCircle
 62
7
  6
BYLAYER
 10
6.5687433455
 20
3.2821428571
 40
0.5
100
AcDbArc
 50
225.5729959992
 51
270.0
  0
ARC
  5
258
100
AcDbEntity
  8
0
100
AcDbCircle
 62
7
  6
BYLAYER
 10
6.5687433455
 20
5.5821428571
 40
0.3
100
AcDbArc
 50
270.0
 51
342.9963540458
  0
ARC
  5
259
100
AcDbEntity
  8
0
100
AcDbCircle
 62
7
  6
BYLAYER
 10
6.9051238446
 20
20.0628985463
 40
0.3
100
AcDbArc
 50
154.3879644772
 51
180.0
  0
ARC
  5
25A
100
AcDbEntity
  8
0
100
AcDbCircle
 62
7
  6
BYLAYER
 10
10.869550007
 20
23.9821428571
 40
0.3
100
AcDbArc
 50
47.6573945478
 51
90.0
  0
ARC
  5
25B
100
AcDbEntity
  8
0
100
AcDbCircle
 62
7
  6
BYLAYER
 10
9.4704387479
 20
23.9821428571
 40
0.3
100
AcDbArc
 50
90.0
 51
125.7198621142
  0
ARC
  5
25C
100
AcDbEntity
  8
0
100
AcDbCircle
 62
7
  6
BYLAYER
 10
28.544424803
 20
6.0701235521
 40
29.2561667715
100
AcDbArc
 50
130.3022180095
 51
130.9040522752
  0
ARC
  5
25D
100
AcDbEntity
  8
0
100
AcDbCircle
 62
7
  6
BYLAYER
 10
18.4187433455
 20
5.9821428571
 40
0.5
100
AcDbArc
 50
270.0
 51
90.0
  0
ARC
  5
25E
100
AcDbEntity
  8
0
100
AcDbCircle
 62
7
  6
BYLAYER
 10
18.2687433455
 20
3.2821428571
 40
0.5
100
AcDbArc
 50
270.0
 51
314.4270040008
  0
ARC
  5
25F
100
AcDbEntity
  8
0
100
AcDbCircle
 62
7
  6
BYLAYER
 10
18.2687433455
 20
5.5821428571
 40
0.3
100
AcDbArc
 50
197.0036779688
 51
270.0
  0
ARC
  5
260
100
AcDbEntity
  8
0
100
AcDbCircle
 62
7
  6
BYLAYER
 10
12.4187433455
 20
25.6821428571
 40
5.8
100
AcDbArc
 50
325.4266220554
 51
214.5733781578
  0
ARC
  5
261
100
AcDbEntity
  8
0
100
AcDbCircle
 62
7
  6
BYLAYER
 10
12.4187433455
 20
25.6821428571
 40
5.6
100
AcDbArc
 50
326.1290848087
 51
213.8686517612
  0
ARC
  5
262
100
AcDbEntity
  8
0
100
AcDbCircle
 62
7
  6
BYLAYER
 10
12.4187433455
 20
19.8821428571
 40
5.35
100
AcDbArc
 50
25.6119595406
 51
54.2801428238
  0
ARC
  5
263
100
AcDbEntity
  8
0
100
AcDbCircle
 62
7
  6
BYLAYER
 10
12.4187433455
 20
19.8821428571
 40
5.35
100
AcDbArc
 50
125.7198415441
 51
154.3880404589
  0
ARC
  5
264
100
AcDbEntity
  8
0
100
AcDbCircle
 62
7
  6
BYLAYER
 10
12.4187433455
 20
25.6821428571
 40
2.0
100
AcDbArc
 50
227.6573950257
 51
312.3426048989
  0
CIRCLE
  5
265
100
AcDbEntity
  8
0
100
AcDbCircle
 62
7
  6
BYLAYER
 10
12.4187433455
 20
25.6821428571
 40
1.265
  0
ARC
  5
266
100
AcDbEntity
  8
0
100
AcDbCircle
 62
7
  6
BYLAYER
 10
12.4187433455
 20
25.6821428571
 40
1.0340598923
100
AcDbArc
 50
100.0
 51
80.0
  0
ARC
  5
267
100
AcDbEntity
  8
0
100
AcDbCircle
 62
7
  6
BYLAYER
 10
12.4187433455
 20
25.6821428571
 40
0.9
100
AcDbArc
 50
100.0
 51
80.0
  0
ARC
  5
268
100
AcDbEntity
  8
0
100
AcDbCircle
 62
7
  6
BYLAYER
 10
13.967936684
 20
23.9821428571
 40
0.3
100
AcDbArc
 50
90.0
 51
132.3426054522
  0
ARC
  5
269
100
AcDbEntity
  8
0
100
AcDbCircle
 62
7
  6
BYLAYER
 10
17.9323628463
 20
20.0628985463
 40
0.3
100
AcDbArc
 50
0.0
 51
25.6119595412
  0
ARC
  5
26A
100
AcDbEntity
  8
0
100
AcDbCircle
 62
7
  6
BYLAYER
 10
15.367047943
 20
23.9821428571
 40
0.3
100
AcDbArc
 50
54.2802259483
 51
90.0
  0
SPLINE
  5
26B
100
AcDbEntity
  8
0
100
AcDbSpline
 62
7
  6
BYLAYER
 70
0
 71
3
 72
31
 73
27
 74
0
 42
0.0000001
 43
0.0000001
 44
0.0000000001
 40
0.0
 40
0.0
 40
0.0
 40
0.0
 40
0.0315692553
 40
0.0630706654
 40
0.0944580878
 40
0.1257106975
 40
0.1412944889
 40
0.1568494681
 40
0.1878784171
 40
0.2497406547
 40
0.3117360108
 40
0.3741056179
 40
0.4369089204
 40
0.4999999924
 40
0.5630910729
 40
0.6258943855
 40
0.6882639928
 40
0.7502593197
 40
0.8121215115
 40
0.8431504336
 40
0.8587054252
 40
0.8742892292
 40
0.9055418447
 40
0.9369293195
 40
0.9684307526
 40
1.0
 40
1.0
 40
1.0
 40
1.0
 10
12.4187433455
 20
23.8171428571
 30
0.0
 10
12.4747069971
 20
23.8171428571
 30
0.0
 10
12.5866655434
 20
23.8248958621
 30
0.0
 10
12.7510510885
 20
23.8592318472
 30
0.0
 10
12.9089369596
 20
23.9147066649
 30
0.0
 10
13.0333166303
 20
23.9768418799
 30
0.0
 10
13.1275569633
 20
24.0348307729
 30
0.0
 10
13.2180325754
 20
24.0978553291
 30
0.0
 10
13.3664801695
 20
24.2205527378
 30
0.0
 10
13.5501007364
 20
24.427199504
 30
0.0
 10
13.7221118071
 20
24.7108098761
 30
0.0
 10
13.8458029272
 20
25.0202185789
 30
0.0
 10
13.92052745
 20
25.346808293
 30
0.0
 10
13.9455554093
 20
25.6821428316
 30
0.0
 10
13.9205274645
 20
26.0174773896
 30
0.0
 10
13.8458029371
 20
26.3440671377
 30
0.0
 10
13.7221118214
 20
26.6534758055
 30
0.0
 10
13.5501008269
 20
26.937086068
 30
0.0
 10
13.3664804035
 20
27.1437327107
 30
0.0
 10
13.2180329419
 20
27.266430112
 30
0.0
 10
13.1275573433
 20
27.3294546815
 30
0.0
 10
13.0333169882
 20
27.3874436431
 30
0.0
 10
12.9089372124
 20
27.4495789291
 30
0.0
 10
12.7510512204
 20
27.5050538413
 30
0.0
 10
12.5866655553
 20
27.5393898458
 30
0.0
 10
12.474706983
 20
27.5471428571
 30
0.0
 10
12.4187433455
 20
27.5471428571
 30
0.0
  0
SPLINE
  5
26C
100
AcDbEntity
  8
0
100
AcDbSpline
 62
7
  6
BYLAYER
 70
0
 71
3
 72
31
 73
27
 74
0
 42
0.0000001
 43
0.0000001
 44
0.0000000001
 40
0.0
 40
0.0
 40
0.0
 40
0.0
 40
0.0315692248
 40
0.0630706145
 40
0.0944580127
 40
0.1257106323
 40
0.1412944199
 40
0.1568493904
 40
0.1878783596
 40
0.2497406084
 40
0.311735978
 40
0.37410561
 40
0.4369089279
 40
0.500000003
 40
0.5630910763
 40
0.6258943922
 40
0.6882640035
 40
0.7502593496
 40
0.8121215768
 40
0.8431505231
 40
0.858705504
 40
0.874289302
 40
0.9055419302
 40
0.936929365
 40
0.9684307769
 40
1.0
 40
1.0
 40
1.0
 40
1.0
 10
12.4187433455
 20
23.8171428571
 30
0.0
 10
12.3627797479
 20
23.8171428571
 30
0.0
 10
12.2508212911
 20
23.8248958424
 30
0.0
 10
12.0864358747
 20
23.8592317848
 30
0.0
 10
11.9285500385
 20
23.9147065158
 30
0.0
 10
11.8041703882
 20
23.9768417012
 30
0.0
 10
11.7099300402
 20
24.0348305611
 30
0.0
 10
11.6194544063
 20
24.09785511
 30
0.0
 10
11.4710067448
 20
24.220552501
 30
0.0
 10
11.2873860962
 20
24.4271993053
 30
0.0
 10
11.1153749481
 20
24.7108097336
 30
0.0
 10
10.9916837676
 20
25.0202185173
 30
0.0
 10
10.9169592285
 20
25.3468083082
 30
0.0
 10
10.8919312828
 20
25.6821428683
 30
0.0
 10
10.9169592372
 20
26.0174774239
 30
0.0
 10
10.9916837685
 20
26.3440671717
 30
0.0
 10
11.1153749066
 20
26.6534758824
 30
0.0
 10
11.2873859697
 20
26.937086225
 30
0.0
 10
11.4710065086
 20
27.1437329605
 30
0.0
 10
11.6194540842
 20
27.2664303598
 30
0.0
 10
11.7099297013
 20
27.3294549264
 30
0.0
 10
11.8041700758
 20
27.3874438429
 30
0.0
 10
11.9285498045
 20
27.4495790929
 30
0.0
 10
12.0864357429
 20
27.5050538965
 30
0.0
 10
12.250821258
 20
27.539389867
 30
0.0
 10
12.3627797509
 20
27.5471428571
 30
0.0
 10
12.4187433455
 20
27.5471428571
 30
0.0
  0
SPLINE
  5
26D
100
AcDbEntity
  8
0
100
AcDbSpline
 62
7
  6
BYLAYER
 70
0
 71
3
 72
11
 73
7
 74
0
 42
0.0000001
 43
0.0000001
 44
0.0000000001
 40
0.0
 40
0.0
 40
0.0
 40
0.0
 40
0.2613599422
 40
0.5186103533
 40
0.7661717031
 40
1.0
 40
1.0
 40
1.0
 40
1.0
 10
9.3204619287
 20
23.982142289
 30
0.0
 10
9.3204619139
 20
23.9977748806
 30
0.0
 10
9.3217075769
 20
24.0288072331
 30
0.0
 10
9.3271423328
 20
24.0743592387
 30
0.0
 10
9.3360277403
 20
24.1176891663
 30
0.0
 10
9.3443737496
 20
24.1453044147
 30
0.0
 10
9.3491458405
 20
24.1584509462
 30
0.0
  0
SPLINE
  5
26E
100
AcDbEntity
  8
0
100
AcDbSpline
 62
7
  6
BYLAYER
 70
0
 71
3
 72
13
 73
9
 74
0
 42
0.0000001
 43
0.0000001
 44
0.0000000001
 40
0.0
 40
0.0
 40
0.0
 40
0.0
 40
0.3110066745
 40
0.5777322785
 40
0.694934656
 40
0.8027531159
 40
0.9034400934
 40
1.0
 40
1.0
 40
1.0
 40
1.0
 10
9.3491458405
 20
24.1584509462
 30
0.0
 10
9.3556345682
 20
24.1763266039
 30
0.0
 10
9.3701331792
 20
24.2087336061
 30
0.0
 10
9.3951525799
 20
24.243669175
 30
0.0
 10
9.4177129544
 20
24.2637330873
 30
0.0
 10
9.4347734913
 20
24.2742413504
 30
0.0
 10
9.4524312584
 20
24.2806670247
 30
0.0
 10
9.4645340114
 20
24.2821428392
 30
0.0
 10
9.4704382921
 20
24.2821428571
 30
0.0
  0
SPLINE
  5
26F
100
AcDbEntity
  8
0
100
AcDbSpline
 62
7
  6
BYLAYER
 70
0
 71
3
 72
15
 73
11
 74
0
 42
0.0000001
 43
0.0000001
 44
0.0000000001
 40
0.0
 40
0.0
 40
0.0
 40
0.0
 40
0.1287319566
 40
0.2557065084
 40
0.3812505039
 40
0.5056710338
 40
0.6292874451
 40
0.7525431187
 40
0.8759307111
 40
1.0
 40
1.0
 40
1.0
 40
1.0
 10
9.3204793383
 20
23.9821126667
 30
0.0
 10
9.2290940156
 20
23.9195846632
 30
0.0
 10
9.0513757249
 20
23.7897072824
 30
0.0
 10
8.7991251525
 20
23.5798364404
 30
0.0
 10
8.5632385834
 20
23.3570807513
 30
0.0
 10
8.3437254573
 20
23.1221232909
 30
0.0
 10
8.1404855941
 20
22.8755004715
 30
0.0
 10
7.9536726592
 20
22.6173007452
 30
0.0
 10
7.7833279817
 20
22.3475015767
 30
0.0
 10
7.6814076541
 20
22.1604384859
 30
0.0
 10
7.633393088
 20
22.0651309482
 30
0.0
  0
SPLINE
  5
270
100
AcDbEntity
  8
0
100
AcDbSpline
 62
7
  6
BYLAYER
 70
0
 71
3
 72
15
 73
11
 74
0
 42
0.0000001
 43
0.0000001
 44
0.0000000001
 40
0.0
 40
0.0
 40
0.0
 40
0.0
 40
0.1240630718
 40
0.2474448093
 40
0.3706965183
 40
0.494311929
 40
0.6187352591
 40
0.7442844395
 40
0.8712644585
 40
1.0
 40
1.0
 40
1.0
 40
1.0
 10
17.2040946215
 20
22.065135237
 30
0.0
 10
17.1560871393
 20
22.1604429832
 30
0.0
 10
17.0541724975
 20
22.3475030917
 30
0.0
 10
16.8838263711
 20
22.6172932828
 30
0.0
 10
16.6970154554
 20
22.8754914667
 30
0.0
 10
16.4937734733
 20
23.1221193192
 30
0.0
 10
16.2742493798
 20
23.3570845381
 30
0.0
 10
16.0383461827
 20
23.5798498944
 30
0.0
 10
15.7860776691
 20
23.7897296117
 30
0.0
 10
15.6083474034
 20
23.9196120221
 30
0.0
 10
15.5169565943
 20
23.9821417804
 30
0.0
  0
SPLINE
  5
271
100
AcDbEntity
  8
0
100
AcDbSpline
 62
7
  6
BYLAYER
 70
0
 71
3
 72
15
 73
11
 74
0
 42
0.0000001
 43
0.0000001
 44
0.0000000001
 40
0.0
 40
0.0
 40
0.0
 40
0.0
 40
0.0750704444
 40
0.1606812712
 40
0.2626655705
 40
0.3830819104
 40
0.5213298123
 40
0.6736831162
 40
0.8350882825
 40
1.0
 40
1.0
 40
1.0
 40
1.0
 10
9.2952657379
 20
24.2256846475
 30
0.0
 10
9.2899584776
 20
24.2218671614
 30
0.0
 10
9.2800999371
 20
24.211459748
 30
0.0
 10
9.2706135114
 20
24.1902776319
 30
0.0
 10
9.2664404041
 20
24.1635485716
 30
0.0
 10
9.2675124773
 20
24.1320217725
 30
0.0
 10
9.2740185614
 20
24.0967231726
 30
0.0
 10
9.2853609787
 20
24.0589629425
 30
0.0
 10
9.3010274235
 20
24.0202809117
 30
0.0
 10
9.3136677243
 20
23.9947986135
 30
0.0
 10
9.3204862467
 20
23.9821589363
 30
0.0
  0
SPLINE
  5
272
100
AcDbEntity
  8
0
100
AcDbSpline
 62
7
  6
BYLAYER
 70
0
 71
3
 72
9
 73
5
 74
0
 42
0.0000001
 43
0.0000001
 44
0.0000000001
 40
0.0
 40
0.0
 40
0.0
 40
0.0
 40
0.5172693972
 40
1.0
 40
1.0
 40
1.0
 40
1.0
 10
6.6247663203
 20
20.0628985489
 30
0.0
 10
6.6189491894
 20
20.0849131491
 30
0.0
 10
6.6144581797
 20
20.1296077475
 30
0.0
 10
6.6254151257
 20
20.1734194787
 30
0.0
 10
6.6346013204
 20
20.1925810966
 30
0.0
  0
SPLINE
  5
273
100
AcDbEntity
  8
0
100
AcDbSpline
 62
7
  6
BYLAYER
 70
0
 71
3
 72
19
 73
15
 74
0
 42
0.0000001
 43
0.0000001
 44
0.0000000001
 40
0.0
 40
0.0
 40
0.0
 40
0.0
 40
0.1809478238
 40
0.3557742394
 40
0.5177514614
 40
0.6615615456
 40
0.725250777
 40
0.782803303
 40
0.8338996649
 40
0.878438559
 40
0.9165075998
 40
0.9485743301
 40
0.9757520765
 40
1.0
 40
1.0
 40
1.0
 40
1.0
 10
10.7907822441
 20
23.9821428574
 30
0.0
 10
10.7907822441
 20
24.0016419541
 30
0.0
 10
10.7917622902
 20
24.0399875941
 30
0.0
 10
10.7960952052
 20
24.0956404909
 30
0.0
 10
10.8031446504
 20
24.1469812795
 30
0.0
 10
10.8113184873
 20
24.1860006042
 30
0.0
 10
10.8191933354
 20
24.2134683426
 30
0.0
 10
10.8253297892
 20
24.2310098225
 30
0.0
 10
10.8318835098
 20
24.2461797563
 30
0.0
 10
10.8387883223
 20
24.2588546922
 30
0.0
 10
10.8460011391
 20
24.2689402783
 30
0.0
 10
10.8535207485
 20
24.2763507076
 30
0.0
 10
10.8613496134
 20
24.2810170595
 30
0.0
 10
10.8669254902
 20
24.2821428569
 30
0.0
 10
10.8695384678
 20
24.2821428569
 30
0.0
  0
SPLINE
  5
274
100
AcDbEntity
  8
0
100
AcDbSpline
 62
7
  6
BYLAYER
 70
0
 71
3
 72
19
 73
15
 74
0
 42
0.0000001
 43
0.0000001
 44
0.0000000001
 40
0.0
 40
0.0
 40
0.0
 40
0.0
 40
0.0618388383
 40
0.1238788205
 40
0.1861128958
 40
0.2485602584
 40
0.3739873784
 40
0.4999909478
 40
0.5630947163
 40
0.6261187906
 40
0.6889924531
 40
0.751661978
 40
0.8762154354
 40
1.0
 40
1.0
 40
1.0
 40
1.0
 10
10.7906899597
 20
23.9821428571
 30
0.0
 10
10.8458442083
 20
23.9343105594
 30
0.0
 10
10.960844342
 20
23.8435617152
 30
0.0
 10
11.1452096785
 20
23.7235154914
 30
0.0
 10
11.3402819662
 20
23.6201783746
 30
0.0
 10
11.6127951495
 20
23.5056425754
 30
0.0
 10
11.9725088545
 20
23.4083532613
 30
0.0
 10
12.3444502315
 20
23.375664292
 30
0.0
 10
12.6421472027
 20
23.3887215017
 30
0.0
 10
12.8636454499
 20
23.4180661218
 30
0.0
 10
13.0811714544
 20
23.4668092309
 30
0.0
 10
13.3627854627
 20
23.5566217646
 30
0.0
 10
13.6965467007
 20
23.7144510602
 30
0.0
 10
13.9363397111
 20
23.8863941075
 30
0.0
 10
14.0467422619
 20
23.9821428571
 30
0.0
  0
SPLINE
  5
275
100
AcDbEntity
  8
0
100
AcDbSpline
 62
7
  6
BYLAYER
 70
0
 71
3
 72
21
 73
17
 74
0
 42
0.0000001
 43
0.0000001
 44
0.0000000001
 40
0.0
 40
0.0
 40
0.0
 40
0.0
 40
0.0088306132
 40
0.0182779259
 40
0.0288537634
 40
0.0409161392
 40
0.0703105783
 40
0.1074038369
 40
0.1522717208
 40
0.2047222401
 40
0.2643332832
 40
0.33053359
 40
0.4799353142
 40
0.6463886873
 40
0.8225210038
 40
1.0
 40
1.0
 40
1.0
 40
1.0
 10
11.071619445
 20
24.2038813117
 30
0.0
 10
11.0708191759
 20
24.2046102458
 30
0.0
 10
11.0689350654
 20
24.2058845199
 30
0.0
 10
11.0655575325
 20
24.2070382501
 30
0.0
 10
11.061627467
 20
24.2074948631
 30
0.0
 10
11.0552356994
 20
24.2071785082
 30
0.0
 10
11.0458196868
 20
24.2048432688
 30
0.0
 10
11.0331546319
 20
24.1996991317
 30
0.0
 10
11.0185452246
 20
24.1920325914
 30
0.0
 10
11.0021899787
 20
24.1818839623
 30
0.0
 10
10.9842702637
 20
24.1693631273
 30
0.0
 10
10.9574673884
 20
24.148861615
 30
0.0
 10
10.921852921
 20
24.1183996404
 30
0.0
 10
10.8779306927
 20
24.0770451608
 30
0.0
 10
10.8335612435
 20
24.0312344916
 30
0.0
 10
10.8048578002
 20
23.9987320292
 30
0.0
 10
10.7907822441
 20
23.9821428574
 30
0.0
  0
SPLINE
  5
276
100
AcDbEntity
  8
0
100
AcDbSpline
 62
7
  6
BYLAYER
 70
0
 71
3
 72
19
 73
15
 74
0
 42
0.0000001
 43
0.0000001
 44
0.0000000001
 40
0.0
 40
0.0
 40
0.0
 40
0.0
 40
0.1809474128
 40
0.3557778778
 40
0.5177650862
 40
0.6615872607
 40
0.7252831057
 40
0.7828432068
 40
0.8339447791
 40
0.8784851153
 40
0.9165494641
 40
0.9486014217
 40
0.9757607175
 40
1.0
 40
1.0
 40
1.0
 40
1.0
 10
14.0467095005
 20
23.9821250429
 30
0.0
 10
14.0467096214
 20
24.0016249897
 30
0.0
 10
14.0457348396
 20
24.0399728211
 30
0.0
 10
14.0414054881
 20
24.0956302657
 30
0.0
 10
14.0343468672
 20
24.1469752232
 30
0.0
 10
14.026162283
 20
24.1859973975
 30
0.0
 10
14.0182783098
 20
24.2134668321
 30
0.0
 10
14.0121359662
 20
24.2310093671
 30
0.0
 10
14.0055772803
 20
24.2461796371
 30
0.0
 10
13.9986700527
 20
24.2588541435
 30
0.0
 10
13.9914596233
 20
24.2689394567
 30
0.0
 10
13.9839462076
 20
24.276350808
 30
0.0
 10
13.9761223002
 20
24.2810179943
 30
0.0
 10
13.9705488506
 20
24.2821428571
 30
0.0
 10
13.9679366843
 20
24.2821428571
 30
0.0
  0
SPLINE
  5
277
100
AcDbEntity
  8
0
100
AcDbSpline
 62
7
  6
BYLAYER
 70
0
 71
3
 72
19
 73
15
 74
0
 42
0.0000001
 43
0.0000001
 44
0.0000000001
 40
0.0
 40
0.0
 40
0.0
 40
0.0
 40
0.0162552388
 40
0.03669259
 40
0.0638052657
 40
0.0992473847
 40
0.1440007607
 40
0.1978545316
 40
0.2602121761
 40
0.3304130366
 40
0.4900781909
 40
0.6637027041
 40
0.8372310033
 40
1.0
 40
1.0
 40
1.0
 40
1.0
 10
13.7658576462
 20
24.2038699214
 30
0.0
 10
13.7673295719
 20
24.2052127927
 30
0.0
 10
13.7715300782
 20
24.2073085249
 30
0.0
 10
13.7794731545
 20
24.2076637743
 30
0.0
 10
13.7894960259
 20
24.2056035478
 30
0.0
 10
13.8018180357
 20
24.2008913544
 30
0.0
 10
13.8164529446
 20
24.1933773508
 30
0.0
 10
13.8333080234
 20
24.1830972388
 30
0.0
 10
13.8521281
 20
24.1701231558
 30
0.0
 10
13.8806586254
 20
24.148449511
 30
0.0
 10
13.9182089899
 20
24.1162026376
 30
0.0
 10
13.9632400873
 20
24.0733790121
 30
0.0
 10
14.0064838007
 20
24.0282228784
 30
0.0
 10
14.0338022957
 20
23.9973385311
 30
0.0
 10
14.0467098001
 20
23.9821253164
 30
0.0
  0
SPLINE
  5
278
100
AcDbEntity
  8
0
100
AcDbSpline
 62
7
  6
BYLAYER
 70
0
 71
3
 72
14
 73
10
 74
0
 42
0.0000001
 43
0.0000001
 44
0.0000000001
 40
0.0
 40
0.0
 40
0.0
 40
0.0
 40
0.1008097578
 40
0.2057342508
 40
0.3172245292
 40
0.4369297131
 40
0.5657581075
 40
0.7034298131
 40
1.0
 40
1.0
 40
1.0
 40
1.0
 10
7.5944202916
 20
22.1948096261
 30
0.0
 10
7.5923495193
 20
22.1904895527
 30
0.0
 10
7.589151093
 20
22.181147873
 30
0.0
 10
7.5873996827
 20
22.1660785193
 30
0.0
 10
7.5885563878
 20
22.1500640037
 30
0.0
 10
7.592568763
 20
22.1333636915
 30
0.0
 10
7.5993632009
 20
22.1162587367
 30
0.0
 10
7.612015316
 20
22.0926362681
 30
0.0
 10
7.6243069874
 20
22.0759046942
 30
0.0
 10
7.6333929522
 20
22.0651306786
 30
0.0
  0
SPLINE
  5
279
100
AcDbEntity
  8
0
100
AcDbSpline
 62
7
  6
BYLAYER
 70
0
 71
3
 72
13
 73
9
 74
0
 42
0.0000001
 43
0.0000001
 44
0.0000000001
 40
0.0
 40
0.0
 40
0.0
 40
0.0
 40
0.0965633257
 40
0.1972530462
 40
0.3050743687
 40
0.4222787096
 40
0.6889959108
 40
1.0
 40
1.0
 40
1.0
 40
1.0
 10
15.367047943
 20
24.2821428571
 30
0.0
 10
15.3729515054
 20
24.2821428571
 30
0.0
 10
15.3850527337
 20
24.2806674681
 30
0.0
 10
15.4027085005
 20
24.2742433829
 30
0.0
 10
15.4197674287
 20
24.2637376981
 30
0.0
 10
15.4423259712
 20
24.2436791817
 30
0.0
 10
15.4673425842
 20
24.2087501705
 30
0.0
 10
15.4818390618
 20
24.1763495946
 30
0.0
 10
15.488330768
 20
24.1584783644
 30
0.0
  0
SPLINE
  5
27A
100
AcDbEntity
  8
0
100
AcDbSpline
 62
7
  6
BYLAYER
 70
0
 71
3
 72
11
 73
7
 74
0
 42
0.0000001
 43
0.0000001
 44
0.0000000001
 40
0.0
 40
0.0
 40
0.0
 40
0.0
 40
0.2338412531
 40
0.4813987375
 40
0.7386337372
 40
1.0
 40
1.0
 40
1.0
 40
1.0
 10
15.488330768
 20
24.1584783644
 30
0.0
 10
15.4931067237
 20
24.1453304798
 30
0.0
 10
15.5014633043
 20
24.1177139299
 30
0.0
 10
15.510347039
 20
24.0743770326
 30
0.0
 10
15.5157357647
 20
24.0288135989
 30
0.0
 10
15.5169585426
 20
23.9977778566
 30
0.0
 10
15.5169585426
 20
23.9821428571
 30
0.0
  0
SPLINE
  5
27B
100
AcDbEntity
  8
0
100
AcDbSpline
 62
7
  6
BYLAYER
 70
0
 71
3
 72
15
 73
11
 74
0
 42
0.0000001
 43
0.0000001
 44
0.0000000001
 40
0.0
 40
0.0
 40
0.0
 40
0.0
 40
0.0750668215
 40
0.1606753266
 40
0.2626594634
 40
0.3830773614
 40
0.5213282784
 40
0.6736840234
 40
0.8350902248
 40
1.0
 40
1.0
 40
1.0
 40
1.0
 10
15.5422153698
 20
24.2256856213
 30
0.0
 10
15.5475231351
 20
24.2218677899
 30
0.0
 10
15.5573827387
 20
24.2114592442
 30
0.0
 10
15.5668694201
 20
24.190274151
 30
0.0
 10
15.5710417976
 20
24.1635411804
 30
0.0
 10
15.5699678403
 20
24.132009571
 30
0.0
 10
15.5634587558
 20
24.0967057298
 30
0.0
 10
15.552112563
 20
24.0589402035
 30
0.0
 10
15.5364416811
 20
24.0202534391
 30
0.0
 10
15.5237982465
 20
23.99476828
 30
0.0
 10
15.5169781059
 20
23.9821273538
 30
0.0
  0
SPLINE
  5
27C
100
AcDbEntity
  8
0
100
AcDbSpline
 62
7
  6
BYLAYER
 70
0
 71
3
 72
13
 73
9
 74
0
 42
0.0000001
 43
0.0000001
 44
0.0000000001
 40
0.0
 40
0.0
 40
0.0
 40
0.0
 40
0.0966985977
 40
0.1982785053
 40
0.4245792693
 40
0.5534689474
 40
0.6930468126
 40
1.0
 40
1.0
 40
1.0
 40
1.0
 10
17.243064609
 20
22.1948089259
 30
0.0
 10
17.2450497551
 20
22.1906681404
 30
0.0
 10
17.2481757545
 20
22.1816947475
 30
0.0
 10
17.2507761125
 20
22.1615845933
 30
0.0
 10
17.2472553586
 20
22.1396933544
 30
0.0
 10
17.2387983429
 20
22.1177476038
 30
0.0
 10
17.2260781113
 20
22.0935012209
 30
0.0
 10
17.2134898427
 20
22.0762689231
 30
0.0
 10
17.204092462
 20
22.0651258238
 30
0.0
  0
SPLINE
  5
27D
100
AcDbEntity
  8
0
100
AcDbSpline
 62
7
  6
BYLAYER
 70
0
 71
3
 72
9
 73
5
 74
0
 42
0.0000001
 43
0.0000001
 44
0.0000000001
 40
0.0
 40
0.0
 40
0.0
 40
0.0
 40
0.4827303738
 40
1.0
 40
1.0
 40
1.0
 40
1.0
 10
18.2028854981
 20
20.1925808305
 30
0.0
 10
18.212071594
 20
20.1734192279
 30
0.0
 10
18.2230283216
 20
20.1296075373
 30
0.0
 10
18.2185370835
 20
20.0849130574
 30
0.0
 10
18.2127198444
 20
20.0628985266
 30
0.0
  0
ENDSEC
  0
SECTION
  2
OBJECTS
  0
DICTIONARY
  5
C
100
AcDbDictionary
280
0
281
1
  3
ACAD_GROUP
350
D
  3
ACAD_MLINESTYLE
350
17
  3
ACAD_LAYOUT
350
1A
  3
ACAD_PLOTSETTINGS
350
19
  3
ACAD_PLOTSTYLENAME
350
E
  0
DICTIONARY
  5
D
102
{ACAD_REACTORS
330
C
102
}
100
AcDbDictionary
280
0
281
1
  0
ACDBDICTIONARYWDFLT
  5
E
102
{ACAD_REACTORS
330
C
102
}
100
AcDbDictionary
281
1
  3
Normal
350
F
100
AcDbDictionaryWithDefault
340
F
  0
DICTIONARY
  5
17
102
{ACAD_REACTORS
330
C
102
}
100
AcDbDictionary
280
0
281
1
  3
Standard
350
18
  0
DICTIONARY
  5
19
102
{ACAD_REACTORS
330
C
102
}
100
AcDbDictionary
281
1
  0
DICTIONARY
  5
1A
102
{ACAD_REACTORS
330
C
102
}
100
AcDbDictionary
281
1
  3
Model
350
27E
  3
Layout1
350
27F
  0
ACDBPLACEHOLDER
  5
F
102
{ACAD_REACTORS
330
E
102
}
  0
MLINESTYLE
  5
18
102
{ACAD_REACTORS
330
17
102
}
100
AcDbMlineStyle
  2
STANDARD
 70
0
  3

 62
256
 51
90.0
 52
90.0
 71
2
 49
0.5
 62
256
  6
BYLAYER
 49
-0.5
 62
256
  6
BYLAYER
  0
LAYOUT
  5
27E
102
{ACAD_REACTORS
330
1A
102
}
100
AcDbPlotSettings
  1

  2
none_device
  4

  6

 40
0.0
 41
0.0
 42
0.0
 43
0.0
 44
210.0
 45
297.0
 46
0.0
 47
0.0
 48
0.0
 49
0.0
140
0.0
141
0.0
142
1.0
143
1.0
 70
1024
 72
1
 73
0
 74
0
  7

 75
0
147
1.0
148
0.0
149
0.0
100
AcDbLayout
  1
Model
 70
0
 71
0
 10
0.0
 20
0.0
 11
210.0
 21
297.0
 12
0.0
 22
0.0
 32
0.0
 14
0.0
 24
0.0
 34
0.0
 15
0.0
 25
0.0
 35
0.0
146
0.0
 13
0.0
 23
0.0
 33
0.0
 16
1.0
 26
0.0
 36
0.0
 17
0.0
 27
1.0
 37
0.0
 76
0
330
210
345
0
346
0
  0
LAYOUT
  5
27F
102
{ACAD_REACTORS
330
1A
102
}
100
AcDbPlotSettings
  1

  2
none_device
  4

  6

 40
0.0
 41
0.0
 42
0.0
 43
0.0
 44
210.0
 45
297.0
 46
0.0
 47
0.0
 48
0.0
 49
0.0
140
0.0
141
0.0
142
1.0
143
1.0
 70
0
 72
1
 73
0
 74
0
  7

 75
0
147
1.0
148
0.0
149
0.0
100
AcDbLayout
  1
Layout1
 70
0
 71
1
 10
0.0
 20
0.0
 11
210.0
 21
297.0
 12
0.0
 22
0.0
 32
0.0
 14
0.0
 24
0.0
 34
0.0
 15
0.0
 25
0.0
 35
0.0
146
0.0
 13
0.0
 23
0.0
 33
0.0
 16
1.0
 26
0.0
 36
0.0
 17
0.0
 27
1.0
 37
0.0
 76
0
330
211
345
0
346
0
  0
ENDSEC
  0
EOF
