999
DXF file: C:\Users\sesa63760\Dev\_Creo\CAD\MCADPD0004121_3D-CAD\drw0001_2.dxf
999
Pro/ENGINEER 2019471 by Parametric Technology Corporation
  0
SECTION
  2
HEADER
  9
$ACADVER
  1
AC1024
  9
$DWGCODEPAGE
  3
ANSI_1252
  9
$EXTMAX
 10
58.8328963393
 20
83.2065248227
 30
0.0
  9
$EXTMIN
 10
0.0
 20
0.0
 30
0.0
  9
$LIMMIN
 10
0.0
 20
0.0
  9
$LIMMAX
 10
58.8328963393
 20
83.2065248227
  9
$VIEWCTR
 10
29.4164481696
 20
41.6032624113
  9
$VIEWSIZE
 40
83.2065248227
  9
$CLAYER
  8
0
  9
$LTSCALE
 40
5.4238327292
  9
$CELTYPE
  6
BYLAYER
  9
$DIMSCALE
 40
1.0
  9
$DIMASZ
 40
0.7003916231
  9
$DIMEXO
 40
1.0
  9
$DIMDLI
 40
3.7473753402
  9
$DIMEXE
 40
1.0
  9
$DIMCEN
 40
0.8875362648
  9
$DIMLFAC
 40
1.0
  9
$DIMBLK
  1
_FILLED
  9
$DIMALT
 70
0
  9
$DIMALTF
 40
0.0393700787
  9
$DIMTXT
 40
0.9805482723
  9
$DIMTOL
 70
1
  9
$DIMLIM
 70
0
  9
$DIMTFAC
 40
1.0
  9
$DIMTP
 40
0.01
  9
$DIMTM
 40
0.01
  9
$DIMGAP
 40
0.625
  9
$DIMDSEP
 70
46
  9
$AUNITS
 70
0
  9
$PDMODE
 70
3
  9
$PDSIZE
 40
0.3125
  9
$HANDSEED
  5
348
  9
$TILEMODE
 70
1
  9
$MEASUREMENT
 70
1
  9
$INSUNITS
 70
4
  0
ENDSEC
  0
SECTION
  2
CLASSES
  0
CLASS
  1
ACDBDICTIONARYWDFLT
  2
AcDbDictionaryWithDefault
  3
AutoCAD 2000
 90
0
 91
1
280
0
281
0
  0
CLASS
  1
ACDBPLACEHOLDER
  2
AcDbPlaceHolder
  3
AutoCAD 2000
 90
0
 91
1
280
0
281
0
  0
CLASS
  1
LAYOUT
  2
AcDbLayout
  3
AutoCAD 2000
 90
0
 91
0
280
0
281
0
  0
ENDSEC
  0
SECTION
  2
TABLES
  0
TABLE
  2
VPORT
  5
8
100
AcDbSymbolTable
 70
2
  0
VPORT
  5
1F4
100
AcDbSymbolTableRecord
100
AcDbViewportTableRecord
  2
*ACTIVE
 70
0
 10
0.0
 20
0.0
 11
1.0
 21
1.0
 12
29.4164481696
 22
41.6032624113
 13
0.0
 23
0.0
 14
1.0
 24
1.0
 15
0.0
 25
0.0
 16
0.0
 26
0.0
 36
1.0
 17
0.0
 27
0.0
 37
0.0
 40
83.2065248227
 41
0.7070707071
 42
50.0
 43
0.0
 44
0.0
 50
0.0
 51
0.0
 71
0
 72
100
 73
1
 74
1
 75
0
 76
0
 77
0
 78
0
  0
ENDTAB
  0
TABLE
  2
LTYPE
  5
5
100
AcDbSymbolTable
 70
6
  0
LTYPE
  5
14
100
AcDbSymbolTableRecord
100
AcDbLinetypeTableRecord
  2
BYBLOCK
 70
0
  3

 72
65
 73
0
 40
0.0
  0
LTYPE
  5
15
100
AcDbSymbolTableRecord
100
AcDbLinetypeTableRecord
  2
BYLAYER
 70
0
  3

 72
65
 73
0
 40
0.0
  0
LTYPE
  5
16
100
AcDbSymbolTableRecord
100
AcDbLinetypeTableRecord
  2
CONTINUOUS
 70
64
  3
Solid line
 72
65
 73
0
 40
0.0
  0
LTYPE
  5
1F5
100
AcDbSymbolTableRecord
100
AcDbLinetypeTableRecord
  2
CENTER
 70
64
  3
____ _ ____ _ ____ _ ____ _ ____ _ ____ _ ____
 72
65
 73
4
 40
0.6
 49
0.375
 74
0
 49
-0.075
 74
0
 49
0.075
 74
0
 49
-0.075
 74
0
  0
LTYPE
  5
1F6
100
AcDbSymbolTableRecord
100
AcDbLinetypeTableRecord
  2
HIDDEN
 70
64
  3
- - - - - - - - - - - - - - - - - - - -
 72
65
 73
2
 40
0.2
 49
0.1
 74
0
 49
-0.1
 74
0
  0
LTYPE
  5
1F7
100
AcDbSymbolTableRecord
100
AcDbLinetypeTableRecord
  2
PHANTOM
 70
64
  3
_____ _ _ _____ _ _ _____ _ _ _____
 72
65
 73
6
 40
0.8
 49
0.45
 74
0
 49
-0.05
 74
0
 49
0.1
 74
0
 49
-0.05
 74
0
 49
0.1
 74
0
 49
-0.05
 74
0
  0
LTYPE
  5
1F8
100
AcDbSymbolTableRecord
100
AcDbLinetypeTableRecord
  2
DOT
 70
64
  3
. . . . . . . . . . . . . . . . . . . .
 72
65
 73
2
 40
0.2
 49
0.1
 74
0
 49
-0.1
 74
0
  0
LTYPE
  5
1F9
100
AcDbSymbolTableRecord
100
AcDbLinetypeTableRecord
  2
DASHED
 70
64
  3
- - - - - - - - - - - - - - - - - - - -
 72
65
 73
2
 40
0.2
 49
0.1
 74
0
 49
-0.1
 74
0
  0
ENDTAB
  0
TABLE
  2
LAYER
  5
2
100
AcDbSymbolTable
 70
36
  0
LAYER
  5
10
100
AcDbSymbolTableRecord
100
AcDbLayerTableRecord
  2
0
 70
0
 62
7
  6
CONTINUOUS
370
-3
390
F
  0
LAYER
  5
1FA
100
AcDbSymbolTableRecord
100
AcDbLayerTableRecord
  2
DEFAULT_1
 70
0
 62
7
  6
CENTER
370
-3
390
F
  0
LAYER
  5
1FB
100
AcDbSymbolTableRecord
100
AcDbLayerTableRecord
  2
DEFAULT_2
 70
0
 62
7
  6
HIDDEN
370
-3
390
F
  0
LAYER
  5
1FC
100
AcDbSymbolTableRecord
100
AcDbLayerTableRecord
  2
DEFAULT_3
 70
0
 62
7
  6
PHANTOM
370
-3
390
F
  0
LAYER
  5
1FD
100
AcDbSymbolTableRecord
100
AcDbLayerTableRecord
  2
00_COMPONENTS
 70
0
 62
7
  6
CONTINUOUS
370
-3
390
F
  0
LAYER
  5
1FE
100
AcDbSymbolTableRecord
100
AcDbLayerTableRecord
  2
01_1_DEFAULT_DATUMS
 70
0
 62
7
  6
CONTINUOUS
370
-3
390
F
  0
LAYER
  5
1FF
100
AcDbSymbolTableRecord
100
AcDbLayerTableRecord
  2
01_PLANES
 70
0
 62
7
  6
CONTINUOUS
370
-3
390
F
  0
LAYER
  5
200
100
AcDbSymbolTableRecord
100
AcDbLayerTableRecord
  2
02_COORD_SYS
 70
0
 62
7
  6
CONTINUOUS
370
-3
390
F
  0
LAYER
  5
201
100
AcDbSymbolTableRecord
100
AcDbLayerTableRecord
  2
03_AXES
 70
0
 62
7
  6
CONTINUOUS
370
-3
390
F
  0
LAYER
  5
202
100
AcDbSymbolTableRecord
100
AcDbLayerTableRecord
  2
04_POINTS
 70
0
 62
7
  6
CONTINUOUS
370
-3
390
F
  0
LAYER
  5
203
100
AcDbSymbolTableRecord
100
AcDbLayerTableRecord
  2
05_CURVES
 70
0
 62
7
  6
CONTINUOUS
370
-3
390
F
  0
LAYER
  5
204
100
AcDbSymbolTableRecord
100
AcDbLayerTableRecord
  2
06_SURFS
 70
0
 62
7
  6
CONTINUOUS
370
-3
390
F
  0
LAYER
  5
205
100
AcDbSymbolTableRecord
100
AcDbLayerTableRecord
  2
07_COSMETICS
 70
0
 62
7
  6
CONTINUOUS
370
-3
390
F
  0
LAYER
  5
206
100
AcDbSymbolTableRecord
100
AcDbLayerTableRecord
  2
10_NOTES
 70
0
 62
7
  6
CONTINUOUS
370
-3
390
F
  0
LAYER
  5
207
100
AcDbSymbolTableRecord
100
AcDbLayerTableRecord
  2
11_NOTES_PUB
 70
0
 62
7
  6
CONTINUOUS
370
-3
390
F
  0
LAYER
  5
208
100
AcDbSymbolTableRecord
100
AcDbLayerTableRecord
  2
13_REF_GTOL
 70
0
 62
7
  6
CONTINUOUS
370
-3
390
F
  0
LAYER
  5
209
100
AcDbSymbolTableRecord
100
AcDbLayerTableRecord
  2
16_MISC
 70
0
 62
7
  6
CONTINUOUS
370
-3
390
F
  0
LAYER
  5
20A
100
AcDbSymbolTableRecord
100
AcDbLayerTableRecord
  2
17_NO_PRINT
 70
0
 62
7
  6
CONTINUOUS
370
-3
390
F
  0
LAYER
  5
20B
100
AcDbSymbolTableRecord
100
AcDbLayerTableRecord
  2
18_DATUM_CAMS_JOINTS
 70
0
 62
7
  6
CONTINUOUS
370
-3
390
F
  0
LAYER
  5
20C
100
AcDbSymbolTableRecord
100
AcDbLayerTableRecord
  2
19_DATUM_FUNCTIONAL
 70
0
 62
7
  6
CONTINUOUS
370
-3
390
F
  0
LAYER
  5
20D
100
AcDbSymbolTableRecord
100
AcDbLayerTableRecord
  2
20_DATUM_KINEMATIC_SCHEME
 70
0
 62
7
  6
CONTINUOUS
370
-3
390
F
  0
ENDTAB
  0
TABLE
  2
STYLE
  5
3
100
AcDbSymbolTable
 70
1
  0
STYLE
  5
11
100
AcDbSymbolTableRecord
100
AcDbTextStyleTableRecord
  2
STANDARD
 70
0
 40
0.0
 41
1.0
 50
0.0
 71
0
 42
0.2
  3
ARIAL.TTF
  4

  0
STYLE
  5
20E
100
AcDbSymbolTableRecord
100
AcDbTextStyleTableRecord
  2
TEXTSTYLE_1
 70
0
 40
0.0
 41
0.8
 50
0.0
 71
0
 42
0.2
  3
gdt
  4

  0
ENDTAB
  0
TABLE
  2
VIEW
  5
6
100
AcDbSymbolTable
 70
0
  0
ENDTAB
  0
TABLE
  2
UCS
  5
7
100
AcDbSymbolTable
 70
0
  0
ENDTAB
  0
TABLE
  2
APPID
  5
9
100
AcDbSymbolTable
 70
1
  0
APPID
  5
20F
100
AcDbSymbolTableRecord
100
AcDbRegAppTableRecord
  2
ACAD
 70
0
  0
ENDTAB
  0
TABLE
  2
BLOCK_RECORD
  5
1
100
AcDbSymbolTable
 70
0
  0
BLOCK_RECORD
  5
210
100
AcDbSymbolTableRecord
100
AcDbBlockTableRecord
  2
*Model_Space
  0
BLOCK_RECORD
  5
211
100
AcDbSymbolTableRecord
100
AcDbBlockTableRecord
  2
*Paper_Space
  0
BLOCK_RECORD
  5
212
100
AcDbSymbolTableRecord
100
AcDbBlockTableRecord
  2
_FILLED
  0
ENDTAB
  0
TABLE
  2
DIMSTYLE
  5
A
100
AcDbSymbolTable
 70
1
100
AcDbDimStyleTable
 71
0
  0
DIMSTYLE
105
213
100
AcDbSymbolTableRecord
100
AcDbDimStyleTableRecord
  2
STANDARD
 70
0
  3

  4

 40
1.0
 41
0.7003916231
 42
1.0
 43
0.38
 44
1.0
 45
0.0
 46
0.0
 47
0.01
 48
0.01
140
0.9805482723
141
0.09
142
0.0
143
25.4
144
1.0
145
0.0
146
1.0
147
0.625
 71
1
 72
0
 73
0
 74
0
 75
0
 76
0
 77
1
 78
8
 79
2
170
0
171
1
172
0
173
0
174
0
175
0
176
0
177
0
178
0
270
2
179
2
271
2
272
2
273
2
274
2
275
0
280
0
281
0
282
0
283
1
284
8
285
0
286
0
287
3
288
0
340
11
278
46
341
212
342
212
343
212
344
212
  0
ENDTAB
  0
ENDSEC
  0
SECTION
  2
BLOCKS
  0
BLOCK
  5
20
100
AcDbEntity
  8
0
100
AcDbBlockBegin
  2
*Model_Space
 70
0
 10
0.0
 20
0.0
 30
0.0
  3
*Model_Space
  1

  0
ENDBLK
  5
21
100
AcDbEntity
  8
0
100
AcDbBlockEnd
  0
BLOCK
  5
1C
100
AcDbEntity
  8
0
100
AcDbBlockBegin
  2
*Paper_Space
 70
0
 10
0.0
 20
0.0
 30
0.0
  3
*Paper_Space
  1

  0
ENDBLK
  5
1D
100
AcDbEntity
  8
0
100
AcDbBlockEnd
  0
BLOCK
  5
214
100
AcDbEntity
  8
0
100
AcDbBlockBegin
  2
_FILLED
 70
64
 10
0.0
 20
0.0
  3
_FILLED
  1

  0
SOLID
  5
215
100
AcDbEntity
  8
0
  6
BYBLOCK
 62
0
100
AcDbTrace
 10
0.0
 20
0.0
 11
-1.0
 21
0.25
 12
-1.0
 22
-0.25
 13
-1.0
 23
-0.25
  0
ENDBLK
  5
216
100
AcDbEntity
  8
0
  6
BYBLOCK
 62
0
100
AcDbBlockEnd
  0
ENDSEC
  0
SECTION
  2
ENTITIES
  0
LINE
  5
217
100
AcDbEntity
  8
0
100
AcDbLine
 62
7
  6
BYLAYER
 10
40.2988240562
 20
5.5504964539
 11
36.4988240562
 21
5.5504964539
  0
LINE
  5
218
100
AcDbEntity
  8
0
100
AcDbLine
 62
7
  6
BYLAYER
 10
36.4988240562
 20
6.0504964539
 11
40.2988240562
 21
6.0504964539
  0
LINE
  5
219
100
AcDbEntity
  8
0
100
AcDbLine
 62
7
  6
BYLAYER
 10
15.1988240562
 20
6.0568719167
 11
36.4988240562
 21
6.0568719167
  0
LINE
  5
21A
100
AcDbEntity
  8
0
100
AcDbLine
 62
7
  6
BYLAYER
 10
15.1988240562
 20
6.2033185261
 11
36.4988240562
 21
6.2033185261
  0
LINE
  5
21B
100
AcDbEntity
  8
0
100
AcDbLine
 62
7
  6
BYLAYER
 10
37.6988240562
 20
6.7504964539
 11
39.0988240562
 21
6.7504964539
  0
LINE
  5
21C
100
AcDbEntity
  8
0
100
AcDbLine
 62
7
  6
BYLAYER
 10
36.4988240562
 20
9.9504964539
 11
15.1988240562
 21
9.9504964539
  0
LINE
  5
21D
100
AcDbEntity
  8
0
100
AcDbLine
 62
7
  6
BYLAYER
 10
36.0988240562
 20
11.1504964539
 11
37.6988240562
 21
11.1504964539
  0
LINE
  5
21E
100
AcDbEntity
  8
0
100
AcDbLine
 62
7
  6
BYLAYER
 10
15.8988240562
 20
13.1504964539
 11
17.1988240562
 21
13.1504964539
  0
LINE
  5
21F
100
AcDbEntity
  8
0
100
AcDbLine
 62
7
  6
BYLAYER
 10
40.4988240562
 20
14.6504964539
 11
44.4488240562
 21
14.6504964539
  0
LINE
  5
220
100
AcDbEntity
  8
0
100
AcDbLine
 62
7
  6
BYLAYER
 10
36.0988240562
 20
14.8004964539
 11
39.0988240562
 21
14.8004964539
  0
LINE
  5
221
100
AcDbEntity
  8
0
100
AcDbLine
 62
7
  6
BYLAYER
 10
43.7988240562
 20
15.0504964539
 11
42.9988240562
 21
15.0504964539
  0
LINE
  5
222
100
AcDbEntity
  8
0
100
AcDbLine
 62
7
  6
BYLAYER
 10
43.1988240562
 20
15.3504964539
 11
43.5988240562
 21
15.3504964539
  0
LINE
  5
223
100
AcDbEntity
  8
0
100
AcDbLine
 62
7
  6
BYLAYER
 10
42.1988240562
 20
15.8004964539
 11
43.1988240562
 21
15.8004964539
  0
LINE
  5
224
100
AcDbEntity
  8
0
100
AcDbLine
 62
7
  6
BYLAYER
 10
43.5988240562
 20
15.8004964539
 11
44.2988240562
 21
15.8004964539
  0
LINE
  5
225
100
AcDbEntity
  8
0
100
AcDbLine
 62
7
  6
BYLAYER
 10
27.0945687256
 20
65.0254964539
 11
26.8392495773
 21
64.9421631255
  0
LINE
  5
226
100
AcDbEntity
  8
0
100
AcDbLine
 62
7
  6
BYLAYER
 10
43.1988240562
 20
18.1504964539
 11
43.5988240562
 21
18.1504964539
  0
LINE
  5
227
100
AcDbEntity
  8
0
100
AcDbLine
 62
7
  6
BYLAYER
 10
26.8392495773
 20
64.9421631255
 11
26.7541432045
 21
64.8796631106
  0
LINE
  5
228
100
AcDbEntity
  8
0
100
AcDbLine
 62
7
  6
BYLAYER
 10
26.6690368167
 20
65.0046631255
 11
26.7966963909
 21
65.0671631181
  0
LINE
  5
229
100
AcDbEntity
  8
0
100
AcDbLine
 62
7
  6
BYLAYER
 10
28.3286113105
 20
64.5463297674
 11
28.2009517512
 21
64.4838297674
  0
LINE
  5
22A
100
AcDbEntity
  8
0
100
AcDbLine
 62
7
  6
BYLAYER
 10
26.6690368167
 20
64.108829827
 11
26.8392495773
 21
64.1713297674
  0
LINE
  5
22B
100
AcDbEntity
  8
0
100
AcDbLine
 62
7
  6
BYLAYER
 10
27.3924410901
 20
64.1296630808
 11
27.5626538358
 21
64.1921631404
  0
LINE
  5
22C
100
AcDbEntity
  8
0
100
AcDbLine
 62
7
  6
BYLAYER
 10
28.3286113105
 20
63.608829827
 11
28.1583985648
 21
63.546329827
  0
LINE
  5
22D
100
AcDbEntity
  8
0
100
AcDbLine
 62
7
  6
BYLAYER
 10
27.9030793271
 20
64.5254964539
 11
28.1583985648
 21
64.6088297674
  0
LINE
  5
22E
100
AcDbEntity
  8
0
100
AcDbLine
 62
7
  6
BYLAYER
 10
26.9669091664
 20
64.0879964539
 11
26.8392495773
 21
64.046329827
  0
LINE
  5
22F
100
AcDbEntity
  8
0
100
AcDbLine
 62
7
  6
BYLAYER
 10
27.690313395
 20
64.108829827
 11
27.5626538358
 21
64.0671630808
  0
LINE
  5
230
100
AcDbEntity
  8
0
100
AcDbLine
 62
7
  6
BYLAYER
 10
28.0307390056
 20
63.6296630808
 11
28.1583985648
 21
63.671329827
  0
LINE
  5
231
100
AcDbEntity
  8
0
100
AcDbLine
 62
7
  6
BYLAYER
 10
44.4488240562
 20
18.8504964539
 11
40.4988240562
 21
18.8504964539
  0
LINE
  5
232
100
AcDbEntity
  8
0
100
AcDbLine
 62
7
  6
BYLAYER
 10
39.0988240562
 20
20.9504964539
 11
36.0988240562
 21
20.9504964539
  0
LINE
  5
233
100
AcDbEntity
  8
0
100
AcDbLine
 62
7
  6
BYLAYER
 10
17.1988240562
 20
20.9504964539
 11
15.8988240562
 21
20.9504964539
  0
LINE
  5
234
100
AcDbEntity
  8
0
100
AcDbLine
 62
7
  6
BYLAYER
 10
26.5413772463
 20
64.9004964539
 11
26.6690368167
 21
65.0046631255
  0
LINE
  5
235
100
AcDbEntity
  8
0
100
AcDbLine
 62
7
  6
BYLAYER
 10
26.5413772463
 20
64.0046630808
 11
26.6690368167
 21
64.108829827
  0
LINE
  5
236
100
AcDbEntity
  8
0
100
AcDbLine
 62
7
  6
BYLAYER
 10
27.2647815309
 20
64.0254964539
 11
27.3924410901
 21
64.1296630808
  0
LINE
  5
237
100
AcDbEntity
  8
0
100
AcDbLine
 62
7
  6
BYLAYER
 10
28.4562708697
 20
64.6504964539
 11
28.3286113105
 21
64.5463297674
  0
LINE
  5
238
100
AcDbEntity
  8
0
100
AcDbLine
 62
7
  6
BYLAYER
 10
28.4562708697
 20
63.7129964539
 11
28.3286113105
 21
63.608829827
  0
LINE
  5
239
100
AcDbEntity
  8
0
100
AcDbLine
 62
7
  6
BYLAYER
 10
26.8392495773
 20
64.046329827
 11
26.7541432045
 21
63.983829827
  0
LINE
  5
23A
100
AcDbEntity
  8
0
100
AcDbLine
 62
7
  6
BYLAYER
 10
28.1583985648
 20
64.6088297674
 11
28.2435049377
 21
64.6713297972
  0
LINE
  5
23B
100
AcDbEntity
  8
0
100
AcDbLine
 62
7
  6
BYLAYER
 10
27.5626538358
 20
64.0671630808
 11
27.477547463
 21
64.0046630808
  0
LINE
  5
23C
100
AcDbEntity
  8
0
100
AcDbLine
 62
7
  6
BYLAYER
 10
28.1583985648
 20
63.671329827
 11
28.2435049377
 21
63.733829827
  0
LINE
  5
23D
100
AcDbEntity
  8
0
100
AcDbLine
 62
7
  6
BYLAYER
 10
32.1488240562
 20
21.3504964539
 11
31.1488240562
 21
21.3504964539
  0
LINE
  5
23E
100
AcDbEntity
  8
0
100
AcDbLine
 62
7
  6
BYLAYER
 10
22.1488240562
 20
21.3504964539
 11
21.1488240562
 21
21.3504964539
  0
LINE
  5
23F
100
AcDbEntity
  8
0
100
AcDbLine
 62
7
  6
BYLAYER
 10
32.1488240562
 20
22.1504964539
 11
31.1488240562
 21
22.1504964539
  0
LINE
  5
240
100
AcDbEntity
  8
0
100
AcDbLine
 62
7
  6
BYLAYER
 10
22.1488240562
 20
22.1504964539
 11
21.1488240562
 21
22.1504964539
  0
LINE
  5
241
100
AcDbEntity
  8
0
100
AcDbLine
 62
7
  6
BYLAYER
 10
32.1488240562
 20
22.5504964539
 11
31.1488240562
 21
22.5504964539
  0
LINE
  5
242
100
AcDbEntity
  8
0
100
AcDbLine
 62
7
  6
BYLAYER
 10
22.1488240562
 20
22.5504964539
 11
21.1488240562
 21
22.5504964539
  0
LINE
  5
243
100
AcDbEntity
  8
0
100
AcDbLine
 62
7
  6
BYLAYER
 10
32.1488240562
 20
23.3504964539
 11
31.1488240562
 21
23.3504964539
  0
LINE
  5
244
100
AcDbEntity
  8
0
100
AcDbLine
 62
7
  6
BYLAYER
 10
22.1488240562
 20
23.3504964539
 11
21.1488240562
 21
23.3504964539
  0
LINE
  5
245
100
AcDbEntity
  8
0
100
AcDbLine
 62
7
  6
BYLAYER
 10
40.2988240562
 20
23.4504964539
 11
28.9988240562
 21
23.4504964539
  0
LINE
  5
246
100
AcDbEntity
  8
0
100
AcDbLine
 62
7
  6
BYLAYER
 10
25.9988240562
 20
23.4504964539
 11
14.6988240562
 21
23.4504964539
  0
LINE
  5
247
100
AcDbEntity
  8
0
100
AcDbLine
 62
7
  6
BYLAYER
 10
28.9988240562
 20
24.3943263387
 11
25.9988240562
 21
24.3943263387
  0
LINE
  5
248
100
AcDbEntity
  8
0
100
AcDbLine
 62
7
  6
BYLAYER
 10
14.6988240562
 20
24.5504964539
 11
25.9988240562
 21
24.5504964539
  0
LINE
  5
249
100
AcDbEntity
  8
0
100
AcDbLine
 62
7
  6
BYLAYER
 10
28.9988240562
 20
24.5504964539
 11
40.2988240562
 21
24.5504964539
  0
LINE
  5
24A
100
AcDbEntity
  8
0
100
AcDbLine
 62
7
  6
BYLAYER
 10
25.9988240562
 20
24.640071952
 11
28.9988240562
 21
24.640071952
  0
LINE
  5
24B
100
AcDbEntity
  8
0
100
AcDbLine
 62
7
  6
BYLAYER
 10
25.673894199
 20
25.5503253942
 11
14.6988240562
 21
25.550481033
  0
LINE
  5
24C
100
AcDbEntity
  8
0
100
AcDbLine
 62
7
  6
BYLAYER
 10
40.2988240562
 20
25.5504809332
 11
29.3237539162
 21
25.550325887
  0
LINE
  5
24D
100
AcDbEntity
  8
0
100
AcDbLine
 62
7
  6
BYLAYER
 10
28.9988240562
 20
25.6504964539
 11
25.9988240562
 21
25.6504964539
  0
LINE
  5
24E
100
AcDbEntity
  8
0
100
AcDbLine
 62
7
  6
BYLAYER
 10
29.3237524169
 20
26.1504964539
 11
25.6738956954
 21
26.1504964539
  0
LINE
  5
24F
100
AcDbEntity
  8
0
100
AcDbLine
 62
7
  6
BYLAYER
 10
14.6988240562
 20
68.2504964539
 11
14.6988240562
 21
6.5568720346
  0
LINE
  5
250
100
AcDbEntity
  8
0
100
AcDbLine
 62
7
  6
BYLAYER
 10
15.1988240562
 20
9.9504964539
 11
15.1988240562
 21
6.0568719167
  0
LINE
  5
251
100
AcDbEntity
  8
0
100
AcDbLine
 62
7
  6
BYLAYER
 10
15.8988240562
 20
65.5004964539
 11
15.8988240562
 21
61.9504964539
  0
LINE
  5
252
100
AcDbEntity
  8
0
100
AcDbLine
 62
7
  6
BYLAYER
 10
15.8988240562
 20
20.9504964539
 11
15.8988240562
 21
13.1504964539
  0
LINE
  5
253
100
AcDbEntity
  8
0
100
AcDbLine
 62
7
  6
BYLAYER
 10
26.7541432045
 20
63.983829827
 11
26.7115900181
 21
63.921329827
  0
LINE
  5
254
100
AcDbEntity
  8
0
100
AcDbLine
 62
7
  6
BYLAYER
 10
27.477547463
 20
64.0046630808
 11
27.4349942765
 21
63.9421630808
  0
LINE
  5
255
100
AcDbEntity
  8
0
100
AcDbLine
 62
7
  6
BYLAYER
 10
28.2435049377
 20
63.733829827
 11
28.2860581241
 21
63.796329827
  0
LINE
  5
256
100
AcDbEntity
  8
0
100
AcDbLine
 62
7
  6
BYLAYER
 10
17.1988240562
 20
13.1504964539
 11
17.1988240562
 21
20.9504964539
  0
LINE
  5
257
100
AcDbEntity
  8
0
100
AcDbLine
 62
7
  6
BYLAYER
 10
17.4488240562
 20
61.9504964539
 11
17.4488240562
 21
65.5004964539
  0
LINE
  5
258
100
AcDbEntity
  8
0
100
AcDbLine
 62
7
  6
BYLAYER
 10
18.4988240562
 20
66.7004964539
 11
18.4988240562
 21
76.0504964531
  0
LINE
  5
259
100
AcDbEntity
  8
0
100
AcDbLine
 62
7
  6
BYLAYER
 10
19.6988240562
 20
68.2504964539
 11
19.6988240562
 21
73.8004964539
  0
LINE
  5
25A
100
AcDbEntity
  8
0
100
AcDbLine
 62
7
  6
BYLAYER
 10
26.4988240562
 20
64.7754964539
 11
26.5413772463
 21
64.9004964539
  0
LINE
  5
25B
100
AcDbEntity
  8
0
100
AcDbLine
 62
7
  6
BYLAYER
 10
26.7541432045
 20
64.8796631106
 11
26.7115900181
 21
64.7754964539
  0
LINE
  5
25C
100
AcDbEntity
  8
0
100
AcDbLine
 62
7
  6
BYLAYER
 10
26.4988240562
 20
63.9004964539
 11
26.5413772463
 21
64.0046630808
  0
LINE
  5
25D
100
AcDbEntity
  8
0
100
AcDbLine
 62
7
  6
BYLAYER
 10
27.2222282849
 20
63.921329827
 11
27.2647815309
 21
64.0254964539
  0
LINE
  5
25E
100
AcDbEntity
  8
0
100
AcDbLine
 62
7
  6
BYLAYER
 10
28.2435049377
 20
64.6713297972
 11
28.2860581241
 21
64.7754964539
  0
LINE
  5
25F
100
AcDbEntity
  8
0
100
AcDbLine
 62
7
  6
BYLAYER
 10
21.1488240562
 20
61.5504964539
 11
21.1488240562
 21
59.5504964539
  0
LINE
  5
260
100
AcDbEntity
  8
0
100
AcDbLine
 62
7
  6
BYLAYER
 10
21.1488240562
 20
21.3504964539
 11
21.1488240562
 21
23.3504964539
  0
LINE
  5
261
100
AcDbEntity
  8
0
100
AcDbLine
 62
7
  6
BYLAYER
 10
21.4988240562
 20
71.3504964539
 11
21.4988240562
 21
68.2504964539
  0
LINE
  5
262
100
AcDbEntity
  8
0
100
AcDbLine
 62
7
  6
BYLAYER
 10
22.1488240562
 20
61.5504964539
 11
22.1488240562
 21
59.5504964539
  0
LINE
  5
263
100
AcDbEntity
  8
0
100
AcDbLine
 62
7
  6
BYLAYER
 10
22.1488240562
 20
21.3504964539
 11
22.1488240562
 21
23.3504964539
  0
LINE
  5
264
100
AcDbEntity
  8
0
100
AcDbLine
 62
7
  6
BYLAYER
 10
28.4988240562
 20
64.7754964539
 11
28.4562708697
 21
64.6504964539
  0
LINE
  5
265
100
AcDbEntity
  8
0
100
AcDbLine
 62
7
  6
BYLAYER
 10
28.4988240562
 20
63.8171630808
 11
28.4562708697
 21
63.7129964539
  0
LINE
  5
266
100
AcDbEntity
  8
0
100
AcDbLine
 62
7
  6
BYLAYER
 10
43.7988240562
 20
67.8504964539
 11
44.1988240562
 21
68.2504964539
  0
LINE
  5
267
100
AcDbEntity
  8
0
100
AcDbLine
 62
7
  6
BYLAYER
 10
43.7988240562
 20
15.0504964539
 11
44.1988240562
 21
14.6504964539
  0
LINE
  5
268
100
AcDbEntity
  8
0
100
AcDbLine
 62
7
  6
BYLAYER
 10
22.6988240562
 20
68.2504964539
 11
22.6988240562
 21
71.3504964539
  0
LINE
  5
269
100
AcDbEntity
  8
0
100
AcDbLine
 62
7
  6
BYLAYER
 10
25.6738956954
 20
26.1504964539
 11
25.673894199
 21
25.5503253942
  0
LINE
  5
26A
100
AcDbEntity
  8
0
100
AcDbLine
 62
7
  6
BYLAYER
 10
25.7734706045
 20
56.7504964539
 11
25.7734706004
 21
57.3508266274
  0
LINE
  5
26B
100
AcDbEntity
  8
0
100
AcDbLine
 62
7
  6
BYLAYER
 10
25.9988240562
 20
25.6504964539
 11
25.9988240562
 21
23.4504964539
  0
LINE
  5
26C
100
AcDbEntity
  8
0
100
AcDbLine
 62
7
  6
BYLAYER
 10
25.9988240562
 20
57.2504964539
 11
25.9988240562
 21
59.4504964539
  0
LINE
  5
26D
100
AcDbEntity
  8
0
100
AcDbLine
 62
7
  6
BYLAYER
 10
26.4988240562
 20
63.9004964539
 11
26.4988240562
 21
63.8171630808
  0
LINE
  5
26E
100
AcDbEntity
  8
0
100
AcDbLine
 62
7
  6
BYLAYER
 10
26.7115900181
 20
63.796329827
 11
26.7115900181
 21
63.921329827
  0
LINE
  5
26F
100
AcDbEntity
  8
0
100
AcDbLine
 62
7
  6
BYLAYER
 10
26.9669091664
 20
64.0879964539
 11
26.9669091664
 21
64.1921631404
  0
LINE
  5
270
100
AcDbEntity
  8
0
100
AcDbLine
 62
7
  6
BYLAYER
 10
27.2222282849
 20
63.921329827
 11
27.2222282849
 21
63.8171630808
  0
LINE
  5
271
100
AcDbEntity
  8
0
100
AcDbLine
 62
7
  6
BYLAYER
 10
27.4349942765
 20
63.796329827
 11
27.4349942765
 21
63.9421630808
  0
LINE
  5
272
100
AcDbEntity
  8
0
100
AcDbLine
 62
7
  6
BYLAYER
 10
28.2860581241
 20
63.9421630808
 11
28.2860581241
 21
63.796329827
  0
LINE
  5
273
100
AcDbEntity
  8
0
100
AcDbLine
 62
7
  6
BYLAYER
 10
28.4988240562
 20
71.3504964539
 11
28.4988240562
 21
68.2504964539
  0
LINE
  5
274
100
AcDbEntity
  8
0
100
AcDbLine
 62
7
  6
BYLAYER
 10
28.4988240562
 20
63.8171630808
 11
28.4988240562
 21
63.921329827
  0
LINE
  5
275
100
AcDbEntity
  8
0
100
AcDbLine
 62
7
  6
BYLAYER
 10
28.9988240562
 20
23.4504964539
 11
28.9988240562
 21
25.6504964539
  0
LINE
  5
276
100
AcDbEntity
  8
0
100
AcDbLine
 62
7
  6
BYLAYER
 10
28.9988240562
 20
57.2504964539
 11
28.9988240562
 21
59.4504964539
  0
LINE
  5
277
100
AcDbEntity
  8
0
100
AcDbLine
 62
7
  6
BYLAYER
 10
29.2241776363
 20
56.7504964539
 11
29.2241791327
 21
57.3506675138
  0
LINE
  5
278
100
AcDbEntity
  8
0
100
AcDbLine
 62
7
  6
BYLAYER
 10
29.3237522884
 20
26.1504964539
 11
29.3237522925
 21
25.5501662431
  0
LINE
  5
279
100
AcDbEntity
  8
0
100
AcDbLine
 62
7
  6
BYLAYER
 10
29.6988240562
 20
68.2504964539
 11
29.6988240562
 21
71.3504964539
  0
LINE
  5
27A
100
AcDbEntity
  8
0
100
AcDbLine
 62
7
  6
BYLAYER
 10
31.1488240562
 20
61.5504964539
 11
31.1488240562
 21
59.5504964539
  0
LINE
  5
27B
100
AcDbEntity
  8
0
100
AcDbLine
 62
7
  6
BYLAYER
 10
31.1488240562
 20
21.3504964539
 11
31.1488240562
 21
23.3504964539
  0
LINE
  5
27C
100
AcDbEntity
  8
0
100
AcDbLine
 62
7
  6
BYLAYER
 10
31.4988240562
 20
69.1004964539
 11
31.4988240562
 21
69.2254964539
  0
LINE
  5
27D
100
AcDbEntity
  8
0
100
AcDbLine
 62
7
  6
BYLAYER
 10
31.4988240562
 20
69.8088297674
 11
31.4988240562
 21
69.9338297972
  0
LINE
  5
27E
100
AcDbEntity
  8
0
100
AcDbLine
 62
7
  6
BYLAYER
 10
31.4988240562
 20
70.1004964539
 11
31.4988240562
 21
70.2254964539
  0
LINE
  5
27F
100
AcDbEntity
  8
0
100
AcDbLine
 62
7
  6
BYLAYER
 10
32.0094623528
 20
69.308829827
 11
32.0094623528
 21
69.7254964539
  0
LINE
  5
280
100
AcDbEntity
  8
0
100
AcDbLine
 62
7
  6
BYLAYER
 10
32.1488240562
 20
61.5504964539
 11
32.1488240562
 21
59.5504964539
  0
LINE
  5
281
100
AcDbEntity
  8
0
100
AcDbLine
 62
7
  6
BYLAYER
 10
32.1488240562
 20
21.3504964539
 11
32.1488240562
 21
23.3504964539
  0
LINE
  5
282
100
AcDbEntity
  8
0
100
AcDbLine
 62
7
  6
BYLAYER
 10
32.1796750984
 20
69.7046631404
 11
32.1796750984
 21
69.3296630808
  0
LINE
  5
283
100
AcDbEntity
  8
0
100
AcDbLine
 62
7
  6
BYLAYER
 10
33.4988240562
 20
70.2254964539
 11
33.4988240562
 21
70.1004964539
  0
LINE
  5
284
100
AcDbEntity
  8
0
100
AcDbLine
 62
7
  6
BYLAYER
 10
33.4988240562
 20
69.6004964539
 11
33.4988240562
 21
69.4338297674
  0
LINE
  5
285
100
AcDbEntity
  8
0
100
AcDbLine
 62
7
  6
BYLAYER
 10
35.2988240562
 20
68.2504964539
 11
35.2988240562
 21
73.8004964539
  0
LINE
  5
286
100
AcDbEntity
  8
0
100
AcDbLine
 62
7
  6
BYLAYER
 10
26.5413772463
 20
63.7129964539
 11
26.4988240562
 21
63.8171630808
  0
LINE
  5
287
100
AcDbEntity
  8
0
100
AcDbLine
 62
7
  6
BYLAYER
 10
26.5413772463
 20
64.6504964539
 11
26.4988240562
 21
64.7754964539
  0
LINE
  5
288
100
AcDbEntity
  8
0
100
AcDbLine
 62
7
  6
BYLAYER
 10
35.8488240562
 20
67.0504964539
 11
35.8488240562
 21
61.9504964539
  0
LINE
  5
289
100
AcDbEntity
  8
0
100
AcDbLine
 62
7
  6
BYLAYER
 10
36.0988240562
 20
20.9504964539
 11
36.0988240562
 21
11.1504964539
  0
LINE
  5
28A
100
AcDbEntity
  8
0
100
AcDbLine
 62
7
  6
BYLAYER
 10
36.4988240562
 20
9.9504964539
 11
36.4988240562
 21
5.5504964539
  0
LINE
  5
28B
100
AcDbEntity
  8
0
100
AcDbLine
 62
7
  6
BYLAYER
 10
36.4988240562
 20
72.4004964539
 11
36.4988240562
 21
77.3504964539
  0
LINE
  5
28C
100
AcDbEntity
  8
0
100
AcDbLine
 62
7
  6
BYLAYER
 10
37.2988240562
 20
68.2504964539
 11
37.2988240562
 21
77.3504964539
  0
LINE
  5
28D
100
AcDbEntity
  8
0
100
AcDbLine
 62
7
  6
BYLAYER
 10
37.6988240562
 20
11.1504964539
 11
37.6988240562
 21
6.7504964539
  0
LINE
  5
28E
100
AcDbEntity
  8
0
100
AcDbLine
 62
7
  6
BYLAYER
 10
26.7115900181
 20
64.7754964539
 11
26.7541432045
 21
64.6713297972
  0
LINE
  5
28F
100
AcDbEntity
  8
0
100
AcDbLine
 62
7
  6
BYLAYER
 10
27.2647815309
 20
63.7129964539
 11
27.2222282849
 21
63.8171630808
  0
LINE
  5
290
100
AcDbEntity
  8
0
100
AcDbLine
 62
7
  6
BYLAYER
 10
28.4562708697
 20
64.0254964539
 11
28.4988240562
 21
63.921329827
  0
LINE
  5
291
100
AcDbEntity
  8
0
100
AcDbLine
 62
7
  6
BYLAYER
 10
28.2860581241
 20
64.7754964539
 11
28.2435049377
 21
64.8796631106
  0
LINE
  5
292
100
AcDbEntity
  8
0
100
AcDbLine
 62
7
  6
BYLAYER
 10
28.4562708697
 20
64.9004964539
 11
28.4988240562
 21
64.7754964539
  0
LINE
  5
293
100
AcDbEntity
  8
0
100
AcDbLine
 62
7
  6
BYLAYER
 10
39.0988240562
 20
6.7504964539
 11
39.0988240562
 21
20.9504964539
  0
LINE
  5
294
100
AcDbEntity
  8
0
100
AcDbLine
 62
7
  6
BYLAYER
 10
39.0988240562
 20
61.9504964539
 11
39.0988240562
 21
67.0504964539
  0
LINE
  5
295
100
AcDbEntity
  8
0
100
AcDbLine
 62
7
  6
BYLAYER
 10
39.4988240562
 20
68.2504964539
 11
39.4988240562
 21
77.3504964539
  0
LINE
  5
296
100
AcDbEntity
  8
0
100
AcDbLine
 62
7
  6
BYLAYER
 10
40.2988240562
 20
5.5504964539
 11
40.2988240562
 21
77.3504964539
  0
LINE
  5
297
100
AcDbEntity
  8
0
100
AcDbLine
 62
7
  6
BYLAYER
 10
40.4988240562
 20
68.2504964539
 11
40.4988240562
 21
64.0504964539
  0
LINE
  5
298
100
AcDbEntity
  8
0
100
AcDbLine
 62
7
  6
BYLAYER
 10
40.4988240562
 20
18.8504964539
 11
40.4988240562
 21
14.6504964539
  0
LINE
  5
299
100
AcDbEntity
  8
0
100
AcDbLine
 62
7
  6
BYLAYER
 10
26.7115900181
 20
63.796329827
 11
26.7541432045
 21
63.733829827
  0
LINE
  5
29A
100
AcDbEntity
  8
0
100
AcDbLine
 62
7
  6
BYLAYER
 10
27.4349942765
 20
63.796329827
 11
27.477547463
 21
63.733829827
  0
LINE
  5
29B
100
AcDbEntity
  8
0
100
AcDbLine
 62
7
  6
BYLAYER
 10
42.1988240562
 20
14.6504964539
 11
42.1988240562
 21
15.8004964539
  0
LINE
  5
29C
100
AcDbEntity
  8
0
100
AcDbLine
 62
7
  6
BYLAYER
 10
42.1988240562
 20
67.1004964539
 11
42.1988240562
 21
68.2504964539
  0
LINE
  5
29D
100
AcDbEntity
  8
0
100
AcDbLine
 62
7
  6
BYLAYER
 10
42.4988240562
 20
68.2504964539
 11
42.4988240562
 21
67.1004964539
  0
LINE
  5
29E
100
AcDbEntity
  8
0
100
AcDbLine
 62
7
  6
BYLAYER
 10
42.4988240562
 20
15.8004964539
 11
42.4988240562
 21
14.6504964539
  0
LINE
  5
29F
100
AcDbEntity
  8
0
100
AcDbLine
 62
7
  6
BYLAYER
 10
42.9988240562
 20
67.8504964539
 11
42.9988240562
 21
67.1004964539
  0
LINE
  5
2A0
100
AcDbEntity
  8
0
100
AcDbLine
 62
7
  6
BYLAYER
 10
42.9988240562
 20
15.8004964539
 11
42.9988240562
 21
15.0504964539
  0
LINE
  5
2A1
100
AcDbEntity
  8
0
100
AcDbLine
 62
7
  6
BYLAYER
 10
28.2860581241
 20
63.9421630808
 11
28.2435049377
 21
64.0046630808
  0
LINE
  5
2A2
100
AcDbEntity
  8
0
100
AcDbLine
 62
7
  6
BYLAYER
 10
43.1988240562
 20
67.5504964539
 11
43.1988240562
 21
64.7504964539
  0
LINE
  5
2A3
100
AcDbEntity
  8
0
100
AcDbLine
 62
7
  6
BYLAYER
 10
43.1988240562
 20
18.1504964539
 11
43.1988240562
 21
15.3504964539
  0
LINE
  5
2A4
100
AcDbEntity
  8
0
100
AcDbLine
 62
7
  6
BYLAYER
 10
43.5988240562
 20
67.5504964539
 11
43.5988240562
 21
64.7504964539
  0
LINE
  5
2A5
100
AcDbEntity
  8
0
100
AcDbLine
 62
7
  6
BYLAYER
 10
43.5988240562
 20
18.1504964539
 11
43.5988240562
 21
15.3504964539
  0
LINE
  5
2A6
100
AcDbEntity
  8
0
100
AcDbLine
 62
7
  6
BYLAYER
 10
43.7988240562
 20
67.8504964539
 11
43.7988240562
 21
67.1004964539
  0
LINE
  5
2A7
100
AcDbEntity
  8
0
100
AcDbLine
 62
7
  6
BYLAYER
 10
43.7988240562
 20
15.8004964539
 11
43.7988240562
 21
15.0504964539
  0
LINE
  5
2A8
100
AcDbEntity
  8
0
100
AcDbLine
 62
7
  6
BYLAYER
 10
44.2988240562
 20
68.2504964539
 11
44.2988240562
 21
67.1004964539
  0
LINE
  5
2A9
100
AcDbEntity
  8
0
100
AcDbLine
 62
7
  6
BYLAYER
 10
44.2988240562
 20
15.8004964539
 11
44.2988240562
 21
14.6504964539
  0
LINE
  5
2AA
100
AcDbEntity
  8
0
100
AcDbLine
 62
7
  6
BYLAYER
 10
44.5988191419
 20
14.6735199362
 11
44.5988191517
 21
18.8274728154
  0
LINE
  5
2AB
100
AcDbEntity
  8
0
100
AcDbLine
 62
7
  6
BYLAYER
 10
44.5988191419
 20
64.0735199362
 11
44.5988191517
 21
68.227472742
  0
LINE
  5
2AC
100
AcDbEntity
  8
0
100
AcDbLine
 62
7
  6
BYLAYER
 10
44.9488240562
 20
15.1504964539
 11
44.9488240562
 21
18.3504964539
  0
LINE
  5
2AD
100
AcDbEntity
  8
0
100
AcDbLine
 62
7
  6
BYLAYER
 10
44.9488240562
 20
64.5504964539
 11
44.9488240562
 21
67.7504964539
  0
LINE
  5
2AE
100
AcDbEntity
  8
0
100
AcDbLine
 62
7
  6
BYLAYER
 10
25.773470476
 20
56.7504964539
 11
29.2241776363
 21
56.7504964539
  0
LINE
  5
2AF
100
AcDbEntity
  8
0
100
AcDbLine
 62
7
  6
BYLAYER
 10
28.9988240562
 20
57.2504964539
 11
25.9988240562
 21
57.2504964539
  0
LINE
  5
2B0
100
AcDbEntity
  8
0
100
AcDbLine
 62
7
  6
BYLAYER
 10
29.2241791327
 20
57.3506675138
 11
40.2988240562
 21
57.3505118748
  0
LINE
  5
2B1
100
AcDbEntity
  8
0
100
AcDbLine
 62
7
  6
BYLAYER
 10
14.6988240562
 20
57.3505119746
 11
25.7734689768
 21
57.350667021
  0
LINE
  5
2B2
100
AcDbEntity
  8
0
100
AcDbLine
 62
7
  6
BYLAYER
 10
26.6690368167
 20
63.608829827
 11
26.5413772463
 21
63.7129964539
  0
LINE
  5
2B3
100
AcDbEntity
  8
0
100
AcDbLine
 62
7
  6
BYLAYER
 10
26.6690368167
 20
64.5463297674
 11
26.5413772463
 21
64.6504964539
  0
LINE
  5
2B4
100
AcDbEntity
  8
0
100
AcDbLine
 62
7
  6
BYLAYER
 10
28.9988240562
 20
58.2609209558
 11
25.9988240562
 21
58.2609209558
  0
LINE
  5
2B5
100
AcDbEntity
  8
0
100
AcDbLine
 62
7
  6
BYLAYER
 10
40.2988240562
 20
58.3504964539
 11
28.9988240562
 21
58.3504964539
  0
LINE
  5
2B6
100
AcDbEntity
  8
0
100
AcDbLine
 62
7
  6
BYLAYER
 10
25.9988240562
 20
58.3504964539
 11
14.6988240562
 21
58.3504964539
  0
LINE
  5
2B7
100
AcDbEntity
  8
0
100
AcDbLine
 62
7
  6
BYLAYER
 10
25.9988240562
 20
58.5066665691
 11
28.9988240562
 21
58.5066665691
  0
LINE
  5
2B8
100
AcDbEntity
  8
0
100
AcDbLine
 62
7
  6
BYLAYER
 10
14.6988240562
 20
59.4504964539
 11
25.9988240562
 21
59.4504964539
  0
LINE
  5
2B9
100
AcDbEntity
  8
0
100
AcDbLine
 62
7
  6
BYLAYER
 10
28.9988240562
 20
59.4504964539
 11
40.2988240562
 21
59.4504964539
  0
LINE
  5
2BA
100
AcDbEntity
  8
0
100
AcDbLine
 62
7
  6
BYLAYER
 10
32.1488240562
 20
59.5504964539
 11
31.1488240562
 21
59.5504964539
  0
LINE
  5
2BB
100
AcDbEntity
  8
0
100
AcDbLine
 62
7
  6
BYLAYER
 10
22.1488240562
 20
59.5504964539
 11
21.1488240562
 21
59.5504964539
  0
LINE
  5
2BC
100
AcDbEntity
  8
0
100
AcDbLine
 62
7
  6
BYLAYER
 10
26.7541432045
 20
63.733829827
 11
26.8392495773
 21
63.671329827
  0
LINE
  5
2BD
100
AcDbEntity
  8
0
100
AcDbLine
 62
7
  6
BYLAYER
 10
27.4349942765
 20
63.5879964539
 11
27.2647815309
 21
63.7129964539
  0
LINE
  5
2BE
100
AcDbEntity
  8
0
100
AcDbLine
 62
7
  6
BYLAYER
 10
27.477547463
 20
63.733829827
 11
27.5626538358
 21
63.671329827
  0
LINE
  5
2BF
100
AcDbEntity
  8
0
100
AcDbLine
 62
7
  6
BYLAYER
 10
26.7541432045
 20
64.6713297972
 11
26.8392495773
 21
64.6088297674
  0
LINE
  5
2C0
100
AcDbEntity
  8
0
100
AcDbLine
 62
7
  6
BYLAYER
 10
28.2435049377
 20
64.0046630808
 11
28.1583985648
 21
64.0671630808
  0
LINE
  5
2C1
100
AcDbEntity
  8
0
100
AcDbLine
 62
7
  6
BYLAYER
 10
28.2435049377
 20
64.8796631106
 11
28.1583985648
 21
64.9421631255
  0
LINE
  5
2C2
100
AcDbEntity
  8
0
100
AcDbLine
 62
7
  6
BYLAYER
 10
28.3286113105
 20
64.1296630808
 11
28.4562708697
 21
64.0254964539
  0
LINE
  5
2C3
100
AcDbEntity
  8
0
100
AcDbLine
 62
7
  6
BYLAYER
 10
28.3286113105
 20
65.0046631255
 11
28.4562708697
 21
64.9004964539
  0
LINE
  5
2C4
100
AcDbEntity
  8
0
100
AcDbLine
 62
7
  6
BYLAYER
 10
32.1488240562
 20
60.3504964539
 11
31.1488240562
 21
60.3504964539
  0
LINE
  5
2C5
100
AcDbEntity
  8
0
100
AcDbLine
 62
7
  6
BYLAYER
 10
22.1488240562
 20
60.3504964539
 11
21.1488240562
 21
60.3504964539
  0
LINE
  5
2C6
100
AcDbEntity
  8
0
100
AcDbLine
 62
7
  6
BYLAYER
 10
32.1488240562
 20
60.7504964539
 11
31.1488240562
 21
60.7504964539
  0
LINE
  5
2C7
100
AcDbEntity
  8
0
100
AcDbLine
 62
7
  6
BYLAYER
 10
22.1488240562
 20
60.7504964539
 11
21.1488240562
 21
60.7504964539
  0
LINE
  5
2C8
100
AcDbEntity
  8
0
100
AcDbLine
 62
7
  6
BYLAYER
 10
32.1488240562
 20
61.5504964539
 11
31.1488240562
 21
61.5504964539
  0
LINE
  5
2C9
100
AcDbEntity
  8
0
100
AcDbLine
 62
7
  6
BYLAYER
 10
22.1488240562
 20
61.5504964539
 11
21.1488240562
 21
61.5504964539
  0
LINE
  5
2CA
100
AcDbEntity
  8
0
100
AcDbLine
 62
7
  6
BYLAYER
 10
15.8988240562
 20
61.9504964539
 11
17.4488240562
 21
61.9504964539
  0
LINE
  5
2CB
100
AcDbEntity
  8
0
100
AcDbLine
 62
7
  6
BYLAYER
 10
35.8488240562
 20
61.9504964539
 11
39.0988240562
 21
61.9504964539
  0
LINE
  5
2CC
100
AcDbEntity
  8
0
100
AcDbLine
 62
7
  6
BYLAYER
 10
27.0520155392
 20
63.5046630808
 11
26.8392495773
 21
63.546329827
  0
LINE
  5
2CD
100
AcDbEntity
  8
0
100
AcDbLine
 62
7
  6
BYLAYER
 10
26.8392495773
 20
63.671329827
 11
26.9669091664
 21
63.6296630808
  0
LINE
  5
2CE
100
AcDbEntity
  8
0
100
AcDbLine
 62
7
  6
BYLAYER
 10
27.5626538358
 20
63.671329827
 11
27.6903133951
 21
63.6296630808
  0
LINE
  5
2CF
100
AcDbEntity
  8
0
100
AcDbLine
 62
7
  6
BYLAYER
 10
28.1583985648
 20
64.0671630808
 11
28.0307390056
 21
64.108829827
  0
LINE
  5
2D0
100
AcDbEntity
  8
0
100
AcDbLine
 62
7
  6
BYLAYER
 10
26.8392495773
 20
64.6088297674
 11
27.0945687256
 21
64.5254964539
  0
LINE
  5
2D1
100
AcDbEntity
  8
0
100
AcDbLine
 62
7
  6
BYLAYER
 10
26.8392495773
 20
63.546329827
 11
26.6690368167
 21
63.608829827
  0
LINE
  5
2D2
100
AcDbEntity
  8
0
100
AcDbLine
 62
7
  6
BYLAYER
 10
28.1583985648
 20
64.1921631404
 11
28.3286113105
 21
64.1296630808
  0
LINE
  5
2D3
100
AcDbEntity
  8
0
100
AcDbLine
 62
7
  6
BYLAYER
 10
26.7966963909
 20
64.4838297674
 11
26.6690368167
 21
64.5463297674
  0
LINE
  5
2D4
100
AcDbEntity
  8
0
100
AcDbLine
 62
7
  6
BYLAYER
 10
28.2009517512
 20
65.0671631181
 11
28.3286113105
 21
65.0046631255
  0
LINE
  5
2D5
100
AcDbEntity
  8
0
100
AcDbLine
 62
7
  6
BYLAYER
 10
28.2009517512
 20
64.4838297674
 11
28.0307390056
 21
64.4421631404
  0
LINE
  5
2D6
100
AcDbEntity
  8
0
100
AcDbLine
 62
7
  6
BYLAYER
 10
26.7966963909
 20
65.0671631181
 11
26.9669091664
 21
65.108829786
  0
LINE
  5
2D7
100
AcDbEntity
  8
0
100
AcDbLine
 62
7
  6
BYLAYER
 10
28.1583985648
 20
63.546329827
 11
27.9456325135
 21
63.5046630808
  0
LINE
  5
2D8
100
AcDbEntity
  8
0
100
AcDbLine
 62
7
  6
BYLAYER
 10
27.5626538358
 20
64.1921631404
 11
27.7754197679
 21
64.2338297674
  0
LINE
  5
2D9
100
AcDbEntity
  8
0
100
AcDbLine
 62
7
  6
BYLAYER
 10
27.9030793271
 20
63.608829827
 11
28.0307390056
 21
63.6296630808
  0
LINE
  5
2DA
100
AcDbEntity
  8
0
100
AcDbLine
 62
7
  6
BYLAYER
 10
27.8179729543
 20
64.1296630808
 11
27.690313395
 21
64.108829827
  0
LINE
  5
2DB
100
AcDbEntity
  8
0
100
AcDbLine
 62
7
  6
BYLAYER
 10
26.8392495773
 20
64.1713297674
 11
26.9669091664
 21
64.1921631404
  0
LINE
  5
2DC
100
AcDbEntity
  8
0
100
AcDbLine
 62
7
  6
BYLAYER
 10
28.0307390056
 20
64.4421631404
 11
27.9030793272
 21
64.4213297674
  0
LINE
  5
2DD
100
AcDbEntity
  8
0
100
AcDbLine
 62
7
  6
BYLAYER
 10
27.9030793272
 20
64.4213297674
 11
27.690313395
 21
64.4004964539
  0
LINE
  5
2DE
100
AcDbEntity
  8
0
100
AcDbLine
 62
7
  6
BYLAYER
 10
27.6477602086
 20
64.5046631404
 11
27.9030793271
 21
64.5254964539
  0
LINE
  5
2DF
100
AcDbEntity
  8
0
100
AcDbLine
 62
7
  6
BYLAYER
 10
27.3498879037
 20
65.0463297897
 11
27.0945687256
 21
65.0254964539
  0
LINE
  5
2E0
100
AcDbEntity
  8
0
100
AcDbLine
 62
7
  6
BYLAYER
 10
27.9456325135
 20
63.5046630808
 11
27.6477602086
 21
63.483829827
  0
LINE
  5
2E1
100
AcDbEntity
  8
0
100
AcDbLine
 62
7
  6
BYLAYER
 10
27.3498879037
 20
63.483829827
 11
27.6477602086
 21
63.483829827
  0
LINE
  5
2E2
100
AcDbEntity
  8
0
100
AcDbLine
 62
7
  6
BYLAYER
 10
27.4349942765
 20
63.5879964539
 11
27.3498879037
 21
63.5879964539
  0
LINE
  5
2E3
100
AcDbEntity
  8
0
100
AcDbLine
 62
7
  6
BYLAYER
 10
27.9030793271
 20
63.608829827
 11
27.8179729543
 21
63.608829827
  0
LINE
  5
2E4
100
AcDbEntity
  8
0
100
AcDbLine
 62
7
  6
BYLAYER
 10
40.4988240562
 20
64.0504964539
 11
44.4488240562
 21
64.0504964539
  0
LINE
  5
2E5
100
AcDbEntity
  8
0
100
AcDbLine
 62
7
  6
BYLAYER
 10
27.8179729543
 20
64.1296630808
 11
27.9030793271
 21
64.1296630808
  0
LINE
  5
2E6
100
AcDbEntity
  8
0
100
AcDbLine
 62
7
  6
BYLAYER
 10
27.9456325135
 20
64.2338297674
 11
27.7754197679
 21
64.2338297674
  0
LINE
  5
2E7
100
AcDbEntity
  8
0
100
AcDbLine
 62
7
  6
BYLAYER
 10
27.3073347173
 20
64.4004964539
 11
27.690313395
 21
64.4004964539
  0
LINE
  5
2E8
100
AcDbEntity
  8
0
100
AcDbLine
 62
7
  6
BYLAYER
 10
27.6477602086
 20
64.5046631404
 11
27.3498879037
 21
64.5046631404
  0
LINE
  5
2E9
100
AcDbEntity
  8
0
100
AcDbLine
 62
7
  6
BYLAYER
 10
43.1988240562
 20
64.7504964539
 11
43.5988240562
 21
64.7504964539
  0
LINE
  5
2EA
100
AcDbEntity
  8
0
100
AcDbLine
 62
7
  6
BYLAYER
 10
27.3498879037
 20
65.0463297897
 11
27.6477602086
 21
65.0463297897
  0
LINE
  5
2EB
100
AcDbEntity
  8
0
100
AcDbLine
 62
7
  6
BYLAYER
 10
27.690313395
 20
65.1504964539
 11
27.3073347173
 21
65.1504964539
  0
LINE
  5
2EC
100
AcDbEntity
  8
0
100
AcDbLine
 62
7
  6
BYLAYER
 10
27.3498879037
 20
63.483829827
 11
27.0520155392
 21
63.5046630808
  0
LINE
  5
2ED
100
AcDbEntity
  8
0
100
AcDbLine
 62
7
  6
BYLAYER
 10
27.0945687256
 20
63.608829827
 11
27.3498879037
 21
63.5879964539
  0
LINE
  5
2EE
100
AcDbEntity
  8
0
100
AcDbLine
 62
7
  6
BYLAYER
 10
27.0945687256
 20
64.5254964539
 11
27.3498879037
 21
64.5046631404
  0
LINE
  5
2EF
100
AcDbEntity
  8
0
100
AcDbLine
 62
7
  6
BYLAYER
 10
27.9030793271
 20
65.0254964539
 11
27.6477602086
 21
65.0463297897
  0
LINE
  5
2F0
100
AcDbEntity
  8
0
100
AcDbLine
 62
7
  6
BYLAYER
 10
27.3073347173
 20
64.4004964539
 11
27.0945687257
 21
64.4213297674
  0
LINE
  5
2F1
100
AcDbEntity
  8
0
100
AcDbLine
 62
7
  6
BYLAYER
 10
27.690313395
 20
65.1504964539
 11
27.9030793272
 21
65.1296631199
  0
LINE
  5
2F2
100
AcDbEntity
  8
0
100
AcDbLine
 62
7
  6
BYLAYER
 10
26.9669091664
 20
63.6296630808
 11
27.0945687256
 21
63.608829827
  0
LINE
  5
2F3
100
AcDbEntity
  8
0
100
AcDbLine
 62
7
  6
BYLAYER
 10
27.6903133951
 20
63.6296630808
 11
27.8179729543
 21
63.608829827
  0
LINE
  5
2F4
100
AcDbEntity
  8
0
100
AcDbLine
 62
7
  6
BYLAYER
 10
28.0307390056
 20
64.108829827
 11
27.9030793271
 21
64.1296630808
  0
LINE
  5
2F5
100
AcDbEntity
  8
0
100
AcDbLine
 62
7
  6
BYLAYER
 10
27.0945687257
 20
64.4213297674
 11
26.9669091663
 21
64.4421631404
  0
LINE
  5
2F6
100
AcDbEntity
  8
0
100
AcDbLine
 62
7
  6
BYLAYER
 10
27.9030793272
 20
65.1296631199
 11
28.0307390055
 21
65.108829786
  0
LINE
  5
2F7
100
AcDbEntity
  8
0
100
AcDbLine
 62
7
  6
BYLAYER
 10
27.9456325135
 20
64.2338297674
 11
28.1583985648
 21
64.1921631404
  0
LINE
  5
2F8
100
AcDbEntity
  8
0
100
AcDbLine
 62
7
  6
BYLAYER
 10
26.9669091663
 20
64.4421631404
 11
26.7966963909
 21
64.4838297674
  0
LINE
  5
2F9
100
AcDbEntity
  8
0
100
AcDbLine
 62
7
  6
BYLAYER
 10
28.0307390055
 20
65.108829786
 11
28.2009517512
 21
65.0671631181
  0
LINE
  5
2FA
100
AcDbEntity
  8
0
100
AcDbLine
 62
7
  6
BYLAYER
 10
28.1583985648
 20
64.9421631255
 11
27.9030793271
 21
65.0254964539
  0
LINE
  5
2FB
100
AcDbEntity
  8
0
100
AcDbLine
 62
7
  6
BYLAYER
 10
26.9669091664
 20
65.108829786
 11
27.0945687256
 21
65.1296631199
  0
LINE
  5
2FC
100
AcDbEntity
  8
0
100
AcDbLine
 62
7
  6
BYLAYER
 10
27.0945687256
 20
65.1296631199
 11
27.3073347173
 21
65.1504964539
  0
LINE
  5
2FD
100
AcDbEntity
  8
0
100
AcDbLine
 62
7
  6
BYLAYER
 10
17.4488240562
 20
65.5004964539
 11
15.8988240562
 21
65.5004964539
  0
LINE
  5
2FE
100
AcDbEntity
  8
0
100
AcDbLine
 62
7
  6
BYLAYER
 10
18.4988240562
 20
66.7004964539
 11
14.6988240562
 21
66.7004964539
  0
LINE
  5
2FF
100
AcDbEntity
  8
0
100
AcDbLine
 62
7
  6
BYLAYER
 10
39.0988240562
 20
67.0504964539
 11
35.8488240562
 21
67.0504964539
  0
LINE
  5
300
100
AcDbEntity
  8
0
100
AcDbLine
 62
7
  6
BYLAYER
 10
42.1988240562
 20
67.1004964539
 11
43.1988240562
 21
67.1004964539
  0
LINE
  5
301
100
AcDbEntity
  8
0
100
AcDbLine
 62
7
  6
BYLAYER
 10
43.5988240562
 20
67.1004964539
 11
44.2988240562
 21
67.1004964539
  0
LINE
  5
302
100
AcDbEntity
  8
0
100
AcDbLine
 62
7
  6
BYLAYER
 10
43.1988240562
 20
67.5504964539
 11
43.5988240562
 21
67.5504964539
  0
LINE
  5
303
100
AcDbEntity
  8
0
100
AcDbLine
 62
7
  6
BYLAYER
 10
42.9988240562
 20
15.0504964539
 11
42.5988240562
 21
14.6504964539
  0
LINE
  5
304
100
AcDbEntity
  8
0
100
AcDbLine
 62
7
  6
BYLAYER
 10
33.4988240562
 20
69.4338297674
 11
31.4988240562
 21
69.1004964539
  0
LINE
  5
305
100
AcDbEntity
  8
0
100
AcDbLine
 62
7
  6
BYLAYER
 10
32.1796750984
 20
69.3296630808
 11
33.3286113105
 21
69.5171631404
  0
LINE
  5
306
100
AcDbEntity
  8
0
100
AcDbLine
 62
7
  6
BYLAYER
 10
31.4988240562
 20
69.2254964539
 11
32.0094623528
 21
69.308829827
  0
LINE
  5
307
100
AcDbEntity
  8
0
100
AcDbLine
 62
7
  6
BYLAYER
 10
43.7988240562
 20
67.8504964539
 11
42.9988240562
 21
67.8504964539
  0
LINE
  5
308
100
AcDbEntity
  8
0
100
AcDbLine
 62
7
  6
BYLAYER
 10
44.4488240562
 20
68.2504964539
 11
40.4988240562
 21
68.2504964539
  0
LINE
  5
309
100
AcDbEntity
  8
0
100
AcDbLine
 62
7
  6
BYLAYER
 10
39.4988240562
 20
68.2504964539
 11
37.2988240562
 21
68.2504964539
  0
LINE
  5
30A
100
AcDbEntity
  8
0
100
AcDbLine
 62
7
  6
BYLAYER
 10
14.6988240562
 20
68.2504964539
 11
18.2988240562
 21
68.2504964539
  0
LINE
  5
30B
100
AcDbEntity
  8
0
100
AcDbLine
 62
7
  6
BYLAYER
 10
19.6988240562
 20
68.2504964539
 11
35.2988240562
 21
68.2504964539
  0
LINE
  5
30C
100
AcDbEntity
  8
0
100
AcDbLine
 62
7
  6
BYLAYER
 10
33.4988240562
 20
70.1004964539
 11
31.4988240562
 21
70.1004964539
  0
LINE
  5
30D
100
AcDbEntity
  8
0
100
AcDbLine
 62
7
  6
BYLAYER
 10
31.4988240562
 20
70.2254964539
 11
33.1583985648
 21
70.2254964539
  0
LINE
  5
30E
100
AcDbEntity
  8
0
100
AcDbLine
 62
7
  6
BYLAYER
 10
32.8605261407
 20
70.3504964539
 11
33.2009517512
 21
70.3504964539
  0
LINE
  5
30F
100
AcDbEntity
  8
0
100
AcDbLine
 62
7
  6
BYLAYER
 10
32.0094623528
 20
69.7254964539
 11
31.4988240562
 21
69.8088297674
  0
LINE
  5
310
100
AcDbEntity
  8
0
100
AcDbLine
 62
7
  6
BYLAYER
 10
33.3286113105
 20
69.5171631404
 11
32.1796750984
 21
69.7046631404
  0
LINE
  5
311
100
AcDbEntity
  8
0
100
AcDbLine
 62
7
  6
BYLAYER
 10
31.4988240562
 20
69.9338297972
 11
33.4988240562
 21
69.6004964539
  0
LINE
  5
312
100
AcDbEntity
  8
0
100
AcDbLine
 62
7
  6
BYLAYER
 10
33.1583985648
 20
70.2254964539
 11
32.8605261407
 21
70.3504964539
  0
LINE
  5
313
100
AcDbEntity
  8
0
100
AcDbLine
 62
7
  6
BYLAYER
 10
33.2009517512
 20
70.3504964539
 11
33.4988240562
 21
70.2254964539
  0
LINE
  5
314
100
AcDbEntity
  8
0
100
AcDbLine
 62
7
  6
BYLAYER
 10
42.9988240562
 20
67.8504964539
 11
42.5988240562
 21
68.2504964539
  0
LINE
  5
315
100
AcDbEntity
  8
0
100
AcDbLine
 62
7
  6
BYLAYER
 10
39.4988240562
 20
71.3504964539
 11
37.2988240562
 21
71.3504964539
  0
LINE
  5
316
100
AcDbEntity
  8
0
100
AcDbLine
 62
7
  6
BYLAYER
 10
19.6988240562
 20
71.3504964539
 11
21.4988240562
 21
71.3504964539
  0
LINE
  5
317
100
AcDbEntity
  8
0
100
AcDbLine
 62
7
  6
BYLAYER
 10
22.6988240562
 20
71.3504964539
 11
28.4988240562
 21
71.3504964539
  0
LINE
  5
318
100
AcDbEntity
  8
0
100
AcDbLine
 62
7
  6
BYLAYER
 10
29.6988240562
 20
71.3504964539
 11
35.2988240562
 21
71.3504964539
  0
LINE
  5
319
100
AcDbEntity
  8
0
100
AcDbLine
 62
7
  6
BYLAYER
 10
36.4988240562
 20
72.4004964539
 11
35.2988240562
 21
72.4004964539
  0
LINE
  5
31A
100
AcDbEntity
  8
0
100
AcDbLine
 62
7
  6
BYLAYER
 10
19.6988240562
 20
72.4004964539
 11
18.4988240562
 21
72.4004964539
  0
LINE
  5
31B
100
AcDbEntity
  8
0
100
AcDbLine
 62
7
  6
BYLAYER
 10
39.4988240562
 20
72.5504964539
 11
37.2988240562
 21
72.5504964539
  0
LINE
  5
31C
100
AcDbEntity
  8
0
100
AcDbLine
 62
7
  6
BYLAYER
 10
19.6988240562
 20
73.8004964539
 11
35.2988240562
 21
73.8004964539
  0
LINE
  5
31D
100
AcDbEntity
  8
0
100
AcDbLine
 62
7
  6
BYLAYER
 10
39.4988240562
 20
74.9753675845
 11
37.2988240562
 21
74.9753675845
  0
LINE
  5
31E
100
AcDbEntity
  8
0
100
AcDbLine
 62
7
  6
BYLAYER
 10
36.4988240562
 20
76.0504964539
 11
18.4988240562
 21
76.0504964539
  0
LINE
  5
31F
100
AcDbEntity
  8
0
100
AcDbLine
 62
7
  6
BYLAYER
 10
40.2988240562
 20
76.8504964539
 11
39.4988240562
 21
76.8504964539
  0
LINE
  5
320
100
AcDbEntity
  8
0
100
AcDbLine
 62
7
  6
BYLAYER
 10
37.2988240562
 20
76.8504964539
 11
36.4988240562
 21
76.8504964539
  0
LINE
  5
321
100
AcDbEntity
  8
0
100
AcDbLine
 62
7
  6
BYLAYER
 10
36.4988240562
 20
77.3504964539
 11
40.2988240562
 21
77.3504964539
  0
CIRCLE
  5
322
100
AcDbEntity
  8
0
100
AcDbCircle
 62
7
  6
BYLAYER
 10
23.0988240562
 20
26.4504964539
 40
0.5
  0
CIRCLE
  5
323
100
AcDbEntity
  8
0
100
AcDbCircle
 62
7
  6
BYLAYER
 10
18.3988240562
 20
33.4504964539
 40
0.5
  0
CIRCLE
  5
324
100
AcDbEntity
  8
0
100
AcDbCircle
 62
7
  6
BYLAYER
 10
18.3988240562
 20
26.4504964539
 40
0.5
  0
ARC
  5
325
100
AcDbEntity
  8
0
100
AcDbCircle
 62
7
  6
BYLAYER
 10
15.1988240562
 20
6.5568719167
 40
0.5
100
AcDbArc
 50
180.0000000001
 51
270.0
  0
CIRCLE
  5
326
100
AcDbEntity
  8
0
100
AcDbCircle
 62
7
  6
BYLAYER
 10
20.2988240562
 20
15.9504964539
 40
0.5
  0
CIRCLE
  5
327
100
AcDbEntity
  8
0
100
AcDbCircle
 62
7
  6
BYLAYER
 10
27.4988240562
 20
64.3504964539
 40
1.5
  0
CIRCLE
  5
328
100
AcDbEntity
  8
0
100
AcDbCircle
 62
7
  6
BYLAYER
 10
23.0988240562
 20
56.4504964539
 40
0.5
  0
CIRCLE
  5
329
100
AcDbEntity
  8
0
100
AcDbCircle
 62
7
  6
BYLAYER
 10
18.3988240562
 20
49.4504964539
 40
0.5
  0
CIRCLE
  5
32A
100
AcDbEntity
  8
0
100
AcDbCircle
 62
7
  6
BYLAYER
 10
18.3988240562
 20
56.4504964539
 40
0.5
  0
CIRCLE
  5
32B
100
AcDbEntity
  8
0
100
AcDbCircle
 62
7
  6
BYLAYER
 10
18.3988240562
 20
41.4504964539
 40
0.5
  0
CIRCLE
  5
32C
100
AcDbEntity
  8
0
100
AcDbCircle
 62
7
  6
BYLAYER
 10
27.4988240562
 20
41.4504964539
 40
0.5
  0
ARC
  5
32D
100
AcDbEntity
  8
0
100
AcDbCircle
 62
7
  6
BYLAYER
 10
18.2988240562
 20
68.4504964539
 40
0.2
100
AcDbArc
 50
270.0
 51
360.0
  0
CIRCLE
  5
32E
100
AcDbEntity
  8
0
100
AcDbCircle
 62
7
  6
BYLAYER
 10
31.3988240562
 20
26.4504964539
 40
0.5
  0
CIRCLE
  5
32F
100
AcDbEntity
  8
0
100
AcDbCircle
 62
7
  6
BYLAYER
 10
37.3988240562
 20
33.4504964539
 40
0.5
  0
CIRCLE
  5
330
100
AcDbEntity
  8
0
100
AcDbCircle
 62
7
  6
BYLAYER
 10
37.3988240562
 20
26.4504964539
 40
0.5
  0
ARC
  5
331
100
AcDbEntity
  8
0
100
AcDbCircle
 62
7
  6
BYLAYER
 10
44.4488240562
 20
15.1504964539
 40
0.5
100
AcDbArc
 50
270.0
 51
360.0
  0
ARC
  5
332
100
AcDbEntity
  8
0
100
AcDbCircle
 62
7
  6
BYLAYER
 10
44.4488240562
 20
18.3504964539
 40
0.5
100
AcDbArc
 50
0.0
 51
90.0
  0
CIRCLE
  5
333
100
AcDbEntity
  8
0
100
AcDbCircle
 62
7
  6
BYLAYER
 10
32.8988240562
 20
15.9504964539
 40
0.5
  0
CIRCLE
  5
334
100
AcDbEntity
  8
0
100
AcDbCircle
 62
7
  6
BYLAYER
 10
37.3988240562
 20
19.9504964539
 40
0.5
  0
ARC
  5
335
100
AcDbEntity
  8
0
100
AcDbCircle
 62
7
  6
BYLAYER
 10
40.4988240562
 20
19.0504964539
 40
0.2
100
AcDbArc
 50
180.0
 51
270.0000000001
  0
ARC
  5
336
100
AcDbEntity
  8
0
100
AcDbCircle
 62
7
  6
BYLAYER
 10
40.4988240562
 20
14.4504964539
 40
0.2
100
AcDbArc
 50
90.0
 51
180.0
  0
CIRCLE
  5
337
100
AcDbEntity
  8
0
100
AcDbCircle
 62
7
  6
BYLAYER
 10
31.3988240562
 20
56.4504964539
 40
0.5
  0
CIRCLE
  5
338
100
AcDbEntity
  8
0
100
AcDbCircle
 62
7
  6
BYLAYER
 10
37.3988240562
 20
49.4504964539
 40
0.5
  0
CIRCLE
  5
339
100
AcDbEntity
  8
0
100
AcDbCircle
 62
7
  6
BYLAYER
 10
37.3988240562
 20
56.4504964539
 40
0.5
  0
CIRCLE
  5
33A
100
AcDbEntity
  8
0
100
AcDbCircle
 62
7
  6
BYLAYER
 10
37.3988240562
 20
41.4504964539
 40
0.5
  0
ARC
  5
33B
100
AcDbEntity
  8
0
100
AcDbCircle
 62
7
  6
BYLAYER
 10
44.4488240562
 20
64.5504964539
 40
0.5
100
AcDbArc
 50
270.0
 51
360.0
  0
ARC
  5
33C
100
AcDbEntity
  8
0
100
AcDbCircle
 62
7
  6
BYLAYER
 10
44.4488240562
 20
67.7504964539
 40
0.5
100
AcDbArc
 50
0.0
 51
90.0
  0
CIRCLE
  5
33D
100
AcDbEntity
  8
0
100
AcDbCircle
 62
7
  6
BYLAYER
 10
37.3988240562
 20
62.9504964539
 40
0.5
  0
ARC
  5
33E
100
AcDbEntity
  8
0
100
AcDbCircle
 62
7
  6
BYLAYER
 10
40.4988240562
 20
68.4504964539
 40
0.2
100
AcDbArc
 50
180.0
 51
270.0
  0
ARC
  5
33F
100
AcDbEntity
  8
0
100
AcDbCircle
 62
7
  6
BYLAYER
 10
40.4988240562
 20
63.8504964539
 40
0.2
100
AcDbArc
 50
90.0
 51
180.0
  0
SPLINE
  5
340
100
AcDbEntity
  8
0
100
AcDbSpline
 62
7
  6
BYLAYER
 70
0
 71
3
 72
20
 73
16
 74
0
 42
0.0000001
 43
0.0000001
 44
0.0000000001
 40
0.0
 40
0.0
 40
0.0
 40
0.0
 40
0.006978279
 40
0.013439379
 40
0.0221097362
 40
0.0462230775
 40
0.0793919859
 40
0.121346142
 40
0.1716846983
 40
0.2299829999
 40
0.2956791146
 40
0.4465823603
 40
0.6187419062
 40
0.8058083604
 40
1.0
 40
1.0
 40
1.0
 40
1.0
 10
25.7263331042
 20
24.5504964543
 30
0.0
 10
25.7239967863
 20
24.5504915866
 30
0.0
 10
25.7209219815
 20
24.5553455834
 30
0.0
 10
25.7183470446
 20
24.5617936861
 30
0.0
 10
25.7145527024
 20
24.574630378
 30
0.0
 10
25.7104000637
 20
24.5961804061
 30
0.0
 10
25.7056989641
 20
24.6291494485
 30
0.0
 10
25.7011985311
 20
24.670890767
 30
0.0
 10
25.6968683933
 20
24.7211341374
 30
0.0
 10
25.6928078988
 20
24.7793582644
 30
0.0
 10
25.687549295
 20
24.8712464606
 30
0.0
 10
25.6821240171
 20
25.0012962005
 30
0.0
 10
25.6774436696
 20
25.172027315
 30
0.0
 10
25.6745547836
 20
25.3572923118
 30
0.0
 10
25.6738961375
 20
25.4849382025
 30
0.0
 10
25.6738958198
 20
25.5499534285
 30
0.0
  0
SPLINE
  5
341
100
AcDbEntity
  8
0
100
AcDbSpline
 62
7
  6
BYLAYER
 70
0
 71
3
 72
20
 73
16
 74
0
 42
0.0000001
 43
0.0000001
 44
0.0000000001
 40
0.0
 40
0.0
 40
0.0
 40
0.0
 40
0.0069940472
 40
0.0134783006
 40
0.0221767776
 40
0.0463461405
 40
0.0795486774
 40
0.1215106742
 40
0.1718410407
 40
0.2301247999
 40
0.2958049164
 40
0.4466781063
 40
0.6188137346
 40
0.8058491525
 40
1.0
 40
1.0
 40
1.0
 40
1.0
 10
29.2713307111
 20
24.5504964543
 30
0.0
 10
29.2736727699
 20
24.5504915752
 30
0.0
 10
29.2767417319
 20
24.5553787277
 30
0.0
 10
29.279315625
 20
24.5618468055
 30
0.0
 10
29.2831071498
 20
24.5747273201
 30
0.0
 10
29.2872584727
 20
24.5963198784
 30
0.0
 10
29.2919597575
 20
24.6293293439
 30
0.0
 10
29.2964607661
 20
24.6710897948
 30
0.0
 10
29.3007909922
 20
24.7213382379
 30
0.0
 10
29.3048514604
 20
24.7795608656
 30
0.0
 10
29.3101100963
 20
24.8714469279
 30
0.0
 10
29.3155355531
 20
25.0014988893
 30
0.0
 10
29.3202148311
 20
25.1722352634
 30
0.0
 10
29.323097517
 20
25.3575048468
 30
0.0
 10
29.3237519755
 20
25.4851518569
 30
0.0
 10
29.3237522925
 20
25.5501662431
 30
0.0
  0
SPLINE
  5
342
100
AcDbEntity
  8
0
100
AcDbSpline
 62
7
  6
BYLAYER
 70
0
 71
3
 72
20
 73
16
 74
0
 42
0.0000001
 43
0.0000001
 44
0.0000000001
 40
0.0
 40
0.0
 40
0.0
 40
0.0
 40
0.0069940481
 40
0.0134783029
 40
0.0221767817
 40
0.0463461485
 40
0.0795486883
 40
0.1215106868
 40
0.1718410543
 40
0.2301248141
 40
0.2958049308
 40
0.44667812
 40
0.6188137453
 40
0.8058491587
 40
1.0
 40
1.0
 40
1.0
 40
1.0
 10
25.8258921799
 20
58.3504964535
 30
0.0
 10
25.8235501207
 20
58.3505013326
 30
0.0
 10
25.820481159
 20
58.3456141778
 30
0.0
 10
25.817907266
 20
58.3391460987
 30
0.0
 10
25.8141157413
 20
58.3262655809
 30
0.0
 10
25.8099644186
 20
58.3046730189
 30
0.0
 10
25.8052631337
 20
58.2716635493
 30
0.0
 10
25.8007621252
 20
58.2299030951
 30
0.0
 10
25.7964318991
 20
58.179654649
 30
0.0
 10
25.7923714311
 20
58.1214320186
 30
0.0
 10
25.7871127954
 20
58.0295459529
 30
0.0
 10
25.7816873388
 20
57.899493988
 30
0.0
 10
25.7770080611
 20
57.7287576105
 30
0.0
 10
25.7741253757
 20
57.5434880249
 30
0.0
 10
25.7734709175
 20
57.4158410138
 30
0.0
 10
25.7734706004
 20
57.3508266274
 30
0.0
  0
SPLINE
  5
343
100
AcDbEntity
  8
0
100
AcDbSpline
 62
7
  6
BYLAYER
 70
0
 71
3
 72
20
 73
16
 74
0
 42
0.0000001
 43
0.0000001
 44
0.0000000001
 40
0.0
 40
0.0
 40
0.0
 40
0.0
 40
0.0069782796
 40
0.0134393807
 40
0.0221097394
 40
0.0462230843
 40
0.0793919965
 40
0.1213461561
 40
0.1716847153
 40
0.2299830189
 40
0.2956791347
 40
0.4465823803
 40
0.618741923
 40
0.8058083703
 40
1.0
 40
1.0
 40
1.0
 40
1.0
 10
29.1717402304
 20
58.3504964535
 30
0.0
 10
29.1740765486
 20
58.3505013212
 30
0.0
 10
29.1771513532
 20
58.3456473226
 30
0.0
 10
29.17972629
 20
58.3391992186
 30
0.0
 10
29.1835206321
 20
58.3263625235
 30
0.0
 10
29.1876732707
 20
58.3048124913
 30
0.0
 10
29.1923743702
 20
58.2718434434
 30
0.0
 10
29.1968748031
 20
58.2301021191
 30
0.0
 10
29.2012049407
 20
58.1798587432
 30
0.0
 10
29.205265435
 20
58.121634611
 30
0.0
 10
29.2105240385
 20
58.0297464088
 30
0.0
 10
29.2159493159
 20
57.8996966626
 30
0.0
 10
29.2206296629
 20
57.7289655423
 30
0.0
 10
29.2235185483
 20
57.5437005421
 30
0.0
 10
29.2241771942
 20
57.4160546502
 30
0.0
 10
29.2241775119
 20
57.351039424
 30
0.0
  0
SPLINE
  5
344
100
AcDbEntity
  8
0
100
AcDbSpline
 62
7
  6
BYLAYER
 70
0
 71
3
 72
13
 73
9
 74
0
 42
0.0000001
 43
0.0000001
 44
0.0000000001
 40
0.0
 40
0.0
 40
0.0
 40
0.0
 40
0.1033743296
 40
0.2106859168
 40
0.3244997571
 40
0.4464368127
 40
0.7129133659
 40
1.0
 40
1.0
 40
1.0
 40
1.0
 10
14.6988240562
 20
6.5568719167
 30
0.0
 10
14.6988240562
 20
6.5336770146
 30
0.0
 10
14.7056054372
 20
6.4861728069
 30
0.0
 10
14.7350163071
 20
6.4187307099
 30
0.0
 10
14.7823317134
 20
6.3571479287
 30
0.0
 10
14.8687764609
 20
6.2837912315
 30
0.0
 10
15.0095586261
 20
6.2200734065
 30
0.0
 10
15.1344081957
 20
6.2033185261
 30
0.0
 10
15.1988240562
 20
6.2033185261
 30
0.0
  0
ELLIPSE
  5
345
100
AcDbEntity
  8
0
100
AcDbEllipse
 62
7
  6
BYLAYER
 10
15.1988240562
 20
10.6576032351
 30
0.0
 11
0.0
 21
-0.7071067812
 31
0.0
 40
0.7071067812
 41
-1.5707963268
 42
0.0
  0
ENDSEC
  0
SECTION
  2
OBJECTS
  0
DICTIONARY
  5
C
100
AcDbDictionary
280
0
281
1
  3
ACAD_GROUP
350
D
  3
ACAD_MLINESTYLE
350
17
  3
ACAD_LAYOUT
350
1A
  3
ACAD_PLOTSETTINGS
350
19
  3
ACAD_PLOTSTYLENAME
350
E
  0
DICTIONARY
  5
D
102
{ACAD_REACTORS
330
C
102
}
100
AcDbDictionary
280
0
281
1
  0
ACDBDICTIONARYWDFLT
  5
E
102
{ACAD_REACTORS
330
C
102
}
100
AcDbDictionary
281
1
  3
Normal
350
F
100
AcDbDictionaryWithDefault
340
F
  0
DICTIONARY
  5
17
102
{ACAD_REACTORS
330
C
102
}
100
AcDbDictionary
280
0
281
1
  3
Standard
350
18
  0
DICTIONARY
  5
19
102
{ACAD_REACTORS
330
C
102
}
100
AcDbDictionary
281
1
  0
DICTIONARY
  5
1A
102
{ACAD_REACTORS
330
C
102
}
100
AcDbDictionary
281
1
  3
Model
350
346
  3
Layout1
350
347
  0
ACDBPLACEHOLDER
  5
F
102
{ACAD_REACTORS
330
E
102
}
  0
MLINESTYLE
  5
18
102
{ACAD_REACTORS
330
17
102
}
100
AcDbMlineStyle
  2
STANDARD
 70
0
  3

 62
256
 51
90.0
 52
90.0
 71
2
 49
0.5
 62
256
  6
BYLAYER
 49
-0.5
 62
256
  6
BYLAYER
  0
LAYOUT
  5
346
102
{ACAD_REACTORS
330
1A
102
}
100
AcDbPlotSettings
  1

  2
none_device
  4

  6

 40
0.0
 41
0.0
 42
0.0
 43
0.0
 44
210.0
 45
297.0
 46
0.0
 47
0.0
 48
0.0
 49
0.0
140
0.0
141
0.0
142
1.0
143
1.0
 70
1024
 72
1
 73
0
 74
0
  7

 75
0
147
1.0
148
0.0
149
0.0
100
AcDbLayout
  1
Model
 70
0
 71
0
 10
0.0
 20
0.0
 11
210.0
 21
297.0
 12
0.0
 22
0.0
 32
0.0
 14
0.0
 24
0.0
 34
0.0
 15
0.0
 25
0.0
 35
0.0
146
0.0
 13
0.0
 23
0.0
 33
0.0
 16
1.0
 26
0.0
 36
0.0
 17
0.0
 27
1.0
 37
0.0
 76
0
330
210
345
0
346
0
  0
LAYOUT
  5
347
102
{ACAD_REACTORS
330
1A
102
}
100
AcDbPlotSettings
  1

  2
none_device
  4

  6

 40
0.0
 41
0.0
 42
0.0
 43
0.0
 44
210.0
 45
297.0
 46
0.0
 47
0.0
 48
0.0
 49
0.0
140
0.0
141
0.0
142
1.0
143
1.0
 70
0
 72
1
 73
0
 74
0
  7

 75
0
147
1.0
148
0.0
149
0.0
100
AcDbLayout
  1
Layout1
 70
0
 71
1
 10
0.0
 20
0.0
 11
210.0
 21
297.0
 12
0.0
 22
0.0
 32
0.0
 14
0.0
 24
0.0
 34
0.0
 15
0.0
 25
0.0
 35
0.0
146
0.0
 13
0.0
 23
0.0
 33
0.0
 16
1.0
 26
0.0
 36
0.0
 17
0.0
 27
1.0
 37
0.0
 76
0
330
211
345
0
346
0
  0
ENDSEC
  0
EOF
