999
DXF file: C:\Users\sesa63760\Dev\_Creo\CAD\MCADID0004838_3D-CAD\drw0001_7.dxf
999
Pro/ENGINEER 2019471 by Parametric Technology Corporation
  0
SECTION
  2
HEADER
  9
$ACADVER
  1
AC1024
  9
$DWGCODEPAGE
  3
ANSI_1252
  9
$EXTMAX
 10
51.822402482
 20
73.2916835102
 30
0.0
  9
$EXTMIN
 10
0.0
 20
0.0
 30
0.0
  9
$LIMMIN
 10
0.0
 20
0.0
  9
$LIMMAX
 10
51.822402482
 20
73.2916835102
  9
$VIEWCTR
 10
25.911201241
 20
36.6458417551
  9
$VIEWSIZE
 40
73.2916835102
  9
$CLAYER
  8
0
  9
$LTSCALE
 40
4.7775319621
  9
$CELTYPE
  6
BYLAYER
  9
$DIMSCALE
 40
1.0
  9
$DIMASZ
 40
0.6169333629
  9
$DIMEXO
 40
1.0
  9
$DIMDLI
 40
3.3008402648
  9
$DIMEXE
 40
1.0
  9
$DIMCEN
 40
0.7817779574
  9
$DIMLFAC
 40
1.0
  9
$DIMBLK
  1
_FILLED
  9
$DIMALT
 70
0
  9
$DIMALTF
 40
0.0393700787
  9
$DIMTXT
 40
0.863706708
  9
$DIMTOL
 70
1
  9
$DIMLIM
 70
0
  9
$DIMTFAC
 40
1.0
  9
$DIMTP
 40
0.01
  9
$DIMTM
 40
0.01
  9
$DIMGAP
 40
0.625
  9
$DIMDSEP
 70
46
  9
$AUNITS
 70
0
  9
$PDMODE
 70
3
  9
$PDSIZE
 40
0.3125
  9
$HANDSEED
  5
2AA
  9
$TILEMODE
 70
1
  9
$MEASUREMENT
 70
1
  9
$INSUNITS
 70
4
  0
ENDSEC
  0
SECTION
  2
CLASSES
  0
CLASS
  1
ACDBDICTIONARYWDFLT
  2
AcDbDictionaryWithDefault
  3
AutoCAD 2000
 90
0
 91
1
280
0
281
0
  0
CLASS
  1
ACDBPLACEHOLDER
  2
AcDbPlaceHolder
  3
AutoCAD 2000
 90
0
 91
1
280
0
281
0
  0
CLASS
  1
LAYOUT
  2
AcDbLayout
  3
AutoCAD 2000
 90
0
 91
0
280
0
281
0
  0
ENDSEC
  0
SECTION
  2
TABLES
  0
TABLE
  2
VPORT
  5
8
100
AcDbSymbolTable
 70
2
  0
VPORT
  5
1F4
100
AcDbSymbolTableRecord
100
AcDbViewportTableRecord
  2
*ACTIVE
 70
0
 10
0.0
 20
0.0
 11
1.0
 21
1.0
 12
25.911201241
 22
36.6458417551
 13
0.0
 23
0.0
 14
1.0
 24
1.0
 15
0.0
 25
0.0
 16
0.0
 26
0.0
 36
1.0
 17
0.0
 27
0.0
 37
0.0
 40
73.2916835102
 41
0.7070707071
 42
50.0
 43
0.0
 44
0.0
 50
0.0
 51
0.0
 71
0
 72
100
 73
1
 74
1
 75
0
 76
0
 77
0
 78
0
  0
ENDTAB
  0
TABLE
  2
LTYPE
  5
5
100
AcDbSymbolTable
 70
6
  0
LTYPE
  5
14
100
AcDbSymbolTableRecord
100
AcDbLinetypeTableRecord
  2
BYBLOCK
 70
0
  3

 72
65
 73
0
 40
0.0
  0
LTYPE
  5
15
100
AcDbSymbolTableRecord
100
AcDbLinetypeTableRecord
  2
BYLAYER
 70
0
  3

 72
65
 73
0
 40
0.0
  0
LTYPE
  5
16
100
AcDbSymbolTableRecord
100
AcDbLinetypeTableRecord
  2
CONTINUOUS
 70
64
  3
Solid line
 72
65
 73
0
 40
0.0
  0
LTYPE
  5
1F5
100
AcDbSymbolTableRecord
100
AcDbLinetypeTableRecord
  2
CENTER
 70
64
  3
____ _ ____ _ ____ _ ____ _ ____ _ ____ _ ____
 72
65
 73
4
 40
0.6
 49
0.375
 74
0
 49
-0.075
 74
0
 49
0.075
 74
0
 49
-0.075
 74
0
  0
LTYPE
  5
1F6
100
AcDbSymbolTableRecord
100
AcDbLinetypeTableRecord
  2
HIDDEN
 70
64
  3
- - - - - - - - - - - - - - - - - - - -
 72
65
 73
2
 40
0.2
 49
0.1
 74
0
 49
-0.1
 74
0
  0
LTYPE
  5
1F7
100
AcDbSymbolTableRecord
100
AcDbLinetypeTableRecord
  2
PHANTOM
 70
64
  3
_____ _ _ _____ _ _ _____ _ _ _____
 72
65
 73
6
 40
0.8
 49
0.45
 74
0
 49
-0.05
 74
0
 49
0.1
 74
0
 49
-0.05
 74
0
 49
0.1
 74
0
 49
-0.05
 74
0
  0
LTYPE
  5
1F8
100
AcDbSymbolTableRecord
100
AcDbLinetypeTableRecord
  2
DOT
 70
64
  3
. . . . . . . . . . . . . . . . . . . .
 72
65
 73
2
 40
0.2
 49
0.1
 74
0
 49
-0.1
 74
0
  0
LTYPE
  5
1F9
100
AcDbSymbolTableRecord
100
AcDbLinetypeTableRecord
  2
DASHED
 70
64
  3
- - - - - - - - - - - - - - - - - - - -
 72
65
 73
2
 40
0.2
 49
0.1
 74
0
 49
-0.1
 74
0
  0
ENDTAB
  0
TABLE
  2
LAYER
  5
2
100
AcDbSymbolTable
 70
36
  0
LAYER
  5
10
100
AcDbSymbolTableRecord
100
AcDbLayerTableRecord
  2
0
 70
0
 62
7
  6
CONTINUOUS
370
-3
390
F
  0
LAYER
  5
1FA
100
AcDbSymbolTableRecord
100
AcDbLayerTableRecord
  2
DEFAULT_1
 70
0
 62
7
  6
CENTER
370
-3
390
F
  0
LAYER
  5
1FB
100
AcDbSymbolTableRecord
100
AcDbLayerTableRecord
  2
DEFAULT_2
 70
0
 62
7
  6
HIDDEN
370
-3
390
F
  0
LAYER
  5
1FC
100
AcDbSymbolTableRecord
100
AcDbLayerTableRecord
  2
DEFAULT_3
 70
0
 62
7
  6
PHANTOM
370
-3
390
F
  0
LAYER
  5
1FD
100
AcDbSymbolTableRecord
100
AcDbLayerTableRecord
  2
00_COMPONENTS
 70
0
 62
7
  6
CONTINUOUS
370
-3
390
F
  0
LAYER
  5
1FE
100
AcDbSymbolTableRecord
100
AcDbLayerTableRecord
  2
01_1_DEFAULT_DATUMS
 70
0
 62
7
  6
CONTINUOUS
370
-3
390
F
  0
LAYER
  5
1FF
100
AcDbSymbolTableRecord
100
AcDbLayerTableRecord
  2
01_PLANES
 70
0
 62
7
  6
CONTINUOUS
370
-3
390
F
  0
LAYER
  5
200
100
AcDbSymbolTableRecord
100
AcDbLayerTableRecord
  2
02_COORD_SYS
 70
0
 62
7
  6
CONTINUOUS
370
-3
390
F
  0
LAYER
  5
201
100
AcDbSymbolTableRecord
100
AcDbLayerTableRecord
  2
03_AXES
 70
0
 62
7
  6
CONTINUOUS
370
-3
390
F
  0
LAYER
  5
202
100
AcDbSymbolTableRecord
100
AcDbLayerTableRecord
  2
04_POINTS
 70
0
 62
7
  6
CONTINUOUS
370
-3
390
F
  0
LAYER
  5
203
100
AcDbSymbolTableRecord
100
AcDbLayerTableRecord
  2
05_CURVES
 70
0
 62
7
  6
CONTINUOUS
370
-3
390
F
  0
LAYER
  5
204
100
AcDbSymbolTableRecord
100
AcDbLayerTableRecord
  2
06_SURFS
 70
0
 62
7
  6
CONTINUOUS
370
-3
390
F
  0
LAYER
  5
205
100
AcDbSymbolTableRecord
100
AcDbLayerTableRecord
  2
07_COSMETICS
 70
0
 62
7
  6
CONTINUOUS
370
-3
390
F
  0
LAYER
  5
206
100
AcDbSymbolTableRecord
100
AcDbLayerTableRecord
  2
10_NOTES
 70
0
 62
7
  6
CONTINUOUS
370
-3
390
F
  0
LAYER
  5
207
100
AcDbSymbolTableRecord
100
AcDbLayerTableRecord
  2
11_NOTES_PUB
 70
0
 62
7
  6
CONTINUOUS
370
-3
390
F
  0
LAYER
  5
208
100
AcDbSymbolTableRecord
100
AcDbLayerTableRecord
  2
13_REF_GTOL
 70
0
 62
7
  6
CONTINUOUS
370
-3
390
F
  0
LAYER
  5
209
100
AcDbSymbolTableRecord
100
AcDbLayerTableRecord
  2
16_MISC
 70
0
 62
7
  6
CONTINUOUS
370
-3
390
F
  0
LAYER
  5
20A
100
AcDbSymbolTableRecord
100
AcDbLayerTableRecord
  2
17_NO_PRINT
 70
0
 62
7
  6
CONTINUOUS
370
-3
390
F
  0
LAYER
  5
20B
100
AcDbSymbolTableRecord
100
AcDbLayerTableRecord
  2
18_DATUM_CAMS_JOINTS
 70
0
 62
7
  6
CONTINUOUS
370
-3
390
F
  0
LAYER
  5
20C
100
AcDbSymbolTableRecord
100
AcDbLayerTableRecord
  2
19_DATUM_FUNCTIONAL
 70
0
 62
7
  6
CONTINUOUS
370
-3
390
F
  0
LAYER
  5
20D
100
AcDbSymbolTableRecord
100
AcDbLayerTableRecord
  2
20_DATUM_KINEMATIC_SCHEME
 70
0
 62
7
  6
CONTINUOUS
370
-3
390
F
  0
ENDTAB
  0
TABLE
  2
STYLE
  5
3
100
AcDbSymbolTable
 70
1
  0
STYLE
  5
11
100
AcDbSymbolTableRecord
100
AcDbTextStyleTableRecord
  2
STANDARD
 70
0
 40
0.0
 41
1.0
 50
0.0
 71
0
 42
0.2
  3
ARIAL.TTF
  4

  0
STYLE
  5
20E
100
AcDbSymbolTableRecord
100
AcDbTextStyleTableRecord
  2
TEXTSTYLE_1
 70
0
 40
0.0
 41
0.8
 50
0.0
 71
0
 42
0.2
  3
gdt
  4

  0
ENDTAB
  0
TABLE
  2
VIEW
  5
6
100
AcDbSymbolTable
 70
0
  0
ENDTAB
  0
TABLE
  2
UCS
  5
7
100
AcDbSymbolTable
 70
0
  0
ENDTAB
  0
TABLE
  2
APPID
  5
9
100
AcDbSymbolTable
 70
1
  0
APPID
  5
20F
100
AcDbSymbolTableRecord
100
AcDbRegAppTableRecord
  2
ACAD
 70
0
  0
ENDTAB
  0
TABLE
  2
BLOCK_RECORD
  5
1
100
AcDbSymbolTable
 70
0
  0
BLOCK_RECORD
  5
210
100
AcDbSymbolTableRecord
100
AcDbBlockTableRecord
  2
*Model_Space
  0
BLOCK_RECORD
  5
211
100
AcDbSymbolTableRecord
100
AcDbBlockTableRecord
  2
*Paper_Space
  0
BLOCK_RECORD
  5
212
100
AcDbSymbolTableRecord
100
AcDbBlockTableRecord
  2
_FILLED
  0
ENDTAB
  0
TABLE
  2
DIMSTYLE
  5
A
100
AcDbSymbolTable
 70
1
100
AcDbDimStyleTable
 71
0
  0
DIMSTYLE
105
213
100
AcDbSymbolTableRecord
100
AcDbDimStyleTableRecord
  2
STANDARD
 70
0
  3

  4

 40
1.0
 41
0.6169333629
 42
1.0
 43
0.38
 44
1.0
 45
0.0
 46
0.0
 47
0.01
 48
0.01
140
0.863706708
141
0.09
142
0.0
143
25.4
144
1.0
145
0.0
146
1.0
147
0.625
 71
1
 72
0
 73
0
 74
0
 75
0
 76
0
 77
1
 78
8
 79
2
170
0
171
1
172
0
173
0
174
0
175
0
176
0
177
0
178
0
270
2
179
2
271
2
272
2
273
2
274
2
275
0
280
0
281
0
282
0
283
1
284
8
285
0
286
0
287
3
288
0
340
11
278
46
341
212
342
212
343
212
344
212
  0
ENDTAB
  0
ENDSEC
  0
SECTION
  2
BLOCKS
  0
BLOCK
  5
20
100
AcDbEntity
  8
0
100
AcDbBlockBegin
  2
*Model_Space
 70
0
 10
0.0
 20
0.0
 30
0.0
  3
*Model_Space
  1

  0
ENDBLK
  5
21
100
AcDbEntity
  8
0
100
AcDbBlockEnd
  0
BLOCK
  5
1C
100
AcDbEntity
  8
0
100
AcDbBlockBegin
  2
*Paper_Space
 70
0
 10
0.0
 20
0.0
 30
0.0
  3
*Paper_Space
  1

  0
ENDBLK
  5
1D
100
AcDbEntity
  8
0
100
AcDbBlockEnd
  0
BLOCK
  5
214
100
AcDbEntity
  8
0
100
AcDbBlockBegin
  2
_FILLED
 70
64
 10
0.0
 20
0.0
  3
_FILLED
  1

  0
SOLID
  5
215
100
AcDbEntity
  8
0
  6
BYBLOCK
 62
0
100
AcDbTrace
 10
0.0
 20
0.0
 11
-1.0
 21
0.25
 12
-1.0
 22
-0.25
 13
-1.0
 23
-0.25
  0
ENDBLK
  5
216
100
AcDbEntity
  8
0
  6
BYBLOCK
 62
0
100
AcDbBlockEnd
  0
ENDSEC
  0
SECTION
  2
ENTITIES
  0
LINE
  5
217
100
AcDbEntity
  8
0
100
AcDbLine
 62
7
  6
BYLAYER
 10
6.2359095439
 20
19.8746729557
 11
6.2359095439
 21
15.9001783708
  0
LINE
  5
218
100
AcDbEntity
  8
0
100
AcDbLine
 62
7
  6
BYLAYER
 10
6.5509095439
 20
16.675405875
 11
6.5509095439
 21
19.8746729557
  0
LINE
  5
219
100
AcDbEntity
  8
0
100
AcDbLine
 62
7
  6
BYLAYER
 10
6.7059095439
 20
16.51404291
 11
6.7059095439
 21
19.8746729557
  0
LINE
  5
21A
100
AcDbEntity
  8
0
100
AcDbLine
 62
7
  6
BYLAYER
 10
6.0059688836
 20
38.3022567331
 11
5.5025623198
 21
15.9258913672
  0
LINE
  5
21B
100
AcDbEntity
  8
0
100
AcDbLine
 62
7
  6
BYLAYER
 10
36.417246255
 20
16.9813374684
 11
37.9046550163
 21
17.2150454766
  0
LINE
  5
21C
100
AcDbEntity
  8
0
100
AcDbLine
 62
7
  6
BYLAYER
 10
37.9089362778
 20
17.2291964917
 11
37.9140242376
 21
17.2298567192
  0
LINE
  5
21D
100
AcDbEntity
  8
0
100
AcDbLine
 62
7
  6
BYLAYER
 10
37.9419601316
 20
17.2277624653
 11
37.9472747426
 21
17.2284214392
  0
LINE
  5
21E
100
AcDbEntity
  8
0
100
AcDbLine
 62
7
  6
BYLAYER
 10
36.1406209756
 20
16.9358473409
 11
35.3611981122
 21
16.9028766293
  0
LINE
  5
21F
100
AcDbEntity
  8
0
100
AcDbLine
 62
7
  6
BYLAYER
 10
36.11155019
 20
17.1080535198
 11
35.1156209756
 21
17.0659242772
  0
LINE
  5
220
100
AcDbEntity
  8
0
100
AcDbLine
 62
7
  6
BYLAYER
 10
34.3361981122
 20
17.0329535656
 11
33.3402688979
 21
16.990824323
  0
LINE
  5
221
100
AcDbEntity
  8
0
100
AcDbLine
 62
7
  6
BYLAYER
 10
32.8902688979
 20
17.0479312706
 11
33.8861981122
 21
17.0900605132
  0
LINE
  5
222
100
AcDbEntity
  8
0
100
AcDbLine
 62
7
  6
BYLAYER
 10
34.6656209756
 20
17.1230312248
 11
35.66155019
 21
17.1651604674
  0
LINE
  5
223
100
AcDbEntity
  8
0
100
AcDbLine
 62
7
  6
BYLAYER
 10
32.8611981122
 20
17.2201374495
 11
33.6406209756
 21
17.2531081611
  0
LINE
  5
224
100
AcDbEntity
  8
0
100
AcDbLine
 62
7
  6
BYLAYER
 10
45.5006565129
 20
15.8524256633
 11
6.5011625749
 21
15.8524256633
  0
LINE
  5
225
100
AcDbEntity
  8
0
100
AcDbLine
 62
7
  6
BYLAYER
 10
45.7659095439
 20
15.9001783708
 11
6.2359095439
 21
15.9001783708
  0
LINE
  5
226
100
AcDbEntity
  8
0
100
AcDbLine
 62
7
  6
BYLAYER
 10
44.7959095439
 20
16.477408786
 11
7.2059095439
 21
16.477408786
  0
LINE
  5
227
100
AcDbEntity
  8
0
100
AcDbLine
 62
7
  6
BYLAYER
 10
45.4509095439
 20
16.675405875
 11
45.2959095439
 21
16.675405875
  0
LINE
  5
228
100
AcDbEntity
  8
0
100
AcDbLine
 62
7
  6
BYLAYER
 10
6.7059095439
 20
16.675405875
 11
6.5509095439
 21
16.675405875
  0
LINE
  5
229
100
AcDbEntity
  8
0
100
AcDbLine
 62
7
  6
BYLAYER
 10
37.8227398118
 20
17.2254408706
 11
34.3166236404
 21
17.2479155699
  0
LINE
  5
22A
100
AcDbEntity
  8
0
100
AcDbLine
 62
7
  6
BYLAYER
 10
16.0513406425
 20
16.9251573939
 11
15.4149445394
 21
16.9717850214
  0
LINE
  5
22B
100
AcDbEntity
  8
0
100
AcDbLine
 62
7
  6
BYLAYER
 10
18.3140823423
 20
16.9717850214
 11
17.5009095439
 21
17.0313647677
  0
LINE
  5
22C
100
AcDbEntity
  8
0
100
AcDbLine
 62
7
  6
BYLAYER
 10
16.8645134409
 20
17.0779923952
 11
16.0513406425
 21
17.1375721414
  0
LINE
  5
22D
100
AcDbEntity
  8
0
100
AcDbLine
 62
7
  6
BYLAYER
 10
16.6877367456
 20
17.1841997689
 11
17.5009095439
 21
17.1246200227
  0
LINE
  5
22E
100
AcDbEntity
  8
0
100
AcDbLine
 62
7
  6
BYLAYER
 10
18.137305647
 20
17.0779923952
 11
18.9504784454
 21
17.0184126489
  0
LINE
  5
22F
100
AcDbEntity
  8
0
100
AcDbLine
 62
7
  6
BYLAYER
 10
18.9504784454
 20
17.2308273964
 11
19.5868745484
 21
17.1841997689
  0
LINE
  5
230
100
AcDbEntity
  8
0
100
AcDbLine
 62
7
  6
BYLAYER
 10
7.0057158953
 20
38.2797642288
 11
6.5927263603
 21
19.9224256633
  0
LINE
  5
231
100
AcDbEntity
  8
0
100
AcDbLine
 62
7
  6
BYLAYER
 10
18.9504784454
 20
17.0184126489
 11
18.3140823423
 21
16.9717850214
  0
LINE
  5
232
100
AcDbEntity
  8
0
100
AcDbLine
 62
7
  6
BYLAYER
 10
19.5868745484
 20
17.1841997689
 11
18.137305647
 21
17.0779923952
  0
LINE
  5
233
100
AcDbEntity
  8
0
100
AcDbLine
 62
7
  6
BYLAYER
 10
17.5009095439
 20
17.0313647677
 11
16.0513406425
 21
16.9251573939
  0
LINE
  5
234
100
AcDbEntity
  8
0
100
AcDbLine
 62
7
  6
BYLAYER
 10
15.4149445394
 20
16.9717850214
 11
16.8645134409
 21
17.0779923952
  0
LINE
  5
235
100
AcDbEntity
  8
0
100
AcDbLine
 62
7
  6
BYLAYER
 10
17.5009095439
 20
17.1246200227
 11
18.9504784454
 21
17.2308273964
  0
LINE
  5
236
100
AcDbEntity
  8
0
100
AcDbLine
 62
7
  6
BYLAYER
 10
16.0513406425
 20
17.1375721414
 11
16.6877367456
 21
17.1841997689
  0
LINE
  5
237
100
AcDbEntity
  8
0
100
AcDbLine
 62
7
  6
BYLAYER
 10
11.8009095439
 20
18.8350171879
 11
40.2009095439
 21
18.8350171879
  0
LINE
  5
238
100
AcDbEntity
  8
0
100
AcDbLine
 62
7
  6
BYLAYER
 10
6.2359095439
 20
18.908263291
 11
6.5509095439
 21
18.908263291
  0
LINE
  5
239
100
AcDbEntity
  8
0
100
AcDbLine
 62
7
  6
BYLAYER
 10
45.4509095439
 20
18.908263291
 11
45.7659095439
 21
18.908263291
  0
LINE
  5
23A
100
AcDbEntity
  8
0
100
AcDbLine
 62
7
  6
BYLAYER
 10
40.2009095439
 20
19.4577972959
 11
11.8009095439
 21
19.4577972959
  0
LINE
  5
23B
100
AcDbEntity
  8
0
100
AcDbLine
 62
7
  6
BYLAYER
 10
11.8009095439
 20
19.4777435413
 11
40.2009095439
 21
19.4777435413
  0
LINE
  5
23C
100
AcDbEntity
  8
0
100
AcDbLine
 62
7
  6
BYLAYER
 10
34.3166236404
 20
17.5471092509
 11
37.8227398118
 21
17.5246345516
  0
LINE
  5
23D
100
AcDbEntity
  8
0
100
AcDbLine
 62
7
  6
BYLAYER
 10
32.8902688979
 20
17.0479312706
 11
33.3402688979
 21
16.990824323
  0
LINE
  5
23E
100
AcDbEntity
  8
0
100
AcDbLine
 62
7
  6
BYLAYER
 10
35.3611981122
 20
16.9028766293
 11
34.3361981122
 21
17.0329535656
  0
LINE
  5
23F
100
AcDbEntity
  8
0
100
AcDbLine
 62
7
  6
BYLAYER
 10
33.8861981122
 20
17.0900605132
 11
32.8611981122
 21
17.2201374495
  0
LINE
  5
240
100
AcDbEntity
  8
0
100
AcDbLine
 62
7
  6
BYLAYER
 10
33.6406209756
 20
17.2531081611
 11
34.6656209756
 21
17.1230312248
  0
LINE
  5
241
100
AcDbEntity
  8
0
100
AcDbLine
 62
7
  6
BYLAYER
 10
35.1156209756
 20
17.0659242772
 11
36.1406209756
 21
16.9358473409
  0
LINE
  5
242
100
AcDbEntity
  8
0
100
AcDbLine
 62
7
  6
BYLAYER
 10
37.3034266208
 20
16.8688773445
 11
36.417246255
 21
16.9813374684
  0
LINE
  5
243
100
AcDbEntity
  8
0
100
AcDbLine
 62
7
  6
BYLAYER
 10
34.3166236404
 20
17.2479155699
 11
33.4304432746
 21
17.3603756938
  0
LINE
  5
244
100
AcDbEntity
  8
0
100
AcDbLine
 62
7
  6
BYLAYER
 10
35.66155019
 20
17.1651604674
 11
36.11155019
 21
17.1080535198
  0
LINE
  5
245
100
AcDbEntity
  8
0
100
AcDbLine
 62
7
  6
BYLAYER
 10
33.6052143432
 20
17.6373901698
 11
34.3166236404
 21
17.5471092509
  0
LINE
  5
246
100
AcDbEntity
  8
0
100
AcDbLine
 62
7
  6
BYLAYER
 10
45.7659095439
 20
19.8746729557
 11
6.2359095439
 21
19.8746729557
  0
LINE
  5
247
100
AcDbEntity
  8
0
100
AcDbLine
 62
7
  6
BYLAYER
 10
45.4090927276
 20
19.9224256633
 11
6.5927263603
 21
19.9224256633
  0
LINE
  5
248
100
AcDbEntity
  8
0
100
AcDbLine
 62
7
  6
BYLAYER
 10
11.3009095439
 20
19.4411094173
 11
11.3009095439
 21
18.8716513119
  0
LINE
  5
249
100
AcDbEntity
  8
0
100
AcDbLine
 62
7
  6
BYLAYER
 10
11.8009095439
 20
19.4577972959
 11
11.8009095439
 21
19.4777435413
  0
LINE
  5
24A
100
AcDbEntity
  8
0
100
AcDbLine
 62
7
  6
BYLAYER
 10
13.5009095439
 20
17.4591806499
 11
13.5009095439
 21
17.0779923952
  0
LINE
  5
24B
100
AcDbEntity
  8
0
100
AcDbLine
 62
7
  6
BYLAYER
 10
16.0513406425
 20
17.0184126489
 11
16.0513406425
 21
16.9251573939
  0
LINE
  5
24C
100
AcDbEntity
  8
0
100
AcDbLine
 62
7
  6
BYLAYER
 10
16.8645134409
 20
17.1712476502
 11
16.8645134409
 21
17.0779923952
  0
LINE
  5
24D
100
AcDbEntity
  8
0
100
AcDbLine
 62
7
  6
BYLAYER
 10
17.5009095439
 20
17.1246200227
 11
17.5009095439
 21
17.0313647677
  0
LINE
  5
24E
100
AcDbEntity
  8
0
100
AcDbLine
 62
7
  6
BYLAYER
 10
18.137305647
 20
17.1712476502
 11
18.137305647
 21
17.0779923952
  0
LINE
  5
24F
100
AcDbEntity
  8
0
100
AcDbLine
 62
7
  6
BYLAYER
 10
18.3140823423
 20
17.0650402764
 11
18.3140823423
 21
16.9717850214
  0
LINE
  5
250
100
AcDbEntity
  8
0
100
AcDbLine
 62
7
  6
BYLAYER
 10
21.5009095439
 20
17.4593655702
 11
21.5009095439
 21
17.0779923952
  0
LINE
  5
251
100
AcDbEntity
  8
0
100
AcDbLine
 62
7
  6
BYLAYER
 10
44.9961031712
 20
38.2797651796
 11
45.9958502042
 21
38.3022567331
  0
LINE
  5
252
100
AcDbEntity
  8
0
100
AcDbLine
 62
7
  6
BYLAYER
 10
6.0059688836
 20
38.3022567331
 11
7.0057159167
 21
38.2797651796
  0
LINE
  5
253
100
AcDbEntity
  8
0
100
AcDbLine
 62
7
  6
BYLAYER
 10
28.1133910527
 20
39.1267713561
 11
28.5272850649
 21
38.7128773439
  0
LINE
  5
254
100
AcDbEntity
  8
0
100
AcDbLine
 62
7
  6
BYLAYER
 10
29.3404578633
 20
39.5260501423
 11
28.9265638511
 21
39.9399441545
  0
LINE
  5
255
100
AcDbEntity
  8
0
100
AcDbLine
 62
7
  6
BYLAYER
 10
33.4304432746
 20
17.3603756938
 11
33.4304432746
 21
17.6348375755
  0
LINE
  5
256
100
AcDbEntity
  8
0
100
AcDbLine
 62
7
  6
BYLAYER
 10
33.8861981122
 20
17.2219433596
 11
33.8861981122
 21
17.0900605132
  0
LINE
  5
257
100
AcDbEntity
  8
0
100
AcDbLine
 62
7
  6
BYLAYER
 10
33.3414230117
 20
17.0670157405
 11
33.3402688979
 21
16.990824323
  0
LINE
  5
258
100
AcDbEntity
  8
0
100
AcDbLine
 62
7
  6
BYLAYER
 10
34.3166236404
 20
17.5471092509
 11
34.3166236404
 21
17.2479155699
  0
LINE
  5
259
100
AcDbEntity
  8
0
100
AcDbLine
 62
7
  6
BYLAYER
 10
34.3361981122
 20
17.164836412
 11
34.3361981122
 21
17.0329535656
  0
LINE
  5
25A
100
AcDbEntity
  8
0
100
AcDbLine
 62
7
  6
BYLAYER
 10
35.1156209756
 20
17.142066874
 11
35.1156209756
 21
17.0659242772
  0
LINE
  5
25B
100
AcDbEntity
  8
0
100
AcDbLine
 62
7
  6
BYLAYER
 10
35.3611981122
 20
17.0347594757
 11
35.3611981122
 21
16.9028766293
  0
LINE
  5
25C
100
AcDbEntity
  8
0
100
AcDbLine
 62
7
  6
BYLAYER
 10
37.3034266208
 20
17.120577907
 11
37.3034266208
 21
16.8688773445
  0
LINE
  5
25D
100
AcDbEntity
  8
0
100
AcDbLine
 62
7
  6
BYLAYER
 10
37.8227398118
 20
17.5246345516
 11
37.8227398118
 21
17.2254408706
  0
LINE
  5
25E
100
AcDbEntity
  8
0
100
AcDbLine
 62
7
  6
BYLAYER
 10
37.9140242376
 20
17.2181419266
 11
37.9140242376
 21
17.5173356076
  0
LINE
  5
25F
100
AcDbEntity
  8
0
100
AcDbLine
 62
7
  6
BYLAYER
 10
40.2009095439
 20
19.4777435413
 11
40.2009095439
 21
19.4577972959
  0
LINE
  5
260
100
AcDbEntity
  8
0
100
AcDbLine
 62
7
  6
BYLAYER
 10
40.7009095439
 20
18.8716513119
 11
40.7009095439
 21
19.4411094173
  0
LINE
  5
261
100
AcDbEntity
  8
0
100
AcDbLine
 62
7
  6
BYLAYER
 10
45.4090927276
 20
19.9224256633
 11
44.9961031927
 21
38.2797642228
  0
LINE
  5
262
100
AcDbEntity
  8
0
100
AcDbLine
 62
7
  6
BYLAYER
 10
45.2959095439
 20
19.8746729557
 11
45.2959095439
 21
16.51404291
  0
LINE
  5
263
100
AcDbEntity
  8
0
100
AcDbLine
 62
7
  6
BYLAYER
 10
45.4509095439
 20
19.8746729557
 11
45.4509095439
 21
16.675405875
  0
LINE
  5
264
100
AcDbEntity
  8
0
100
AcDbLine
 62
7
  6
BYLAYER
 10
45.7659095439
 20
15.9001783708
 11
45.7659095439
 21
19.8746729557
  0
LINE
  5
265
100
AcDbEntity
  8
0
100
AcDbLine
 62
7
  6
BYLAYER
 10
46.499256768
 20
15.9258913672
 11
45.9958502042
 21
38.3022567331
  0
LINE
  5
266
100
AcDbEntity
  8
0
100
AcDbLine
 62
7
  6
BYLAYER
 10
37.9106168202
 20
17.2162456048
 11
37.9140036362
 21
17.2181419314
  0
ARC
  5
267
100
AcDbEntity
  8
0
100
AcDbCircle
 62
7
  6
BYLAYER
 10
26.0009095439
 20
37.8524256633
 40
20.0
100
AcDbArc
 50
1.2887797645
 51
178.7112202355
  0
ARC
  5
268
100
AcDbEntity
  8
0
100
AcDbCircle
 62
7
  6
BYLAYER
 10
26.0009095439
 20
37.8524256633
 40
18.9999999259
100
AcDbArc
 50
1.2887768785
 51
178.7112231035
  0
CIRCLE
  5
269
100
AcDbEntity
  8
0
100
AcDbCircle
 62
7
  6
BYLAYER
 10
24.233142591
 20
40.2846587103
 40
1.025
  0
CIRCLE
  5
26A
100
AcDbEntity
  8
0
100
AcDbCircle
 62
7
  6
BYLAYER
 10
24.233142591
 20
40.2846587103
 40
0.95
  0
CIRCLE
  5
26B
100
AcDbEntity
  8
0
100
AcDbCircle
 62
7
  6
BYLAYER
 10
24.233142591
 20
40.2846587103
 40
0.55
  0
ARC
  5
26C
100
AcDbEntity
  8
0
100
AcDbCircle
 62
7
  6
BYLAYER
 10
26.0009095439
 20
42.0524256633
 40
6.0
100
AcDbArc
 50
174.0033179827
 51
170.1539030861
  0
CIRCLE
  5
26D
100
AcDbEntity
  8
0
100
AcDbCircle
 62
7
  6
BYLAYER
 10
26.0009095439
 20
42.0524256633
 40
5.175
  0
ARC
  5
26E
100
AcDbEntity
  8
0
100
AcDbCircle
 62
7
  6
BYLAYER
 10
26.0009095439
 20
42.0524256633
 40
4.1875
100
AcDbArc
 50
322.8924158583
 51
307.1075841417
  0
CIRCLE
  5
26F
100
AcDbEntity
  8
0
100
AcDbCircle
 62
7
  6
BYLAYER
 10
24.233142591
 20
43.8201926162
 40
1.025
  0
CIRCLE
  5
270
100
AcDbEntity
  8
0
100
AcDbCircle
 62
7
  6
BYLAYER
 10
24.233142591
 20
43.8201926162
 40
0.95
  0
CIRCLE
  5
271
100
AcDbEntity
  8
0
100
AcDbCircle
 62
7
  6
BYLAYER
 10
24.233142591
 20
43.8201926162
 40
0.55
  0
ARC
  5
272
100
AcDbEntity
  8
0
100
AcDbCircle
 62
7
  6
BYLAYER
 10
27.7686764969
 20
40.2846587103
 40
1.025
100
AcDbArc
 50
346.9072431785
 51
283.4175535374
  0
ARC
  5
273
100
AcDbEntity
  8
0
100
AcDbCircle
 62
7
  6
BYLAYER
 10
27.7686764969
 20
40.2846587103
 40
0.95
100
AcDbArc
 50
347.6599808831
 51
283.9068986342
  0
ARC
  5
274
100
AcDbEntity
  8
0
100
AcDbCircle
 62
7
  6
BYLAYER
 10
28.5199774519
 20
39.5333577553
 40
0.575
100
AcDbArc
 50
44.9999999997
 51
225.0
  0
ARC
  5
275
100
AcDbEntity
  8
0
100
AcDbCircle
 62
7
  6
BYLAYER
 10
27.7686764969
 20
40.2846587103
 40
0.55
100
AcDbArc
 50
320.8057276189
 51
298.5762225146
  0
CIRCLE
  5
276
100
AcDbEntity
  8
0
100
AcDbCircle
 62
7
  6
BYLAYER
 10
27.7686764969
 20
43.8201926162
 40
1.025
  0
CIRCLE
  5
277
100
AcDbEntity
  8
0
100
AcDbCircle
 62
7
  6
BYLAYER
 10
27.7686764969
 20
43.8201926162
 40
0.95
  0
CIRCLE
  5
278
100
AcDbEntity
  8
0
100
AcDbCircle
 62
7
  6
BYLAYER
 10
27.7686764969
 20
43.8201926162
 40
0.55
  0
SPLINE
  5
279
100
AcDbEntity
  8
0
100
AcDbSpline
 62
7
  6
BYLAYER
 70
0
 71
3
 72
53
 73
49
 74
0
 42
0.0000001
 43
0.0000001
 44
0.0000000001
 40
0.0
 40
0.0
 40
0.0
 40
0.0
 40
0.000902596
 40
0.0018988519
 40
0.0030592538
 40
0.0044288407
 40
0.0060348617
 40
0.0078939504
 40
0.0100163461
 40
0.0124080312
 40
0.0180114002
 40
0.0247191946
 40
0.0325316319
 40
0.0414381926
 40
0.0514244128
 40
0.0624715335
 40
0.0876487441
 40
0.1167480541
 40
0.1495007288
 40
0.1855990246
 40
0.2247021946
 40
0.266438474
 40
0.3104094409
 40
0.4033581009
 40
0.499999984
 40
0.5966417536
 40
0.6895902398
 40
0.7335611511
 40
0.7752973874
 40
0.8144005198
 40
0.8504987612
 40
0.8832513955
 40
0.9123507507
 40
0.9375280455
 40
0.9485752318
 40
0.958561499
 40
0.967468136
 40
0.9752806359
 40
0.9819884706
 40
0.9875918918
 40
0.9899835994
 40
0.9921060109
 40
0.9939651098
 40
0.9955711405
 40
0.9969407358
 40
0.9981011441
 40
0.9990974032
 40
1.0
 40
1.0
 40
1.0
 40
1.0
 10
13.5009095439
 20
17.0779923952
 30
0.0
 10
13.5009095439
 20
17.075562916
 30
0.0
 10
13.5018217102
 20
17.0704224178
 30
0.0
 10
13.5057083095
 20
17.0630566561
 30
0.0
 10
13.5119621217
 20
17.0558393617
 30
0.0
 10
13.5205484884
 20
17.0486999697
 30
0.0
 10
13.5314774898
 20
17.0415962023
 30
0.0
 10
13.5447626682
 20
17.0345170525
 30
0.0
 10
13.5604089619
 20
17.0274605561
 30
0.0
 10
13.5857866477
 20
17.017556222
 30
0.0
 10
13.6235243984
 20
17.0055220353
 30
0.0
 10
13.6759509891
 20
16.9918480038
 30
0.0
 10
13.7375581688
 20
16.9783427008
 30
0.0
 10
13.8082055909
 20
16.9650398663
 30
0.0
 10
13.8877351881
 20
16.9519845946
 30
0.0
 10
14.0108425647
 20
16.9341759804
 30
0.0
 10
14.1854419967
 20
16.9132156089
 30
0.0
 10
14.4186011528
 20
16.8904757443
 30
0.0
 10
14.6814214099
 20
16.8694518353
 30
0.0
 10
14.9713768737
 20
16.8503605118
 30
0.0
 10
15.2856826447
 20
16.8334066158
 30
0.0
 10
15.6213154782
 20
16.8187614556
 30
0.0
 10
16.1019164626
 20
16.8022091689
 30
0.0
 10
16.7304638346
 20
16.7885368512
 30
0.0
 10
17.5009090901
 20
16.7830756946
 30
0.0
 10
18.2713538776
 20
16.7885368381
 30
0.0
 10
18.8999003275
 20
16.8022091062
 30
0.0
 10
19.3805005798
 20
16.8187613416
 30
0.0
 10
19.7161330475
 20
16.8334064646
 30
0.0
 10
20.0304384579
 20
16.8503602876
 30
0.0
 10
20.3203935698
 20
16.8694515362
 30
0.0
 10
20.5832136949
 20
16.8904754122
 30
0.0
 10
20.8163731036
 20
16.9132151599
 30
0.0
 10
20.99097306
 20
16.9341755574
 30
0.0
 10
21.1140809778
 20
16.9519841344
 30
0.0
 10
21.1936110752
 20
16.9650394986
 30
0.0
 10
21.2642590067
 20
16.9783423276
 30
0.0
 10
21.3258666785
 20
16.9918476437
 30
0.0
 10
21.3782936761
 20
17.0055217684
 30
0.0
 10
21.4160317421
 20
17.0175559835
 30
0.0
 10
21.4414096714
 20
17.0274603648
 30
0.0
 10
21.4570560899
 20
17.0345169037
 30
0.0
 10
21.4703413464
 20
17.0415961111
 30
0.0
 10
21.4812704169
 20
17.0486999107
 30
0.0
 10
21.4898568488
 20
17.0558393265
 30
0.0
 10
21.4961107181
 20
17.0630566352
 30
0.0
 10
21.4999973624
 20
17.070422405
 30
0.0
 10
21.5009095439
 20
17.0755629141
 30
0.0
 10
21.5009095439
 20
17.0779923952
 30
0.0
  0
SPLINE
  5
27A
100
AcDbEntity
  8
0
100
AcDbSpline
 62
7
  6
BYLAYER
 70
0
 71
3
 72
53
 73
49
 74
0
 42
0.0000001
 43
0.0000001
 44
0.0000000001
 40
0.0
 40
0.0
 40
0.0
 40
0.0
 40
0.000902596
 40
0.0018988519
 40
0.0030592538
 40
0.0044288407
 40
0.0060348617
 40
0.0078939504
 40
0.0100163461
 40
0.0124080312
 40
0.0180114002
 40
0.0247191946
 40
0.0325316319
 40
0.0414381926
 40
0.0514244128
 40
0.0624715335
 40
0.0876487441
 40
0.1167480541
 40
0.1495007288
 40
0.1855990246
 40
0.2247021946
 40
0.266438474
 40
0.3104094409
 40
0.4033581009
 40
0.499999984
 40
0.5966417536
 40
0.6895902398
 40
0.7335611511
 40
0.7752973874
 40
0.8144005198
 40
0.8504987612
 40
0.8832513955
 40
0.9123507507
 40
0.9375280455
 40
0.9485752318
 40
0.958561499
 40
0.967468136
 40
0.9752806359
 40
0.9819884706
 40
0.9875918918
 40
0.9899835994
 40
0.9921060109
 40
0.9939651098
 40
0.9955711405
 40
0.9969407358
 40
0.9981011441
 40
0.9990974032
 40
1.0
 40
1.0
 40
1.0
 40
1.0
 10
21.5009095439
 20
17.0779923952
 30
0.0
 10
21.5009095439
 20
17.0804218744
 30
0.0
 10
21.4999973777
 20
17.0855623726
 30
0.0
 10
21.4961107784
 20
17.0929281343
 30
0.0
 10
21.4898569662
 20
17.1001454287
 30
0.0
 10
21.4812705995
 20
17.1072848207
 30
0.0
 10
21.4703415981
 20
17.1143885881
 30
0.0
 10
21.4570564196
 20
17.1214677379
 30
0.0
 10
21.441410126
 20
17.1285242343
 30
0.0
 10
21.4160324401
 20
17.1384285684
 30
0.0
 10
21.3782946895
 20
17.1504627551
 30
0.0
 10
21.3258680987
 20
17.1641367866
 30
0.0
 10
21.2642609191
 20
17.1776420895
 30
0.0
 10
21.193613497
 20
17.1909449241
 30
0.0
 10
21.1140838998
 20
17.2040001958
 30
0.0
 10
20.9909765232
 20
17.22180881
 30
0.0
 10
20.8163770912
 20
17.2427691815
 30
0.0
 10
20.5832179351
 20
17.2655090461
 30
0.0
 10
20.3203976779
 20
17.2865329551
 30
0.0
 10
20.0304422142
 20
17.3056242786
 30
0.0
 10
19.7161364432
 20
17.3225781746
 30
0.0
 10
19.3805036097
 20
17.3372233348
 30
0.0
 10
18.8999026253
 20
17.3537756215
 30
0.0
 10
18.2713552533
 20
17.3674479392
 30
0.0
 10
17.5009099978
 20
17.3729090958
 30
0.0
 10
16.7304652102
 20
17.3674479523
 30
0.0
 10
16.1019187603
 20
17.3537756842
 30
0.0
 10
15.621318508
 20
17.3372234488
 30
0.0
 10
15.2856860404
 20
17.3225783258
 30
0.0
 10
14.97138063
 20
17.3056245028
 30
0.0
 10
14.6814255181
 20
17.2865332541
 30
0.0
 10
14.4186053929
 20
17.2655093782
 30
0.0
 10
14.1854459843
 20
17.2427696305
 30
0.0
 10
14.0108460279
 20
17.221809233
 30
0.0
 10
13.8877381101
 20
17.204000656
 30
0.0
 10
13.8082080127
 20
17.1909452917
 30
0.0
 10
13.7375600812
 20
17.1776424628
 30
0.0
 10
13.6759524094
 20
17.1641371467
 30
0.0
 10
13.6235254118
 20
17.150463022
 30
0.0
 10
13.5857873457
 20
17.1384288068
 30
0.0
 10
13.5604094164
 20
17.1285244256
 30
0.0
 10
13.544762998
 20
17.1214678867
 30
0.0
 10
13.5314777415
 20
17.1143886793
 30
0.0
 10
13.5205486709
 20
17.1072848797
 30
0.0
 10
13.511962239
 20
17.1001454639
 30
0.0
 10
13.5057083698
 20
17.0929281552
 30
0.0
 10
13.5018217255
 20
17.0855623854
 30
0.0
 10
13.5009095439
 20
17.0804218763
 30
0.0
 10
13.5009095439
 20
17.0779923952
 30
0.0
  0
SPLINE
  5
27B
100
AcDbEntity
  8
0
100
AcDbSpline
 62
7
  6
BYLAYER
 70
0
 71
3
 72
15
 73
11
 74
0
 42
0.0000001
 43
0.0000001
 44
0.0000000001
 40
0.0
 40
0.0
 40
0.0
 40
0.0
 40
0.1324878558
 40
0.2672693148
 40
0.4020904811
 40
0.5346968002
 40
0.6628716021
 40
0.7844741282
 40
0.897476594
 40
1.0
 40
1.0
 40
1.0
 40
1.0
 10
33.4656333635
 20
16.7949056233
 30
0.0
 10
33.6351691871
 20
16.7915772675
 30
0.0
 10
33.9772124004
 20
16.7866208396
 30
0.0
 10
34.4918408916
 20
16.7841057093
 30
0.0
 10
35.0066223676
 20
16.7864503175
 30
0.0
 10
35.5129030622
 20
16.793613032
 30
0.0
 10
36.0021732729
 20
16.8054674006
 30
0.0
 10
36.4662111286
 20
16.8218014272
 30
0.0
 10
36.8972179069
 20
16.8423231974
 30
0.0
 10
37.1725472888
 20
16.8594613617
 30
0.0
 10
37.3034266208
 20
16.8688773445
 30
0.0
  0
LINE
  5
27C
100
AcDbEntity
  8
0
100
AcDbLine
 62
7
  6
BYLAYER
 10
37.9046550163
 20
17.2150454766
 11
37.9106168202
 21
17.2162456048
  0
LINE
  5
27D
100
AcDbEntity
  8
0
100
AcDbLine
 62
7
  6
BYLAYER
 10
37.9356463712
 20
17.2269846755
 11
37.9419601316
 21
17.2277624653
  0
SPLINE
  5
27E
100
AcDbEntity
  8
0
100
AcDbSpline
 62
7
  6
BYLAYER
 70
0
 71
3
 72
20
 73
16
 74
0
 42
0.0000001
 43
0.0000001
 44
0.0000000001
 40
0.0
 40
0.0
 40
0.0
 40
0.0
 40
0.2191726483
 40
0.4118166926
 40
0.5771935417
 40
0.7148047333
 40
0.773130255
 40
0.8244684595
 40
0.8688884083
 40
0.9065291122
 40
0.9376500117
 40
0.9627527096
 40
0.9828510997
 40
0.9916321484
 40
1.0
 40
1.0
 40
1.0
 40
1.0
 10
37.9472747426
 20
17.2284214392
 30
0.0
 10
37.9897907949
 20
17.2337088876
 30
0.0
 10
38.0695937346
 20
17.2443363361
 30
0.0
 10
38.1810754387
 20
17.2618115883
 30
0.0
 10
38.2763050522
 20
17.2797319638
 30
0.0
 10
38.3451503467
 20
17.2956761993
 30
0.0
 10
38.3916472992
 20
17.3089237611
 30
0.0
 10
38.4202601423
 20
17.3183664958
 30
0.0
 10
38.4445667931
 20
17.3278558226
 30
0.0
 10
38.4645648727
 20
17.3373772384
 30
0.0
 10
38.4802791345
 20
17.3469463169
 30
0.0
 10
38.4917599567
 20
17.3565817012
 30
0.0
 10
38.4980953953
 20
17.3652665073
 30
0.0
 10
38.5005125039
 20
17.3721871091
 30
0.0
 10
38.500904173
 20
17.3755503403
 30
0.0
 10
38.5009045307
 20
17.3771860766
 30
0.0
  0
SPLINE
  5
27F
100
AcDbEntity
  8
0
100
AcDbSpline
 62
7
  6
BYLAYER
 70
0
 71
3
 72
30
 73
26
 74
0
 42
0.0000001
 43
0.0000001
 44
0.0000000001
 40
0.0
 40
0.0
 40
0.0
 40
0.0
 40
0.0020158324
 40
0.0041793043
 40
0.0066112474
 40
0.0093977385
 40
0.0125958301
 40
0.0162422771
 40
0.0249648802
 40
0.0356838781
 40
0.0484502878
 40
0.0632802556
 40
0.0801725722
 40
0.0991177183
 40
0.1200958692
 40
0.1430785157
 40
0.1680348015
 40
0.2237194019
 40
0.286805565
 40
0.3568929545
 40
0.4335270194
 40
0.5162064846
 40
0.6043907817
 40
0.7948884174
 40
1.0
 40
1.0
 40
1.0
 40
1.0
 10
30.50091506
 20
17.0779923953
 30
0.0
 10
30.5009151771
 20
17.0759751008
 30
0.0
 10
30.5015240846
 20
17.0717735133
 30
0.0
 10
30.5041791192
 20
17.0656481142
 30
0.0
 10
30.5085079188
 20
17.0596089126
 30
0.0
 10
30.5144781205
 20
17.0536293336
 30
0.0
 10
30.52208474
 20
17.0476810989
 30
0.0
 10
30.5352174794
 20
17.0392696325
 30
0.0
 10
30.5560055116
 20
17.029045297
 30
0.0
 10
30.5860975875
 20
17.0174397833
 30
0.0
 10
30.6226848616
 20
17.0059020003
 30
0.0
 10
30.6657187982
 20
16.9944511911
 30
0.0
 10
30.7151479435
 20
16.983115537
 30
0.0
 10
30.7708975773
 20
16.9719216565
 30
0.0
 10
30.8328796632
 20
16.960892323
 30
0.0
 10
30.9009917738
 20
16.9500462127
 30
0.0
 10
31.0036423386
 20
16.9353164469
 30
0.0
 10
31.1464132607
 20
16.9177650426
 30
0.0
 10
31.3344215263
 20
16.898392888
 30
0.0
 10
31.5435967349
 20
16.8801729008
 30
0.0
 10
31.7725437012
 20
16.8632352269
 30
0.0
 10
32.0197378322
 20
16.8476998937
 30
0.0
 10
32.3808566757
 20
16.8285142367
 30
0.0
 10
32.8646356771
 20
16.8091599667
 30
0.0
 10
33.2604125536
 20
16.7989345527
 30
0.0
 10
33.4656333635
 20
16.7949056233
 30
0.0
  0
SPLINE
  5
280
100
AcDbEntity
  8
0
100
AcDbSpline
 62
7
  6
BYLAYER
 70
0
 71
3
 72
29
 73
25
 74
0
 42
0.0000001
 43
0.0000001
 44
0.0000000001
 40
0.0
 40
0.0
 40
0.0
 40
0.0
 40
0.2054677629
 40
0.3960983209
 40
0.4842862386
 40
0.5669385
 40
0.6435223799
 40
0.7135437735
 40
0.7765557959
 40
0.8321638938
 40
0.8570833183
 40
0.8800303326
 40
0.9009752527
 40
0.9198906109
 40
0.9367562141
 40
0.9515634563
 40
0.9643124756
 40
0.9750194629
 40
0.9837358962
 40
0.9905742059
 40
0.993364906
 40
0.9958031244
 40
0.9979747491
 40
1.0
 40
1.0
 40
1.0
 40
1.0
 10
33.4304432746
 20
17.3603756938
 30
0.0
 10
33.2272806552
 20
17.3562413233
 30
0.0
 10
32.835670331
 20
17.3458488877
 30
0.0
 10
32.3570931879
 20
17.3263653364
 30
0.0
 10
32.0001166728
 20
17.3071369675
 30
0.0
 10
31.7559069606
 20
17.2916022372
 30
0.0
 10
31.5298006598
 20
17.2746924106
 30
0.0
 10
31.3232822888
 20
17.2565251321
 30
0.0
 10
31.1377105081
 20
17.2372293436
 30
0.0
 10
30.9968164106
 20
17.2197602654
 30
0.0
 10
30.8955325941
 20
17.2051082539
 30
0.0
 10
30.8283360233
 20
17.194322605
 30
0.0
 10
30.7671918247
 20
17.1833575049
 30
0.0
 10
30.7121991622
 20
17.1722320014
 30
0.0
 10
30.6634450826
 20
17.1609672289
 30
0.0
 10
30.6209987451
 20
17.1495897209
 30
0.0
 10
30.5849190426
 20
17.1381272387
 30
0.0
 10
30.5552240672
 20
17.1266004473
 30
0.0
 10
30.531932912
 20
17.1150358897
 30
0.0
 10
30.5168351992
 20
17.1047412222
 30
0.0
 10
30.5083984368
 20
17.0962455781
 30
0.0
 10
30.5041308709
 20
17.0902469042
 30
0.0
 10
30.5015141494
 20
17.0841650319
 30
0.0
 10
30.5009149437
 20
17.0799953395
 30
0.0
 10
30.50091506
 20
17.0779923953
 30
0.0
  0
SPLINE
  5
281
100
AcDbEntity
  8
0
100
AcDbSpline
 62
7
  6
BYLAYER
 70
0
 71
3
 72
18
 73
14
 74
0
 42
0.0000001
 43
0.0000001
 44
0.0000000001
 40
0.0
 40
0.0
 40
0.0
 40
0.0
 40
0.197329539
 40
0.3853220851
 40
0.5566560182
 40
0.7057307387
 40
0.8276738049
 40
0.9185073877
 40
0.9513136175
 40
0.9755217868
 40
0.9844357716
 40
0.9913099322
 40
1.0
 40
1.0
 40
1.0
 40
1.0
 10
37.8227398118
 20
17.5246345516
 30
0.0
 10
37.8288034553
 20
17.5245956828
 30
0.0
 10
37.8406434633
 20
17.5244392723
 30
0.0
 10
37.8577433342
 20
17.523971292
 30
0.0
 10
37.8733515412
 20
17.5232830996
 30
0.0
 10
37.8869185203
 20
17.5224119352
 30
0.0
 10
37.897990383
 20
17.5213782619
 30
0.0
 10
37.9054765357
 20
17.5203796178
 30
0.0
 10
37.9099264253
 20
17.5194424317
 30
0.0
 10
37.9118743054
 20
17.5188874834
 30
0.0
 10
37.9130112938
 20
17.5183906555
 30
0.0
 10
37.913645704
 20
17.5180248537
 30
0.0
 10
37.9140198271
 20
17.5176026395
 30
0.0
 10
37.9140174501
 20
17.5173356117
 30
0.0
  0
SPLINE
  5
282
100
AcDbEntity
  8
0
100
AcDbSpline
 62
7
  6
BYLAYER
 70
0
 71
3
 72
19
 73
15
 74
0
 42
0.0000001
 43
0.0000001
 44
0.0000000001
 40
0.0
 40
0.0
 40
0.0
 40
0.0
 40
0.0179667984
 40
0.0388021635
 40
0.0644228549
 40
0.0958619362
 40
0.1336621937
 40
0.178120422
 40
0.2294016462
 40
0.2875803253
 40
0.4246993019
 40
0.5894398776
 40
0.7814002084
 40
1.0
 40
1.0
 40
1.0
 40
1.0
 10
38.5009045307
 20
17.3771860766
 30
0.0
 10
38.5009052118
 20
17.3803006809
 30
0.0
 10
38.4993355838
 20
17.3870707973
 30
0.0
 10
38.4929341716
 20
17.3964165368
 30
0.0
 10
38.4828371455
 20
17.4054988902
 30
0.0
 10
38.4690143896
 20
17.4144868835
 30
0.0
 10
38.4514262853
 20
17.4234377648
 30
0.0
 10
38.4300463458
 20
17.4323561598
 30
0.0
 10
38.4048737334
 20
17.4412354404
 30
0.0
 10
38.363975806
 20
17.4537005822
 30
0.0
 10
38.3033619159
 20
17.4687392399
 30
0.0
 10
38.21943517
 20
17.4856864005
 30
0.0
 10
38.1210802146
 20
17.5022750073
 30
0.0
 10
38.0506258407
 20
17.5123983977
 30
0.0
 10
38.0130685999
 20
17.5174466588
 30
0.0
  0
SPLINE
  5
283
100
AcDbEntity
  8
0
100
AcDbSpline
 62
7
  6
BYLAYER
 70
0
 71
3
 72
18
 73
14
 74
0
 42
0.0000001
 43
0.0000001
 44
0.0000000001
 40
0.0
 40
0.0
 40
0.0
 40
0.0
 40
0.00869007
 40
0.0155642321
 40
0.0244782404
 40
0.0486864983
 40
0.081492818
 40
0.1723265037
 40
0.2942697659
 40
0.4433445296
 40
0.6146783273
 40
0.8026705521
 40
1.0
 40
1.0
 40
1.0
 40
1.0
 10
37.9140174421
 20
17.2181419307
 30
0.0
 10
37.9140198193
 20
17.2184089586
 30
0.0
 10
37.9136456988
 20
17.2188311745
 30
0.0
 10
37.9130112878
 20
17.2191969774
 30
0.0
 10
37.911874296
 20
17.2196938059
 30
0.0
 10
37.9099264096
 20
17.2202487542
 30
0.0
 10
37.9054765116
 20
17.2211859404
 30
0.0
 10
37.8979903474
 20
17.2221845858
 30
0.0
 10
37.8869184746
 20
17.2232182567
 30
0.0
 10
37.8733514932
 20
17.2240894215
 30
0.0
 10
37.8577432997
 20
17.224777612
 30
0.0
 10
37.8406434468
 20
17.2252455925
 30
0.0
 10
37.8288034522
 20
17.2254020018
 30
0.0
 10
37.8227398118
 20
17.2254408706
 30
0.0
  0
SPLINE
  5
284
100
AcDbEntity
  8
0
100
AcDbSpline
 62
7
  6
BYLAYER
 70
0
 71
3
 72
9
 73
5
 74
0
 42
0.0000001
 43
0.0000001
 44
0.0000000001
 40
0.0
 40
0.0
 40
0.0
 40
0.0
 40
0.2745908487
 40
1.0
 40
1.0
 40
1.0
 40
1.0
 10
38.5202285188
 20
17.3938243273
 30
0.0
 10
38.5358402711
 20
17.3963572168
 30
0.0
 10
38.5926411915
 20
17.4058963476
 30
0.0
 10
38.649241476
 20
17.416722916
 30
0.0
 10
38.69002446
 20
17.4258055689
 30
0.0
  0
SPLINE
  5
285
100
AcDbEntity
  8
0
100
AcDbSpline
 62
7
  6
BYLAYER
 70
0
 71
3
 72
9
 73
5
 74
0
 42
0.0000001
 43
0.0000001
 44
0.0000000001
 40
0.0
 40
0.0
 40
0.0
 40
0.0
 40
0.2255650203
 40
1.0
 40
1.0
 40
1.0
 40
1.0
 10
13.3116522677
 20
17.4258371671
 30
0.0
 10
13.3241688512
 20
17.4230486593
 30
0.0
 10
13.3797796251
 20
17.4112286443
 30
0.0
 10
13.4357758455
 20
17.4012826832
 30
0.0
 10
13.4792305653
 20
17.3942079123
 30
0.0
  0
SPLINE
  5
286
100
AcDbEntity
  8
0
100
AcDbSpline
 62
7
  6
BYLAYER
 70
0
 71
3
 72
9
 73
5
 74
0
 42
0.0000001
 43
0.0000001
 44
0.0000000001
 40
0.0
 40
0.0
 40
0.0
 40
0.0
 40
0.2744375365
 40
1.0
 40
1.0
 40
1.0
 40
1.0
 10
21.52163867
 20
17.3940533512
 30
0.0
 10
21.5371118979
 20
17.3965689808
 30
0.0
 10
21.5934404109
 20
17.4060464902
 30
0.0
 10
21.6495700612
 20
17.4167960942
 30
0.0
 10
21.69002446
 20
17.4258055689
 30
0.0
  0
SPLINE
  5
287
100
AcDbEntity
  8
0
100
AcDbSpline
 62
7
  6
BYLAYER
 70
0
 71
3
 72
18
 73
14
 74
0
 42
0.0000001
 43
0.0000001
 44
0.0000000001
 40
0.0
 40
0.0
 40
0.0
 40
0.0
 40
0.0085676284
 40
0.0155006039
 40
0.0245281785
 40
0.0491349183
 40
0.0825910497
 40
0.1750260486
 40
0.2987948705
 40
0.4491989501
 40
0.6206352938
 40
0.8068081833
 40
1.0
 40
1.0
 40
1.0
 40
1.0
 10
11.3009095439
 20
18.8716513119
 30
0.0
 10
11.3009095439
 20
18.8702105043
 30
0.0
 10
11.3030857384
 20
18.8679946113
 30
0.0
 10
11.3065924367
 20
18.8660807525
 30
0.0
 10
11.3129658341
 20
18.8634477495
 30
0.0
 10
11.3238480113
 20
18.860516095
 30
0.0
 10
11.3487032024
 20
18.8555976097
 30
0.0
 10
11.3903893481
 20
18.8503897764
 30
0.0
 10
11.4518203003
 20
18.8451049403
 30
0.0
 10
11.5266397668
 20
18.8407518242
 30
0.0
 10
11.6120130543
 20
18.8374826012
 30
0.0
 10
11.7046225194
 20
18.8354728733
 30
0.0
 10
11.7684207125
 20
18.8350171879
 30
0.0
 10
11.8009095439
 20
18.8350171879
 30
0.0
  0
SPLINE
  5
288
100
AcDbEntity
  8
0
100
AcDbSpline
 62
7
  6
BYLAYER
 70
0
 71
3
 72
18
 73
14
 74
0
 42
0.0000001
 43
0.0000001
 44
0.0000000001
 40
0.0
 40
0.0
 40
0.0
 40
0.0
 40
0.1931919262
 40
0.3793650525
 40
0.5508014527
 40
0.7012054704
 40
0.8249742225
 40
0.9174090885
 40
0.9508651765
 40
0.9754718755
 40
0.9844994279
 40
0.9914323847
 40
1.0
 40
1.0
 40
1.0
 40
1.0
 10
40.2009095439
 20
18.8350171879
 30
0.0
 10
40.2333983941
 20
18.8350171879
 30
0.0
 10
40.297196646
 20
18.8354728768
 30
0.0
 10
40.3898061798
 20
18.8374826044
 30
0.0
 10
40.4751795068
 20
18.8407518331
 30
0.0
 10
40.5499989611
 20
18.8451049531
 30
0.0
 10
40.6114298694
 20
18.8503897882
 30
0.0
 10
40.6531159733
 20
18.8555976261
 30
0.0
 10
40.6779711283
 20
18.8605161041
 30
0.0
 10
40.6888532893
 20
18.8634477533
 30
0.0
 10
40.6952266718
 20
18.8660807547
 30
0.0
 10
40.6987333618
 20
18.8679946134
 30
0.0
 10
40.7009095439
 20
18.8702105065
 30
0.0
 10
40.7009095439
 20
18.8716513119
 30
0.0
  0
SPLINE
  5
289
100
AcDbEntity
  8
0
100
AcDbSpline
 62
7
  6
BYLAYER
 70
0
 71
3
 72
18
 73
14
 74
0
 42
0.0000001
 43
0.0000001
 44
0.0000000001
 40
0.0
 40
0.0
 40
0.0
 40
0.0
 40
0.1931919262
 40
0.3793650525
 40
0.5508014527
 40
0.7012054704
 40
0.8249742225
 40
0.9174090885
 40
0.9508651765
 40
0.9754718755
 40
0.9844994279
 40
0.9914323847
 40
1.0
 40
1.0
 40
1.0
 40
1.0
 10
44.7959095439
 20
16.477408786
 30
0.0
 10
44.8283983941
 20
16.477408786
 30
0.0
 10
44.892196646
 20
16.4778644749
 30
0.0
 10
44.9848061798
 20
16.4798742024
 30
0.0
 10
45.0701795068
 20
16.4831434312
 30
0.0
 10
45.1449989611
 20
16.4874965512
 30
0.0
 10
45.2064298694
 20
16.4927813862
 30
0.0
 10
45.2481159733
 20
16.4979892242
 30
0.0
 10
45.2729711283
 20
16.5029077022
 30
0.0
 10
45.2838532893
 20
16.5058393514
 30
0.0
 10
45.2902266718
 20
16.5084723527
 30
0.0
 10
45.2937333618
 20
16.5103862114
 30
0.0
 10
45.2959095439
 20
16.5126021046
 30
0.0
 10
45.2959095439
 20
16.51404291
 30
0.0
  0
SPLINE
  5
28A
100
AcDbEntity
  8
0
100
AcDbSpline
 62
7
  6
BYLAYER
 70
0
 71
3
 72
18
 73
14
 74
0
 42
0.0000001
 43
0.0000001
 44
0.0000000001
 40
0.0
 40
0.0
 40
0.0
 40
0.0
 40
0.0085676284
 40
0.0155006039
 40
0.0245281785
 40
0.0491349183
 40
0.0825910497
 40
0.1750260486
 40
0.2987948705
 40
0.4491989501
 40
0.6206352938
 40
0.8068081833
 40
1.0
 40
1.0
 40
1.0
 40
1.0
 10
6.7059095439
 20
16.51404291
 30
0.0
 10
6.7059095439
 20
16.5126021024
 30
0.0
 10
6.7080857384
 20
16.5103862093
 30
0.0
 10
6.7115924367
 20
16.5084723505
 30
0.0
 10
6.7179658341
 20
16.5058393476
 30
0.0
 10
6.7288480113
 20
16.502907693
 30
0.0
 10
6.7537032024
 20
16.4979892078
 30
0.0
 10
6.7953893481
 20
16.4927813745
 30
0.0
 10
6.8568203003
 20
16.4874965384
 30
0.0
 10
6.9316397668
 20
16.4831434222
 30
0.0
 10
7.0170130543
 20
16.4798741993
 30
0.0
 10
7.1096225194
 20
16.4778644714
 30
0.0
 10
7.1734207125
 20
16.477408786
 30
0.0
 10
7.2059095439
 20
16.477408786
 30
0.0
  0
SPLINE
  5
28B
100
AcDbEntity
  8
0
100
AcDbSpline
 62
7
  6
BYLAYER
 70
0
 71
3
 72
9
 73
5
 74
0
 42
0.0000001
 43
0.0000001
 44
0.0000000001
 40
0.0
 40
0.0
 40
0.0
 40
0.0
 40
0.4505950756
 40
1.0
 40
1.0
 40
1.0
 40
1.0
 10
30.0909095439
 20
17.3273204627
 30
0.0
 10
30.0909095439
 20
17.3314595708
 30
0.0
 10
30.0935591186
 20
17.3406811413
 30
0.0
 10
30.0995773846
 20
17.3478434456
 30
0.0
 10
30.103181497
 20
17.3513761765
 30
0.0
  0
SPLINE
  5
28C
100
AcDbEntity
  8
0
100
AcDbSpline
 62
7
  6
BYLAYER
 70
0
 71
3
 72
17
 73
13
 74
0
 42
0.0000001
 43
0.0000001
 44
0.0000000001
 40
0.0
 40
0.0
 40
0.0
 40
0.0
 40
0.0175927131
 40
0.0409175309
 40
0.0703645996
 40
0.1060817961
 40
0.1963573251
 40
0.3114835041
 40
0.4506455918
 40
0.6127329829
 40
0.796378457
 40
1.0
 40
1.0
 40
1.0
 40
1.0
 10
30.103181497
 20
17.3513761765
 30
0.0
 10
30.1092390691
 20
17.357313775
 30
0.0
 10
30.1256364494
 20
17.368675083
 30
0.0
 10
30.1562366055
 20
17.3833977525
 30
0.0
 10
30.19635302
 20
17.3980988485
 30
0.0
 10
30.2682842151
 20
17.4192348402
 30
0.0
 10
30.3819900941
 20
17.4440131628
 30
0.0
 10
30.5458854484
 20
17.4713129501
 30
0.0
 10
30.7449547946
 20
17.4975368795
 30
0.0
 10
30.9774332074
 20
17.5224141666
 30
0.0
 10
31.2412944923
 20
17.5456550401
 30
0.0
 10
31.4275256947
 20
17.5592462288
 30
0.0
 10
31.5254820049
 20
17.5658060783
 30
0.0
  0
SPLINE
  5
28D
100
AcDbEntity
  8
0
100
AcDbSpline
 62
7
  6
BYLAYER
 70
0
 71
3
 72
15
 73
11
 74
0
 42
0.0000001
 43
0.0000001
 44
0.0000000001
 40
0.0
 40
0.0
 40
0.0
 40
0.0
 40
0.1093333451
 40
0.2319267012
 40
0.3636266684
 40
0.4999624463
 40
0.6363028572
 40
0.7680167015
 40
0.890633504
 40
1.0
 40
1.0
 40
1.0
 40
1.0
 10
31.5254820049
 20
17.5658060783
 30
0.0
 10
31.7419457854
 20
17.580302029
 30
0.0
 10
32.20152664
 20
17.6051279181
 30
0.0
 10
32.9226311643
 20
17.630962193
 30
0.0
 10
33.6976160701
 20
17.6468644618
 30
0.0
 10
34.5000200122
 20
17.6522418082
 30
0.0
 10
35.3024516473
 20
17.6468880535
 30
0.0
 10
36.0775202814
 20
17.6310086723
 30
0.0
 10
36.7987654902
 20
17.6051957599
 30
0.0
 10
37.258459567
 20
17.5803846326
 30
0.0
 10
37.4749897845
 20
17.5658962846
 30
0.0
  0
SPLINE
  5
28E
100
AcDbEntity
  8
0
100
AcDbSpline
 62
7
  6
BYLAYER
 70
0
 71
3
 72
9
 73
5
 74
0
 42
0.0000001
 43
0.0000001
 44
0.0000000001
 40
0.0
 40
0.0
 40
0.0
 40
0.0
 40
0.2664103891
 40
1.0
 40
1.0
 40
1.0
 40
1.0
 10
37.4749897845
 20
17.5658962846
 30
0.0
 10
37.5191944493
 20
17.5629384869
 30
0.0
 10
37.685089771
 20
17.5513801616
 30
0.0
 10
37.8508609443
 20
17.5379524096
 30
0.0
 10
37.9723255301
 20
17.5265943657
 30
0.0
  0
SPLINE
  5
28F
100
AcDbEntity
  8
0
100
AcDbSpline
 62
7
  6
BYLAYER
 70
0
 71
3
 72
16
 73
12
 74
0
 42
0.0000001
 43
0.0000001
 44
0.0000000001
 40
0.0
 40
0.0
 40
0.0
 40
0.0
 40
0.3840441029
 40
0.5439805918
 40
0.6814341138
 40
0.7957987355
 40
0.8867808313
 40
0.9235028107
 40
0.9544560944
 40
0.9798307261
 40
1.0
 40
1.0
 40
1.0
 40
1.0
 10
37.9723255301
 20
17.5265943657
 30
0.0
 10
38.0933156612
 20
17.5152806876
 30
0.0
 10
38.264543885
 20
17.4972492534
 30
0.0
 10
38.4781255328
 20
17.4675738151
 30
0.0
 10
38.6066491757
 20
17.4460456558
 30
0.0
 10
38.7128735633
 20
17.4239888306
 30
0.0
 10
38.7869753197
 20
17.4042501168
 30
0.0
 10
38.8343768766
 20
17.3876449107
 30
0.0
 10
38.8614717627
 20
17.3760297235
 30
0.0
 10
38.8827334925
 20
17.3643896383
 30
0.0
 10
38.8943268306
 20
17.3556415847
 30
0.0
 10
38.8988635943
 20
17.3511531167
 30
0.0
  0
SPLINE
  5
290
100
AcDbEntity
  8
0
100
AcDbSpline
 62
7
  6
BYLAYER
 70
0
 71
3
 72
9
 73
5
 74
0
 42
0.0000001
 43
0.0000001
 44
0.0000000001
 40
0.0
 40
0.0
 40
0.0
 40
0.0
 40
0.5487067025
 40
1.0
 40
1.0
 40
1.0
 40
1.0
 10
38.8988635943
 20
17.3511531167
 30
0.0
 10
38.902405926
 20
17.3476484945
 30
0.0
 10
38.9083184497
 20
17.3405371227
 30
0.0
 10
38.9109095439
 20
17.3314188337
 30
0.0
 10
38.9109095439
 20
17.3273204627
 30
0.0
  0
SPLINE
  5
291
100
AcDbEntity
  8
0
100
AcDbSpline
 62
7
  6
BYLAYER
 70
0
 71
3
 72
9
 73
5
 74
0
 42
0.0000001
 43
0.0000001
 44
0.0000000001
 40
0.0
 40
0.0
 40
0.0
 40
0.0
 40
0.4505950756
 40
1.0
 40
1.0
 40
1.0
 40
1.0
 10
13.0909095439
 20
17.3273204627
 30
0.0
 10
13.0909095439
 20
17.3314595708
 30
0.0
 10
13.0935591186
 20
17.3406811413
 30
0.0
 10
13.0995773846
 20
17.3478434456
 30
0.0
 10
13.103181497
 20
17.3513761765
 30
0.0
  0
SPLINE
  5
292
100
AcDbEntity
  8
0
100
AcDbSpline
 62
7
  6
BYLAYER
 70
0
 71
3
 72
17
 73
13
 74
0
 42
0.0000001
 43
0.0000001
 44
0.0000000001
 40
0.0
 40
0.0
 40
0.0
 40
0.0
 40
0.0175927131
 40
0.0409175309
 40
0.0703645996
 40
0.1060817961
 40
0.1963573251
 40
0.3114835041
 40
0.4506455918
 40
0.6127329829
 40
0.796378457
 40
1.0
 40
1.0
 40
1.0
 40
1.0
 10
13.103181497
 20
17.3513761765
 30
0.0
 10
13.1092390691
 20
17.357313775
 30
0.0
 10
13.1256364494
 20
17.368675083
 30
0.0
 10
13.1562366055
 20
17.3833977525
 30
0.0
 10
13.19635302
 20
17.3980988485
 30
0.0
 10
13.2682842151
 20
17.4192348402
 30
0.0
 10
13.3819900941
 20
17.4440131628
 30
0.0
 10
13.5458854484
 20
17.4713129501
 30
0.0
 10
13.7449547946
 20
17.4975368795
 30
0.0
 10
13.9774332074
 20
17.5224141666
 30
0.0
 10
14.2412944923
 20
17.5456550401
 30
0.0
 10
14.4275256947
 20
17.5592462288
 30
0.0
 10
14.5254820049
 20
17.5658060783
 30
0.0
  0
SPLINE
  5
293
100
AcDbEntity
  8
0
100
AcDbSpline
 62
7
  6
BYLAYER
 70
0
 71
3
 72
15
 73
11
 74
0
 42
0.0000001
 43
0.0000001
 44
0.0000000001
 40
0.0
 40
0.0
 40
0.0
 40
0.0
 40
0.1093333451
 40
0.2319267012
 40
0.3636266684
 40
0.4999624463
 40
0.6363028572
 40
0.7680167015
 40
0.890633504
 40
1.0
 40
1.0
 40
1.0
 40
1.0
 10
14.5254820049
 20
17.5658060783
 30
0.0
 10
14.7419457854
 20
17.580302029
 30
0.0
 10
15.20152664
 20
17.6051279181
 30
0.0
 10
15.9226311643
 20
17.630962193
 30
0.0
 10
16.6976160701
 20
17.6468644618
 30
0.0
 10
17.5000200122
 20
17.6522418082
 30
0.0
 10
18.3024516473
 20
17.6468880535
 30
0.0
 10
19.0775202814
 20
17.6310086723
 30
0.0
 10
19.7987654902
 20
17.6051957599
 30
0.0
 10
20.258459567
 20
17.5803846326
 30
0.0
 10
20.4749897845
 20
17.5658962846
 30
0.0
  0
SPLINE
  5
294
100
AcDbEntity
  8
0
100
AcDbSpline
 62
7
  6
BYLAYER
 70
0
 71
3
 72
17
 73
13
 74
0
 42
0.0000001
 43
0.0000001
 44
0.0000000001
 40
0.0
 40
0.0
 40
0.0
 40
0.0
 40
0.2037512634
 40
0.387499087
 40
0.5496521395
 40
0.6888414249
 40
0.803949425
 40
0.894162255
 40
0.9298310865
 40
0.9592189026
 40
0.9824766405
 40
1.0
 40
1.0
 40
1.0
 40
1.0
 10
20.4749897845
 20
17.5658962846
 30
0.0
 10
20.5731217437
 20
17.5593301342
 30
0.0
 10
20.7596798196
 20
17.5457243868
 30
0.0
 10
21.0239891419
 20
17.5224550753
 30
0.0
 10
21.256829404
 20
17.4975430495
 30
0.0
 10
21.4561636654
 20
17.471282219
 30
0.0
 10
21.6202199484
 20
17.4439420788
 30
0.0
 10
21.7339917529
 20
17.4191257994
 30
0.0
 10
21.8059166159
 20
17.3979532085
 30
0.0
 10
21.8459882596
 20
17.3832298389
 30
0.0
 10
21.8765170186
 20
17.3684866982
 30
0.0
 10
21.8928505537
 20
17.3571021461
 30
0.0
 10
21.8988635943
 20
17.3511531167
 30
0.0
  0
SPLINE
  5
295
100
AcDbEntity
  8
0
100
AcDbSpline
 62
7
  6
BYLAYER
 70
0
 71
3
 72
9
 73
5
 74
0
 42
0.0000001
 43
0.0000001
 44
0.0000000001
 40
0.0
 40
0.0
 40
0.0
 40
0.0
 40
0.5487067025
 40
1.0
 40
1.0
 40
1.0
 40
1.0
 10
21.8988635943
 20
17.3511531167
 30
0.0
 10
21.902405926
 20
17.3476484945
 30
0.0
 10
21.9083184497
 20
17.3405371227
 30
0.0
 10
21.9109095439
 20
17.3314188337
 30
0.0
 10
21.9109095439
 20
17.3273204627
 30
0.0
  0
SPLINE
  5
296
100
AcDbEntity
  8
0
100
AcDbSpline
 62
7
  6
BYLAYER
 70
0
 71
3
 72
15
 73
11
 74
0
 42
0.0000001
 43
0.0000001
 44
0.0000000001
 40
0.0
 40
0.0
 40
0.0
 40
0.0
 40
0.0999286285
 40
0.1384700936
 40
0.1833183887
 40
0.2927165405
 40
0.4290658342
 40
0.5925043969
 40
0.7829028143
 40
1.0
 40
1.0
 40
1.0
 40
1.0
 10
21.9109095439
 20
17.3273204627
 30
0.0
 10
21.9109095439
 20
17.3133062914
 30
0.0
 10
21.8933738349
 20
17.2970402082
 30
0.0
 10
21.8718896037
 20
17.2841944728
 30
0.0
 10
21.8474742908
 20
17.2720821626
 30
0.0
 10
21.8093747533
 20
17.2577260613
 30
0.0
 10
21.7542833675
 20
17.2414098588
 30
0.0
 10
21.6874437766
 20
17.2253044545
 30
0.0
 10
21.6089517377
 20
17.2094054942
 30
0.0
 10
21.5526389641
 20
17.199637907
 30
0.0
 10
21.5225885226
 20
17.1947454583
 30
0.0
  0
SPLINE
  5
297
100
AcDbEntity
  8
0
100
AcDbSpline
 62
7
  6
BYLAYER
 70
0
 71
3
 72
15
 73
11
 74
0
 42
0.0000001
 43
0.0000001
 44
0.0000000001
 40
0.0
 40
0.0
 40
0.0
 40
0.0
 40
0.2171169604
 40
0.4075349019
 40
0.5709904854
 40
0.707350685
 40
0.8167508096
 40
0.8615965877
 40
0.9001326426
 40
1.0
 40
1.0
 40
1.0
 40
1.0
 10
13.4801804178
 20
17.1945908972
 30
0.0
 10
13.4500577325
 20
17.1994882283
 30
0.0
 10
13.3936090805
 20
17.209265971
 30
0.0
 10
13.3149264341
 20
17.2251821004
 30
0.0
 10
13.2479234372
 20
17.2413055359
 30
0.0
 10
13.1926967477
 20
17.2576406234
 30
0.0
 10
13.1545035682
 20
17.272013915
 30
0.0
 10
13.130026922
 20
17.2841413023
 30
0.0
 10
13.1084964754
 20
17.2969989548
 30
0.0
 10
13.0909095439
 20
17.3132830003
 30
0.0
 10
13.0909095439
 20
17.3273204627
 30
0.0
  0
LINE
  5
298
100
AcDbEntity
  8
0
100
AcDbLine
 62
7
  6
BYLAYER
 10
11.3009095439
 20
19.4411094173
 11
11.3010879345
 21
19.4420809153
  0
SPLINE
  5
299
100
AcDbEntity
  8
0
100
AcDbSpline
 62
7
  6
BYLAYER
 70
0
 71
3
 72
18
 73
14
 74
0
 42
0.0000001
 43
0.0000001
 44
0.0000000001
 40
0.0
 40
0.0
 40
0.0
 40
0.0
 40
0.0100259063
 40
0.0277663866
 40
0.0539952418
 40
0.0887736
 40
0.1318422547
 40
0.1828476249
 40
0.3069333612
 40
0.4564583239
 40
0.6260530023
 40
0.809698
 40
1.0
 40
1.0
 40
1.0
 40
1.0
 10
11.3010879345
 20
19.4420809153
 30
0.0
 10
11.3016675821
 20
19.4436608888
 30
0.0
 10
11.3058645653
 20
19.4465881214
 30
0.0
 10
11.3141628327
 20
19.4496825021
 30
0.0
 10
11.3270901856
 20
19.4529891359
 30
0.0
 10
11.3442334866
 20
19.4561542323
 30
0.0
 10
11.3656592973
 20
19.4592539113
 30
0.0
 10
11.4020343432
 20
19.4634535236
 30
0.0
 10
11.4563551486
 20
19.4679462873
 30
0.0
 10
11.5306327195
 20
19.4721939187
 30
0.0
 10
11.614972943
 20
19.4753555335
 30
0.0
 10
11.7061938503
 20
19.4773028803
 30
0.0
 10
11.7689654989
 20
19.4777435413
 30
0.0
 10
11.8009095439
 20
19.4777435413
 30
0.0
  0
SPLINE
  5
29A
100
AcDbEntity
  8
0
100
AcDbSpline
 62
7
  6
BYLAYER
 70
0
 71
3
 72
8
 73
4
 74
0
 42
0.0000001
 43
0.0000001
 44
0.0000000001
 40
0.0
 40
0.0
 40
0.0
 40
0.0
 40
1.0
 40
1.0
 40
1.0
 40
1.0
 10
40.7009095439
 20
19.4211631719
 30
0.0
 10
40.7009095439
 20
19.421858894
 30
0.0
 10
40.7005993283
 20
19.4225611602
 30
0.0
 10
40.7001863236
 20
19.423121032
 30
0.0
  0
SPLINE
  5
29B
100
AcDbEntity
  8
0
100
AcDbSpline
 62
7
  6
BYLAYER
 70
0
 71
3
 72
18
 73
14
 74
0
 42
0.0000001
 43
0.0000001
 44
0.0000000001
 40
0.0
 40
0.0
 40
0.0
 40
0.0
 40
0.0117517976
 40
0.0313123591
 40
0.0591348148
 40
0.0951918218
 40
0.1391998926
 40
0.1908171856
 40
0.3151545802
 40
0.4637571696
 40
0.6314851906
 40
0.8125909699
 40
1.0
 40
1.0
 40
1.0
 40
1.0
 10
40.7001863236
 20
19.423121032
 30
0.0
 10
40.6990178063
 20
19.4247050813
 30
0.0
 10
40.694211927
 20
19.4273825086
 30
0.0
 10
40.6849394903
 20
19.4305503111
 30
0.0
 10
40.671259794
 20
19.4337445189
 30
0.0
 10
40.6534778709
 20
19.4368609587
 30
0.0
 10
40.6316162108
 20
19.439875471
 30
0.0
 10
40.594999359
 20
19.4439491845
 30
0.0
 10
40.5407983832
 20
19.4483085573
 30
0.0
 10
40.4670988332
 20
19.4524276426
 30
0.0
 10
40.3838301793
 20
19.4554884643
 30
0.0
 10
40.2940270335
 20
19.4573711463
 30
0.0
 10
40.2323003278
 20
19.4577972959
 30
0.0
 10
40.2009095439
 20
19.4577972959
 30
0.0
  0
SPLINE
  5
29C
100
AcDbEntity
  8
0
100
AcDbSpline
 62
7
  6
BYLAYER
 70
0
 71
3
 72
18
 73
14
 74
0
 42
0.0000001
 43
0.0000001
 44
0.0000000001
 40
0.0
 40
0.0
 40
0.0
 40
0.0
 40
0.1874080552
 40
0.3685131205
 40
0.5362405112
 40
0.6848427038
 40
0.8091801059
 40
0.8607975818
 40
0.9048059255
 40
0.9408633439
 40
0.968686357
 40
0.9882475551
 40
1.0
 40
1.0
 40
1.0
 40
1.0
 10
11.8009095439
 20
19.4577972959
 30
0.0
 10
11.769518951
 20
19.4577972959
 30
0.0
 10
11.7077925826
 20
19.4573711483
 30
0.0
 10
11.6179899041
 20
19.4554884912
 30
0.0
 10
11.5347216145
 20
19.4524277005
 30
0.0
 10
11.4610222978
 20
19.4483086626
 30
0.0
 10
11.4068214022
 20
19.4439493345
 30
0.0
 10
11.3702044986
 20
19.4398756708
 30
0.0
 10
11.3483427098
 20
19.4368611887
 30
0.0
 10
11.3305605814
 20
19.4337447731
 30
0.0
 10
11.3168806296
 20
19.430550606
 30
0.0
 10
11.3076078434
 20
19.4273828015
 30
0.0
 10
11.3028017558
 20
19.424705435
 30
0.0
 10
11.3016330351
 20
19.4231214032
 30
0.0
  0
SPLINE
  5
29D
100
AcDbEntity
  8
0
100
AcDbSpline
 62
7
  6
BYLAYER
 70
0
 71
3
 72
8
 73
4
 74
0
 42
0.0000001
 43
0.0000001
 44
0.0000000001
 40
0.0
 40
0.0
 40
0.0
 40
0.0
 40
1.0
 40
1.0
 40
1.0
 40
1.0
 10
11.3016330351
 20
19.4231214032
 30
0.0
 10
11.3012198933
 20
19.4225614494
 30
0.0
 10
11.3009095439
 20
19.4218590414
 30
0.0
 10
11.3009095439
 20
19.4211631719
 30
0.0
  0
SPLINE
  5
29E
100
AcDbEntity
  8
0
100
AcDbSpline
 62
7
  6
BYLAYER
 70
0
 71
3
 72
18
 73
14
 74
0
 42
0.0000001
 43
0.0000001
 44
0.0000000001
 40
0.0
 40
0.0
 40
0.0
 40
0.0
 40
0.1903015615
 40
0.373946317
 40
0.5435407079
 40
0.6930654455
 40
0.817151162
 40
0.8681565998
 40
0.9112253607
 40
0.9460039118
 40
0.9722330327
 40
0.989973812
 40
1.0
 40
1.0
 40
1.0
 40
1.0
 10
40.2009095439
 20
19.4777435413
 30
0.0
 10
40.2328535039
 20
19.4777435413
 30
0.0
 10
40.2956250158
 20
19.4773028796
 30
0.0
 10
40.3868457282
 20
19.4753555454
 30
0.0
 10
40.4711857951
 20
19.4721939432
 30
0.0
 10
40.5454632513
 20
19.4679463338
 30
0.0
 10
40.5997840085
 20
19.4634535918
 30
0.0
 10
40.6361590706
 20
19.4592540037
 30
0.0
 10
40.6575849363
 20
19.4561543407
 30
0.0
 10
40.674728333
 20
19.4529892536
 30
0.0
 10
40.6876558096
 20
19.4496826542
 30
0.0
 10
40.6959542396
 20
19.4465882495
 30
0.0
 10
40.7001513289
 20
19.4436610819
 30
0.0
 10
40.7007310867
 20
19.4420810992
 30
0.0
  0
LINE
  5
29F
100
AcDbEntity
  8
0
100
AcDbLine
 62
7
  6
BYLAYER
 10
40.7007310867
 20
19.4420810992
 11
40.7009095439
 21
19.4411094173
  0
SPLINE
  5
2A0
100
AcDbEntity
  8
0
100
AcDbSpline
 62
7
  6
BYLAYER
 70
0
 71
3
 72
19
 73
15
 74
0
 42
0.0000001
 43
0.0000001
 44
0.0000000001
 40
0.0
 40
0.0
 40
0.0
 40
0.0
 40
0.0142570474
 40
0.0322672152
 40
0.0560311764
 40
0.0864098864
 40
0.1237904543
 40
0.1683425567
 40
0.220106998
 40
0.279071315
 40
0.4184126066
 40
0.5857375834
 40
0.7799966382
 40
1.0
 40
1.0
 40
1.0
 40
1.0
 10
38.9109095439
 20
17.3273204627
 30
0.0
 10
38.9109095439
 20
17.3226699107
 30
0.0
 10
38.9074444963
 20
17.3121350227
 30
0.0
 10
38.8946826963
 20
17.2986594704
 30
0.0
 10
38.8750514695
 20
17.285506688
 30
0.0
 10
38.8481240663
 20
17.2724642097
 30
0.0
 10
38.8138435574
 20
17.2594617399
 30
0.0
 10
38.7721681112
 20
17.2465430297
 30
0.0
 10
38.7231529069
 20
17.2337242668
 30
0.0
 10
38.6435622545
 20
17.2158028294
 30
0.0
 10
38.5261766522
 20
17.1944549547
 30
0.0
 10
38.364483859
 20
17.1707819871
 30
0.0
 10
38.1761214653
 20
17.1480725418
 30
0.0
 10
38.0416657643
 20
17.1345199925
 30
0.0
 10
37.9702128859
 20
17.1278491105
 30
0.0
  0
SPLINE
  5
2A1
100
AcDbEntity
  8
0
100
AcDbSpline
 62
7
  6
BYLAYER
 70
0
 71
3
 72
9
 73
5
 74
0
 42
0.0000001
 43
0.0000001
 44
0.0000000001
 40
0.0
 40
0.0
 40
0.0
 40
0.0
 40
0.2300198269
 40
1.0
 40
1.0
 40
1.0
 40
1.0
 10
37.9702128859
 20
17.1278491105
 30
0.0
 10
37.9223350674
 20
17.1233792097
 30
0.0
 10
37.714090877
 20
17.1049938233
 30
0.0
 10
37.5055311934
 20
17.0903073455
 30
0.0
 10
37.3448722881
 20
17.0803752627
 30
0.0
  0
SPLINE
  5
2A2
100
AcDbEntity
  8
0
100
AcDbSpline
 62
7
  6
BYLAYER
 70
0
 71
3
 72
21
 73
17
 74
0
 42
0.0000001
 43
0.0000001
 44
0.0000000001
 40
0.0
 40
0.0
 40
0.0
 40
0.0
 40
0.124874688
 40
0.2497411989
 40
0.3122604929
 40
0.3747756815
 40
0.4372953998
 40
0.4998240525
 40
0.5623533646
 40
0.624879558
 40
0.6874040915
 40
0.7499264137
 40
0.8124398116
 40
0.8749564144
 40
0.937503302
 40
1.0
 40
1.0
 40
1.0
 40
1.0
 10
20.0892857116
 20
43.0784391449
 30
0.0
 10
20.0350755043
 20
42.6476176341
 30
0.0
 10
20.0190735341
 20
41.7713746001
 30
0.0
 10
20.240706303
 20
40.6988858102
 30
0.0
 10
20.5551325738
 20
39.8871780367
 30
0.0
 10
20.8577201171
 20
39.3078430897
 30
0.0
 10
21.2234116072
 20
38.7661596612
 30
0.0
 10
21.6477162505
 20
38.2689601901
 30
0.0
 10
22.1254797615
 20
37.8228088491
 30
0.0
 10
22.6511865449
 20
37.4342869358
 30
0.0
 10
23.2178714239
 20
37.108470778
 30
0.0
 10
23.818275524
 20
36.8500723118
 30
0.0
 10
24.444487226
 20
36.6627654082
 30
0.0
 10
25.0884126839
 20
36.5496855132
 30
0.0
 10
25.7410424073
 20
36.5134347345
 30
0.0
 10
26.1761869476
 20
36.5403175881
 30
0.0
 10
26.3919386249
 20
36.5663436134
 30
0.0
  0
SPLINE
  5
2A3
100
AcDbEntity
  8
0
100
AcDbSpline
 62
7
  6
BYLAYER
 70
0
 71
3
 72
22
 73
18
 74
0
 42
0.0000001
 43
0.0000001
 44
0.0000000001
 40
0.0
 40
0.0
 40
0.0
 40
0.0
 40
0.1248221707
 40
0.187329411
 40
0.2498383269
 40
0.3123451295
 40
0.3748386565
 40
0.4373417787
 40
0.4998574577
 40
0.5623773159
 40
0.6248930459
 40
0.6874048364
 40
0.7499172707
 40
0.812430014
 40
0.8749478018
 40
0.9374940676
 40
1.0
 40
1.0
 40
1.0
 40
1.0
 10
26.3919386249
 20
36.5663436134
 30
0.0
 10
26.8259536721
 20
36.5751740395
 30
0.0
 10
27.4789809478
 20
36.6675671754
 30
0.0
 10
28.306086173
 20
36.937984923
 30
0.0
 10
28.8995530915
 20
37.2122529872
 30
0.0
 10
29.4570963825
 20
37.5532062866
 30
0.0
 10
29.9717523759
 20
37.9560170653
 30
0.0
 10
30.4367838525
 20
38.4152316139
 30
0.0
 10
30.8465975088
 20
38.9244254057
 30
0.0
 10
31.196190315
 20
39.4767393706
 30
0.0
 10
31.4813628608
 20
40.0648764176
 30
0.0
 10
31.6987955176
 20
40.6812473091
 30
0.0
 10
31.8458647113
 20
41.3180528689
 30
0.0
 10
31.9217321398
 20
41.9671800745
 30
0.0
 10
31.9257199523
 20
42.6208836904
 30
0.0
 10
31.8568684182
 20
43.2708454855
 30
0.0
 10
31.7644288903
 20
43.696800472
 30
0.0
 10
31.7072486419
 20
43.9065276288
 30
0.0
  0
ELLIPSE
  5
2A4
100
AcDbEntity
  8
0
100
AcDbEllipse
 62
7
  6
BYLAYER
 10
6.5028153508
 20
15.9258913672
 30
0.0
 11
1.0002543964
 21
0.0001220499
 31
0.0
 40
0.073446918
 41
3.1399313354
 42
4.7107276622
  0
ELLIPSE
  5
2A5
100
AcDbEntity
  8
0
100
AcDbEllipse
 62
7
  6
BYLAYER
 10
45.499003737
 20
15.9258913672
 30
0.0
 11
1.0002543964
 21
-0.0001220499
 31
0.0
 40
0.073446918
 41
-1.5691350086
 42
0.0016613182
  0
ELLIPSE
  5
2A6
100
AcDbEntity
  8
0
100
AcDbEllipse
 62
7
  6
BYLAYER
 10
45.4107455035
 20
19.8489599593
 30
0.0
 11
1.0002543964
 21
-0.0001220499
 31
0.0
 40
0.073446918
 41
0.0016613183
 42
1.572457645
  0
ELLIPSE
  5
2A7
100
AcDbEntity
  8
0
100
AcDbEllipse
 62
7
  6
BYLAYER
 10
6.5910735843
 20
19.8489599593
 30
0.0
 11
1.0002543964
 21
0.0001220499
 31
0.0
 40
0.073446918
 41
1.5691350086
 42
3.1399313353
  0
ENDSEC
  0
SECTION
  2
OBJECTS
  0
DICTIONARY
  5
C
100
AcDbDictionary
280
0
281
1
  3
ACAD_GROUP
350
D
  3
ACAD_MLINESTYLE
350
17
  3
ACAD_LAYOUT
350
1A
  3
ACAD_PLOTSETTINGS
350
19
  3
ACAD_PLOTSTYLENAME
350
E
  0
DICTIONARY
  5
D
102
{ACAD_REACTORS
330
C
102
}
100
AcDbDictionary
280
0
281
1
  0
ACDBDICTIONARYWDFLT
  5
E
102
{ACAD_REACTORS
330
C
102
}
100
AcDbDictionary
281
1
  3
Normal
350
F
100
AcDbDictionaryWithDefault
340
F
  0
DICTIONARY
  5
17
102
{ACAD_REACTORS
330
C
102
}
100
AcDbDictionary
280
0
281
1
  3
Standard
350
18
  0
DICTIONARY
  5
19
102
{ACAD_REACTORS
330
C
102
}
100
AcDbDictionary
281
1
  0
DICTIONARY
  5
1A
102
{ACAD_REACTORS
330
C
102
}
100
AcDbDictionary
281
1
  3
Model
350
2A8
  3
Layout1
350
2A9
  0
ACDBPLACEHOLDER
  5
F
102
{ACAD_REACTORS
330
E
102
}
  0
MLINESTYLE
  5
18
102
{ACAD_REACTORS
330
17
102
}
100
AcDbMlineStyle
  2
STANDARD
 70
0
  3

 62
256
 51
90.0
 52
90.0
 71
2
 49
0.5
 62
256
  6
BYLAYER
 49
-0.5
 62
256
  6
BYLAYER
  0
LAYOUT
  5
2A8
102
{ACAD_REACTORS
330
1A
102
}
100
AcDbPlotSettings
  1

  2
none_device
  4

  6

 40
0.0
 41
0.0
 42
0.0
 43
0.0
 44
210.0
 45
297.0
 46
0.0
 47
0.0
 48
0.0
 49
0.0
140
0.0
141
0.0
142
1.0
143
1.0
 70
1024
 72
1
 73
0
 74
0
  7

 75
0
147
1.0
148
0.0
149
0.0
100
AcDbLayout
  1
Model
 70
0
 71
0
 10
0.0
 20
0.0
 11
210.0
 21
297.0
 12
0.0
 22
0.0
 32
0.0
 14
0.0
 24
0.0
 34
0.0
 15
0.0
 25
0.0
 35
0.0
146
0.0
 13
0.0
 23
0.0
 33
0.0
 16
1.0
 26
0.0
 36
0.0
 17
0.0
 27
1.0
 37
0.0
 76
0
330
210
345
0
346
0
  0
LAYOUT
  5
2A9
102
{ACAD_REACTORS
330
1A
102
}
100
AcDbPlotSettings
  1

  2
none_device
  4

  6

 40
0.0
 41
0.0
 42
0.0
 43
0.0
 44
210.0
 45
297.0
 46
0.0
 47
0.0
 48
0.0
 49
0.0
140
0.0
141
0.0
142
1.0
143
1.0
 70
0
 72
1
 73
0
 74
0
  7

 75
0
147
1.0
148
0.0
149
0.0
100
AcDbLayout
  1
Layout1
 70
0
 71
1
 10
0.0
 20
0.0
 11
210.0
 21
297.0
 12
0.0
 22
0.0
 32
0.0
 14
0.0
 24
0.0
 34
0.0
 15
0.0
 25
0.0
 35
0.0
146
0.0
 13
0.0
 23
0.0
 33
0.0
 16
1.0
 26
0.0
 36
0.0
 17
0.0
 27
1.0
 37
0.0
 76
0
330
211
345
0
346
0
  0
ENDSEC
  0
EOF
