999
DXF file: C:\Users\sesa63760\Dev\_Creo\CAD\MCADID0004018_3D-CAD\drw0001_4.dxf
999
Pro/ENGINEER 2019471 by Parametric Technology Corporation
  0
SECTION
  2
HEADER
  9
$ACADVER
  1
AC1024
  9
$DWGCODEPAGE
  3
ANSI_1252
  9
$EXTMAX
 10
75.944575061
 20
107.4073275862
 30
0.0
  9
$EXTMIN
 10
0.0
 20
0.0
 30
0.0
  9
$LIMMIN
 10
0.0
 20
0.0
  9
$LIMMAX
 10
75.944575061
 20
107.4073275862
  9
$VIEWCTR
 10
37.9722875305
 20
53.7036637931
  9
$VIEWSIZE
 40
107.4073275862
  9
$CLAYER
  8
0
  9
$LTSCALE
 40
7.001366539
  9
$CELTYPE
  6
BYLAYER
  9
$DIMSCALE
 40
1.0
  9
$DIMASZ
 40
0.9041020841
  9
$DIMEXO
 40
1.0
  9
$DIMDLI
 40
4.8373077905
  9
$DIMEXE
 40
1.0
  9
$DIMCEN
 40
1.1456781609
  9
$DIMLFAC
 40
1.0
  9
$DIMBLK
  1
_FILLED
  9
$DIMALT
 70
0
  9
$DIMALTF
 40
0.0393700787
  9
$DIMTXT
 40
1.2657429177
  9
$DIMTOL
 70
1
  9
$DIMLIM
 70
0
  9
$DIMTFAC
 40
1.0
  9
$DIMTP
 40
0.01
  9
$DIMTM
 40
0.01
  9
$DIMGAP
 40
0.625
  9
$DIMDSEP
 70
46
  9
$AUNITS
 70
0
  9
$PDMODE
 70
3
  9
$PDSIZE
 40
0.3125
  9
$HANDSEED
  5
275
  9
$TILEMODE
 70
1
  9
$MEASUREMENT
 70
1
  9
$INSUNITS
 70
4
  0
ENDSEC
  0
SECTION
  2
CLASSES
  0
CLASS
  1
ACDBDICTIONARYWDFLT
  2
AcDbDictionaryWithDefault
  3
AutoCAD 2000
 90
0
 91
1
280
0
281
0
  0
CLASS
  1
ACDBPLACEHOLDER
  2
AcDbPlaceHolder
  3
AutoCAD 2000
 90
0
 91
1
280
0
281
0
  0
CLASS
  1
LAYOUT
  2
AcDbLayout
  3
AutoCAD 2000
 90
0
 91
0
280
0
281
0
  0
ENDSEC
  0
SECTION
  2
TABLES
  0
TABLE
  2
VPORT
  5
8
100
AcDbSymbolTable
 70
2
  0
VPORT
  5
1F4
100
AcDbSymbolTableRecord
100
AcDbViewportTableRecord
  2
*ACTIVE
 70
0
 10
0.0
 20
0.0
 11
1.0
 21
1.0
 12
37.9722875305
 22
53.7036637931
 13
0.0
 23
0.0
 14
1.0
 24
1.0
 15
0.0
 25
0.0
 16
0.0
 26
0.0
 36
1.0
 17
0.0
 27
0.0
 37
0.0
 40
107.4073275862
 41
0.7070707071
 42
50.0
 43
0.0
 44
0.0
 50
0.0
 51
0.0
 71
0
 72
100
 73
1
 74
1
 75
0
 76
0
 77
0
 78
0
  0
ENDTAB
  0
TABLE
  2
LTYPE
  5
5
100
AcDbSymbolTable
 70
6
  0
LTYPE
  5
14
100
AcDbSymbolTableRecord
100
AcDbLinetypeTableRecord
  2
BYBLOCK
 70
0
  3

 72
65
 73
0
 40
0.0
  0
LTYPE
  5
15
100
AcDbSymbolTableRecord
100
AcDbLinetypeTableRecord
  2
BYLAYER
 70
0
  3

 72
65
 73
0
 40
0.0
  0
LTYPE
  5
16
100
AcDbSymbolTableRecord
100
AcDbLinetypeTableRecord
  2
CONTINUOUS
 70
64
  3
Solid line
 72
65
 73
0
 40
0.0
  0
LTYPE
  5
1F5
100
AcDbSymbolTableRecord
100
AcDbLinetypeTableRecord
  2
CENTER
 70
64
  3
____ _ ____ _ ____ _ ____ _ ____ _ ____ _ ____
 72
65
 73
4
 40
0.6
 49
0.375
 74
0
 49
-0.075
 74
0
 49
0.075
 74
0
 49
-0.075
 74
0
  0
LTYPE
  5
1F6
100
AcDbSymbolTableRecord
100
AcDbLinetypeTableRecord
  2
HIDDEN
 70
64
  3
- - - - - - - - - - - - - - - - - - - -
 72
65
 73
2
 40
0.2
 49
0.1
 74
0
 49
-0.1
 74
0
  0
LTYPE
  5
1F7
100
AcDbSymbolTableRecord
100
AcDbLinetypeTableRecord
  2
PHANTOM
 70
64
  3
_____ _ _ _____ _ _ _____ _ _ _____
 72
65
 73
6
 40
0.8
 49
0.45
 74
0
 49
-0.05
 74
0
 49
0.1
 74
0
 49
-0.05
 74
0
 49
0.1
 74
0
 49
-0.05
 74
0
  0
LTYPE
  5
1F8
100
AcDbSymbolTableRecord
100
AcDbLinetypeTableRecord
  2
DOT
 70
64
  3
. . . . . . . . . . . . . . . . . . . .
 72
65
 73
2
 40
0.2
 49
0.1
 74
0
 49
-0.1
 74
0
  0
LTYPE
  5
1F9
100
AcDbSymbolTableRecord
100
AcDbLinetypeTableRecord
  2
DASHED
 70
64
  3
- - - - - - - - - - - - - - - - - - - -
 72
65
 73
2
 40
0.2
 49
0.1
 74
0
 49
-0.1
 74
0
  0
ENDTAB
  0
TABLE
  2
LAYER
  5
2
100
AcDbSymbolTable
 70
36
  0
LAYER
  5
10
100
AcDbSymbolTableRecord
100
AcDbLayerTableRecord
  2
0
 70
0
 62
7
  6
CONTINUOUS
370
-3
390
F
  0
LAYER
  5
1FA
100
AcDbSymbolTableRecord
100
AcDbLayerTableRecord
  2
DEFAULT_1
 70
0
 62
7
  6
CENTER
370
-3
390
F
  0
LAYER
  5
1FB
100
AcDbSymbolTableRecord
100
AcDbLayerTableRecord
  2
DEFAULT_2
 70
0
 62
7
  6
HIDDEN
370
-3
390
F
  0
LAYER
  5
1FC
100
AcDbSymbolTableRecord
100
AcDbLayerTableRecord
  2
DEFAULT_3
 70
0
 62
7
  6
PHANTOM
370
-3
390
F
  0
LAYER
  5
1FD
100
AcDbSymbolTableRecord
100
AcDbLayerTableRecord
  2
00_COMPONENTS
 70
0
 62
7
  6
CONTINUOUS
370
-3
390
F
  0
LAYER
  5
1FE
100
AcDbSymbolTableRecord
100
AcDbLayerTableRecord
  2
01_1_DEFAULT_DATUMS
 70
0
 62
7
  6
CONTINUOUS
370
-3
390
F
  0
LAYER
  5
1FF
100
AcDbSymbolTableRecord
100
AcDbLayerTableRecord
  2
01_PLANES
 70
0
 62
7
  6
CONTINUOUS
370
-3
390
F
  0
LAYER
  5
200
100
AcDbSymbolTableRecord
100
AcDbLayerTableRecord
  2
02_COORD_SYS
 70
0
 62
7
  6
CONTINUOUS
370
-3
390
F
  0
LAYER
  5
201
100
AcDbSymbolTableRecord
100
AcDbLayerTableRecord
  2
03_AXES
 70
0
 62
7
  6
CONTINUOUS
370
-3
390
F
  0
LAYER
  5
202
100
AcDbSymbolTableRecord
100
AcDbLayerTableRecord
  2
04_POINTS
 70
0
 62
7
  6
CONTINUOUS
370
-3
390
F
  0
LAYER
  5
203
100
AcDbSymbolTableRecord
100
AcDbLayerTableRecord
  2
05_CURVES
 70
0
 62
7
  6
CONTINUOUS
370
-3
390
F
  0
LAYER
  5
204
100
AcDbSymbolTableRecord
100
AcDbLayerTableRecord
  2
06_SURFS
 70
0
 62
7
  6
CONTINUOUS
370
-3
390
F
  0
LAYER
  5
205
100
AcDbSymbolTableRecord
100
AcDbLayerTableRecord
  2
07_COSMETICS
 70
0
 62
7
  6
CONTINUOUS
370
-3
390
F
  0
LAYER
  5
206
100
AcDbSymbolTableRecord
100
AcDbLayerTableRecord
  2
10_NOTES
 70
0
 62
7
  6
CONTINUOUS
370
-3
390
F
  0
LAYER
  5
207
100
AcDbSymbolTableRecord
100
AcDbLayerTableRecord
  2
11_NOTES_PUB
 70
0
 62
7
  6
CONTINUOUS
370
-3
390
F
  0
LAYER
  5
208
100
AcDbSymbolTableRecord
100
AcDbLayerTableRecord
  2
13_REF_GTOL
 70
0
 62
7
  6
CONTINUOUS
370
-3
390
F
  0
LAYER
  5
209
100
AcDbSymbolTableRecord
100
AcDbLayerTableRecord
  2
16_MISC
 70
0
 62
7
  6
CONTINUOUS
370
-3
390
F
  0
LAYER
  5
20A
100
AcDbSymbolTableRecord
100
AcDbLayerTableRecord
  2
17_NO_PRINT
 70
0
 62
7
  6
CONTINUOUS
370
-3
390
F
  0
LAYER
  5
20B
100
AcDbSymbolTableRecord
100
AcDbLayerTableRecord
  2
18_DATUM_CAMS_JOINTS
 70
0
 62
7
  6
CONTINUOUS
370
-3
390
F
  0
LAYER
  5
20C
100
AcDbSymbolTableRecord
100
AcDbLayerTableRecord
  2
19_DATUM_FUNCTIONAL
 70
0
 62
7
  6
CONTINUOUS
370
-3
390
F
  0
LAYER
  5
20D
100
AcDbSymbolTableRecord
100
AcDbLayerTableRecord
  2
20_DATUM_KINEMATIC_SCHEME
 70
0
 62
7
  6
CONTINUOUS
370
-3
390
F
  0
ENDTAB
  0
TABLE
  2
STYLE
  5
3
100
AcDbSymbolTable
 70
1
  0
STYLE
  5
11
100
AcDbSymbolTableRecord
100
AcDbTextStyleTableRecord
  2
STANDARD
 70
0
 40
0.0
 41
1.0
 50
0.0
 71
0
 42
0.2
  3
ARIAL.TTF
  4

  0
STYLE
  5
20E
100
AcDbSymbolTableRecord
100
AcDbTextStyleTableRecord
  2
TEXTSTYLE_1
 70
0
 40
0.0
 41
0.8
 50
0.0
 71
0
 42
0.2
  3
gdt
  4

  0
ENDTAB
  0
TABLE
  2
VIEW
  5
6
100
AcDbSymbolTable
 70
0
  0
ENDTAB
  0
TABLE
  2
UCS
  5
7
100
AcDbSymbolTable
 70
0
  0
ENDTAB
  0
TABLE
  2
APPID
  5
9
100
AcDbSymbolTable
 70
1
  0
APPID
  5
20F
100
AcDbSymbolTableRecord
100
AcDbRegAppTableRecord
  2
ACAD
 70
0
  0
ENDTAB
  0
TABLE
  2
BLOCK_RECORD
  5
1
100
AcDbSymbolTable
 70
0
  0
BLOCK_RECORD
  5
210
100
AcDbSymbolTableRecord
100
AcDbBlockTableRecord
  2
*Model_Space
  0
BLOCK_RECORD
  5
211
100
AcDbSymbolTableRecord
100
AcDbBlockTableRecord
  2
*Paper_Space
  0
BLOCK_RECORD
  5
212
100
AcDbSymbolTableRecord
100
AcDbBlockTableRecord
  2
_FILLED
  0
ENDTAB
  0
TABLE
  2
DIMSTYLE
  5
A
100
AcDbSymbolTable
 70
1
100
AcDbDimStyleTable
 71
0
  0
DIMSTYLE
105
213
100
AcDbSymbolTableRecord
100
AcDbDimStyleTableRecord
  2
STANDARD
 70
0
  3

  4

 40
1.0
 41
0.9041020841
 42
1.0
 43
0.38
 44
1.0
 45
0.0
 46
0.0
 47
0.01
 48
0.01
140
1.2657429177
141
0.09
142
0.0
143
25.4
144
1.0
145
0.0
146
1.0
147
0.625
 71
1
 72
0
 73
0
 74
0
 75
0
 76
0
 77
1
 78
8
 79
2
170
0
171
1
172
0
173
0
174
0
175
0
176
0
177
0
178
0
270
2
179
2
271
2
272
2
273
2
274
2
275
0
280
0
281
0
282
0
283
1
284
8
285
0
286
0
287
3
288
0
340
11
278
46
341
212
342
212
343
212
344
212
  0
ENDTAB
  0
ENDSEC
  0
SECTION
  2
BLOCKS
  0
BLOCK
  5
20
100
AcDbEntity
  8
0
100
AcDbBlockBegin
  2
*Model_Space
 70
0
 10
0.0
 20
0.0
 30
0.0
  3
*Model_Space
  1

  0
ENDBLK
  5
21
100
AcDbEntity
  8
0
100
AcDbBlockEnd
  0
BLOCK
  5
1C
100
AcDbEntity
  8
0
100
AcDbBlockBegin
  2
*Paper_Space
 70
0
 10
0.0
 20
0.0
 30
0.0
  3
*Paper_Space
  1

  0
ENDBLK
  5
1D
100
AcDbEntity
  8
0
100
AcDbBlockEnd
  0
BLOCK
  5
214
100
AcDbEntity
  8
0
100
AcDbBlockBegin
  2
_FILLED
 70
64
 10
0.0
 20
0.0
  3
_FILLED
  1

  0
SOLID
  5
215
100
AcDbEntity
  8
0
  6
BYBLOCK
 62
0
100
AcDbTrace
 10
0.0
 20
0.0
 11
-1.0
 21
0.25
 12
-1.0
 22
-0.25
 13
-1.0
 23
-0.25
  0
ENDBLK
  5
216
100
AcDbEntity
  8
0
  6
BYBLOCK
 62
0
100
AcDbBlockEnd
  0
ENDSEC
  0
SECTION
  2
ENTITIES
  0
LINE
  5
217
100
AcDbEntity
  8
0
100
AcDbLine
 62
7
  6
BYLAYER
 10
18.4582789098
 20
50.125
 11
18.4582789098
 21
56.625
  0
LINE
  5
218
100
AcDbEntity
  8
0
100
AcDbLine
 62
7
  6
BYLAYER
 10
27.4582789098
 20
49.975
 11
27.4582789098
 21
56.775
  0
LINE
  5
219
100
AcDbEntity
  8
0
100
AcDbLine
 62
7
  6
BYLAYER
 10
28.0582789098
 20
49.375
 11
28.0582789098
 21
57.375
  0
LINE
  5
21A
100
AcDbEntity
  8
0
100
AcDbLine
 62
7
  6
BYLAYER
 10
28.0582789098
 20
57.375
 11
27.4582789098
 21
56.775
  0
LINE
  5
21B
100
AcDbEntity
  8
0
100
AcDbLine
 62
7
  6
BYLAYER
 10
27.4582789098
 20
49.975
 11
28.0582789098
 21
49.375
  0
LINE
  5
21C
100
AcDbEntity
  8
0
100
AcDbLine
 62
7
  6
BYLAYER
 10
49.1193177358
 20
47.2166
 11
48.5306400838
 21
47.2166
  0
LINE
  5
21D
100
AcDbEntity
  8
0
100
AcDbLine
 62
7
  6
BYLAYER
 10
46.4415177358
 20
47.2166
 11
45.8528400838
 21
47.2166
  0
LINE
  5
21E
100
AcDbEntity
  8
0
100
AcDbLine
 62
7
  6
BYLAYER
 10
49.1193177358
 20
47.2237001504
 11
48.5306400838
 21
47.2237001504
  0
LINE
  5
21F
100
AcDbEntity
  8
0
100
AcDbLine
 62
7
  6
BYLAYER
 10
46.4415177358
 20
47.2237001504
 11
45.8528400838
 21
47.2237001504
  0
LINE
  5
220
100
AcDbEntity
  8
0
100
AcDbLine
 62
7
  6
BYLAYER
 10
28.0582789098
 20
49.375
 11
45.4582789098
 21
49.375
  0
LINE
  5
221
100
AcDbEntity
  8
0
100
AcDbLine
 62
7
  6
BYLAYER
 10
46.8360789098
 20
49.375
 11
48.1360789098
 21
49.375
  0
LINE
  5
222
100
AcDbEntity
  8
0
100
AcDbLine
 62
7
  6
BYLAYER
 10
49.5138789098
 20
49.375
 11
68.8582789098
 21
49.375
  0
LINE
  5
223
100
AcDbEntity
  8
0
100
AcDbLine
 62
7
  6
BYLAYER
 10
45.8528400838
 20
50.0433216782
 11
46.4415177358
 21
50.0433216782
  0
LINE
  5
224
100
AcDbEntity
  8
0
100
AcDbLine
 62
7
  6
BYLAYER
 10
48.5306400838
 20
50.0433216782
 11
49.1193177358
 21
50.0433216782
  0
LINE
  5
225
100
AcDbEntity
  8
0
100
AcDbLine
 62
7
  6
BYLAYER
 10
18.4582789098
 20
50.125
 11
27.4582789098
 21
50.125
  0
LINE
  5
226
100
AcDbEntity
  8
0
100
AcDbLine
 62
7
  6
BYLAYER
 10
49.1193177358
 20
50.5553784722
 11
48.5306400838
 21
50.5553784722
  0
LINE
  5
227
100
AcDbEntity
  8
0
100
AcDbLine
 62
7
  6
BYLAYER
 10
46.4415177358
 20
50.5553784722
 11
45.8528400838
 21
50.5553784722
  0
LINE
  5
228
100
AcDbEntity
  8
0
100
AcDbLine
 62
7
  6
BYLAYER
 10
8.8679622434
 20
51.375
 11
18.4582789098
 21
51.375
  0
LINE
  5
229
100
AcDbEntity
  8
0
100
AcDbLine
 62
7
  6
BYLAYER
 10
18.4582789098
 20
55.375
 11
8.8679622434
 21
55.375
  0
LINE
  5
22A
100
AcDbEntity
  8
0
100
AcDbLine
 62
7
  6
BYLAYER
 10
45.4582789098
 20
58.85
 11
45.8528400838
 21
59.5334
  0
LINE
  5
22B
100
AcDbEntity
  8
0
100
AcDbLine
 62
7
  6
BYLAYER
 10
45.8528400838
 20
56.1946215278
 11
46.4415177358
 21
56.1946215278
  0
LINE
  5
22C
100
AcDbEntity
  8
0
100
AcDbLine
 62
7
  6
BYLAYER
 10
48.5306400838
 20
56.1946215278
 11
49.1193177358
 21
56.1946215278
  0
LINE
  5
22D
100
AcDbEntity
  8
0
100
AcDbLine
 62
7
  6
BYLAYER
 10
27.4582789098
 20
56.625
 11
18.4582789098
 21
56.625
  0
LINE
  5
22E
100
AcDbEntity
  8
0
100
AcDbLine
 62
7
  6
BYLAYER
 10
49.1193177358
 20
56.7066783218
 11
48.5306400838
 21
56.7066783218
  0
LINE
  5
22F
100
AcDbEntity
  8
0
100
AcDbLine
 62
7
  6
BYLAYER
 10
46.4415177358
 20
56.7066783218
 11
45.8528400838
 21
56.7066783218
  0
LINE
  5
230
100
AcDbEntity
  8
0
100
AcDbLine
 62
7
  6
BYLAYER
 10
68.8582789098
 20
57.375
 11
49.5138789098
 21
57.375
  0
LINE
  5
231
100
AcDbEntity
  8
0
100
AcDbLine
 62
7
  6
BYLAYER
 10
48.1360789098
 20
57.375
 11
46.8360789098
 21
57.375
  0
LINE
  5
232
100
AcDbEntity
  8
0
100
AcDbLine
 62
7
  6
BYLAYER
 10
45.4582789098
 20
57.375
 11
28.0582789098
 21
57.375
  0
LINE
  5
233
100
AcDbEntity
  8
0
100
AcDbLine
 62
7
  6
BYLAYER
 10
45.8528400838
 20
47.2166
 11
45.4582789098
 21
47.9
  0
LINE
  5
234
100
AcDbEntity
  8
0
100
AcDbLine
 62
7
  6
BYLAYER
 10
45.4582789098
 20
47.9
 11
45.4582789098
 21
58.85
  0
LINE
  5
235
100
AcDbEntity
  8
0
100
AcDbLine
 62
7
  6
BYLAYER
 10
48.1360789098
 20
58.85
 11
48.5306400838
 21
59.5334
  0
LINE
  5
236
100
AcDbEntity
  8
0
100
AcDbLine
 62
7
  6
BYLAYER
 10
45.8528400838
 20
59.5262998496
 11
46.4415177358
 21
59.5262998496
  0
LINE
  5
237
100
AcDbEntity
  8
0
100
AcDbLine
 62
7
  6
BYLAYER
 10
48.5306400838
 20
59.5262998496
 11
49.1193177358
 21
59.5262998496
  0
LINE
  5
238
100
AcDbEntity
  8
0
100
AcDbLine
 62
7
  6
BYLAYER
 10
45.8528400838
 20
59.5334
 11
46.4415177358
 21
59.5334
  0
LINE
  5
239
100
AcDbEntity
  8
0
100
AcDbLine
 62
7
  6
BYLAYER
 10
48.5306400838
 20
59.5334
 11
49.1193177358
 21
59.5334
  0
LINE
  5
23A
100
AcDbEntity
  8
0
100
AcDbLine
 62
7
  6
BYLAYER
 10
48.5306400838
 20
47.2166
 11
48.1360789098
 21
47.9
  0
LINE
  5
23B
100
AcDbEntity
  8
0
100
AcDbLine
 62
7
  6
BYLAYER
 10
45.8528400838
 20
47.2166
 11
45.8528400838
 21
47.2237001504
  0
LINE
  5
23C
100
AcDbEntity
  8
0
100
AcDbLine
 62
7
  6
BYLAYER
 10
45.8528400838
 20
50.0433216782
 11
45.8528400838
 21
50.5553784722
  0
LINE
  5
23D
100
AcDbEntity
  8
0
100
AcDbLine
 62
7
  6
BYLAYER
 10
45.8528400838
 20
56.1946215278
 11
45.8528400838
 21
56.7066783218
  0
LINE
  5
23E
100
AcDbEntity
  8
0
100
AcDbLine
 62
7
  6
BYLAYER
 10
45.8528400838
 20
59.5262998496
 11
45.8528400838
 21
59.5334
  0
LINE
  5
23F
100
AcDbEntity
  8
0
100
AcDbLine
 62
7
  6
BYLAYER
 10
46.4415177358
 20
59.5334
 11
46.4415177358
 21
59.5262998496
  0
LINE
  5
240
100
AcDbEntity
  8
0
100
AcDbLine
 62
7
  6
BYLAYER
 10
46.4415177358
 20
56.7066783218
 11
46.4415177358
 21
56.1946215278
  0
LINE
  5
241
100
AcDbEntity
  8
0
100
AcDbLine
 62
7
  6
BYLAYER
 10
46.4415177358
 20
50.5553784722
 11
46.4415177358
 21
50.0433216782
  0
LINE
  5
242
100
AcDbEntity
  8
0
100
AcDbLine
 62
7
  6
BYLAYER
 10
46.4415177358
 20
47.2237001504
 11
46.4415177358
 21
47.2166
  0
LINE
  5
243
100
AcDbEntity
  8
0
100
AcDbLine
 62
7
  6
BYLAYER
 10
46.8360789098
 20
58.85
 11
46.8360789098
 21
47.9
  0
LINE
  5
244
100
AcDbEntity
  8
0
100
AcDbLine
 62
7
  6
BYLAYER
 10
48.1360789098
 20
47.9
 11
48.1360789098
 21
58.85
  0
LINE
  5
245
100
AcDbEntity
  8
0
100
AcDbLine
 62
7
  6
BYLAYER
 10
48.5306400838
 20
47.2166
 11
48.5306400838
 21
47.2237001504
  0
LINE
  5
246
100
AcDbEntity
  8
0
100
AcDbLine
 62
7
  6
BYLAYER
 10
48.5306400838
 20
50.0433216782
 11
48.5306400838
 21
50.5553784722
  0
LINE
  5
247
100
AcDbEntity
  8
0
100
AcDbLine
 62
7
  6
BYLAYER
 10
48.5306400838
 20
56.1946215278
 11
48.5306400838
 21
56.7066783218
  0
LINE
  5
248
100
AcDbEntity
  8
0
100
AcDbLine
 62
7
  6
BYLAYER
 10
48.5306400838
 20
59.5262998496
 11
48.5306400838
 21
59.5334
  0
LINE
  5
249
100
AcDbEntity
  8
0
100
AcDbLine
 62
7
  6
BYLAYER
 10
49.1193177358
 20
59.5334
 11
49.1193177358
 21
59.5262998496
  0
LINE
  5
24A
100
AcDbEntity
  8
0
100
AcDbLine
 62
7
  6
BYLAYER
 10
49.1193177358
 20
56.7066783218
 11
49.1193177358
 21
56.1946215278
  0
LINE
  5
24B
100
AcDbEntity
  8
0
100
AcDbLine
 62
7
  6
BYLAYER
 10
49.1193177358
 20
50.5553784722
 11
49.1193177358
 21
50.0433216782
  0
LINE
  5
24C
100
AcDbEntity
  8
0
100
AcDbLine
 62
7
  6
BYLAYER
 10
49.1193177358
 20
47.2237001504
 11
49.1193177358
 21
47.2166
  0
LINE
  5
24D
100
AcDbEntity
  8
0
100
AcDbLine
 62
7
  6
BYLAYER
 10
49.5138789098
 20
58.85
 11
49.5138789098
 21
47.9
  0
LINE
  5
24E
100
AcDbEntity
  8
0
100
AcDbLine
 62
7
  6
BYLAYER
 10
46.8360789098
 20
47.9
 11
46.4415177358
 21
47.2166
  0
LINE
  5
24F
100
AcDbEntity
  8
0
100
AcDbLine
 62
7
  6
BYLAYER
 10
46.4415177358
 20
59.5334
 11
46.8360789098
 21
58.85
  0
LINE
  5
250
100
AcDbEntity
  8
0
100
AcDbLine
 62
7
  6
BYLAYER
 10
49.5138789098
 20
47.9
 11
49.1193177358
 21
47.2166
  0
LINE
  5
251
100
AcDbEntity
  8
0
100
AcDbLine
 62
7
  6
BYLAYER
 10
49.1193177358
 20
59.5334
 11
49.5138789098
 21
58.85
  0
LINE
  5
252
100
AcDbEntity
  8
0
100
AcDbLine
 62
7
  6
BYLAYER
 10
68.8582789098
 20
49.375
 11
69.4582789098
 21
49.975
  0
LINE
  5
253
100
AcDbEntity
  8
0
100
AcDbLine
 62
7
  6
BYLAYER
 10
69.4582789098
 20
56.775
 11
68.8582789098
 21
57.375
  0
LINE
  5
254
100
AcDbEntity
  8
0
100
AcDbLine
 62
7
  6
BYLAYER
 10
68.8582789098
 20
57.375
 11
68.8582789098
 21
49.375
  0
LINE
  5
255
100
AcDbEntity
  8
0
100
AcDbLine
 62
7
  6
BYLAYER
 10
69.4582789098
 20
56.775
 11
69.4582789098
 21
49.975
  0
SPLINE
  5
256
100
AcDbEntity
  8
0
100
AcDbSpline
 62
7
  6
BYLAYER
 70
0
 71
3
 72
11
 73
7
 74
0
 42
0.0000001
 43
0.0000001
 44
0.0000000001
 40
0.0
 40
0.0
 40
0.0
 40
0.0
 40
0.2500037018
 40
0.5000032728
 40
0.7500026492
 40
1.0
 40
1.0
 40
1.0
 40
1.0
 10
45.8528400838
 20
50.5553784722
 30
0.0
 10
45.7920429596
 20
50.7853747144
 30
0.0
 10
45.6813906819
 20
51.2483733442
 30
0.0
 10
45.555423844
 20
51.9513057767
 30
0.0
 10
45.4762589002
 20
52.6611395451
 30
0.0
 10
45.4582789098
 20
53.137109928
 30
0.0
 10
45.4582789098
 20
53.375
 30
0.0
  0
SPLINE
  5
257
100
AcDbEntity
  8
0
100
AcDbSpline
 62
7
  6
BYLAYER
 70
0
 71
3
 72
11
 73
7
 74
0
 42
0.0000001
 43
0.0000001
 44
0.0000000001
 40
0.0
 40
0.0
 40
0.0
 40
0.0
 40
0.2499941267
 40
0.499989762
 40
0.7499912518
 40
1.0
 40
1.0
 40
1.0
 40
1.0
 10
46.8360789098
 20
53.375
 30
0.0
 10
46.8360789098
 20
53.1371129831
 30
0.0
 10
46.8181069057
 20
52.6611480596
 30
0.0
 10
46.738907318
 20
51.9513241937
 30
0.0
 10
46.6130060283
 20
51.2483767313
 30
0.0
 10
46.5023160905
 20
50.7853793694
 30
0.0
 10
46.4415177358
 20
50.5553784722
 30
0.0
  0
SPLINE
  5
258
100
AcDbEntity
  8
0
100
AcDbSpline
 62
7
  6
BYLAYER
 70
0
 71
3
 72
11
 73
7
 74
0
 42
0.0000001
 43
0.0000001
 44
0.0000000001
 40
0.0
 40
0.0
 40
0.0
 40
0.0
 40
0.2600316718
 40
0.5123059376
 40
0.758059624
 40
1.0
 40
1.0
 40
1.0
 40
1.0
 10
46.4415177358
 20
50.0433216782
 30
0.0
 10
46.5013925988
 20
49.9300680196
 30
0.0
 10
46.6107228746
 20
49.7021566758
 30
0.0
 10
46.7375841978
 20
49.3500612355
 30
0.0
 10
46.8177479612
 20
48.9933381319
 30
0.0
 10
46.8360789098
 20
48.7527050232
 30
0.0
 10
46.8360789098
 20
48.6335109143
 30
0.0
  0
SPLINE
  5
259
100
AcDbEntity
  8
0
100
AcDbSpline
 62
7
  6
BYLAYER
 70
0
 71
3
 72
13
 73
9
 74
0
 42
0.0000001
 43
0.0000001
 44
0.0000000001
 40
0.0
 40
0.0
 40
0.0
 40
0.0
 40
0.1207600106
 40
0.2420297294
 40
0.3642612925
 40
0.4878451936
 40
0.740039194
 40
1.0
 40
1.0
 40
1.0
 40
1.0
 10
46.8360789098
 20
58.1164890857
 30
0.0
 10
46.8360789098
 20
58.0569773565
 30
0.0
 10
46.8315842357
 20
57.937654576
 30
0.0
 10
46.8114666572
 20
57.7591198614
 30
0.0
 10
46.7783102343
 20
57.5811259379
 30
0.0
 10
46.7171344933
 20
57.3432854732
 30
0.0
 10
46.6107571846
 20
57.0478134099
 30
0.0
 10
46.5013946136
 20
56.8199357914
 30
0.0
 10
46.4415177358
 20
56.7066783218
 30
0.0
  0
SPLINE
  5
25A
100
AcDbEntity
  8
0
100
AcDbSpline
 62
7
  6
BYLAYER
 70
0
 71
3
 72
11
 73
7
 74
0
 42
0.0000001
 43
0.0000001
 44
0.0000000001
 40
0.0
 40
0.0
 40
0.0
 40
0.0
 40
0.2500037018
 40
0.5000032728
 40
0.7500026492
 40
1.0
 40
1.0
 40
1.0
 40
1.0
 10
46.4415177358
 20
56.1946215278
 30
0.0
 10
46.50231486
 20
55.9646252856
 30
0.0
 10
46.6129671377
 20
55.5016266558
 30
0.0
 10
46.7389339756
 20
54.7986942233
 30
0.0
 10
46.8180989194
 20
54.0888604549
 30
0.0
 10
46.8360789098
 20
53.612890072
 30
0.0
 10
46.8360789098
 20
53.375
 30
0.0
  0
SPLINE
  5
25B
100
AcDbEntity
  8
0
100
AcDbSpline
 62
7
  6
BYLAYER
 70
0
 71
3
 72
11
 73
7
 74
0
 42
0.0000001
 43
0.0000001
 44
0.0000000001
 40
0.0
 40
0.0
 40
0.0
 40
0.0
 40
0.2600316718
 40
0.5123059376
 40
0.758059624
 40
1.0
 40
1.0
 40
1.0
 40
1.0
 10
46.4415177358
 20
59.5262998496
 30
0.0
 10
46.5013925988
 20
59.413046191
 30
0.0
 10
46.6107228746
 20
59.1851348473
 30
0.0
 10
46.7375841978
 20
58.833039407
 30
0.0
 10
46.8177479612
 20
58.4763163034
 30
0.0
 10
46.8360789098
 20
58.2356831947
 30
0.0
 10
46.8360789098
 20
58.1164890857
 30
0.0
  0
SPLINE
  5
25C
100
AcDbEntity
  8
0
100
AcDbSpline
 62
7
  6
BYLAYER
 70
0
 71
3
 72
11
 73
7
 74
0
 42
0.0000001
 43
0.0000001
 44
0.0000000001
 40
0.0
 40
0.0
 40
0.0
 40
0.0
 40
0.2600316718
 40
0.5123059376
 40
0.758059624
 40
1.0
 40
1.0
 40
1.0
 40
1.0
 10
45.8528400838
 20
56.7066783218
 30
0.0
 10
45.7929652207
 20
56.8199319804
 30
0.0
 10
45.683634945
 20
57.0478433242
 30
0.0
 10
45.5567736218
 20
57.3999387645
 30
0.0
 10
45.4766098584
 20
57.7566618681
 30
0.0
 10
45.4582789098
 20
57.9972949768
 30
0.0
 10
45.4582789098
 20
58.1164890857
 30
0.0
  0
SPLINE
  5
25D
100
AcDbEntity
  8
0
100
AcDbSpline
 62
7
  6
BYLAYER
 70
0
 71
3
 72
13
 73
9
 74
0
 42
0.0000001
 43
0.0000001
 44
0.0000000001
 40
0.0
 40
0.0
 40
0.0
 40
0.0
 40
0.1207600106
 40
0.2420297294
 40
0.3642612925
 40
0.4878451936
 40
0.740039194
 40
1.0
 40
1.0
 40
1.0
 40
1.0
 10
45.4582789098
 20
58.1164890857
 30
0.0
 10
45.4582789098
 20
58.1760008149
 30
0.0
 10
45.4627735839
 20
58.2953235954
 30
0.0
 10
45.4828911624
 20
58.47385831
 30
0.0
 10
45.5160475853
 20
58.6518522335
 30
0.0
 10
45.5772233263
 20
58.8896926982
 30
0.0
 10
45.683600635
 20
59.1851647615
 30
0.0
 10
45.792963206
 20
59.4130423801
 30
0.0
 10
45.8528400838
 20
59.5262998496
 30
0.0
  0
SPLINE
  5
25E
100
AcDbEntity
  8
0
100
AcDbSpline
 62
7
  6
BYLAYER
 70
0
 71
3
 72
11
 73
7
 74
0
 42
0.0000001
 43
0.0000001
 44
0.0000000001
 40
0.0
 40
0.0
 40
0.0
 40
0.0
 40
0.2499941267
 40
0.499989762
 40
0.7499912518
 40
1.0
 40
1.0
 40
1.0
 40
1.0
 10
45.4582789098
 20
53.375
 30
0.0
 10
45.4582789098
 20
53.6128870169
 30
0.0
 10
45.4762509139
 20
54.0888519404
 30
0.0
 10
45.5554505016
 20
54.7986758063
 30
0.0
 10
45.6813517912
 20
55.5016232687
 30
0.0
 10
45.792041729
 20
55.9646206306
 30
0.0
 10
45.8528400838
 20
56.1946215278
 30
0.0
  0
SPLINE
  5
25F
100
AcDbEntity
  8
0
100
AcDbSpline
 62
7
  6
BYLAYER
 70
0
 71
3
 72
13
 73
9
 74
0
 42
0.0000001
 43
0.0000001
 44
0.0000000001
 40
0.0
 40
0.0
 40
0.0
 40
0.0
 40
0.1207600106
 40
0.2420297294
 40
0.3642612925
 40
0.4878451936
 40
0.740039194
 40
1.0
 40
1.0
 40
1.0
 40
1.0
 10
46.8360789098
 20
48.6335109143
 30
0.0
 10
46.8360789098
 20
48.5739991851
 30
0.0
 10
46.8315842357
 20
48.4546764046
 30
0.0
 10
46.8114666572
 20
48.27614169
 30
0.0
 10
46.7783102343
 20
48.0981477665
 30
0.0
 10
46.7171344933
 20
47.8603073018
 30
0.0
 10
46.6107571846
 20
47.5648352385
 30
0.0
 10
46.5013946136
 20
47.3369576199
 30
0.0
 10
46.4415177358
 20
47.2237001504
 30
0.0
  0
SPLINE
  5
260
100
AcDbEntity
  8
0
100
AcDbSpline
 62
7
  6
BYLAYER
 70
0
 71
3
 72
11
 73
7
 74
0
 42
0.0000001
 43
0.0000001
 44
0.0000000001
 40
0.0
 40
0.0
 40
0.0
 40
0.0
 40
0.2600316718
 40
0.5123059376
 40
0.758059624
 40
1.0
 40
1.0
 40
1.0
 40
1.0
 10
45.8528400838
 20
47.2237001504
 30
0.0
 10
45.7929652207
 20
47.336953809
 30
0.0
 10
45.683634945
 20
47.5648651527
 30
0.0
 10
45.5567736218
 20
47.916960593
 30
0.0
 10
45.4766098584
 20
48.2736836966
 30
0.0
 10
45.4582789098
 20
48.5143168053
 30
0.0
 10
45.4582789098
 20
48.6335109143
 30
0.0
  0
SPLINE
  5
261
100
AcDbEntity
  8
0
100
AcDbSpline
 62
7
  6
BYLAYER
 70
0
 71
3
 72
13
 73
9
 74
0
 42
0.0000001
 43
0.0000001
 44
0.0000000001
 40
0.0
 40
0.0
 40
0.0
 40
0.0
 40
0.1207600106
 40
0.2420297294
 40
0.3642612925
 40
0.4878451936
 40
0.740039194
 40
1.0
 40
1.0
 40
1.0
 40
1.0
 10
45.4582789098
 20
48.6335109143
 30
0.0
 10
45.4582789098
 20
48.6930226435
 30
0.0
 10
45.4627735839
 20
48.812345424
 30
0.0
 10
45.4828911624
 20
48.9908801386
 30
0.0
 10
45.5160475853
 20
49.1688740621
 30
0.0
 10
45.5772233263
 20
49.4067145268
 30
0.0
 10
45.683600635
 20
49.7021865901
 30
0.0
 10
45.792963206
 20
49.9300642086
 30
0.0
 10
45.8528400838
 20
50.0433216782
 30
0.0
  0
SPLINE
  5
262
100
AcDbEntity
  8
0
100
AcDbSpline
 62
7
  6
BYLAYER
 70
0
 71
3
 72
11
 73
7
 74
0
 42
0.0000001
 43
0.0000001
 44
0.0000000001
 40
0.0
 40
0.0
 40
0.0
 40
0.0
 40
0.2500037018
 40
0.5000032728
 40
0.7500026492
 40
1.0
 40
1.0
 40
1.0
 40
1.0
 10
48.5306400838
 20
50.5553784722
 30
0.0
 10
48.4698429596
 20
50.7853747144
 30
0.0
 10
48.3591906819
 20
51.2483733442
 30
0.0
 10
48.233223844
 20
51.9513057767
 30
0.0
 10
48.1540589002
 20
52.6611395451
 30
0.0
 10
48.1360789098
 20
53.137109928
 30
0.0
 10
48.1360789098
 20
53.375
 30
0.0
  0
SPLINE
  5
263
100
AcDbEntity
  8
0
100
AcDbSpline
 62
7
  6
BYLAYER
 70
0
 71
3
 72
11
 73
7
 74
0
 42
0.0000001
 43
0.0000001
 44
0.0000000001
 40
0.0
 40
0.0
 40
0.0
 40
0.0
 40
0.2499941267
 40
0.499989762
 40
0.7499912518
 40
1.0
 40
1.0
 40
1.0
 40
1.0
 10
49.5138789098
 20
53.375
 30
0.0
 10
49.5138789098
 20
53.1371129831
 30
0.0
 10
49.4959069057
 20
52.6611480596
 30
0.0
 10
49.416707318
 20
51.9513241937
 30
0.0
 10
49.2908060283
 20
51.2483767313
 30
0.0
 10
49.1801160905
 20
50.7853793694
 30
0.0
 10
49.1193177358
 20
50.5553784722
 30
0.0
  0
SPLINE
  5
264
100
AcDbEntity
  8
0
100
AcDbSpline
 62
7
  6
BYLAYER
 70
0
 71
3
 72
11
 73
7
 74
0
 42
0.0000001
 43
0.0000001
 44
0.0000000001
 40
0.0
 40
0.0
 40
0.0
 40
0.0
 40
0.2600316718
 40
0.5123059376
 40
0.758059624
 40
1.0
 40
1.0
 40
1.0
 40
1.0
 10
49.1193177358
 20
50.0433216782
 30
0.0
 10
49.1791925988
 20
49.9300680196
 30
0.0
 10
49.2885228746
 20
49.7021566758
 30
0.0
 10
49.4153841978
 20
49.3500612355
 30
0.0
 10
49.4955479612
 20
48.9933381319
 30
0.0
 10
49.5138789098
 20
48.7527050232
 30
0.0
 10
49.5138789098
 20
48.6335109143
 30
0.0
  0
SPLINE
  5
265
100
AcDbEntity
  8
0
100
AcDbSpline
 62
7
  6
BYLAYER
 70
0
 71
3
 72
13
 73
9
 74
0
 42
0.0000001
 43
0.0000001
 44
0.0000000001
 40
0.0
 40
0.0
 40
0.0
 40
0.0
 40
0.1207600106
 40
0.2420297294
 40
0.3642612925
 40
0.4878451936
 40
0.740039194
 40
1.0
 40
1.0
 40
1.0
 40
1.0
 10
49.5138789098
 20
58.1164890857
 30
0.0
 10
49.5138789098
 20
58.0569773565
 30
0.0
 10
49.5093842357
 20
57.937654576
 30
0.0
 10
49.4892666572
 20
57.7591198614
 30
0.0
 10
49.4561102343
 20
57.5811259379
 30
0.0
 10
49.3949344933
 20
57.3432854732
 30
0.0
 10
49.2885571846
 20
57.0478134099
 30
0.0
 10
49.1791946136
 20
56.8199357914
 30
0.0
 10
49.1193177358
 20
56.7066783218
 30
0.0
  0
SPLINE
  5
266
100
AcDbEntity
  8
0
100
AcDbSpline
 62
7
  6
BYLAYER
 70
0
 71
3
 72
11
 73
7
 74
0
 42
0.0000001
 43
0.0000001
 44
0.0000000001
 40
0.0
 40
0.0
 40
0.0
 40
0.0
 40
0.2500037018
 40
0.5000032728
 40
0.7500026492
 40
1.0
 40
1.0
 40
1.0
 40
1.0
 10
49.1193177358
 20
56.1946215278
 30
0.0
 10
49.18011486
 20
55.9646252856
 30
0.0
 10
49.2907671377
 20
55.5016266558
 30
0.0
 10
49.4167339756
 20
54.7986942233
 30
0.0
 10
49.4958989194
 20
54.0888604549
 30
0.0
 10
49.5138789098
 20
53.612890072
 30
0.0
 10
49.5138789098
 20
53.375
 30
0.0
  0
SPLINE
  5
267
100
AcDbEntity
  8
0
100
AcDbSpline
 62
7
  6
BYLAYER
 70
0
 71
3
 72
11
 73
7
 74
0
 42
0.0000001
 43
0.0000001
 44
0.0000000001
 40
0.0
 40
0.0
 40
0.0
 40
0.0
 40
0.2600316718
 40
0.5123059376
 40
0.758059624
 40
1.0
 40
1.0
 40
1.0
 40
1.0
 10
49.1193177358
 20
59.5262998496
 30
0.0
 10
49.1791925988
 20
59.413046191
 30
0.0
 10
49.2885228746
 20
59.1851348473
 30
0.0
 10
49.4153841978
 20
58.833039407
 30
0.0
 10
49.4955479612
 20
58.4763163034
 30
0.0
 10
49.5138789098
 20
58.2356831947
 30
0.0
 10
49.5138789098
 20
58.1164890857
 30
0.0
  0
SPLINE
  5
268
100
AcDbEntity
  8
0
100
AcDbSpline
 62
7
  6
BYLAYER
 70
0
 71
3
 72
11
 73
7
 74
0
 42
0.0000001
 43
0.0000001
 44
0.0000000001
 40
0.0
 40
0.0
 40
0.0
 40
0.0
 40
0.2600316718
 40
0.5123059376
 40
0.758059624
 40
1.0
 40
1.0
 40
1.0
 40
1.0
 10
48.5306400838
 20
56.7066783218
 30
0.0
 10
48.4707652207
 20
56.8199319804
 30
0.0
 10
48.361434945
 20
57.0478433242
 30
0.0
 10
48.2345736218
 20
57.3999387645
 30
0.0
 10
48.1544098584
 20
57.7566618681
 30
0.0
 10
48.1360789098
 20
57.9972949768
 30
0.0
 10
48.1360789098
 20
58.1164890857
 30
0.0
  0
SPLINE
  5
269
100
AcDbEntity
  8
0
100
AcDbSpline
 62
7
  6
BYLAYER
 70
0
 71
3
 72
13
 73
9
 74
0
 42
0.0000001
 43
0.0000001
 44
0.0000000001
 40
0.0
 40
0.0
 40
0.0
 40
0.0
 40
0.1207600106
 40
0.2420297294
 40
0.3642612925
 40
0.4878451936
 40
0.740039194
 40
1.0
 40
1.0
 40
1.0
 40
1.0
 10
48.1360789098
 20
58.1164890857
 30
0.0
 10
48.1360789098
 20
58.1760008149
 30
0.0
 10
48.1405735839
 20
58.2953235954
 30
0.0
 10
48.1606911624
 20
58.47385831
 30
0.0
 10
48.1938475853
 20
58.6518522335
 30
0.0
 10
48.2550233263
 20
58.8896926982
 30
0.0
 10
48.361400635
 20
59.1851647615
 30
0.0
 10
48.470763206
 20
59.4130423801
 30
0.0
 10
48.5306400838
 20
59.5262998496
 30
0.0
  0
SPLINE
  5
26A
100
AcDbEntity
  8
0
100
AcDbSpline
 62
7
  6
BYLAYER
 70
0
 71
3
 72
11
 73
7
 74
0
 42
0.0000001
 43
0.0000001
 44
0.0000000001
 40
0.0
 40
0.0
 40
0.0
 40
0.0
 40
0.2499941267
 40
0.499989762
 40
0.7499912518
 40
1.0
 40
1.0
 40
1.0
 40
1.0
 10
48.1360789098
 20
53.375
 30
0.0
 10
48.1360789098
 20
53.6128870169
 30
0.0
 10
48.1540509139
 20
54.0888519404
 30
0.0
 10
48.2332505016
 20
54.7986758063
 30
0.0
 10
48.3591517912
 20
55.5016232687
 30
0.0
 10
48.469841729
 20
55.9646206306
 30
0.0
 10
48.5306400838
 20
56.1946215278
 30
0.0
  0
SPLINE
  5
26B
100
AcDbEntity
  8
0
100
AcDbSpline
 62
7
  6
BYLAYER
 70
0
 71
3
 72
13
 73
9
 74
0
 42
0.0000001
 43
0.0000001
 44
0.0000000001
 40
0.0
 40
0.0
 40
0.0
 40
0.0
 40
0.1207600106
 40
0.2420297294
 40
0.3642612925
 40
0.4878451936
 40
0.740039194
 40
1.0
 40
1.0
 40
1.0
 40
1.0
 10
49.5138789098
 20
48.6335109143
 30
0.0
 10
49.5138789098
 20
48.5739991851
 30
0.0
 10
49.5093842357
 20
48.4546764046
 30
0.0
 10
49.4892666572
 20
48.27614169
 30
0.0
 10
49.4561102343
 20
48.0981477665
 30
0.0
 10
49.3949344933
 20
47.8603073018
 30
0.0
 10
49.2885571846
 20
47.5648352385
 30
0.0
 10
49.1791946136
 20
47.3369576199
 30
0.0
 10
49.1193177358
 20
47.2237001504
 30
0.0
  0
SPLINE
  5
26C
100
AcDbEntity
  8
0
100
AcDbSpline
 62
7
  6
BYLAYER
 70
0
 71
3
 72
11
 73
7
 74
0
 42
0.0000001
 43
0.0000001
 44
0.0000000001
 40
0.0
 40
0.0
 40
0.0
 40
0.0
 40
0.2600316718
 40
0.5123059376
 40
0.758059624
 40
1.0
 40
1.0
 40
1.0
 40
1.0
 10
48.5306400838
 20
47.2237001504
 30
0.0
 10
48.4707652207
 20
47.336953809
 30
0.0
 10
48.361434945
 20
47.5648651527
 30
0.0
 10
48.2345736218
 20
47.916960593
 30
0.0
 10
48.1544098584
 20
48.2736836966
 30
0.0
 10
48.1360789098
 20
48.5143168053
 30
0.0
 10
48.1360789098
 20
48.6335109143
 30
0.0
  0
SPLINE
  5
26D
100
AcDbEntity
  8
0
100
AcDbSpline
 62
7
  6
BYLAYER
 70
0
 71
3
 72
13
 73
9
 74
0
 42
0.0000001
 43
0.0000001
 44
0.0000000001
 40
0.0
 40
0.0
 40
0.0
 40
0.0
 40
0.1207600106
 40
0.2420297294
 40
0.3642612925
 40
0.4878451936
 40
0.740039194
 40
1.0
 40
1.0
 40
1.0
 40
1.0
 10
48.1360789098
 20
48.6335109143
 30
0.0
 10
48.1360789098
 20
48.6930226435
 30
0.0
 10
48.1405735839
 20
48.812345424
 30
0.0
 10
48.1606911624
 20
48.9908801386
 30
0.0
 10
48.1938475853
 20
49.1688740621
 30
0.0
 10
48.2550233263
 20
49.4067145268
 30
0.0
 10
48.361400635
 20
49.7021865901
 30
0.0
 10
48.470763206
 20
49.9300642086
 30
0.0
 10
48.5306400838
 20
50.0433216782
 30
0.0
  0
SPLINE
  5
26E
100
AcDbEntity
  8
0
100
AcDbSpline
 62
7
  6
BYLAYER
 70
0
 71
3
 72
14
 73
10
 74
0
 42
0.0000001
 43
0.0000001
 44
0.0000000001
 40
0.0
 40
0.0
 40
0.0
 40
0.0
 40
0.1731904357
 40
0.3285464728
 40
0.5914248982
 40
0.7051500782
 40
0.8098070223
 40
0.9073738808
 40
1.0
 40
1.0
 40
1.0
 40
1.0
 10
8.4582789098
 20
54.7892135624
 30
0.0
 10
8.4582789098
 20
54.8348245538
 30
0.0
 10
8.4637267729
 20
54.9215740094
 30
0.0
 10
8.496617431
 20
55.07414925
 30
0.0
 10
8.5610144775
 20
55.2030275421
 30
0.0
 10
8.6503551736
 20
55.2940541574
 30
0.0
 10
8.7202176631
 20
55.3404393045
 30
0.0
 10
8.7932980717
 20
55.3685055154
 30
0.0
 10
8.8435684648
 20
55.375
 30
0.0
 10
8.8679622434
 20
55.375
 30
0.0
  0
SPLINE
  5
26F
100
AcDbEntity
  8
0
100
AcDbSpline
 62
7
  6
BYLAYER
 70
0
 71
3
 72
19
 73
15
 74
0
 42
0.0000001
 43
0.0000001
 44
0.0000000001
 40
0.0
 40
0.0
 40
0.0
 40
0.0
 40
0.0511994474
 40
0.1070125512
 40
0.1667587507
 40
0.2297414074
 40
0.3624694844
 40
0.4998051088
 40
0.6370849766
 40
0.7698279474
 40
0.832929309
 40
0.8928138608
 40
0.9487631756
 40
1.0
 40
1.0
 40
1.0
 40
1.0
 10
9.2222109323
 20
51.9607864376
 30
0.0
 10
9.2222109323
 20
52.0110389911
 30
0.0
 10
9.2169178696
 20
52.1160964294
 30
0.0
 10
9.1962541714
 20
52.2785802096
 30
0.0
 10
9.163029786
 20
52.4507445809
 30
0.0
 10
9.1030117183
 20
52.6942746505
 30
0.0
 10
9.0049007455
 20
53.0063841979
 30
0.0
 10
8.8667546512
 20
53.3816195843
 30
0.0
 10
8.7219287403
 20
53.7542581339
 30
0.0
 10
8.6090960947
 20
54.0612811301
 30
0.0
 10
8.5352626481
 20
54.301257856
 30
0.0
 10
8.4927900894
 20
54.471809211
 30
0.0
 10
8.4655444027
 20
54.6336900271
 30
0.0
 10
8.4582789098
 20
54.7389243231
 30
0.0
 10
8.4582789098
 20
54.7892135624
 30
0.0
  0
SPLINE
  5
270
100
AcDbEntity
  8
0
100
AcDbSpline
 62
7
  6
BYLAYER
 70
0
 71
3
 72
14
 73
10
 74
0
 42
0.0000001
 43
0.0000001
 44
0.0000000001
 40
0.0
 40
0.0
 40
0.0
 40
0.0
 40
0.1731904357
 40
0.3285464728
 40
0.5914248982
 40
0.7051500782
 40
0.8098070223
 40
0.9073738808
 40
1.0
 40
1.0
 40
1.0
 40
1.0
 10
8.4582789098
 20
51.9607864376
 30
0.0
 10
8.4582789098
 20
51.9151754462
 30
0.0
 10
8.4637267729
 20
51.8284259906
 30
0.0
 10
8.496617431
 20
51.67585075
 30
0.0
 10
8.5610144775
 20
51.5469724579
 30
0.0
 10
8.6503551736
 20
51.4559458426
 30
0.0
 10
8.7202176631
 20
51.4095606955
 30
0.0
 10
8.7932980717
 20
51.3814944846
 30
0.0
 10
8.8435684648
 20
51.375
 30
0.0
 10
8.8679622434
 20
51.375
 30
0.0
  0
SPLINE
  5
271
100
AcDbEntity
  8
0
100
AcDbSpline
 62
7
  6
BYLAYER
 70
0
 71
3
 72
13
 73
9
 74
0
 42
0.0000001
 43
0.0000001
 44
0.0000000001
 40
0.0
 40
0.0
 40
0.0
 40
0.0
 40
0.2744005087
 40
0.5398068749
 40
0.6659855013
 40
0.785728203
 40
0.8975879523
 40
1.0
 40
1.0
 40
1.0
 40
1.0
 10
8.867789849
 20
53.3745330565
 30
0.0
 10
8.8199598729
 20
53.2479919133
 30
0.0
 10
8.7235498177
 20
52.9999729679
 30
0.0
 10
8.6101139411
 20
52.6917159909
 30
0.0
 10
8.5358157376
 20
52.4507483253
 30
0.0
 10
8.4930477637
 20
52.2794872396
 30
0.0
 10
8.4656019641
 20
52.1169414537
 30
0.0
 10
8.4582789098
 20
52.0112753533
 30
0.0
 10
8.4582789098
 20
51.9607864376
 30
0.0
  0
SPLINE
  5
272
100
AcDbEntity
  8
0
100
AcDbSpline
 62
7
  6
BYLAYER
 70
0
 71
3
 72
15
 73
11
 74
0
 42
0.0000001
 43
0.0000001
 44
0.0000000001
 40
0.0
 40
0.0
 40
0.0
 40
0.0
 40
0.0933148706
 40
0.1880578059
 40
0.2882182868
 40
0.3980889755
 40
0.5216867114
 40
0.6621027444
 40
0.8214187673
 40
1.0
 40
1.0
 40
1.0
 40
1.0
 10
8.8679622434
 20
51.375
 30
0.0
 10
8.891595485
 20
51.375
 30
0.0
 10
8.9394698581
 20
51.3810214917
 30
0.0
 10
9.0077537854
 20
51.4090552518
 30
0.0
 10
9.0698431275
 20
51.4562842577
 30
0.0
 10
9.1235245594
 20
51.522444446
 30
0.0
 10
9.1669895883
 20
51.6072053604
 30
0.0
 10
9.1990334194
 20
51.7099747186
 30
0.0
 10
9.2183317605
 20
51.8298921823
 30
0.0
 10
9.2222109323
 20
51.9155583469
 30
0.0
 10
9.2222109323
 20
51.9607864376
 30
0.0
  0
ENDSEC
  0
SECTION
  2
OBJECTS
  0
DICTIONARY
  5
C
100
AcDbDictionary
280
0
281
1
  3
ACAD_GROUP
350
D
  3
ACAD_MLINESTYLE
350
17
  3
ACAD_LAYOUT
350
1A
  3
ACAD_PLOTSETTINGS
350
19
  3
ACAD_PLOTSTYLENAME
350
E
  0
DICTIONARY
  5
D
102
{ACAD_REACTORS
330
C
102
}
100
AcDbDictionary
280
0
281
1
  0
ACDBDICTIONARYWDFLT
  5
E
102
{ACAD_REACTORS
330
C
102
}
100
AcDbDictionary
281
1
  3
Normal
350
F
100
AcDbDictionaryWithDefault
340
F
  0
DICTIONARY
  5
17
102
{ACAD_REACTORS
330
C
102
}
100
AcDbDictionary
280
0
281
1
  3
Standard
350
18
  0
DICTIONARY
  5
19
102
{ACAD_REACTORS
330
C
102
}
100
AcDbDictionary
281
1
  0
DICTIONARY
  5
1A
102
{ACAD_REACTORS
330
C
102
}
100
AcDbDictionary
281
1
  3
Model
350
273
  3
Layout1
350
274
  0
ACDBPLACEHOLDER
  5
F
102
{ACAD_REACTORS
330
E
102
}
  0
MLINESTYLE
  5
18
102
{ACAD_REACTORS
330
17
102
}
100
AcDbMlineStyle
  2
STANDARD
 70
0
  3

 62
256
 51
90.0
 52
90.0
 71
2
 49
0.5
 62
256
  6
BYLAYER
 49
-0.5
 62
256
  6
BYLAYER
  0
LAYOUT
  5
273
102
{ACAD_REACTORS
330
1A
102
}
100
AcDbPlotSettings
  1

  2
none_device
  4

  6

 40
0.0
 41
0.0
 42
0.0
 43
0.0
 44
210.0
 45
297.0
 46
0.0
 47
0.0
 48
0.0
 49
0.0
140
0.0
141
0.0
142
1.0
143
1.0
 70
1024
 72
1
 73
0
 74
0
  7

 75
0
147
1.0
148
0.0
149
0.0
100
AcDbLayout
  1
Model
 70
0
 71
0
 10
0.0
 20
0.0
 11
210.0
 21
297.0
 12
0.0
 22
0.0
 32
0.0
 14
0.0
 24
0.0
 34
0.0
 15
0.0
 25
0.0
 35
0.0
146
0.0
 13
0.0
 23
0.0
 33
0.0
 16
1.0
 26
0.0
 36
0.0
 17
0.0
 27
1.0
 37
0.0
 76
0
330
210
345
0
346
0
  0
LAYOUT
  5
274
102
{ACAD_REACTORS
330
1A
102
}
100
AcDbPlotSettings
  1

  2
none_device
  4

  6

 40
0.0
 41
0.0
 42
0.0
 43
0.0
 44
210.0
 45
297.0
 46
0.0
 47
0.0
 48
0.0
 49
0.0
140
0.0
141
0.0
142
1.0
143
1.0
 70
0
 72
1
 73
0
 74
0
  7

 75
0
147
1.0
148
0.0
149
0.0
100
AcDbLayout
  1
Layout1
 70
0
 71
1
 10
0.0
 20
0.0
 11
210.0
 21
297.0
 12
0.0
 22
0.0
 32
0.0
 14
0.0
 24
0.0
 34
0.0
 15
0.0
 25
0.0
 35
0.0
146
0.0
 13
0.0
 23
0.0
 33
0.0
 16
1.0
 26
0.0
 36
0.0
 17
0.0
 27
1.0
 37
0.0
 76
0
330
211
345
0
346
0
  0
ENDSEC
  0
EOF
