999
DXF file: C:\Gen2D\CAD\GVAX225_3D-CAD\drw0001_1.dxf
999
Pro/ENGINEER 2019471 by Parametric Technology Corporation
  0
SECTION
  2
HEADER
  9
$ACADVER
  1
AC1024
  9
$DWGCODEPAGE
  3
ANSI_1252
  9
$EXTMAX
 10
100.3383081045
 20
141.9070357478
 30
0.0
  9
$EXTMIN
 10
0.0
 20
0.0
 30
0.0
  9
$LIMMIN
 10
0.0
 20
0.0
  9
$LIMMAX
 10
100.3383081045
 20
141.9070357478
  9
$VIEWCTR
 10
50.1691540523
 20
70.9535178739
  9
$VIEWSIZE
 40
141.9070357478
  9
$CLAYER
  8
0
  9
$LTSCALE
 40
9.2502364043
  9
$CELTYPE
  6
BYLAYER
  9
$DIMSCALE
 40
1.0
  9
$DIMASZ
 40
1.1945036679
  9
$DIMEXO
 40
1.0
  9
$DIMDLI
 40
6.3910724248
  9
$DIMEXE
 40
1.0
  9
$DIMCEN
 40
1.513675048
  9
$DIMLFAC
 40
1.0
  9
$DIMBLK
  1
_FILLED
  9
$DIMALT
 70
0
  9
$DIMALTF
 40
0.0393700787
  9
$DIMTXT
 40
1.6723051351
  9
$DIMTOL
 70
1
  9
$DIMLIM
 70
0
  9
$DIMTFAC
 40
1.0
  9
$DIMTP
 40
0.01
  9
$DIMTM
 40
0.01
  9
$DIMGAP
 40
0.625
  9
$DIMDSEP
 70
46
  9
$AUNITS
 70
0
  9
$PDMODE
 70
3
  9
$PDSIZE
 40
0.3125
  9
$HANDSEED
  5
2BB
  9
$TILEMODE
 70
1
  9
$MEASUREMENT
 70
1
  9
$INSUNITS
 70
4
  0
ENDSEC
  0
SECTION
  2
CLASSES
  0
CLASS
  1
ACDBDICTIONARYWDFLT
  2
AcDbDictionaryWithDefault
  3
AutoCAD 2000
 90
0
 91
1
280
0
281
0
  0
CLASS
  1
ACDBPLACEHOLDER
  2
AcDbPlaceHolder
  3
AutoCAD 2000
 90
0
 91
1
280
0
281
0
  0
CLASS
  1
LAYOUT
  2
AcDbLayout
  3
AutoCAD 2000
 90
0
 91
0
280
0
281
0
  0
ENDSEC
  0
SECTION
  2
TABLES
  0
TABLE
  2
VPORT
  5
8
100
AcDbSymbolTable
 70
2
  0
VPORT
  5
1F4
100
AcDbSymbolTableRecord
100
AcDbViewportTableRecord
  2
*ACTIVE
 70
0
 10
0.0
 20
0.0
 11
1.0
 21
1.0
 12
50.1691540523
 22
70.9535178739
 13
0.0
 23
0.0
 14
1.0
 24
1.0
 15
0.0
 25
0.0
 16
0.0
 26
0.0
 36
1.0
 17
0.0
 27
0.0
 37
0.0
 40
141.9070357478
 41
0.7070707071
 42
50.0
 43
0.0
 44
0.0
 50
0.0
 51
0.0
 71
0
 72
100
 73
1
 74
1
 75
0
 76
0
 77
0
 78
0
  0
ENDTAB
  0
TABLE
  2
LTYPE
  5
5
100
AcDbSymbolTable
 70
6
  0
LTYPE
  5
14
100
AcDbSymbolTableRecord
100
AcDbLinetypeTableRecord
  2
BYBLOCK
 70
0
  3

 72
65
 73
0
 40
0.0
  0
LTYPE
  5
15
100
AcDbSymbolTableRecord
100
AcDbLinetypeTableRecord
  2
BYLAYER
 70
0
  3

 72
65
 73
0
 40
0.0
  0
LTYPE
  5
16
100
AcDbSymbolTableRecord
100
AcDbLinetypeTableRecord
  2
CONTINUOUS
 70
64
  3
Solid line
 72
65
 73
0
 40
0.0
  0
LTYPE
  5
1F5
100
AcDbSymbolTableRecord
100
AcDbLinetypeTableRecord
  2
CENTER
 70
64
  3
____ _ ____ _ ____ _ ____ _ ____ _ ____ _ ____
 72
65
 73
4
 40
0.6
 49
0.375
 74
0
 49
-0.075
 74
0
 49
0.075
 74
0
 49
-0.075
 74
0
  0
LTYPE
  5
1F6
100
AcDbSymbolTableRecord
100
AcDbLinetypeTableRecord
  2
HIDDEN
 70
64
  3
- - - - - - - - - - - - - - - - - - - -
 72
65
 73
2
 40
0.2
 49
0.1
 74
0
 49
-0.1
 74
0
  0
LTYPE
  5
1F7
100
AcDbSymbolTableRecord
100
AcDbLinetypeTableRecord
  2
PHANTOM
 70
64
  3
_____ _ _ _____ _ _ _____ _ _ _____
 72
65
 73
6
 40
0.8
 49
0.45
 74
0
 49
-0.05
 74
0
 49
0.1
 74
0
 49
-0.05
 74
0
 49
0.1
 74
0
 49
-0.05
 74
0
  0
LTYPE
  5
1F8
100
AcDbSymbolTableRecord
100
AcDbLinetypeTableRecord
  2
DOT
 70
64
  3
. . . . . . . . . . . . . . . . . . . .
 72
65
 73
2
 40
0.2
 49
0.1
 74
0
 49
-0.1
 74
0
  0
LTYPE
  5
1F9
100
AcDbSymbolTableRecord
100
AcDbLinetypeTableRecord
  2
DASHED
 70
64
  3
- - - - - - - - - - - - - - - - - - - -
 72
65
 73
2
 40
0.2
 49
0.1
 74
0
 49
-0.1
 74
0
  0
ENDTAB
  0
TABLE
  2
LAYER
  5
2
100
AcDbSymbolTable
 70
36
  0
LAYER
  5
10
100
AcDbSymbolTableRecord
100
AcDbLayerTableRecord
  2
0
 70
0
 62
7
  6
CONTINUOUS
370
-3
390
F
  0
LAYER
  5
1FA
100
AcDbSymbolTableRecord
100
AcDbLayerTableRecord
  2
DEFAULT_1
 70
0
 62
7
  6
CENTER
370
-3
390
F
  0
LAYER
  5
1FB
100
AcDbSymbolTableRecord
100
AcDbLayerTableRecord
  2
DEFAULT_2
 70
0
 62
8
  6
HIDDEN
370
-3
390
F
  0
LAYER
  5
1FC
100
AcDbSymbolTableRecord
100
AcDbLayerTableRecord
  2
DEFAULT_3
 70
0
 62
7
  6
PHANTOM
370
-3
390
F
  0
LAYER
  5
1FD
100
AcDbSymbolTableRecord
100
AcDbLayerTableRecord
  2
00_COMPONENTS
 70
0
 62
7
  6
CONTINUOUS
370
-3
390
F
  0
LAYER
  5
1FE
100
AcDbSymbolTableRecord
100
AcDbLayerTableRecord
  2
01_1_DEFAULT_DATUMS
 70
0
 62
7
  6
CONTINUOUS
370
-3
390
F
  0
LAYER
  5
1FF
100
AcDbSymbolTableRecord
100
AcDbLayerTableRecord
  2
01_PLANES
 70
0
 62
7
  6
CONTINUOUS
370
-3
390
F
  0
LAYER
  5
200
100
AcDbSymbolTableRecord
100
AcDbLayerTableRecord
  2
02_COORD_SYS
 70
0
 62
7
  6
CONTINUOUS
370
-3
390
F
  0
LAYER
  5
201
100
AcDbSymbolTableRecord
100
AcDbLayerTableRecord
  2
03_AXES
 70
0
 62
7
  6
CONTINUOUS
370
-3
390
F
  0
LAYER
  5
202
100
AcDbSymbolTableRecord
100
AcDbLayerTableRecord
  2
04_POINTS
 70
0
 62
7
  6
CONTINUOUS
370
-3
390
F
  0
LAYER
  5
203
100
AcDbSymbolTableRecord
100
AcDbLayerTableRecord
  2
05_CURVES
 70
0
 62
7
  6
CONTINUOUS
370
-3
390
F
  0
LAYER
  5
204
100
AcDbSymbolTableRecord
100
AcDbLayerTableRecord
  2
06_SURFS
 70
0
 62
7
  6
CONTINUOUS
370
-3
390
F
  0
LAYER
  5
205
100
AcDbSymbolTableRecord
100
AcDbLayerTableRecord
  2
07_COSMETICS
 70
0
 62
7
  6
CONTINUOUS
370
-3
390
F
  0
LAYER
  5
206
100
AcDbSymbolTableRecord
100
AcDbLayerTableRecord
  2
10_NOTES
 70
0
 62
7
  6
CONTINUOUS
370
-3
390
F
  0
LAYER
  5
207
100
AcDbSymbolTableRecord
100
AcDbLayerTableRecord
  2
11_NOTES_PUB
 70
0
 62
7
  6
CONTINUOUS
370
-3
390
F
  0
LAYER
  5
208
100
AcDbSymbolTableRecord
100
AcDbLayerTableRecord
  2
13_REF_GTOL
 70
0
 62
7
  6
CONTINUOUS
370
-3
390
F
  0
LAYER
  5
209
100
AcDbSymbolTableRecord
100
AcDbLayerTableRecord
  2
16_MISC
 70
0
 62
7
  6
CONTINUOUS
370
-3
390
F
  0
LAYER
  5
20A
100
AcDbSymbolTableRecord
100
AcDbLayerTableRecord
  2
17_NO_PRINT
 70
0
 62
7
  6
CONTINUOUS
370
-3
390
F
  0
LAYER
  5
20B
100
AcDbSymbolTableRecord
100
AcDbLayerTableRecord
  2
18_DATUM_CAMS_JOINTS
 70
0
 62
7
  6
CONTINUOUS
370
-3
390
F
  0
LAYER
  5
20C
100
AcDbSymbolTableRecord
100
AcDbLayerTableRecord
  2
19_DATUM_FUNCTIONAL
 70
0
 62
7
  6
CONTINUOUS
370
-3
390
F
  0
LAYER
  5
20D
100
AcDbSymbolTableRecord
100
AcDbLayerTableRecord
  2
20_DATUM_KINEMATIC_SCHEME
 70
0
 62
7
  6
CONTINUOUS
370
-3
390
F
  0
LAYER
  5
20E
100
AcDbSymbolTableRecord
100
AcDbLayerTableRecord
  2
INTFCLR_75
 70
0
 62
7
  6
CONTINUOUS
370
-3
390
F
  0
ENDTAB
  0
TABLE
  2
STYLE
  5
3
100
AcDbSymbolTable
 70
1
  0
STYLE
  5
11
100
AcDbSymbolTableRecord
100
AcDbTextStyleTableRecord
  2
STANDARD
 70
0
 40
0.0
 41
0.8
 50
0.0
 71
0
 42
0.2
  3
txt
  4

  0
STYLE
  5
20F
100
AcDbSymbolTableRecord
100
AcDbTextStyleTableRecord
  2
TEXTSTYLE_1
 70
0
 40
0.0
 41
0.8
 50
0.0
 71
0
 42
0.2
  3
gdt
  4

  0
ENDTAB
  0
TABLE
  2
VIEW
  5
6
100
AcDbSymbolTable
 70
0
  0
ENDTAB
  0
TABLE
  2
UCS
  5
7
100
AcDbSymbolTable
 70
0
  0
ENDTAB
  0
TABLE
  2
APPID
  5
9
100
AcDbSymbolTable
 70
1
  0
APPID
  5
210
100
AcDbSymbolTableRecord
100
AcDbRegAppTableRecord
  2
ACAD
 70
0
  0
ENDTAB
  0
TABLE
  2
BLOCK_RECORD
  5
1
100
AcDbSymbolTable
 70
0
  0
BLOCK_RECORD
  5
211
100
AcDbSymbolTableRecord
100
AcDbBlockTableRecord
  2
*Model_Space
  0
BLOCK_RECORD
  5
212
100
AcDbSymbolTableRecord
100
AcDbBlockTableRecord
  2
*Paper_Space
  0
BLOCK_RECORD
  5
213
100
AcDbSymbolTableRecord
100
AcDbBlockTableRecord
  2
_FILLED
  0
ENDTAB
  0
TABLE
  2
DIMSTYLE
  5
A
100
AcDbSymbolTable
 70
1
100
AcDbDimStyleTable
 71
0
  0
DIMSTYLE
105
214
100
AcDbSymbolTableRecord
100
AcDbDimStyleTableRecord
  2
STANDARD
 70
0
  3

  4

 40
1.0
 41
1.1945036679
 42
1.0
 43
0.38
 44
1.0
 45
0.0
 46
0.0
 47
0.01
 48
0.01
140
1.6723051351
141
0.09
142
0.0
143
25.4
144
1.0
145
0.0
146
1.0
147
0.625
 71
1
 72
0
 73
0
 74
0
 75
0
 76
0
 77
1
 78
8
 79
2
170
0
171
1
172
0
173
0
174
0
175
0
176
0
177
0
178
0
270
2
179
2
271
2
272
2
273
2
274
2
275
0
280
0
281
0
282
0
283
1
284
8
285
0
286
0
287
3
288
0
340
11
278
46
341
213
342
213
343
213
344
213
  0
ENDTAB
  0
ENDSEC
  0
SECTION
  2
BLOCKS
  0
BLOCK
  5
20
100
AcDbEntity
  8
0
100
AcDbBlockBegin
  2
*Model_Space
 70
0
 10
0.0
 20
0.0
 30
0.0
  3
*Model_Space
  1

  0
ENDBLK
  5
21
100
AcDbEntity
  8
0
100
AcDbBlockEnd
  0
BLOCK
  5
1C
100
AcDbEntity
  8
0
100
AcDbBlockBegin
  2
*Paper_Space
 70
0
 10
0.0
 20
0.0
 30
0.0
  3
*Paper_Space
  1

  0
ENDBLK
  5
1D
100
AcDbEntity
  8
0
100
AcDbBlockEnd
  0
BLOCK
  5
215
100
AcDbEntity
  8
0
100
AcDbBlockBegin
  2
_FILLED
 70
64
 10
0.0
 20
0.0
  3
_FILLED
  1

  0
SOLID
  5
216
100
AcDbEntity
  8
0
  6
BYBLOCK
 62
0
100
AcDbTrace
 10
0.0
 20
0.0
 11
-1.0
 21
0.25
 12
-1.0
 22
-0.25
 13
-1.0
 23
-0.25
  0
ENDBLK
  5
217
100
AcDbEntity
  8
0
  6
BYBLOCK
 62
0
100
AcDbBlockEnd
  0
ENDSEC
  0
SECTION
  2
ENTITIES
  0
LINE
  5
218
100
AcDbEntity
  8
0
100
AcDbLine
 62
7
  6
CONTINUOUS
 10
49.3150136643
 20
23.9677596059
 11
42.668182248
 21
27.8052226984
  0
LINE
  5
219
100
AcDbEntity
  8
0
100
AcDbLine
 62
7
  6
CONTINUOUS
 10
43.9410751377
 20
31.0688351964
 11
31.2131000851
 21
38.4171687778
  0
LINE
  5
21A
100
AcDbEntity
  8
0
100
AcDbLine
 62
7
  6
CONTINUOUS
 10
11.6405634482
 20
62.6674314321
 11
11.7028328084
 21
62.5329918914
  0
LINE
  5
21B
100
AcDbEntity
  8
0
100
AcDbLine
 62
7
  6
CONTINUOUS
 10
18.3579405487
 20
58.8243554236
 11
18.3579779292
 21
58.8075874107
  0
LINE
  5
21C
100
AcDbEntity
  8
0
100
AcDbLine
 62
7
  6
CONTINUOUS
 10
17.4174365098
 20
75.8555257081
 11
15.6451614195
 21
71.6810206336
  0
LINE
  5
21D
100
AcDbEntity
  8
0
100
AcDbLine
 62
7
  6
CONTINUOUS
 10
43.7289422202
 20
34.1742408746
 11
37.2235327488
 21
37.9300558162
  0
LINE
  5
21E
100
AcDbEntity
  8
0
100
AcDbLine
 62
7
  6
CONTINUOUS
 10
43.1986108095
 20
34.8478501546
 11
37.5417330083
 21
38.1137761907
  0
LINE
  5
21F
100
AcDbEntity
  8
0
100
AcDbLine
 62
7
  6
CONTINUOUS
 10
43.127899837
 20
34.9703244717
 11
37.6124439809
 21
38.154602357
  0
LINE
  5
220
100
AcDbEntity
  8
0
100
AcDbLine
 62
7
  6
CONTINUOUS
 10
37.7781338374
 20
39.5846787564
 11
43.127899837
 21
36.4960597904
  0
LINE
  5
221
100
AcDbEntity
  8
0
100
AcDbLine
 62
7
  6
CONTINUOUS
 10
49.3150136643
 20
33.8978381902
 11
55.3961573006
 21
30.3869677013
  0
LINE
  5
222
100
AcDbEntity
  8
0
100
AcDbLine
 62
7
  6
CONTINUOUS
 10
37.9391485387
 20
40.7315796839
 11
43.127899837
 21
37.7359204959
  0
LINE
  5
223
100
AcDbEntity
  8
0
100
AcDbLine
 62
7
  6
CONTINUOUS
 10
15.6451614195
 20
71.6810206336
 11
12.1077587373
 21
64.7707720456
  0
LINE
  5
224
100
AcDbEntity
  8
0
100
AcDbLine
 62
7
  6
CONTINUOUS
 10
46.2531843361
 20
102.9029540253
 11
42.0271700575
 21
100.4630695013
  0
LINE
  5
225
100
AcDbEntity
  8
0
100
AcDbLine
 62
7
  6
CONTINUOUS
 10
71.7018514374
 20
117.5956611231
 11
64.5601220928
 21
113.4723977693
  0
LINE
  5
226
100
AcDbEntity
  8
0
100
AcDbLine
 62
7
  6
CONTINUOUS
 10
76.3475380144
 20
118.2856020376
 11
73.4271991668
 21
116.5995536821
  0
LINE
  5
227
100
AcDbEntity
  8
0
100
AcDbLine
 62
7
  6
CONTINUOUS
 10
66.6814261106
 20
112.7049030401
 11
47.9785344704
 21
101.9068479728
  0
LINE
  5
228
100
AcDbEntity
  8
0
100
AcDbLine
 62
7
  6
CONTINUOUS
 10
44.1389582294
 20
99.6900808287
 11
42.668182248
 21
98.8409329887
  0
LINE
  5
229
100
AcDbEntity
  8
0
100
AcDbLine
 62
7
  6
CONTINUOUS
 10
43.127899837
 20
38.5629351071
 11
37.6124439809
 21
41.7472129923
  0
LINE
  5
22A
100
AcDbEntity
  8
0
100
AcDbLine
 62
7
  6
CONTINUOUS
 10
37.5417330083
 20
41.8696873095
 11
43.1986108095
 21
38.6037612733
  0
LINE
  5
22B
100
AcDbEntity
  8
0
100
AcDbLine
 62
7
  6
CONTINUOUS
 10
37.2235327488
 20
42.6657698356
 11
43.7289422202
 21
38.909954894
  0
LINE
  5
22C
100
AcDbEntity
  8
0
100
AcDbLine
 62
7
  6
CONTINUOUS
 10
61.1236477458
 20
30.7854369756
 11
67.2047913821
 21
27.2745664867
  0
LINE
  5
22D
100
AcDbEntity
  8
0
100
AcDbLine
 62
7
  6
CONTINUOUS
 10
28.2331250787
 20
51.2157522721
 11
25.0157758293
 21
53.0732477052
  0
LINE
  5
22E
100
AcDbEntity
  8
0
100
AcDbLine
 62
7
  6
CONTINUOUS
 10
23.7614282141
 20
53.9459001467
 11
19.9783911846
 21
56.1299881834
  0
LINE
  5
22F
100
AcDbEntity
  8
0
100
AcDbLine
 62
7
  6
CONTINUOUS
 10
23.7614282141
 20
53.9459001467
 11
25.015810322
 21
53.0733074392
  0
LINE
  5
230
100
AcDbEntity
  8
0
100
AcDbLine
 62
7
  6
CONTINUOUS
 10
28.2332504168
 20
51.2159694353
 11
25.8325832991
 21
53.2126885704
  0
LINE
  5
231
100
AcDbEntity
  8
0
100
AcDbLine
 62
7
  6
CONTINUOUS
 10
43.7289422202
 20
34.1742408746
 11
43.1986108095
 21
34.8478501546
  0
LINE
  5
232
100
AcDbEntity
  8
0
100
AcDbLine
 62
7
  6
CONTINUOUS
 10
53.0272575847
 20
104.250170407
 11
47.5118476544
 21
101.0658660068
  0
LINE
  5
233
100
AcDbEntity
  8
0
100
AcDbLine
 62
7
  6
CONTINUOUS
 10
50.7151076186
 20
99.2165048423
 11
51.4058095582
 21
99.6152794127
  0
LINE
  5
234
100
AcDbEntity
  8
0
100
AcDbLine
 62
7
  6
CONTINUOUS
 10
18.8321970201
 20
57.2542720401
 11
25.8325832991
 21
53.2126885704
  0
LINE
  5
235
100
AcDbEntity
  8
0
100
AcDbLine
 62
7
  6
CONTINUOUS
 10
18.3673137507
 20
58.6849982451
 11
11.7026847478
 21
62.5327365465
  0
LINE
  5
236
100
AcDbEntity
  8
0
100
AcDbLine
 62
7
  6
CONTINUOUS
 10
11.6405620502
 20
62.6675844047
 11
18.3581044391
 21
58.7892972368
  0
LINE
  5
237
100
AcDbEntity
  8
0
100
AcDbLine
 62
7
  6
CONTINUOUS
 10
37.0113998313
 20
49.6223672933
 11
35.6175253951
 21
50.4271028687
  0
LINE
  5
238
100
AcDbEntity
  8
0
100
AcDbLine
 62
7
  6
CONTINUOUS
 10
12.1077587373
 20
64.7707720456
 11
18.8253011262
 21
60.8924848777
  0
LINE
  5
239
100
AcDbEntity
  8
0
100
AcDbLine
 62
7
  6
CONTINUOUS
 10
19.0196640367
 20
61.2721691118
 11
26.0200503157
 21
57.230585642
  0
LINE
  5
23A
100
AcDbEntity
  8
0
100
AcDbLine
 62
7
  6
CONTINUOUS
 10
18.8253011262
 20
60.8924848777
 11
19.0196640367
 21
61.2721691117
  0
LINE
  5
23B
100
AcDbEntity
  8
0
100
AcDbLine
 62
7
  6
CONTINUOUS
 10
53.0980144831
 20
97.8407640461
 11
58.6134244134
 21
101.0250684463
  0
LINE
  5
23C
100
AcDbEntity
  8
0
100
AcDbLine
 62
7
  6
CONTINUOUS
 10
70.3513528214
 20
107.1487334739
 11
64.5531013563
 21
103.8011314121
  0
LINE
  5
23D
100
AcDbEntity
  8
0
100
AcDbLine
 62
7
  6
CONTINUOUS
 10
61.1236477458
 20
101.8211472659
 11
49.3150136643
 21
95.0034698962
  0
LINE
  5
23E
100
AcDbEntity
  8
0
100
AcDbLine
 62
7
  6
CONTINUOUS
 10
19.4185898368
 20
77.5710670955
 11
18.3083873447
 21
76.9301323087
  0
LINE
  5
23F
100
AcDbEntity
  8
0
100
AcDbLine
 62
7
  6
CONTINUOUS
 10
37.2235327488
 20
42.6657698356
 11
37.5417330083
 21
41.8696873095
  0
LINE
  5
240
100
AcDbEntity
  8
0
100
AcDbLine
 62
7
  6
CONTINUOUS
 10
31.2131000851
 20
75.0046420894
 11
31.2131000851
 21
72.7899457679
  0
LINE
  5
241
100
AcDbEntity
  8
0
100
AcDbLine
 62
7
  6
CONTINUOUS
 10
31.2131000851
 20
50.2001926236
 11
31.2131000851
 21
38.4171687778
  0
LINE
  5
242
100
AcDbEntity
  8
0
100
AcDbLine
 62
7
  6
CONTINUOUS
 10
29.3630900874
 20
63.7611499959
 11
31.1353651777
 21
67.9356550704
  0
LINE
  5
243
100
AcDbEntity
  8
0
100
AcDbLine
 62
7
  6
CONTINUOUS
 10
26.0200503157
 20
57.230585642
 11
29.3630900874
 21
63.7611499959
  0
LINE
  5
244
100
AcDbEntity
  8
0
100
AcDbLine
 62
7
  6
CONTINUOUS
 10
67.7563613205
 20
101.9517702476
 11
68.5563200194
 21
102.4136238609
  0
LINE
  5
245
100
AcDbEntity
  8
0
100
AcDbLine
 62
7
  6
CONTINUOUS
 10
70.139268185
 20
100.5760294514
 11
75.9375196501
 21
103.9236315132
  0
LINE
  5
246
100
AcDbEntity
  8
0
100
AcDbLine
 62
7
  6
CONTINUOUS
 10
15.6451614195
 20
71.6810206336
 11
29.3630900874
 21
63.7611499959
  0
LINE
  5
247
100
AcDbEntity
  8
0
100
AcDbLine
 62
7
  6
CONTINUOUS
 10
37.0113998313
 20
67.5854204702
 11
37.0113998313
 21
49.6223672933
  0
LINE
  5
248
100
AcDbEntity
  8
0
100
AcDbLine
 62
7
  6
CONTINUOUS
 10
37.2235327488
 20
37.9300558162
 11
37.2235327488
 21
42.6657698356
  0
LINE
  5
249
100
AcDbEntity
  8
0
100
AcDbLine
 62
7
  6
CONTINUOUS
 10
37.5417330083
 20
38.1137761907
 11
37.5417330083
 21
41.8696873095
  0
LINE
  5
24A
100
AcDbEntity
  8
0
100
AcDbLine
 62
7
  6
CONTINUOUS
 10
37.6124439809
 20
41.7472129923
 11
37.6124439809
 21
38.154602357
  0
LINE
  5
24B
100
AcDbEntity
  8
0
100
AcDbLine
 62
7
  6
CONTINUOUS
 10
53.0272575847
 20
104.250170407
 11
51.3302083754
 21
101.3107786366
  0
LINE
  5
24C
100
AcDbEntity
  8
0
100
AcDbLine
 62
7
  6
CONTINUOUS
 10
61.1236477458
 20
91.9741281153
 11
49.3150136643
 21
85.0757233538
  0
LINE
  5
24D
100
AcDbEntity
  8
0
100
AcDbLine
 62
7
  6
CONTINUOUS
 10
42.668182248
 20
81.694382229
 11
31.2131000851
 21
75.0046420894
  0
LINE
  5
24E
100
AcDbEntity
  8
0
100
AcDbLine
 62
7
  6
CONTINUOUS
 10
89.0755130671
 20
110.9372684562
 11
67.2047913821
 21
98.310276777
  0
LINE
  5
24F
100
AcDbEntity
  8
0
100
AcDbLine
 62
7
  6
CONTINUOUS
 10
27.5997877011
 20
74.5378538609
 11
26.1361322257
 21
73.6927799275
  0
LINE
  5
250
100
AcDbEntity
  8
0
100
AcDbLine
 62
7
  6
CONTINUOUS
 10
31.1353651777
 20
67.9356550705
 11
17.4174365098
 21
75.8555257081
  0
LINE
  5
251
100
AcDbEntity
  8
0
100
AcDbLine
 62
7
  6
CONTINUOUS
 10
42.668182248
 20
98.8409329887
 11
42.668182248
 21
81.694382229
  0
LINE
  5
252
100
AcDbEntity
  8
0
100
AcDbLine
 62
7
  6
CONTINUOUS
 10
42.668182248
 20
31.8037236236
 11
42.668182248
 21
27.8052226984
  0
LINE
  5
253
100
AcDbEntity
  8
0
100
AcDbLine
 62
7
  6
CONTINUOUS
 10
43.127899837
 20
38.5629351071
 11
43.127899837
 21
34.9703244717
  0
LINE
  5
254
100
AcDbEntity
  8
0
100
AcDbLine
 62
7
  6
CONTINUOUS
 10
43.1986108095
 20
38.6037612733
 11
43.1986108095
 21
34.8478501546
  0
LINE
  5
255
100
AcDbEntity
  8
0
100
AcDbLine
 62
7
  6
CONTINUOUS
 10
18.3083873447
 20
76.9301323087
 11
32.0263160126
 21
69.010261671
  0
LINE
  5
256
100
AcDbEntity
  8
0
100
AcDbLine
 62
7
  6
CONTINUOUS
 10
19.4185898368
 20
77.5711041903
 11
26.1361322257
 21
73.6928170223
  0
LINE
  5
257
100
AcDbEntity
  8
0
100
AcDbLine
 62
7
  6
CONTINUOUS
 10
37.0113998313
 20
67.5854204702
 11
35.9130023548
 21
68.2195662026
  0
LINE
  5
258
100
AcDbEntity
  8
0
100
AcDbLine
 62
7
  6
CONTINUOUS
 10
34.60017398
 20
70.4962703911
 11
27.5997877011
 21
74.5378538609
  0
LINE
  5
259
100
AcDbEntity
  8
0
100
AcDbLine
 62
7
  6
CONTINUOUS
 10
35.1001654965
 20
70.5457982757
 11
28.0997792175
 21
74.5873817454
  0
LINE
  5
25A
100
AcDbEntity
  8
0
100
AcDbLine
 62
7
  6
CONTINUOUS
 10
43.7289422202
 20
38.909954894
 11
43.7289422202
 21
34.1742408746
  0
LINE
  5
25B
100
AcDbEntity
  8
0
100
AcDbLine
 62
7
  6
CONTINUOUS
 10
43.9410751377
 20
67.656308508
 11
43.9410751377
 21
31.0688351964
  0
LINE
  5
25C
100
AcDbEntity
  8
0
100
AcDbLine
 62
7
  6
CONTINUOUS
 10
55.3961573006
 20
81.5648528649
 11
67.2047913821
 21
88.4632576264
  0
LINE
  5
25D
100
AcDbEntity
  8
0
100
AcDbLine
 62
7
  6
CONTINUOUS
 10
34.60017398
 20
70.4962703911
 11
32.0263160126
 21
69.010261671
  0
LINE
  5
25E
100
AcDbEntity
  8
0
100
AcDbLine
 62
7
  6
CONTINUOUS
 10
43.9410751377
 20
67.656308508
 11
31.2131000851
 21
75.0046420894
  0
LINE
  5
25F
100
AcDbEntity
  8
0
100
AcDbLine
 62
7
  6
CONTINUOUS
 10
49.3150136643
 20
95.0034698962
 11
49.3150136643
 21
85.0757233538
  0
LINE
  5
260
100
AcDbEntity
  8
0
100
AcDbLine
 62
7
  6
CONTINUOUS
 10
49.3150136643
 20
33.8978381902
 11
49.3150136643
 21
23.9677596059
  0
LINE
  5
261
100
AcDbEntity
  8
0
100
AcDbLine
 62
7
  6
CONTINUOUS
 10
51.3302083754
 20
99.57163131
 11
51.3302083754
 21
101.3107786366
  0
LINE
  5
262
100
AcDbEntity
  8
0
100
AcDbLine
 62
7
  6
CONTINUOUS
 10
70.3513528214
 20
107.1487334739
 11
68.5128828447
 21
103.9643923893
  0
LINE
  5
263
100
AcDbEntity
  8
0
100
AcDbLine
 62
7
  6
CONTINUOUS
 10
43.9410751377
 20
67.656308508
 11
55.3961573006
 21
74.3460486476
  0
LINE
  5
264
100
AcDbEntity
  8
0
100
AcDbLine
 62
7
  6
CONTINUOUS
 10
55.3961573006
 20
81.5648528649
 11
55.3961573006
 21
74.3460486476
  0
LINE
  5
265
100
AcDbEntity
  8
0
100
AcDbLine
 62
7
  6
CONTINUOUS
 10
55.3961573006
 20
37.6034398768
 11
55.3961573006
 21
30.3869677013
  0
LINE
  5
266
100
AcDbEntity
  8
0
100
AcDbLine
 62
7
  6
CONTINUOUS
 10
86.1834583729
 20
89.8347923392
 11
90.2563764752
 21
92.1862786655
  0
LINE
  5
267
100
AcDbEntity
  8
0
100
AcDbLine
 62
7
  6
CONTINUOUS
 10
42.0271700575
 20
100.4630695013
 11
42.4286598723
 21
99.490277156
  0
LINE
  5
268
100
AcDbEntity
  8
0
100
AcDbLine
 62
7
  6
CONTINUOUS
 10
55.3961573006
 20
74.3460486476
 11
42.668182248
 21
81.694382229
  0
LINE
  5
269
100
AcDbEntity
  8
0
100
AcDbLine
 62
7
  6
CONTINUOUS
 10
42.4286598723
 20
99.490277156
 11
42.7983182121
 21
98.9262181106
  0
LINE
  5
26A
100
AcDbEntity
  8
0
100
AcDbLine
 62
7
  6
CONTINUOUS
 10
61.1236477458
 20
101.8211472659
 11
61.1236477458
 21
91.9741281153
  0
LINE
  5
26B
100
AcDbEntity
  8
0
100
AcDbLine
 62
7
  6
CONTINUOUS
 10
61.1236477458
 20
33.653430157
 11
61.1236477458
 21
30.7854369756
  0
LINE
  5
26C
100
AcDbEntity
  8
0
100
AcDbLine
 62
7
  6
CONTINUOUS
 10
38.427670754
 20
41.2765522432
 11
37.9391485387
 21
40.7315796839
  0
LINE
  5
26D
100
AcDbEntity
  8
0
100
AcDbLine
 62
7
  6
CONTINUOUS
 10
86.1834583729
 20
62.2042719292
 11
90.2563764752
 21
59.8527829472
  0
LINE
  5
26E
100
AcDbEntity
  8
0
100
AcDbLine
 62
7
  6
CONTINUOUS
 10
49.3150136643
 20
85.0757233538
 11
55.3961573006
 21
81.5648528649
  0
LINE
  5
26F
100
AcDbEntity
  8
0
100
AcDbLine
 62
7
  6
CONTINUOUS
 10
67.2047913821
 20
37.1215856373
 11
67.2047913821
 21
27.2745664867
  0
LINE
  5
270
100
AcDbEntity
  8
0
100
AcDbLine
 62
7
  6
CONTINUOUS
 10
67.2047913821
 20
88.4632576264
 11
67.2047913821
 21
98.310276777
  0
LINE
  5
271
100
AcDbEntity
  8
0
100
AcDbLine
 62
7
  6
CONTINUOUS
 10
51.4058095582
 20
99.6152794127
 11
52.0845246925
 21
98.4258894122
  0
LINE
  5
272
100
AcDbEntity
  8
0
100
AcDbLine
 62
7
  6
CONTINUOUS
 10
68.5128828447
 20
102.3885455461
 11
68.5128828447
 21
103.9643923893
  0
LINE
  5
273
100
AcDbEntity
  8
0
100
AcDbLine
 62
7
  6
CONTINUOUS
 10
49.3150136643
 20
95.0034698962
 11
42.668182248
 21
98.8409329887
  0
LINE
  5
274
100
AcDbEntity
  8
0
100
AcDbLine
 62
7
  6
CONTINUOUS
 10
42.0876276535
 20
100.4979764634
 11
43.8129696275
 21
99.5018723452
  0
LINE
  5
275
100
AcDbEntity
  8
0
100
AcDbLine
 62
7
  6
CONTINUOUS
 10
37.2235327488
 20
37.9300558162
 11
37.5417330083
 21
38.1137761907
  0
LINE
  5
276
100
AcDbEntity
  8
0
100
AcDbLine
 62
7
  6
CONTINUOUS
 10
38.933788416
 20
38.9174763685
 11
37.6124439809
 21
38.154602357
  0
LINE
  5
277
100
AcDbEntity
  8
0
100
AcDbLine
 62
7
  6
CONTINUOUS
 10
43.7289422202
 20
38.909954894
 11
43.1986108095
 21
38.6037612733
  0
LINE
  5
278
100
AcDbEntity
  8
0
100
AcDbLine
 62
7
  6
CONTINUOUS
 10
44.0109637719
 20
99.6161836354
 11
42.2856183765
 21
100.6122897289
  0
LINE
  5
279
100
AcDbEntity
  8
0
100
AcDbLine
 62
7
  6
CONTINUOUS
 10
42.4136105
 20
100.6861882698
 11
44.1389582294
 21
99.6900808287
  0
LINE
  5
27A
100
AcDbEntity
  8
0
100
AcDbLine
 62
7
  6
CONTINUOUS
 10
61.1236477458
 20
91.9741281153
 11
67.2047913821
 21
88.4632576264
  0
LINE
  5
27B
100
AcDbEntity
  8
0
100
AcDbLine
 62
7
  6
CONTINUOUS
 10
47.5118476544
 20
101.0658660068
 11
53.0980144831
 21
97.8407640461
  0
LINE
  5
27C
100
AcDbEntity
  8
0
100
AcDbLine
 62
7
  6
CONTINUOUS
 10
88.8421688008
 20
60.6692994737
 11
86.1834583729
 21
59.1343014551
  0
LINE
  5
27D
100
AcDbEntity
  8
0
100
AcDbLine
 62
7
  6
CONTINUOUS
 10
47.9785320654
 20
101.9068465843
 11
46.2531843361
 21
102.9029540253
  0
LINE
  5
27E
100
AcDbEntity
  8
0
100
AcDbLine
 62
7
  6
CONTINUOUS
 10
55.2192825375
 20
99.0654714179
 11
51.3302083754
 21
101.3107786366
  0
LINE
  5
27F
100
AcDbEntity
  8
0
100
AcDbLine
 62
7
  6
CONTINUOUS
 10
64.5601220928
 20
113.4723977693
 11
64.9616119077
 21
112.499605424
  0
LINE
  5
280
100
AcDbEntity
  8
0
100
AcDbLine
 62
7
  6
CONTINUOUS
 10
55.3961573006
 20
37.6034398768
 11
43.9410751377
 21
31.0688351964
  0
LINE
  5
281
100
AcDbEntity
  8
0
100
AcDbLine
 62
7
  6
CONTINUOUS
 10
58.6134244134
 20
101.0250684463
 11
53.0272575847
 21
104.250170407
  0
LINE
  5
282
100
AcDbEntity
  8
0
100
AcDbLine
 62
7
  6
CONTINUOUS
 10
61.1236477458
 20
101.8211472659
 11
67.2047913821
 21
98.310276777
  0
LINE
  5
283
100
AcDbEntity
  8
0
100
AcDbLine
 62
7
  6
CONTINUOUS
 10
68.5563200194
 20
102.4136238609
 11
69.3423958136
 21
101.0360935215
  0
LINE
  5
284
100
AcDbEntity
  8
0
100
AcDbLine
 62
7
  6
CONTINUOUS
 10
86.1834583729
 20
59.1343014551
 11
86.1834583729
 21
89.8347923392
  0
LINE
  5
285
100
AcDbEntity
  8
0
100
AcDbLine
 62
7
  6
CONTINUOUS
 10
64.5531013563
 20
103.8011314121
 11
70.139268185
 21
100.5760294514
  0
LINE
  5
286
100
AcDbEntity
  8
0
100
AcDbLine
 62
7
  6
CONTINUOUS
 10
72.260532618
 20
101.8007347323
 11
68.5128828447
 21
103.9643923893
  0
LINE
  5
287
100
AcDbEntity
  8
0
100
AcDbLine
 62
7
  6
CONTINUOUS
 10
64.9616119077
 20
112.499605424
 11
65.3360968662
 21
111.9281814751
  0
LINE
  5
288
100
AcDbEntity
  8
0
100
AcDbLine
 62
7
  6
CONTINUOUS
 10
90.2563764752
 20
40.5833259029
 11
90.2563764752
 21
59.8527829472
  0
LINE
  5
289
100
AcDbEntity
  8
0
100
AcDbLine
 62
7
  6
CONTINUOUS
 10
90.2563764752
 20
92.1862786655
 11
90.2563764752
 21
101.9026574293
  0
LINE
  5
28A
100
AcDbEntity
  8
0
100
AcDbLine
 62
7
  6
CONTINUOUS
 10
61.1236477458
 20
30.7854369756
 11
49.3150136643
 21
23.9677596059
  0
LINE
  5
28B
100
AcDbEntity
  8
0
100
AcDbLine
 62
7
  6
CONTINUOUS
 10
67.2047913821
 20
37.1215856373
 11
55.3961573006
 21
30.3869677013
  0
LINE
  5
28C
100
AcDbEntity
  8
0
100
AcDbLine
 62
7
  6
CONTINUOUS
 10
75.9375196501
 20
103.9236315132
 11
70.3513528214
 21
107.1487334739
  0
LINE
  5
28D
100
AcDbEntity
  8
0
100
AcDbLine
 62
7
  6
CONTINUOUS
 10
64.6166681623
 20
113.5050462971
 11
66.3420100264
 21
112.5089422423
  0
LINE
  5
28E
100
AcDbEntity
  8
0
100
AcDbLine
 62
7
  6
CONTINUOUS
 10
66.5400041709
 20
112.6232535326
 11
64.8146588853
 21
113.6193595627
  0
LINE
  5
28F
100
AcDbEntity
  8
0
100
AcDbLine
 62
7
  6
CONTINUOUS
 10
64.9560808304
 20
113.7010118952
 11
66.6814285597
 21
112.7049044542
  0
LINE
  5
290
100
AcDbEntity
  8
0
100
AcDbLine
 62
7
  6
CONTINUOUS
 10
89.0755130671
 20
110.9372684562
 11
90.2563764752
 21
101.9026574293
  0
LINE
  5
291
100
AcDbEntity
  8
0
100
AcDbLine
 62
7
  6
CONTINUOUS
 10
67.2047913821
 20
27.2745664867
 11
90.2563764752
 21
40.5833259029
  0
LINE
  5
292
100
AcDbEntity
  8
0
100
AcDbLine
 62
7
  6
CONTINUOUS
 10
73.4271991668
 20
116.5995536821
 11
71.7018514374
 21
117.5956611231
  0
LINE
  5
293
100
AcDbEntity
  8
0
100
AcDbLine
 62
7
  6
CONTINUOUS
 10
89.0755130671
 20
110.9372684562
 11
76.3475380144
 21
118.2856020376
  0
ARC
  5
294
100
AcDbEntity
  8
0
100
AcDbCircle
 62
7
  6
CONTINUOUS
 10
15.3976048741
 20
62.7026737225
 40
3.7572067145
100
AcDbArc
 50
180.0004499616
 51
180.5374375874
  0
ARC
  5
295
100
AcDbEntity
  8
0
100
AcDbCircle
 62
7
  6
CONTINUOUS
 10
22.0843461017
 20
58.824208587
 40
3.726405241
100
AcDbArc
 50
180.2555616873
 51
180.5367911479
  0
ARC
  5
296
100
AcDbEntity
  8
0
100
AcDbCircle
 62
7
  6
CONTINUOUS
 10
22.008195147
 20
58.7901874482
 40
3.6503046606
100
AcDbArc
 50
180.0042680195
 51
181.7265389363
  0
ARC
  5
297
100
AcDbEntity
  8
0
100
AcDbCircle
 62
7
  6
CONTINUOUS
 10
21.8961757507
 20
58.7871709132
 40
3.5382452522
100
AcDbArc
 50
181.7323667753
 51
182.320453089
  0
SPLINE
  5
298
100
AcDbEntity
  8
0
100
AcDbSpline
 62
7
  6
CONTINUOUS
 70
0
 71
3
 72
11
 73
7
 74
0
 42
0.0000001
 43
0.0000001
 44
0.0000000001
 40
0.0
 40
0.0
 40
0.0
 40
0.0
 40
0.2177833598
 40
0.4509104088
 40
0.7102966711
 40
1.0
 40
1.0
 40
1.0
 40
1.0
 10
47.5062277964
 20
29.9175536485
 30
0.0
 10
47.6084862327
 20
29.9765922501
 30
0.0
 10
47.799807564
 20
30.1374357116
 30
0.0
 10
48.0034917964
 20
30.4704687061
 30
0.0
 10
48.1244682523
 20
30.880889167
 30
0.0
 10
48.1482826178
 20
31.1796054238
 30
0.0
 10
48.1482826178
 20
31.3366766713
 30
0.0
  0
SPLINE
  5
299
100
AcDbEntity
  8
0
100
AcDbSpline
 62
7
  6
CONTINUOUS
 70
0
 71
3
 72
11
 73
7
 74
0
 42
0.0000001
 43
0.0000001
 44
0.0000000001
 40
0.0
 40
0.0
 40
0.0
 40
0.0
 40
0.2177839466
 40
0.4509170841
 40
0.710307871
 40
1.0
 40
1.0
 40
1.0
 40
1.0
 10
65.4246462863
 20
33.2400743548
 30
0.0
 10
65.5245881981
 20
33.2977936928
 30
0.0
 10
65.7116050061
 20
33.454985962
 30
0.0
 10
65.9106890493
 20
33.7805137829
 30
0.0
 10
66.0289268549
 20
34.1816668585
 30
0.0
 10
66.0522025301
 20
34.473634958
 30
0.0
 10
66.0522025301
 20
34.6271537129
 30
0.0
  0
SPLINE
  5
29A
100
AcDbEntity
  8
0
100
AcDbSpline
 62
7
  6
CONTINUOUS
 70
0
 71
3
 72
11
 73
7
 74
0
 42
0.0000001
 43
0.0000001
 44
0.0000000001
 40
0.0
 40
0.0
 40
0.0
 40
0.0
 40
0.2177839466
 40
0.4509170841
 40
0.710307871
 40
1.0
 40
1.0
 40
1.0
 40
1.0
 10
65.4667170653
 20
90.8286060304
 30
0.0
 10
65.5689678661
 20
90.8876588184
 30
0.0
 10
65.7603051944
 20
91.0484825922
 30
0.0
 10
65.9639885389
 20
91.3815308577
 30
0.0
 10
66.084957911
 20
91.7919514962
 30
0.0
 10
66.1087713081
 20
92.0906647332
 30
0.0
 10
66.1087713081
 20
92.247730126
 30
0.0
  0
SPLINE
  5
29B
100
AcDbEntity
  8
0
100
AcDbSpline
 62
7
  6
CONTINUOUS
 70
0
 71
3
 72
11
 73
7
 74
0
 42
0.0000001
 43
0.0000001
 44
0.0000000001
 40
0.0
 40
0.0
 40
0.0
 40
0.0
 40
0.2177833598
 40
0.4509104088
 40
0.7102966711
 40
1.0
 40
1.0
 40
1.0
 40
1.0
 10
47.5062277964
 20
87.5626242979
 30
0.0
 10
47.6084862327
 20
87.6216628995
 30
0.0
 10
47.799807564
 20
87.782506361
 30
0.0
 10
48.0034917964
 20
88.1155393554
 30
0.0
 10
48.1244682523
 20
88.5259598164
 30
0.0
 10
48.1482826178
 20
88.8246760731
 30
0.0
 10
48.1482826178
 20
88.9817473207
 30
0.0
  0
SPLINE
  5
29C
100
AcDbEntity
  8
0
100
AcDbSpline
 62
7
  6
CONTINUOUS
 70
0
 71
3
 72
11
 73
7
 74
0
 42
0.0000001
 43
0.0000001
 44
0.0000000001
 40
0.0
 40
0.0
 40
0.0
 40
0.0
 40
0.2179236459
 40
0.4510195301
 40
0.7105999299
 40
1.0
 40
1.0
 40
1.0
 40
1.0
 10
28.0997381576
 20
74.5873110711
 30
0.0
 10
28.0667425656
 20
74.6063846456
 30
0.0
 10
27.9909711583
 20
74.634002958
 30
0.0
 10
27.8650107321
 20
74.6371248722
 30
0.0
 10
27.7309208568
 20
74.6045941541
 30
0.0
 10
27.6436190838
 20
74.5631597704
 30
0.0
 10
27.5997877011
 20
74.5378538609
 30
0.0
  0
SPLINE
  5
29D
100
AcDbEntity
  8
0
100
AcDbSpline
 62
7
  6
CONTINUOUS
 70
0
 71
3
 72
11
 73
7
 74
0
 42
0.0000001
 43
0.0000001
 44
0.0000000001
 40
0.0
 40
0.0
 40
0.0
 40
0.0
 40
0.2239206914
 40
0.459843446
 40
0.7171601706
 40
1.0
 40
1.0
 40
1.0
 40
1.0
 10
35.1001483456
 20
70.5457684145
 30
0.0
 10
35.1284480569
 20
70.5294469588
 30
0.0
 10
35.181795592
 20
70.4869444793
 30
0.0
 10
35.2429065574
 20
70.4006002957
 30
0.0
 10
35.2846969393
 20
70.2944199503
 30
0.0
 10
35.2988215566
 20
70.2164042739
 30
0.0
 10
35.3029868192
 20
70.1753499997
 30
0.0
  0
SPLINE
  5
29E
100
AcDbEntity
  8
0
100
AcDbSpline
 62
7
  6
CONTINUOUS
 70
0
 71
3
 72
10
 73
6
 74
0
 42
0.0000001
 43
0.0000001
 44
0.0000000001
 40
0.0
 40
0.0
 40
0.0
 40
0.0
 40
0.2295681905
 40
0.4755547119
 40
1.0
 40
1.0
 40
1.0
 40
1.0
 10
48.1482826178
 20
31.3366766713
 30
0.0
 10
48.1482826178
 20
31.4838861149
 30
0.0
 10
48.1253009148
 20
31.7891110181
 30
0.0
 10
47.9988350029
 20
32.4187861265
 30
0.0
 10
47.8208360769
 20
32.8847005757
 30
0.0
 10
47.6722471795
 20
33.1863918305
 30
0.0
  0
SPLINE
  5
29F
100
AcDbEntity
  8
0
100
AcDbSpline
 62
7
  6
CONTINUOUS
 70
0
 71
3
 72
17
 73
13
 74
0
 42
0.0000001
 43
0.0000001
 44
0.0000000001
 40
0.0
 40
0.0
 40
0.0
 40
0.0
 40
0.1286930371
 40
0.2702795962
 40
0.4174375935
 40
0.5617786795
 40
0.6954478243
 40
0.81271112
 40
0.8646738576
 40
0.9125098523
 40
0.9571380034
 40
1.0
 40
1.0
 40
1.0
 40
1.0
 10
66.1087713081
 20
92.247730126
 30
0.0
 10
66.1087713081
 20
92.5127112605
 30
0.0
 10
66.0346503336
 20
93.0698587436
 30
0.0
 10
65.7579457069
 20
93.8879021236
 30
0.0
 10
65.331613857
 20
94.6759372846
 30
0.0
 10
64.7898719702
 20
95.369339349
 30
0.0
 10
64.1770236461
 20
95.9120972895
 30
0.0
 10
63.6223240396
 20
96.2154356981
 30
0.0
 10
63.188397643
 20
96.330838455
 30
0.0
 10
62.8897504597
 20
96.3528637927
 30
0.0
 10
62.6116692524
 20
96.3120369976
 30
0.0
 10
62.4431691815
 20
96.2420839226
 30
0.0
 10
62.366745255
 20
96.1979468997
 30
0.0
  0
SPLINE
  5
2A0
100
AcDbEntity
  8
0
100
AcDbSpline
 62
7
  6
CONTINUOUS
 70
0
 71
3
 72
11
 73
7
 74
0
 42
0.0000001
 43
0.0000001
 44
0.0000000001
 40
0.0
 40
0.0
 40
0.0
 40
0.0
 40
0.289702329
 40
0.5490881649
 40
0.7822156415
 40
1.0
 40
1.0
 40
1.0
 40
1.0
 10
45.9562424691
 20
92.7784511531
 30
0.0
 10
45.8202181146
 20
92.8569830742
 30
0.0
 10
45.5496218115
 20
92.9857110405
 30
0.0
 10
45.1337099094
 20
93.086146313
 30
0.0
 10
44.7434628698
 20
93.0762653287
 30
0.0
 10
44.5085133153
 20
92.9910003159
 30
0.0
 10
44.4062571433
 20
92.9319630216
 30
0.0
  0
SPLINE
  5
2A1
100
AcDbEntity
  8
0
100
AcDbSpline
 62
7
  6
CONTINUOUS
 70
0
 71
3
 72
15
 73
11
 74
0
 42
0.0000001
 43
0.0000001
 44
0.0000000001
 40
0.0
 40
0.0
 40
0.0
 40
0.0
 40
0.1141241598
 40
0.2373483675
 40
0.3669736385
 40
0.5000010133
 40
0.6330282465
 40
0.7626531028
 40
0.8858766831
 40
1.0
 40
1.0
 40
1.0
 40
1.0
 10
48.1482826178
 20
88.9817473207
 30
0.0
 10
48.1482826178
 20
89.1549767778
 30
0.0
 10
48.1164752832
 20
89.5155762969
 30
0.0
 10
47.9900508231
 20
90.059562741
 30
0.0
 10
47.7872814801
 20
90.6105810637
 30
0.0
 10
47.5160790762
 20
91.1478907485
 30
0.0
 10
47.186354456
 20
91.6514117128
 30
0.0
 10
46.8105420838
 20
92.1025209799
 30
0.0
 10
46.4026478812
 20
92.4839964603
 30
0.0
 10
46.1062633201
 20
92.6918385339
 30
0.0
 10
45.9562424691
 20
92.7784511531
 30
0.0
  0
SPLINE
  5
2A2
100
AcDbEntity
  8
0
100
AcDbSpline
 62
7
  6
CONTINUOUS
 70
0
 71
3
 72
13
 73
9
 74
0
 42
0.0000001
 43
0.0000001
 44
0.0000000001
 40
0.0
 40
0.0
 40
0.0
 40
0.0
 40
0.2734949958
 40
0.5277380407
 40
0.6492015489
 40
0.7677997231
 40
0.8844057243
 40
1.0
 40
1.0
 40
1.0
 40
1.0
 10
36.9894953657
 20
50.4928262133
 30
0.0
 10
36.1975098889
 20
50.2720803516
 30
0.0
 10
34.6347720157
 20
49.9563097179
 30
0.0
 10
32.6708080803
 20
49.9129552146
 30
0.0
 10
31.1954225212
 20
50.109591414
 30
0.0
 10
30.1516376504
 20
50.3643079854
 30
0.0
 10
29.1593786752
 20
50.7276875757
 30
0.0
 10
28.5340689539
 20
51.042009204
 30
0.0
 10
28.2331235375
 20
51.2157496661
 30
0.0
  0
SPLINE
  5
2A3
100
AcDbEntity
  8
0
100
AcDbSpline
 62
7
  6
CONTINUOUS
 70
0
 71
3
 72
12
 73
8
 74
0
 42
0.0000001
 43
0.0000001
 44
0.0000000001
 40
0.0
 40
0.0
 40
0.0
 40
0.0
 40
0.2820502076
 40
0.5394421386
 40
0.7760293811
 40
0.8890465425
 40
1.0
 40
1.0
 40
1.0
 40
1.0
 10
35.3029868192
 20
70.1753499997
 30
0.0
 10
35.3371329362
 20
69.8138188426
 30
0.0
 10
35.4533658033
 20
69.1252181324
 30
0.0
 10
35.7984777996
 20
68.1808982106
 30
0.0
 10
36.226458493
 20
67.5168791835
 30
0.0
 10
36.639677883
 20
67.0895246405
 30
0.0
 10
36.8671076773
 20
66.9104694935
 30
0.0
 10
36.9852188808
 20
66.8301161855
 30
0.0
  0
SPLINE
  5
2A4
100
AcDbEntity
  8
0
100
AcDbSpline
 62
7
  6
CONTINUOUS
 70
0
 71
3
 72
11
 73
7
 74
0
 42
0.0000001
 43
0.0000001
 44
0.0000000001
 40
0.0
 40
0.0
 40
0.0
 40
0.0
 40
0.2790648704
 40
0.5374559663
 40
0.7766909334
 40
1.0
 40
1.0
 40
1.0
 40
1.0
 10
18.3608318403
 20
58.6439127547
 30
0.0
 10
18.3664578049
 20
58.5051217073
 30
0.0
 10
18.3930414619
 20
58.2380391966
 30
0.0
 10
18.4855858557
 20
57.8611354509
 30
0.0
 10
18.6283087474
 20
57.5299293161
 30
0.0
 10
18.7594982664
 20
57.3383539318
 30
0.0
 10
18.8321970201
 20
57.2542720401
 30
0.0
  0
SPLINE
  5
2A5
100
AcDbEntity
  8
0
100
AcDbSpline
 62
7
  6
CONTINUOUS
 70
0
 71
3
 72
9
 73
5
 74
0
 42
0.0000001
 43
0.0000001
 44
0.0000000001
 40
0.0
 40
0.0
 40
0.0
 40
0.0
 40
0.2528681236
 40
1.0
 40
1.0
 40
1.0
 40
1.0
 10
18.8321970201
 20
57.2542720401
 30
0.0
 10
18.9207665288
 20
57.1518343579
 30
0.0
 10
19.2791082109
 20
56.7538071873
 30
0.0
 10
19.6701377634
 20
56.3850724477
 30
0.0
 10
19.9783911846
 20
56.1299881834
 30
0.0
  0
SPLINE
  5
2A6
100
AcDbEntity
  8
0
100
AcDbSpline
 62
7
  6
CONTINUOUS
 70
0
 71
3
 72
10
 73
6
 74
0
 42
0.0000001
 43
0.0000001
 44
0.0000000001
 40
0.0
 40
0.0
 40
0.0
 40
0.0
 40
0.2280879923
 40
0.4772059557
 40
1.0
 40
1.0
 40
1.0
 40
1.0
 10
18.3083873447
 20
76.9301323087
 30
0.0
 10
18.2152016986
 20
76.876331872
 30
0.0
 10
18.032613249
 20
76.7416693639
 30
0.0
 10
17.705177621
 20
76.4003964508
 30
0.0
 10
17.5134862301
 20
76.0826838497
 30
0.0
 10
17.4174365098
 20
75.8555257081
 30
0.0
  0
SPLINE
  5
2A7
100
AcDbEntity
  8
0
100
AcDbSpline
 62
7
  6
CONTINUOUS
 70
0
 71
3
 72
9
 73
5
 74
0
 42
0.0000001
 43
0.0000001
 44
0.0000000001
 40
0.0
 40
0.0
 40
0.0
 40
0.0
 40
0.5237884738
 40
1.0
 40
1.0
 40
1.0
 40
1.0
 10
12.1077587373
 20
64.7707720456
 30
0.0
 10
11.960923079
 20
64.4289429655
 30
0.0
 10
11.7339383409
 20
63.7518026472
 30
0.0
 10
11.6403981598
 20
63.0408836946
 30
0.0
 10
11.6403981598
 20
62.702644216
 30
0.0
  0
SPLINE
  5
2A8
100
AcDbEntity
  8
0
100
AcDbSpline
 62
7
  6
CONTINUOUS
 70
0
 71
3
 72
9
 73
5
 74
0
 42
0.0000001
 43
0.0000001
 44
0.0000000001
 40
0.0
 40
0.0
 40
0.0
 40
0.0
 40
0.4759729236
 40
1.0
 40
1.0
 40
1.0
 40
1.0
 10
66.0522025301
 20
34.6271537129
 30
0.0
 10
66.0522025301
 20
34.8912313951
 30
0.0
 10
65.9769812525
 20
35.4465428164
 30
0.0
 10
65.7953951092
 20
35.9741655132
 30
0.0
 10
65.677949718
 20
36.2401273565
 30
0.0
  0
SPLINE
  5
2A9
100
AcDbEntity
  8
0
100
AcDbSpline
 62
7
  6
CONTINUOUS
 70
0
 71
3
 72
17
 73
13
 74
0
 42
0.0000001
 43
0.0000001
 44
0.0000000001
 40
0.0
 40
0.0
 40
0.0
 40
0.0
 40
0.1286930371
 40
0.2702795962
 40
0.4174375935
 40
0.5617786795
 40
0.6954478243
 40
0.81271112
 40
0.8646738576
 40
0.9125098523
 40
0.9571380034
 40
1.0
 40
1.0
 40
1.0
 40
1.0
 10
61.7246910122
 20
94.778822804
 30
0.0
 10
61.7246910122
 20
94.5138416696
 30
0.0
 10
61.7988119867
 20
93.9566941865
 30
0.0
 10
62.0755166133
 20
93.1386508065
 30
0.0
 10
62.5018484632
 20
92.3506156455
 30
0.0
 10
63.0435903501
 20
91.657213581
 30
0.0
 10
63.6564386742
 20
91.1144556406
 30
0.0
 10
64.2111382807
 20
90.8111172319
 30
0.0
 10
64.6450646773
 20
90.6957144751
 30
0.0
 10
64.9437118606
 20
90.6736891374
 30
0.0
 10
65.2217930679
 20
90.7145159324
 30
0.0
 10
65.3902931388
 20
90.7844690075
 30
0.0
 10
65.4667170653
 20
90.8286060304
 30
0.0
  0
SPLINE
  5
2AA
100
AcDbEntity
  8
0
100
AcDbSpline
 62
7
  6
CONTINUOUS
 70
0
 71
3
 72
15
 73
11
 74
0
 42
0.0000001
 43
0.0000001
 44
0.0000000001
 40
0.0
 40
0.0
 40
0.0
 40
0.0
 40
0.1141241598
 40
0.2373483675
 40
0.3669736385
 40
0.5000010132
 40
0.6330282465
 40
0.7626531028
 40
0.8858766831
 40
1.0
 40
1.0
 40
1.0
 40
1.0
 10
43.7642023219
 20
91.5128399987
 30
0.0
 10
43.7642023219
 20
91.3396105417
 30
0.0
 10
43.7960096565
 20
90.9790110225
 30
0.0
 10
43.9224341167
 20
90.4350245784
 30
0.0
 10
44.1252034597
 20
89.8840062557
 30
0.0
 10
44.3964058636
 20
89.3466965709
 30
0.0
 10
44.7261304837
 20
88.8431756066
 30
0.0
 10
45.1019428561
 20
88.3920663395
 30
0.0
 10
45.5098370586
 20
88.0105908591
 30
0.0
 10
45.8062216196
 20
87.8027487852
 30
0.0
 10
45.9562424706
 20
87.716136166
 30
0.0
  0
SPLINE
  5
2AB
100
AcDbEntity
  8
0
100
AcDbSpline
 62
7
  6
CONTINUOUS
 70
0
 71
3
 72
11
 73
7
 74
0
 42
0.0000001
 43
0.0000001
 44
0.0000000001
 40
0.0
 40
0.0
 40
0.0
 40
0.0
 40
0.289702329
 40
0.5490881649
 40
0.7822156414
 40
1.0
 40
1.0
 40
1.0
 40
1.0
 10
45.9562424706
 20
87.716136166
 30
0.0
 10
46.0922668252
 20
87.6376042451
 30
0.0
 10
46.3628631283
 20
87.5088762789
 30
0.0
 10
46.7787750303
 20
87.4084410065
 30
0.0
 10
47.1690220699
 20
87.4183219907
 30
0.0
 10
47.4039716245
 20
87.5035870035
 30
0.0
 10
47.5062277964
 20
87.5626242979
 30
0.0
  0
SPLINE
  5
2AC
100
AcDbEntity
  8
0
100
AcDbSpline
 62
7
  6
CONTINUOUS
 70
0
 71
3
 72
11
 73
7
 74
0
 42
0.0000001
 43
0.0000001
 44
0.0000000001
 40
0.0
 40
0.0
 40
0.0
 40
0.0
 40
0.2177839466
 40
0.4509170841
 40
0.710307871
 40
1.0
 40
1.0
 40
1.0
 40
1.0
 10
62.366745255
 20
96.1979468997
 30
0.0
 10
62.2644944542
 20
96.1388941117
 30
0.0
 10
62.0731571259
 20
95.9780703379
 30
0.0
 10
61.8694737813
 20
95.6450220723
 30
0.0
 10
61.7485044093
 20
95.2346014339
 30
0.0
 10
61.7246910122
 20
94.9358881968
 30
0.0
 10
61.7246910122
 20
94.778822804
 30
0.0
  0
SPLINE
  5
2AD
100
AcDbEntity
  8
0
100
AcDbSpline
 62
7
  6
CONTINUOUS
 70
0
 71
3
 72
11
 73
7
 74
0
 42
0.0000001
 43
0.0000001
 44
0.0000000001
 40
0.0
 40
0.0
 40
0.0
 40
0.0
 40
0.2177833598
 40
0.4509104088
 40
0.7102966711
 40
1.0
 40
1.0
 40
1.0
 40
1.0
 10
44.4062571433
 20
92.9319630216
 30
0.0
 10
44.303998707
 20
92.8729244199
 30
0.0
 10
44.1126773758
 20
92.7120809584
 30
0.0
 10
43.9089931434
 20
92.379047964
 30
0.0
 10
43.7880166875
 20
91.9686275031
 30
0.0
 10
43.7642023219
 20
91.6699112463
 30
0.0
 10
43.7642023219
 20
91.5128399987
 30
0.0
  0
SPLINE
  5
2AE
100
AcDbEntity
  8
0
100
AcDbSpline
 62
7
  6
CONTINUOUS
 70
0
 71
3
 72
11
 73
7
 74
0
 42
0.0000001
 43
0.0000001
 44
0.0000000001
 40
0.0
 40
0.0
 40
0.0
 40
0.0
 40
0.2209928896
 40
0.4593585256
 40
0.7186638851
 40
1.0
 40
1.0
 40
1.0
 40
1.0
 10
25.8325832991
 20
53.2126885704
 30
0.0
 10
25.7535809839
 20
53.3040610323
 30
0.0
 10
25.6123657642
 20
53.5146581082
 30
0.0
 10
25.464651687
 20
53.8810313718
 30
0.0
 10
25.3763404712
 20
54.2994150257
 30
0.0
 10
25.3583268276
 20
54.5954184596
 30
0.0
 10
25.3583268276
 20
54.7491911405
 30
0.0
  0
SPLINE
  5
2AF
100
AcDbEntity
  8
0
100
AcDbSpline
 62
7
  6
CONTINUOUS
 70
0
 71
3
 72
11
 73
7
 74
0
 42
0.0000001
 43
0.0000001
 44
0.0000000001
 40
0.0
 40
0.0
 40
0.0
 40
0.0
 40
0.2291325956
 40
0.4749542052
 40
0.7335451177
 40
1.0
 40
1.0
 40
1.0
 40
1.0
 10
25.3583268276
 20
54.7491911405
 30
0.0
 10
25.3583268276
 20
54.946986458
 30
0.0
 10
25.3904272879
 20
55.3573087815
 30
0.0
 10
25.519784292
 20
55.9786010873
 30
0.0
 10
25.7287938772
 20
56.6117172495
 30
0.0
 10
25.9152396154
 20
57.0258399405
 30
0.0
 10
26.0200503157
 20
57.230585642
 30
0.0
  0
SPLINE
  5
2B0
100
AcDbEntity
  8
0
100
AcDbSpline
 62
7
  6
CONTINUOUS
 70
0
 71
3
 72
10
 73
6
 74
0
 42
0.0000001
 43
0.0000001
 44
0.0000000001
 40
0.0
 40
0.0
 40
0.0
 40
0.0
 40
0.5227940443
 40
0.7719120077
 40
1.0
 40
1.0
 40
1.0
 40
1.0
 10
31.1353651777
 20
67.9356550704
 30
0.0
 10
31.231414898
 20
68.1628132121
 30
0.0
 10
31.4231062888
 20
68.4805258131
 30
0.0
 10
31.7505419168
 20
68.8217987262
 30
0.0
 10
31.9331303664
 20
68.9564612343
 30
0.0
 10
32.0263160126
 20
69.010261671
 30
0.0
  0
SPLINE
  5
2B1
100
AcDbEntity
  8
0
100
AcDbSpline
 62
7
  6
CONTINUOUS
 70
0
 71
3
 72
11
 73
7
 74
0
 42
0.0000001
 43
0.0000001
 44
0.0000000001
 40
0.0
 40
0.0
 40
0.0
 40
0.0
 40
0.2896155197
 40
0.5491034319
 40
0.7822287456
 40
1.0
 40
1.0
 40
1.0
 40
1.0
 10
34.60017398
 20
70.4962703911
 30
0.0
 10
34.6440385196
 20
70.5215954437
 30
0.0
 10
34.7313385482
 20
70.5630979913
 30
0.0
 10
34.8654874042
 20
70.5955304621
 30
0.0
 10
34.9914025505
 20
70.5923710488
 30
0.0
 10
35.0671564569
 20
70.5647960167
 30
0.0
 10
35.1001483456
 20
70.5457684145
 30
0.0
  0
SPLINE
  5
2B2
100
AcDbEntity
  8
0
100
AcDbSpline
 62
7
  6
CONTINUOUS
 70
0
 71
3
 72
9
 73
5
 74
0
 42
0.0000001
 43
0.0000001
 44
0.0000000001
 40
0.0
 40
0.0
 40
0.0
 40
0.0
 40
0.4761981348
 40
1.0
 40
1.0
 40
1.0
 40
1.0
 10
18.3580153007
 20
58.8243990253
 30
0.0
 10
18.358015155
 20
59.1626212365
 30
0.0
 10
18.4514314956
 20
59.873538915
 30
0.0
 10
18.678465081
 20
60.5506548969
 30
0.0
 10
18.8253011262
 20
60.8924848777
 30
0.0
  0
SPLINE
  5
2B3
100
AcDbEntity
  8
0
100
AcDbSpline
 62
7
  6
CONTINUOUS
 70
0
 71
3
 72
10
 73
6
 74
0
 42
0.0000001
 43
0.0000001
 44
0.0000000001
 40
0.0
 40
0.0
 40
0.0
 40
0.0
 40
0.524054699
 40
0.7701676639
 40
1.0
 40
1.0
 40
1.0
 40
1.0
 10
19.0196640367
 20
61.2721691117
 30
0.0
 10
18.8163395745
 20
60.8749786576
 30
0.0
 10
18.5718541186
 20
60.259535531
 30
0.0
 10
18.3943182712
 20
59.4254173649
 30
0.0
 10
18.3597488432
 20
59.0200825642
 30
0.0
 10
18.3580153007
 20
58.8243990253
 30
0.0
  0
SPLINE
  5
2B4
100
AcDbEntity
  8
0
100
AcDbSpline
 62
7
  6
CONTINUOUS
 70
0
 71
3
 72
11
 73
7
 74
0
 42
0.0000001
 43
0.0000001
 44
0.0000000001
 40
0.0
 40
0.0
 40
0.0
 40
0.0
 40
0.2896604438
 40
0.5491323749
 40
0.7822500383
 40
1.0
 40
1.0
 40
1.0
 40
1.0
 10
37.6124439809
 20
39.9509076747
 30
0.0
 10
37.6124439809
 20
39.9103791497
 30
0.0
 10
37.618600312
 20
39.8332856224
 30
0.0
 10
37.6498162466
 20
39.727367483
 30
0.0
 10
37.7023714889
 20
39.6414063871
 30
0.0
 10
37.7517529216
 20
39.5999196493
 30
0.0
 10
37.7781351799
 20
39.5846810621
 30
0.0
  0
SPLINE
  5
2B5
100
AcDbEntity
  8
0
100
AcDbSpline
 62
7
  6
CONTINUOUS
 70
0
 71
3
 72
10
 73
6
 74
0
 42
0.0000001
 43
0.0000001
 44
0.0000000001
 40
0.0
 40
0.0
 40
0.0
 40
0.0
 40
0.5193807564
 40
0.7709807034
 40
1.0
 40
1.0
 40
1.0
 40
1.0
 10
37.9391485387
 20
40.7315796839
 30
0.0
 10
37.8396591673
 20
40.6205939894
 30
0.0
 10
37.7195570351
 20
40.4283049056
 30
0.0
 10
37.6301473364
 20
40.1547894772
 30
0.0
 10
37.6124439809
 20
40.0166308834
 30
0.0
 10
37.6124439809
 20
39.9509076747
 30
0.0
  0
SPLINE
  5
2B6
100
AcDbEntity
  8
0
100
AcDbSpline
 62
7
  6
CONTINUOUS
 70
0
 71
3
 72
14
 73
10
 74
0
 42
0.0000001
 43
0.0000001
 44
0.0000000001
 40
0.0
 40
0.0
 40
0.0
 40
0.0
 40
0.3072857813
 40
0.4491464373
 40
0.5802356108
 40
0.6996177401
 40
0.8076639145
 40
0.906471884
 40
1.0
 40
1.0
 40
1.0
 40
1.0
 10
62.6894325268
 20
34.5350713859
 30
0.0
 10
62.8863996731
 20
34.2637332455
 30
0.0
 10
63.2146294883
 20
33.8926722247
 30
0.0
 10
63.7138961601
 20
33.5011126811
 30
0.0
 10
64.085168495
 20
33.2847314988
 30
0.0
 10
64.4525838331
 20
33.1445011522
 30
0.0
 10
64.8066356541
 20
33.0856359453
 30
0.0
 10
65.1370714511
 20
33.1119761552
 30
0.0
 10
65.3362733241
 20
33.1890364191
 30
0.0
 10
65.4246462863
 20
33.2400743548
 30
0.0
  0
SPLINE
  5
2B7
100
AcDbEntity
  8
0
100
AcDbSpline
 62
7
  6
CONTINUOUS
 70
0
 71
3
 72
10
 73
6
 74
0
 42
0.0000001
 43
0.0000001
 44
0.0000000001
 40
0.0
 40
0.0
 40
0.0
 40
0.0
 40
0.5244954585
 40
0.7705065879
 40
1.0
 40
1.0
 40
1.0
 40
1.0
 10
44.5822054291
 20
31.423401687
 30
0.0
 10
44.7700032314
 20
31.1405496819
 30
0.0
 10
45.0864945025
 20
30.7488215849
 30
0.0
 10
45.572474561
 20
30.3196541775
 30
0.0
 10
45.8275877013
 20
30.1453427021
 30
0.0
 10
45.9562424699
 20
30.0710655173
 30
0.0
  0
SPLINE
  5
2B8
100
AcDbEntity
  8
0
100
AcDbSpline
 62
7
  6
CONTINUOUS
 70
0
 71
3
 72
11
 73
7
 74
0
 42
0.0000001
 43
0.0000001
 44
0.0000000001
 40
0.0
 40
0.0
 40
0.0
 40
0.0
 40
0.289702329
 40
0.5490881649
 40
0.7822156415
 40
1.0
 40
1.0
 40
1.0
 40
1.0
 10
45.9562424699
 20
30.0710655173
 30
0.0
 10
46.0922668245
 20
29.9925335961
 30
0.0
 10
46.3628631277
 20
29.8638056297
 30
0.0
 10
46.77877503
 20
29.7633703571
 30
0.0
 10
47.1690220698
 20
29.7732513414
 30
0.0
 10
47.4039716244
 20
29.8585163542
 30
0.0
 10
47.5062277964
 20
29.9175536485
 30
0.0
  0
ENDSEC
  0
SECTION
  2
OBJECTS
  0
DICTIONARY
  5
C
100
AcDbDictionary
280
0
281
1
  3
ACAD_GROUP
350
D
  3
ACAD_MLINESTYLE
350
17
  3
ACAD_LAYOUT
350
1A
  3
ACAD_PLOTSETTINGS
350
19
  3
ACAD_PLOTSTYLENAME
350
E
  0
DICTIONARY
  5
D
102
{ACAD_REACTORS
330
C
102
}
100
AcDbDictionary
280
0
281
1
  0
ACDBDICTIONARYWDFLT
  5
E
102
{ACAD_REACTORS
330
C
102
}
100
AcDbDictionary
281
1
  3
Normal
350
F
100
AcDbDictionaryWithDefault
340
F
  0
DICTIONARY
  5
17
102
{ACAD_REACTORS
330
C
102
}
100
AcDbDictionary
280
0
281
1
  3
Standard
350
18
  0
DICTIONARY
  5
19
102
{ACAD_REACTORS
330
C
102
}
100
AcDbDictionary
281
1
  0
DICTIONARY
  5
1A
102
{ACAD_REACTORS
330
C
102
}
100
AcDbDictionary
281
1
  3
Model
350
2B9
  3
Layout1
350
2BA
  0
ACDBPLACEHOLDER
  5
F
102
{ACAD_REACTORS
330
E
102
}
  0
MLINESTYLE
  5
18
102
{ACAD_REACTORS
330
17
102
}
100
AcDbMlineStyle
  2
STANDARD
 70
0
  3

 62
256
 51
90.0
 52
90.0
 71
2
 49
0.5
 62
256
  6
BYLAYER
 49
-0.5
 62
256
  6
BYLAYER
  0
LAYOUT
  5
2B9
102
{ACAD_REACTORS
330
1A
102
}
100
AcDbPlotSettings
  1

  2
none_device
  4

  6

 40
0.0
 41
0.0
 42
0.0
 43
0.0
 44
210.0
 45
297.0
 46
0.0
 47
0.0
 48
0.0
 49
0.0
140
0.0
141
0.0
142
1.0
143
1.0
 70
1024
 72
1
 73
0
 74
0
  7

 75
0
147
1.0
148
0.0
149
0.0
100
AcDbLayout
  1
Model
 70
0
 71
0
 10
0.0
 20
0.0
 11
210.0
 21
297.0
 12
0.0
 22
0.0
 32
0.0
 14
0.0
 24
0.0
 34
0.0
 15
0.0
 25
0.0
 35
0.0
146
0.0
 13
0.0
 23
0.0
 33
0.0
 16
1.0
 26
0.0
 36
0.0
 17
0.0
 27
1.0
 37
0.0
 76
0
330
211
345
0
346
0
  0
LAYOUT
  5
2BA
102
{ACAD_REACTORS
330
1A
102
}
100
AcDbPlotSettings
  1

  2
none_device
  4

  6

 40
0.0
 41
0.0
 42
0.0
 43
0.0
 44
210.0
 45
297.0
 46
0.0
 47
0.0
 48
0.0
 49
0.0
140
0.0
141
0.0
142
1.0
143
1.0
 70
0
 72
1
 73
0
 74
0
  7

 75
0
147
1.0
148
0.0
149
0.0
100
AcDbLayout
  1
Layout1
 70
0
 71
1
 10
0.0
 20
0.0
 11
210.0
 21
297.0
 12
0.0
 22
0.0
 32
0.0
 14
0.0
 24
0.0
 34
0.0
 15
0.0
 25
0.0
 35
0.0
146
0.0
 13
0.0
 23
0.0
 33
0.0
 16
1.0
 26
0.0
 36
0.0
 17
0.0
 27
1.0
 37
0.0
 76
0
330
212
345
0
346
0
  0
ENDSEC
  0
EOF
