999
DXF file: C:\Users\SESA654545\Desktop\sachin babu tesys\Gen2D (4)\Gen2D\CAD\SB115106_3D-CAD\drw0001_5.dxf
999
Pro/ENGINEER 2019471 by Parametric Technology Corporation
  0
SECTION
  2
HEADER
  9
$ACADVER
  1
AC1024
  9
$DWGCODEPAGE
  3
ANSI_1252
  9
$EXTMAX
 10
74.1288513304
 20
104.839375453
 30
0.0
  9
$EXTMIN
 10
0.0
 20
0.0
 30
0.0
  9
$LIMMIN
 10
0.0
 20
0.0
  9
$LIMMAX
 10
74.1288513304
 20
104.839375453
  9
$VIEWCTR
 10
37.0644256652
 20
52.4196877265
  9
$VIEWSIZE
 40
104.839375453
  9
$CLAYER
  8
0
  9
$LTSCALE
 40
6.8339741036
  9
$CELTYPE
  6
BYLAYER
  9
$DIMSCALE
 40
1.0
  9
$DIMASZ
 40
0.8824863254
  9
$DIMEXO
 40
1.0
  9
$DIMDLI
 40
4.7216548352
  9
$DIMEXE
 40
1.0
  9
$DIMCEN
 40
1.1182866715
  9
$DIMLFAC
 40
1.0
  9
$DIMBLK
  1
_FILLED
  9
$DIMALT
 70
0
  9
$DIMALTF
 40
0.0393700787
  9
$DIMTXT
 40
1.2354808555
  9
$DIMTOL
 70
1
  9
$DIMLIM
 70
0
  9
$DIMTFAC
 40
1.0
  9
$DIMTP
 40
0.01
  9
$DIMTM
 40
0.01
  9
$DIMGAP
 40
0.625
  9
$DIMDSEP
 70
46
  9
$AUNITS
 70
0
  9
$PDMODE
 70
3
  9
$PDSIZE
 40
0.3125
  9
$HANDSEED
  5
24A
  9
$TILEMODE
 70
1
  9
$MEASUREMENT
 70
1
  9
$INSUNITS
 70
4
  0
ENDSEC
  0
SECTION
  2
CLASSES
  0
CLASS
  1
ACDBDICTIONARYWDFLT
  2
AcDbDictionaryWithDefault
  3
AutoCAD 2000
 90
0
 91
1
280
0
281
0
  0
CLASS
  1
ACDBPLACEHOLDER
  2
AcDbPlaceHolder
  3
AutoCAD 2000
 90
0
 91
1
280
0
281
0
  0
CLASS
  1
LAYOUT
  2
AcDbLayout
  3
AutoCAD 2000
 90
0
 91
0
280
0
281
0
  0
ENDSEC
  0
SECTION
  2
TABLES
  0
TABLE
  2
VPORT
  5
8
100
AcDbSymbolTable
 70
2
  0
VPORT
  5
1F4
100
AcDbSymbolTableRecord
100
AcDbViewportTableRecord
  2
*ACTIVE
 70
0
 10
0.0
 20
0.0
 11
1.0
 21
1.0
 12
37.0644256652
 22
52.4196877265
 13
0.0
 23
0.0
 14
1.0
 24
1.0
 15
0.0
 25
0.0
 16
0.0
 26
0.0
 36
1.0
 17
0.0
 27
0.0
 37
0.0
 40
104.839375453
 41
0.7070707071
 42
50.0
 43
0.0
 44
0.0
 50
0.0
 51
0.0
 71
0
 72
100
 73
1
 74
1
 75
0
 76
0
 77
0
 78
0
  0
ENDTAB
  0
TABLE
  2
LTYPE
  5
5
100
AcDbSymbolTable
 70
6
  0
LTYPE
  5
14
100
AcDbSymbolTableRecord
100
AcDbLinetypeTableRecord
  2
BYBLOCK
 70
0
  3

 72
65
 73
0
 40
0.0
  0
LTYPE
  5
15
100
AcDbSymbolTableRecord
100
AcDbLinetypeTableRecord
  2
BYLAYER
 70
0
  3

 72
65
 73
0
 40
0.0
  0
LTYPE
  5
16
100
AcDbSymbolTableRecord
100
AcDbLinetypeTableRecord
  2
CONTINUOUS
 70
64
  3
Solid line
 72
65
 73
0
 40
0.0
  0
LTYPE
  5
1F5
100
AcDbSymbolTableRecord
100
AcDbLinetypeTableRecord
  2
CENTER
 70
64
  3
____ _ ____ _ ____ _ ____ _ ____ _ ____ _ ____
 72
65
 73
4
 40
0.6
 49
0.375
 74
0
 49
-0.075
 74
0
 49
0.075
 74
0
 49
-0.075
 74
0
  0
LTYPE
  5
1F6
100
AcDbSymbolTableRecord
100
AcDbLinetypeTableRecord
  2
HIDDEN
 70
64
  3
- - - - - - - - - - - - - - - - - - - -
 72
65
 73
2
 40
0.2
 49
0.1
 74
0
 49
-0.1
 74
0
  0
LTYPE
  5
1F7
100
AcDbSymbolTableRecord
100
AcDbLinetypeTableRecord
  2
PHANTOM
 70
64
  3
_____ _ _ _____ _ _ _____ _ _ _____
 72
65
 73
6
 40
0.8
 49
0.45
 74
0
 49
-0.05
 74
0
 49
0.1
 74
0
 49
-0.05
 74
0
 49
0.1
 74
0
 49
-0.05
 74
0
  0
LTYPE
  5
1F8
100
AcDbSymbolTableRecord
100
AcDbLinetypeTableRecord
  2
DOT
 70
64
  3
. . . . . . . . . . . . . . . . . . . .
 72
65
 73
2
 40
0.2
 49
0.1
 74
0
 49
-0.1
 74
0
  0
LTYPE
  5
1F9
100
AcDbSymbolTableRecord
100
AcDbLinetypeTableRecord
  2
DASHED
 70
64
  3
- - - - - - - - - - - - - - - - - - - -
 72
65
 73
2
 40
0.2
 49
0.1
 74
0
 49
-0.1
 74
0
  0
ENDTAB
  0
TABLE
  2
LAYER
  5
2
100
AcDbSymbolTable
 70
36
  0
LAYER
  5
10
100
AcDbSymbolTableRecord
100
AcDbLayerTableRecord
  2
0
 70
0
 62
7
  6
CONTINUOUS
370
-3
390
F
  0
LAYER
  5
1FA
100
AcDbSymbolTableRecord
100
AcDbLayerTableRecord
  2
DEFAULT_1
 70
0
 62
7
  6
CENTER
370
-3
390
F
  0
LAYER
  5
1FB
100
AcDbSymbolTableRecord
100
AcDbLayerTableRecord
  2
DEFAULT_2
 70
0
 62
8
  6
HIDDEN
370
-3
390
F
  0
LAYER
  5
1FC
100
AcDbSymbolTableRecord
100
AcDbLayerTableRecord
  2
DEFAULT_3
 70
0
 62
7
  6
PHANTOM
370
-3
390
F
  0
LAYER
  5
1FD
100
AcDbSymbolTableRecord
100
AcDbLayerTableRecord
  2
00_COMPONENTS
 70
0
 62
7
  6
CONTINUOUS
370
-3
390
F
  0
LAYER
  5
1FE
100
AcDbSymbolTableRecord
100
AcDbLayerTableRecord
  2
01_1_DEFAULT_DATUMS
 70
0
 62
7
  6
CONTINUOUS
370
-3
390
F
  0
LAYER
  5
1FF
100
AcDbSymbolTableRecord
100
AcDbLayerTableRecord
  2
01_PLANES
 70
0
 62
7
  6
CONTINUOUS
370
-3
390
F
  0
LAYER
  5
200
100
AcDbSymbolTableRecord
100
AcDbLayerTableRecord
  2
02_COORD_SYS
 70
0
 62
7
  6
CONTINUOUS
370
-3
390
F
  0
LAYER
  5
201
100
AcDbSymbolTableRecord
100
AcDbLayerTableRecord
  2
03_AXES
 70
0
 62
7
  6
CONTINUOUS
370
-3
390
F
  0
LAYER
  5
202
100
AcDbSymbolTableRecord
100
AcDbLayerTableRecord
  2
04_POINTS
 70
0
 62
7
  6
CONTINUOUS
370
-3
390
F
  0
LAYER
  5
203
100
AcDbSymbolTableRecord
100
AcDbLayerTableRecord
  2
05_CURVES
 70
0
 62
7
  6
CONTINUOUS
370
-3
390
F
  0
LAYER
  5
204
100
AcDbSymbolTableRecord
100
AcDbLayerTableRecord
  2
06_SURFS
 70
0
 62
7
  6
CONTINUOUS
370
-3
390
F
  0
LAYER
  5
205
100
AcDbSymbolTableRecord
100
AcDbLayerTableRecord
  2
07_COSMETICS
 70
0
 62
7
  6
CONTINUOUS
370
-3
390
F
  0
LAYER
  5
206
100
AcDbSymbolTableRecord
100
AcDbLayerTableRecord
  2
10_NOTES
 70
0
 62
7
  6
CONTINUOUS
370
-3
390
F
  0
LAYER
  5
207
100
AcDbSymbolTableRecord
100
AcDbLayerTableRecord
  2
11_NOTES_PUB
 70
0
 62
7
  6
CONTINUOUS
370
-3
390
F
  0
LAYER
  5
208
100
AcDbSymbolTableRecord
100
AcDbLayerTableRecord
  2
13_REF_GTOL
 70
0
 62
7
  6
CONTINUOUS
370
-3
390
F
  0
LAYER
  5
209
100
AcDbSymbolTableRecord
100
AcDbLayerTableRecord
  2
16_MISC
 70
0
 62
7
  6
CONTINUOUS
370
-3
390
F
  0
LAYER
  5
20A
100
AcDbSymbolTableRecord
100
AcDbLayerTableRecord
  2
17_NO_PRINT
 70
0
 62
7
  6
CONTINUOUS
370
-3
390
F
  0
LAYER
  5
20B
100
AcDbSymbolTableRecord
100
AcDbLayerTableRecord
  2
18_DATUM_CAMS_JOINTS
 70
0
 62
7
  6
CONTINUOUS
370
-3
390
F
  0
LAYER
  5
20C
100
AcDbSymbolTableRecord
100
AcDbLayerTableRecord
  2
19_DATUM_FUNCTIONAL
 70
0
 62
7
  6
CONTINUOUS
370
-3
390
F
  0
LAYER
  5
20D
100
AcDbSymbolTableRecord
100
AcDbLayerTableRecord
  2
20_DATUM_KINEMATIC_SCHEME
 70
0
 62
7
  6
CONTINUOUS
370
-3
390
F
  0
ENDTAB
  0
TABLE
  2
STYLE
  5
3
100
AcDbSymbolTable
 70
1
  0
STYLE
  5
11
100
AcDbSymbolTableRecord
100
AcDbTextStyleTableRecord
  2
STANDARD
 70
0
 40
0.0
 41
0.8
 50
0.0
 71
0
 42
0.2
  3
txt
  4

  0
STYLE
  5
20E
100
AcDbSymbolTableRecord
100
AcDbTextStyleTableRecord
  2
TEXTSTYLE_1
 70
0
 40
0.0
 41
0.8
 50
0.0
 71
0
 42
0.2
  3
gdt
  4

  0
ENDTAB
  0
TABLE
  2
VIEW
  5
6
100
AcDbSymbolTable
 70
0
  0
ENDTAB
  0
TABLE
  2
UCS
  5
7
100
AcDbSymbolTable
 70
0
  0
ENDTAB
  0
TABLE
  2
APPID
  5
9
100
AcDbSymbolTable
 70
1
  0
APPID
  5
20F
100
AcDbSymbolTableRecord
100
AcDbRegAppTableRecord
  2
ACAD
 70
0
  0
ENDTAB
  0
TABLE
  2
BLOCK_RECORD
  5
1
100
AcDbSymbolTable
 70
0
  0
BLOCK_RECORD
  5
210
100
AcDbSymbolTableRecord
100
AcDbBlockTableRecord
  2
*Model_Space
  0
BLOCK_RECORD
  5
211
100
AcDbSymbolTableRecord
100
AcDbBlockTableRecord
  2
*Paper_Space
  0
BLOCK_RECORD
  5
212
100
AcDbSymbolTableRecord
100
AcDbBlockTableRecord
  2
_FILLED
  0
ENDTAB
  0
TABLE
  2
DIMSTYLE
  5
A
100
AcDbSymbolTable
 70
1
100
AcDbDimStyleTable
 71
0
  0
DIMSTYLE
105
213
100
AcDbSymbolTableRecord
100
AcDbDimStyleTableRecord
  2
STANDARD
 70
0
  3

  4

 40
1.0
 41
0.8824863254
 42
1.0
 43
0.38
 44
1.0
 45
0.0
 46
0.0
 47
0.01
 48
0.01
140
1.2354808555
141
0.09
142
0.0
143
25.4
144
1.0
145
0.0
146
1.0
147
0.625
 71
1
 72
0
 73
0
 74
0
 75
0
 76
0
 77
1
 78
8
 79
2
170
0
171
1
172
0
173
0
174
0
175
0
176
0
177
0
178
0
270
2
179
2
271
2
272
2
273
2
274
2
275
0
280
0
281
0
282
0
283
1
284
8
285
0
286
0
287
3
288
0
340
11
278
46
341
212
342
212
343
212
344
212
  0
ENDTAB
  0
ENDSEC
  0
SECTION
  2
BLOCKS
  0
BLOCK
  5
20
100
AcDbEntity
  8
0
100
AcDbBlockBegin
  2
*Model_Space
 70
0
 10
0.0
 20
0.0
 30
0.0
  3
*Model_Space
  1

  0
ENDBLK
  5
21
100
AcDbEntity
  8
0
100
AcDbBlockEnd
  0
BLOCK
  5
1C
100
AcDbEntity
  8
0
100
AcDbBlockBegin
  2
*Paper_Space
 70
0
 10
0.0
 20
0.0
 30
0.0
  3
*Paper_Space
  1

  0
ENDBLK
  5
1D
100
AcDbEntity
  8
0
100
AcDbBlockEnd
  0
BLOCK
  5
214
100
AcDbEntity
  8
0
100
AcDbBlockBegin
  2
_FILLED
 70
64
 10
0.0
 20
0.0
  3
_FILLED
  1

  0
SOLID
  5
215
100
AcDbEntity
  8
0
  6
BYBLOCK
 62
0
100
AcDbTrace
 10
0.0
 20
0.0
 11
-1.0
 21
0.25
 12
-1.0
 22
-0.25
 13
-1.0
 23
-0.25
  0
ENDBLK
  5
216
100
AcDbEntity
  8
0
  6
BYBLOCK
 62
0
100
AcDbBlockEnd
  0
ENDSEC
  0
SECTION
  2
ENTITIES
  0
LINE
  5
217
100
AcDbEntity
  8
0
100
AcDbLine
 62
7
  6
CONTINUOUS
 10
8.6410209371
 20
45.1980100955
 11
8.6410209371
 21
53.0980100955
  0
LINE
  5
218
100
AcDbEntity
  8
0
100
AcDbLine
 62
7
  6
CONTINUOUS
 10
22.8410257272
 20
54.0980100955
 11
22.8410251368
 21
52.6480100955
  0
LINE
  5
219
100
AcDbEntity
  8
0
100
AcDbLine
 62
7
  6
CONTINUOUS
 10
23.1410209371
 20
46.9980100955
 11
23.1410209371
 21
48.6480100955
  0
LINE
  5
21A
100
AcDbEntity
  8
0
100
AcDbLine
 62
7
  6
CONTINUOUS
 10
25.1410209371
 20
42.3339107244
 11
25.1410225338
 21
54.0980100955
  0
LINE
  5
21B
100
AcDbEntity
  8
0
100
AcDbLine
 62
7
  6
CONTINUOUS
 10
67.2910209371
 20
39.8980100955
 11
65.8410209371
 21
39.8980100955
  0
LINE
  5
21C
100
AcDbEntity
  8
0
100
AcDbLine
 62
7
  6
CONTINUOUS
 10
25.4560209371
 20
39.9980100955
 11
47.5410193281
 21
39.9980100955
  0
LINE
  5
21D
100
AcDbEntity
  8
0
100
AcDbLine
 62
7
  6
CONTINUOUS
 10
29.1743152476
 20
57.6105824034
 11
29.1446438971
 21
54.2105824034
  0
LINE
  5
21E
100
AcDbEntity
  8
0
100
AcDbLine
 62
7
  6
CONTINUOUS
 10
29.2484296785
 20
63.8113947216
 11
29.1812379137
 21
56.1119810953
  0
LINE
  5
21F
100
AcDbEntity
  8
0
100
AcDbLine
 62
7
  6
CONTINUOUS
 10
65.8410209371
 20
42.4480100955
 11
46.8842480833
 21
42.4480100955
  0
LINE
  5
220
100
AcDbEntity
  8
0
100
AcDbLine
 62
7
  6
CONTINUOUS
 10
8.6410209371
 20
45.1980100955
 11
25.1410217146
 21
45.1980100955
  0
LINE
  5
221
100
AcDbEntity
  8
0
100
AcDbLine
 62
7
  6
CONTINUOUS
 10
23.1410209371
 20
46.9980100955
 11
8.6410209371
 21
46.9980100955
  0
LINE
  5
222
100
AcDbEntity
  8
0
100
AcDbLine
 62
7
  6
CONTINUOUS
 10
23.1410209371
 20
48.6480100955
 11
8.6410209371
 21
48.6480100955
  0
LINE
  5
223
100
AcDbEntity
  8
0
100
AcDbLine
 62
7
  6
CONTINUOUS
 10
67.2910209371
 20
49.159912108
 11
65.8410209371
 21
49.159912108
  0
LINE
  5
224
100
AcDbEntity
  8
0
100
AcDbLine
 62
7
  6
CONTINUOUS
 10
67.2910209371
 20
49.2375596737
 11
65.8410209371
 21
49.2375596734
  0
LINE
  5
225
100
AcDbEntity
  8
0
100
AcDbLine
 62
7
  6
CONTINUOUS
 10
45.5657804092
 20
51.1480100955
 11
66.6587373696
 21
51.1480100955
  0
LINE
  5
226
100
AcDbEntity
  8
0
100
AcDbLine
 62
7
  6
CONTINUOUS
 10
67.1978156481
 20
51.1480100955
 11
67.5410044949
 21
51.1480100955
  0
LINE
  5
227
100
AcDbEntity
  8
0
100
AcDbLine
 62
7
  6
CONTINUOUS
 10
22.8410251367
 20
52.6480100955
 11
8.6410209371
 21
52.6480100955
  0
LINE
  5
228
100
AcDbEntity
  8
0
100
AcDbLine
 62
7
  6
CONTINUOUS
 10
67.2910209371
 20
52.7669006847
 11
66.6384773696
 21
52.7669006847
  0
LINE
  5
229
100
AcDbEntity
  8
0
100
AcDbLine
 62
7
  6
CONTINUOUS
 10
66.9567944374
 20
57.1352902122
 11
66.9596992898
 21
57.1355539604
  0
LINE
  5
22A
100
AcDbEntity
  8
0
100
AcDbLine
 62
7
  6
CONTINUOUS
 10
22.84102532
 20
53.0980100955
 11
8.6410209371
 21
53.0980100955
  0
LINE
  5
22B
100
AcDbEntity
  8
0
100
AcDbLine
 62
7
  6
CONTINUOUS
 10
42.0441527046
 20
54.0980100955
 11
22.8410257271
 21
54.0980100955
  0
LINE
  5
22C
100
AcDbEntity
  8
0
100
AcDbLine
 62
7
  6
CONTINUOUS
 10
29.1446438971
 20
54.2105824034
 11
42.0441527046
 21
54.0980100955
  0
LINE
  5
22D
100
AcDbEntity
  8
0
100
AcDbLine
 62
7
  6
CONTINUOUS
 10
42.0441527046
 20
54.0980100955
 11
42.1410209371
 21
65.1980100955
  0
LINE
  5
22E
100
AcDbEntity
  8
0
100
AcDbLine
 62
7
  6
CONTINUOUS
 10
29.1812379137
 20
56.1119810953
 11
42.0607474828
 21
55.9995833181
  0
LINE
  5
22F
100
AcDbEntity
  8
0
100
AcDbLine
 62
7
  6
CONTINUOUS
 10
67.2910209371
 20
57.1352895643
 11
66.9567904841
 21
57.1352895643
  0
LINE
  5
230
100
AcDbEntity
  8
0
100
AcDbLine
 62
7
  6
CONTINUOUS
 10
29.1737218958
 20
57.5425910194
 11
29.1937211342
 21
57.5424164887
  0
LINE
  5
231
100
AcDbEntity
  8
0
100
AcDbLine
 62
7
  6
CONTINUOUS
 10
29.1941863365
 20
57.5957233907
 11
42.0736959056
 21
57.4833256135
  0
LINE
  5
232
100
AcDbEntity
  8
0
100
AcDbLine
 62
7
  6
CONTINUOUS
 10
29.1743152476
 20
57.6105824034
 11
29.1943144861
 21
57.6104078727
  0
LINE
  5
233
100
AcDbEntity
  8
0
100
AcDbLine
 62
7
  6
CONTINUOUS
 10
45.5657804092
 20
39.9980100955
 11
45.5657804092
 21
51.1480100955
  0
LINE
  5
234
100
AcDbEntity
  8
0
100
AcDbLine
 62
7
  6
CONTINUOUS
 10
46.8842480833
 20
51.1480100955
 11
46.8842480833
 21
42.4480100955
  0
LINE
  5
235
100
AcDbEntity
  8
0
100
AcDbLine
 62
7
  6
CONTINUOUS
 10
29.2112107465
 20
59.5465275474
 11
42.0907203156
 21
59.4341297702
  0
LINE
  5
236
100
AcDbEntity
  8
0
100
AcDbLine
 62
7
  6
CONTINUOUS
 10
47.5410209371
 20
42.4480100955
 11
47.5410209371
 21
39.9980100955
  0
LINE
  5
237
100
AcDbEntity
  8
0
100
AcDbLine
 62
7
  6
CONTINUOUS
 10
67.5410192458
 20
65.1980100955
 11
42.1410209371
 21
65.1980100955
  0
LINE
  5
238
100
AcDbEntity
  8
0
100
AcDbLine
 62
7
  6
CONTINUOUS
 10
29.2484296785
 20
63.8113947216
 11
42.1279392475
 21
63.6989969444
  0
LINE
  5
239
100
AcDbEntity
  8
0
100
AcDbLine
 62
7
  6
CONTINUOUS
 10
65.5817441182
 20
51.1480100955
 11
65.5817441182
 21
65.1980100955
  0
LINE
  5
23A
100
AcDbEntity
  8
0
100
AcDbLine
 62
7
  6
CONTINUOUS
 10
65.8410209371
 20
39.8980100955
 11
65.8410209371
 21
51.1480100955
  0
LINE
  5
23B
100
AcDbEntity
  8
0
100
AcDbLine
 62
7
  6
CONTINUOUS
 10
67.2910209371
 20
39.8980100955
 11
67.2910209371
 21
57.1352889156
  0
LINE
  5
23C
100
AcDbEntity
  8
0
100
AcDbLine
 62
7
  6
CONTINUOUS
 10
67.5410209371
 20
65.1980100955
 11
67.5410209371
 21
51.1480100955
  0
ARC
  5
23D
100
AcDbEntity
  8
0
100
AcDbCircle
 62
7
  6
CONTINUOUS
 10
421.7086720968
 20
94.6225142023
 40
400.0
100
AcDbArc
 50
187.5112875212
 51
187.848909703
  0
ARC
  5
23E
100
AcDbEntity
  8
0
100
AcDbCircle
 62
7
  6
CONTINUOUS
 10
120.3098775692
 20
52.6290124096
 40
53.6715773251
100
AcDbArc
 50
179.8528005829
 51
181.5812084969
  0
SPLINE
  5
23F
100
AcDbEntity
  8
0
100
AcDbSpline
 62
7
  6
CONTINUOUS
 70
0
 71
3
 72
20
 73
16
 74
0
 42
0.0000001
 43
0.0000001
 44
0.0000000001
 40
0.0
 40
0.0
 40
0.0
 40
0.0
 40
0.0322122236
 40
0.0445139194
 40
0.0587527953
 40
0.0931973304
 40
0.1356397445
 40
0.1858787272
 40
0.2436096467
 40
0.3083737636
 40
0.3796389241
 40
0.4567900737
 40
0.6258112913
 40
0.8092609608
 40
1.0
 40
1.0
 40
1.0
 40
1.0
 10
46.3523553003
 20
50.6703818148
 30
0.0
 10
46.32303784
 20
50.6704017868
 30
0.0
 10
46.2887108935
 20
50.6345755116
 30
0.0
 10
46.2613062464
 20
50.5902352696
 30
0.0
 10
46.2357625928
 20
50.5404722997
 30
0.0
 10
46.2056231021
 20
50.4632689059
 30
0.0
 10
46.1718436876
 20
50.3524514336
 30
0.0
 10
46.1393024082
 20
50.2194512235
 30
0.0
 10
46.1083330084
 20
50.0652766891
 30
0.0
 10
46.0793544604
 20
49.8913018484
 30
0.0
 10
46.0527570208
 20
49.6990883711
 30
0.0
 10
46.0199638208
 20
49.4120231175
 30
0.0
 10
45.987979571
 20
49.0222115197
 30
0.0
 10
45.9646408013
 20
48.5282890389
 30
0.0
 10
45.9593847055
 20
48.187700059
 30
0.0
 10
45.9593847055
 20
48.0141018134
 30
0.0
  0
SPLINE
  5
240
100
AcDbEntity
  8
0
100
AcDbSpline
 62
7
  6
CONTINUOUS
 70
0
 71
3
 72
20
 73
16
 74
0
 42
0.0000001
 43
0.0000001
 44
0.0000000001
 40
0.0
 40
0.0
 40
0.0
 40
0.0
 40
0.0321064326
 40
0.0443944109
 40
0.0586231151
 40
0.093055602
 40
0.1354942146
 40
0.1857354525
 40
0.2434732674
 40
0.3082477413
 40
0.379525397
 40
0.4566905931
 40
0.6257430359
 40
0.8092262418
 40
1.0
 40
1.0
 40
1.0
 40
1.0
 10
66.3656367148
 20
61.8448011677
 30
0.0
 10
66.3359807289
 20
61.8448211861
 30
0.0
 10
66.3013385406
 20
61.8083782464
 30
0.0
 10
66.2736940525
 20
61.7634302733
 30
0.0
 10
66.2478860852
 20
61.7129006897
 30
0.0
 10
66.2174337509
 20
61.6345260474
 30
0.0
 10
66.1832945606
 20
61.5220287064
 30
0.0
 10
66.1503992196
 20
61.3870135981
 30
0.0
 10
66.119085895
 20
61.2305033259
 30
0.0
 10
66.0897801377
 20
61.0538949021
 30
0.0
 10
66.0628775869
 20
60.8587745423
 30
0.0
 10
66.029703338
 20
60.5673720631
 30
0.0
 10
65.9973405132
 20
60.1716798741
 30
0.0
 10
65.9737215821
 20
59.6703131828
 30
0.0
 10
65.9684020648
 20
59.3245933719
 30
0.0
 10
65.9684020648
 20
59.1483799245
 30
0.0
  0
SPLINE
  5
241
100
AcDbEntity
  8
0
100
AcDbSpline
 62
7
  6
CONTINUOUS
 70
0
 71
3
 72
20
 73
16
 74
0
 42
0.0000001
 43
0.0000001
 44
0.0000000001
 40
0.0
 40
0.0
 40
0.0
 40
0.0
 40
0.1907265274
 40
0.3742643063
 40
0.5433117695
 40
0.6204331521
 40
0.6916898756
 40
0.7564719898
 40
0.8142332702
 40
0.8644982715
 40
0.9069265989
 40
0.9412976858
 40
0.9554952415
 40
0.967763458
 40
1.0
 40
1.0
 40
1.0
 40
1.0
 10
45.9593847055
 20
48.0141018134
 30
0.0
 10
45.9593847055
 20
47.8405242588
 30
0.0
 10
45.9647233723
 20
47.4998863594
 30
0.0
 10
45.9879643621
 20
47.0058947715
 30
0.0
 10
46.0199268814
 20
46.6160228313
 30
0.0
 10
46.0527939422
 20
46.3289924852
 30
0.0
 10
46.0794057405
 20
46.1368104857
 30
0.0
 10
46.1083688226
 20
45.9628060788
 30
0.0
 10
46.1393173689
 20
45.8085670534
 30
0.0
 10
46.171839271
 20
45.6755296894
 30
0.0
 10
46.205591794
 20
45.5647692423
 30
0.0
 10
46.2357589025
 20
45.4877000842
 30
0.0
 10
46.261309568
 20
45.4381034879
 30
0.0
 10
46.2888043778
 20
45.3938456768
 30
0.0
 10
46.3230184899
 20
45.3581318506
 30
0.0
 10
46.3523559971
 20
45.3579571153
 30
0.0
  0
SPLINE
  5
242
100
AcDbEntity
  8
0
100
AcDbSpline
 62
7
  6
CONTINUOUS
 70
0
 71
3
 72
21
 73
17
 74
0
 42
0.0000001
 43
0.0000001
 44
0.0000000001
 40
0.0
 40
0.0
 40
0.0
 40
0.0
 40
0.1908025563
 40
0.3743671322
 40
0.5434062232
 40
0.620526624
 40
0.6917681301
 40
0.756526535
 40
0.814288766
 40
0.8645881658
 40
0.9070838068
 40
0.9253294965
 40
0.941551011
 40
0.9557689809
 40
0.9680337944
 40
1.0
 40
1.0
 40
1.0
 40
1.0
 10
65.9684020648
 20
59.1483799245
 30
0.0
 10
65.9684020648
 20
58.9721432909
 30
0.0
 10
65.9737719471
 20
58.6263293845
 30
0.0
 10
65.9973267362
 20
58.1248811608
 30
0.0
 10
66.029657524
 20
57.7291710018
 30
0.0
 10
66.0628814265
 20
57.4378671346
 30
0.0
 10
66.0898045235
 20
57.2428446422
 30
0.0
 10
66.1191348987
 20
57.0662677948
 30
0.0
 10
66.1504372693
 20
56.9097038406
 30
0.0
 10
66.1833527556
 20
56.7745399818
 30
0.0
 10
66.2130093559
 20
56.6762864073
 30
0.0
 10
66.2378219164
 20
56.6096026871
 30
0.0
 10
66.2555664113
 20
56.5683634747
 30
0.0
 10
66.2737035594
 20
56.5329509594
 30
0.0
 10
66.3012728543
 20
56.4881716226
 30
0.0
 10
66.336113818
 20
56.451982496
 30
0.0
 10
66.365637818
 20
56.4523171082
 30
0.0
  0
SPLINE
  5
243
100
AcDbEntity
  8
0
100
AcDbSpline
 62
7
  6
CONTINUOUS
 70
0
 71
3
 72
21
 73
17
 74
0
 42
0.0000001
 43
0.0000001
 44
0.0000000001
 40
0.0
 40
0.0
 40
0.0
 40
0.0
 40
0.0066054241
 40
0.013921034
 40
0.022533448
 40
0.0327926713
 40
0.0589063034
 40
0.0929974274
 40
0.1351456459
 40
0.1851729926
 40
0.2427788678
 40
0.3074873822
 40
0.4559583565
 40
0.6251973379
 40
0.8089623657
 40
1.0
 40
1.0
 40
1.0
 40
1.0
 10
46.3523559971
 20
45.3579571153
 30
0.0
 10
46.3583514693
 20
45.357921406
 30
0.0
 10
46.3710885846
 20
45.3602413934
 30
0.0
 10
46.3891267092
 20
45.3704431681
 30
0.0
 10
46.4065213357
 20
45.3868757079
 30
0.0
 10
46.4311379544
 20
45.4196150439
 30
0.0
 10
46.4597464556
 20
45.4772728137
 30
0.0
 10
46.4906529313
 20
45.5649550673
 30
0.0
 10
46.5200860145
 20
45.6758295107
 30
0.0
 10
46.5477999426
 20
45.808966288
 30
0.0
 10
46.5734803213
 20
45.9633100724
 30
0.0
 10
46.6063031326
 20
46.2069222906
 30
0.0
 10
46.6394832528
 20
46.552561822
 30
0.0
 10
46.6676514326
 20
47.0069223465
 30
0.0
 10
46.6848004193
 20
47.5004902474
 30
0.0
 10
46.688636386
 20
47.8407017223
 30
0.0
 10
46.688636386
 20
48.0141018134
 30
0.0
  0
SPLINE
  5
244
100
AcDbEntity
  8
0
100
AcDbSpline
 62
7
  6
CONTINUOUS
 70
0
 71
3
 72
21
 73
17
 74
0
 42
0.0000001
 43
0.0000001
 44
0.0000000001
 40
0.0
 40
0.0
 40
0.0
 40
0.0
 40
0.0065889573
 40
0.0139033354
 40
0.0224913826
 40
0.0326908447
 40
0.0586254858
 40
0.092589428
 40
0.1347866247
 40
0.1849321449
 40
0.2426057741
 40
0.3073273107
 40
0.4557764247
 40
0.6250663464
 40
0.8088974745
 40
1.0
 40
1.0
 40
1.0
 40
1.0
 10
66.365637818
 20
56.4523171082
 30
0.0
 10
66.3717058762
 20
56.452385881
 30
0.0
 10
66.3845626022
 20
56.4549638246
 30
0.0
 10
66.4027166583
 20
56.465459544
 30
0.0
 10
66.4202762818
 20
56.4821021766
 30
0.0
 10
66.4451350101
 20
56.5151064968
 30
0.0
 10
66.4740735736
 20
56.5732799891
 30
0.0
 10
66.5052614425
 20
56.66206745
 30
0.0
 10
66.534836058
 20
56.7746855453
 30
0.0
 10
66.5627118463
 20
56.9100468219
 30
0.0
 10
66.5885827833
 20
57.0668726064
 30
0.0
 10
66.6216484525
 20
57.3141480737
 30
0.0
 10
66.6550851223
 20
57.6649223985
 30
0.0
 10
66.6833949767
 20
58.1260588898
 30
0.0
 10
66.7006117183
 20
58.6270467585
 30
0.0
 10
66.7044736848
 20
58.9723739704
 30
0.0
 10
66.7044736848
 20
59.1483799245
 30
0.0
  0
SPLINE
  5
245
100
AcDbEntity
  8
0
100
AcDbSpline
 62
7
  6
CONTINUOUS
 70
0
 71
3
 72
21
 73
17
 74
0
 42
0.0000001
 43
0.0000001
 44
0.0000000001
 40
0.0
 40
0.0
 40
0.0
 40
0.0
 40
0.1910380551
 40
0.3747758276
 40
0.5440126572
 40
0.6924895343
 40
0.7572036287
 40
0.8148043336
 40
0.8648289421
 40
0.9069741124
 40
0.9410497608
 40
0.9671651017
 40
0.9774312621
 40
0.9860539729
 40
0.9933853993
 40
1.0
 40
1.0
 40
1.0
 40
1.0
 10
46.688636386
 20
48.0141018134
 30
0.0
 10
46.688636386
 20
48.1875021172
 30
0.0
 10
46.684808647
 20
48.527689023
 30
0.0
 10
46.6676532499
 20
49.0212299444
 30
0.0
 10
46.6394850259
 20
49.4755686488
 30
0.0
 10
46.6063070252
 20
49.8212162751
 30
0.0
 10
46.5734975972
 20
50.0648358619
 30
0.0
 10
46.5478142273
 20
50.2191770526
 30
0.0
 10
46.5200993147
 20
50.3523029806
 30
0.0
 10
46.4906791869
 20
50.4631611547
 30
0.0
 10
46.4597520032
 20
50.5508210311
 30
0.0
 10
46.431144856
 20
50.6084690273
 30
0.0
 10
46.4065338385
 20
50.6412345644
 30
0.0
 10
46.3891268351
 20
50.6576955468
 30
0.0
 10
46.3710997429
 20
50.667967192
 30
0.0
 10
46.3583592009
 20
50.6703777248
 30
0.0
 10
46.3523553003
 20
50.6703818148
 30
0.0
  0
SPLINE
  5
246
100
AcDbEntity
  8
0
100
AcDbSpline
 62
7
  6
CONTINUOUS
 70
0
 71
3
 72
21
 73
17
 74
0
 42
0.0000001
 43
0.0000001
 44
0.0000000001
 40
0.0
 40
0.0
 40
0.0
 40
0.0
 40
0.1910778095
 40
0.3748541041
 40
0.5441265537
 40
0.6926328245
 40
0.7573575722
 40
0.8149646372
 40
0.8649900276
 40
0.9071290154
 40
0.9411894057
 40
0.9672770258
 40
0.9775228888
 40
0.9861199829
 40
0.9934202506
 40
1.0
 40
1.0
 40
1.0
 40
1.0
 10
66.7044736848
 20
59.1483799245
 30
0.0
 10
66.7044736848
 20
59.3243904044
 30
0.0
 10
66.7006254441
 20
59.6696981276
 30
0.0
 10
66.6833747118
 20
60.1706736011
 30
0.0
 10
66.6550401039
 20
60.6318655746
 30
0.0
 10
66.6216507686
 20
60.9827384375
 30
0.0
 10
66.5886154031
 20
61.2300515052
 30
0.0
 10
66.5627475637
 20
61.3867322101
 30
0.0
 10
66.5348246348
 20
61.5218764751
 30
0.0
 10
66.5051754992
 20
61.6344143145
 30
0.0
 10
66.4739981383
 20
61.7233993122
 30
0.0
 10
66.4451518194
 20
61.7819265999
 30
0.0
 10
66.4203195987
 20
61.8152008018
 30
0.0
 10
66.4027594712
 20
61.8319131556
 30
0.0
 10
66.3845665854
 20
61.8423466693
 30
0.0
 10
66.3716976205
 20
61.8447970765
 30
0.0
 10
66.3656367148
 20
61.8448011677
 30
0.0
  0
SPLINE
  5
247
100
AcDbEntity
  8
0
100
AcDbSpline
 62
7
  6
CONTINUOUS
 70
0
 71
3
 72
24
 73
20
 74
0
 42
0.0000001
 43
0.0000001
 44
0.0000000001
 40
0.0
 40
0.0
 40
0.0
 40
0.0
 40
0.1639855277
 40
0.3256382141
 40
0.4825546048
 40
0.5582618563
 40
0.6314400663
 40
0.7014097474
 40
0.7673108741
 40
0.8280392103
 40
0.8822268441
 40
0.9281935389
 40
0.9474990348
 40
0.9640349482
 40
0.9775921326
 40
0.9880191538
 40
0.9920553634
 40
0.9953372408
 40
1.0
 40
1.0
 40
1.0
 40
1.0
 10
66.6384773696
 20
52.7669006847
 30
0.0
 10
66.6389888287
 20
53.0075093397
 30
0.0
 10
66.6430489476
 20
53.4853035835
 30
0.0
 10
66.6583998563
 20
54.1931893215
 30
0.0
 10
66.6792429247
 20
54.771345547
 30
0.0
 10
66.7011422019
 20
55.2195066388
 30
0.0
 10
66.7198747058
 20
55.5400824987
 30
0.0
 10
66.7411298611
 20
55.8460816536
 30
0.0
 10
66.7648954027
 20
56.1335720209
 30
0.0
 10
66.7910959367
 20
56.3975990194
 30
0.0
 10
66.819562414
 20
56.6319494439
 30
0.0
 10
66.8460361667
 20
56.8052795457
 30
0.0
 10
66.8690838755
 20
56.9230985485
 30
0.0
 10
66.8856297539
 20
56.9936899571
 30
0.0
 10
66.9023828384
 20
57.0507787078
 30
0.0
 10
66.917205041
 20
57.0892027048
 30
0.0
 10
66.9298513479
 20
57.1121290358
 30
0.0
 10
66.9400513719
 20
57.1262063668
 30
0.0
 10
66.9500412135
 20
57.1341948876
 30
0.0
 10
66.9567944374
 20
57.1352902122
 30
0.0
  0
ENDSEC
  0
SECTION
  2
OBJECTS
  0
DICTIONARY
  5
C
100
AcDbDictionary
280
0
281
1
  3
ACAD_GROUP
350
D
  3
ACAD_MLINESTYLE
350
17
  3
ACAD_LAYOUT
350
1A
  3
ACAD_PLOTSETTINGS
350
19
  3
ACAD_PLOTSTYLENAME
350
E
  0
DICTIONARY
  5
D
102
{ACAD_REACTORS
330
C
102
}
100
AcDbDictionary
280
0
281
1
  0
ACDBDICTIONARYWDFLT
  5
E
102
{ACAD_REACTORS
330
C
102
}
100
AcDbDictionary
281
1
  3
Normal
350
F
100
AcDbDictionaryWithDefault
340
F
  0
DICTIONARY
  5
17
102
{ACAD_REACTORS
330
C
102
}
100
AcDbDictionary
280
0
281
1
  3
Standard
350
18
  0
DICTIONARY
  5
19
102
{ACAD_REACTORS
330
C
102
}
100
AcDbDictionary
281
1
  0
DICTIONARY
  5
1A
102
{ACAD_REACTORS
330
C
102
}
100
AcDbDictionary
281
1
  3
Model
350
248
  3
Layout1
350
249
  0
ACDBPLACEHOLDER
  5
F
102
{ACAD_REACTORS
330
E
102
}
  0
MLINESTYLE
  5
18
102
{ACAD_REACTORS
330
17
102
}
100
AcDbMlineStyle
  2
STANDARD
 70
0
  3

 62
256
 51
90.0
 52
90.0
 71
2
 49
0.5
 62
256
  6
BYLAYER
 49
-0.5
 62
256
  6
BYLAYER
  0
LAYOUT
  5
248
102
{ACAD_REACTORS
330
1A
102
}
100
AcDbPlotSettings
  1

  2
none_device
  4

  6

 40
0.0
 41
0.0
 42
0.0
 43
0.0
 44
210.0
 45
297.0
 46
0.0
 47
0.0
 48
0.0
 49
0.0
140
0.0
141
0.0
142
1.0
143
1.0
 70
1024
 72
1
 73
0
 74
0
  7

 75
0
147
1.0
148
0.0
149
0.0
100
AcDbLayout
  1
Model
 70
0
 71
0
 10
0.0
 20
0.0
 11
210.0
 21
297.0
 12
0.0
 22
0.0
 32
0.0
 14
0.0
 24
0.0
 34
0.0
 15
0.0
 25
0.0
 35
0.0
146
0.0
 13
0.0
 23
0.0
 33
0.0
 16
1.0
 26
0.0
 36
0.0
 17
0.0
 27
1.0
 37
0.0
 76
0
330
210
345
0
346
0
  0
LAYOUT
  5
249
102
{ACAD_REACTORS
330
1A
102
}
100
AcDbPlotSettings
  1

  2
none_device
  4

  6

 40
0.0
 41
0.0
 42
0.0
 43
0.0
 44
210.0
 45
297.0
 46
0.0
 47
0.0
 48
0.0
 49
0.0
140
0.0
141
0.0
142
1.0
143
1.0
 70
0
 72
1
 73
0
 74
0
  7

 75
0
147
1.0
148
0.0
149
0.0
100
AcDbLayout
  1
Layout1
 70
0
 71
1
 10
0.0
 20
0.0
 11
210.0
 21
297.0
 12
0.0
 22
0.0
 32
0.0
 14
0.0
 24
0.0
 34
0.0
 15
0.0
 25
0.0
 35
0.0
146
0.0
 13
0.0
 23
0.0
 33
0.0
 16
1.0
 26
0.0
 36
0.0
 17
0.0
 27
1.0
 37
0.0
 76
0
330
211
345
0
346
0
  0
ENDSEC
  0
EOF
