999
DXF file: C:\Users\sesa63760\Dev\_Creo\CAD\MCADPP0003729_3D-CAD\drw0001_1.dxf
999
Pro/ENGINEER 2019471 by Parametric Technology Corporation
  0
SECTION
  2
HEADER
  9
$ACADVER
  1
AC1024
  9
$DWGCODEPAGE
  3
ANSI_1252
  9
$EXTMAX
 10
131.2665221497
 20
185.6483670403
 30
0.0
  9
$EXTMIN
 10
0.0
 20
0.0
 30
0.0
  9
$LIMMIN
 10
0.0
 20
0.0
  9
$LIMMAX
 10
131.2665221497
 20
185.6483670403
  9
$VIEWCTR
 10
65.6332610748
 20
92.8241835201
  9
$VIEWSIZE
 40
185.6483670403
  9
$CLAYER
  8
0
  9
$LTSCALE
 40
12.1015231848
  9
$CELTYPE
  6
BYLAYER
  9
$DIMSCALE
 40
1.0
  9
$DIMASZ
 40
1.5626966923
  9
$DIMEXO
 40
1.0
  9
$DIMDLI
 40
8.3610523823
  9
$DIMEXE
 40
1.0
  9
$DIMCEN
 40
1.9802492484
  9
$DIMLFAC
 40
1.0
  9
$DIMBLK
  1
_FILLED
  9
$DIMALT
 70
0
  9
$DIMALTF
 40
0.0393700787
  9
$DIMTXT
 40
2.1877753692
  9
$DIMTOL
 70
1
  9
$DIMLIM
 70
0
  9
$DIMTFAC
 40
1.0
  9
$DIMTP
 40
0.01
  9
$DIMTM
 40
0.01
  9
$DIMGAP
 40
0.625
  9
$DIMDSEP
 70
46
  9
$AUNITS
 70
0
  9
$PDMODE
 70
3
  9
$PDSIZE
 40
0.3125
  9
$HANDSEED
  5
336
  9
$TILEMODE
 70
1
  9
$MEASUREMENT
 70
1
  9
$INSUNITS
 70
4
  0
ENDSEC
  0
SECTION
  2
CLASSES
  0
CLASS
  1
ACDBDICTIONARYWDFLT
  2
AcDbDictionaryWithDefault
  3
AutoCAD 2000
 90
0
 91
1
280
0
281
0
  0
CLASS
  1
ACDBPLACEHOLDER
  2
AcDbPlaceHolder
  3
AutoCAD 2000
 90
0
 91
1
280
0
281
0
  0
CLASS
  1
LAYOUT
  2
AcDbLayout
  3
AutoCAD 2000
 90
0
 91
0
280
0
281
0
  0
ENDSEC
  0
SECTION
  2
TABLES
  0
TABLE
  2
VPORT
  5
8
100
AcDbSymbolTable
 70
2
  0
VPORT
  5
1F4
100
AcDbSymbolTableRecord
100
AcDbViewportTableRecord
  2
*ACTIVE
 70
0
 10
0.0
 20
0.0
 11
1.0
 21
1.0
 12
65.6332610748
 22
92.8241835201
 13
0.0
 23
0.0
 14
1.0
 24
1.0
 15
0.0
 25
0.0
 16
0.0
 26
0.0
 36
1.0
 17
0.0
 27
0.0
 37
0.0
 40
185.6483670403
 41
0.7070707071
 42
50.0
 43
0.0
 44
0.0
 50
0.0
 51
0.0
 71
0
 72
100
 73
1
 74
1
 75
0
 76
0
 77
0
 78
0
  0
ENDTAB
  0
TABLE
  2
LTYPE
  5
5
100
AcDbSymbolTable
 70
6
  0
LTYPE
  5
14
100
AcDbSymbolTableRecord
100
AcDbLinetypeTableRecord
  2
BYBLOCK
 70
0
  3

 72
65
 73
0
 40
0.0
  0
LTYPE
  5
15
100
AcDbSymbolTableRecord
100
AcDbLinetypeTableRecord
  2
BYLAYER
 70
0
  3

 72
65
 73
0
 40
0.0
  0
LTYPE
  5
16
100
AcDbSymbolTableRecord
100
AcDbLinetypeTableRecord
  2
CONTINUOUS
 70
64
  3
Solid line
 72
65
 73
0
 40
0.0
  0
LTYPE
  5
1F5
100
AcDbSymbolTableRecord
100
AcDbLinetypeTableRecord
  2
CENTER
 70
64
  3
____ _ ____ _ ____ _ ____ _ ____ _ ____ _ ____
 72
65
 73
4
 40
0.6
 49
0.375
 74
0
 49
-0.075
 74
0
 49
0.075
 74
0
 49
-0.075
 74
0
  0
LTYPE
  5
1F6
100
AcDbSymbolTableRecord
100
AcDbLinetypeTableRecord
  2
HIDDEN
 70
64
  3
- - - - - - - - - - - - - - - - - - - -
 72
65
 73
2
 40
0.2
 49
0.1
 74
0
 49
-0.1
 74
0
  0
LTYPE
  5
1F7
100
AcDbSymbolTableRecord
100
AcDbLinetypeTableRecord
  2
PHANTOM
 70
64
  3
_____ _ _ _____ _ _ _____ _ _ _____
 72
65
 73
6
 40
0.8
 49
0.45
 74
0
 49
-0.05
 74
0
 49
0.1
 74
0
 49
-0.05
 74
0
 49
0.1
 74
0
 49
-0.05
 74
0
  0
LTYPE
  5
1F8
100
AcDbSymbolTableRecord
100
AcDbLinetypeTableRecord
  2
DOT
 70
64
  3
. . . . . . . . . . . . . . . . . . . .
 72
65
 73
2
 40
0.2
 49
0.1
 74
0
 49
-0.1
 74
0
  0
LTYPE
  5
1F9
100
AcDbSymbolTableRecord
100
AcDbLinetypeTableRecord
  2
DASHED
 70
64
  3
- - - - - - - - - - - - - - - - - - - -
 72
65
 73
2
 40
0.2
 49
0.1
 74
0
 49
-0.1
 74
0
  0
ENDTAB
  0
TABLE
  2
LAYER
  5
2
100
AcDbSymbolTable
 70
36
  0
LAYER
  5
10
100
AcDbSymbolTableRecord
100
AcDbLayerTableRecord
  2
0
 70
0
 62
7
  6
CONTINUOUS
370
-3
390
F
  0
LAYER
  5
1FA
100
AcDbSymbolTableRecord
100
AcDbLayerTableRecord
  2
DEFAULT_1
 70
0
 62
7
  6
CENTER
370
-3
390
F
  0
LAYER
  5
1FB
100
AcDbSymbolTableRecord
100
AcDbLayerTableRecord
  2
DEFAULT_2
 70
0
 62
8
  6
HIDDEN
370
-3
390
F
  0
LAYER
  5
1FC
100
AcDbSymbolTableRecord
100
AcDbLayerTableRecord
  2
DEFAULT_3
 70
0
 62
7
  6
PHANTOM
370
-3
390
F
  0
LAYER
  5
1FD
100
AcDbSymbolTableRecord
100
AcDbLayerTableRecord
  2
00_COMPONENTS
 70
0
 62
7
  6
CONTINUOUS
370
-3
390
F
  0
LAYER
  5
1FE
100
AcDbSymbolTableRecord
100
AcDbLayerTableRecord
  2
00_COMPONENTS_1
 70
0
 62
7
  6
CONTINUOUS
370
-3
390
F
  0
LAYER
  5
1FF
100
AcDbSymbolTableRecord
100
AcDbLayerTableRecord
  2
01_1_DEFAULT_DATUMS
 70
0
 62
7
  6
CONTINUOUS
370
-3
390
F
  0
LAYER
  5
200
100
AcDbSymbolTableRecord
100
AcDbLayerTableRecord
  2
01_PLANES
 70
0
 62
7
  6
CONTINUOUS
370
-3
390
F
  0
LAYER
  5
201
100
AcDbSymbolTableRecord
100
AcDbLayerTableRecord
  2
02_COORD_SYS
 70
0
 62
7
  6
CONTINUOUS
370
-3
390
F
  0
LAYER
  5
202
100
AcDbSymbolTableRecord
100
AcDbLayerTableRecord
  2
03_AXES
 70
0
 62
7
  6
CONTINUOUS
370
-3
390
F
  0
LAYER
  5
203
100
AcDbSymbolTableRecord
100
AcDbLayerTableRecord
  2
03_AXES_1
 70
0
 62
7
  6
CONTINUOUS
370
-3
390
F
  0
LAYER
  5
204
100
AcDbSymbolTableRecord
100
AcDbLayerTableRecord
  2
04_POINTS
 70
0
 62
7
  6
CONTINUOUS
370
-3
390
F
  0
LAYER
  5
205
100
AcDbSymbolTableRecord
100
AcDbLayerTableRecord
  2
05_CURVES
 70
0
 62
7
  6
CONTINUOUS
370
-3
390
F
  0
LAYER
  5
206
100
AcDbSymbolTableRecord
100
AcDbLayerTableRecord
  2
06_SURFS
 70
0
 62
7
  6
CONTINUOUS
370
-3
390
F
  0
LAYER
  5
207
100
AcDbSymbolTableRecord
100
AcDbLayerTableRecord
  2
07_COSMETICS
 70
0
 62
7
  6
CONTINUOUS
370
-3
390
F
  0
LAYER
  5
208
100
AcDbSymbolTableRecord
100
AcDbLayerTableRecord
  2
10_NOTES
 70
0
 62
7
  6
CONTINUOUS
370
-3
390
F
  0
LAYER
  5
209
100
AcDbSymbolTableRecord
100
AcDbLayerTableRecord
  2
11_NOTES_PUB
 70
0
 62
7
  6
CONTINUOUS
370
-3
390
F
  0
LAYER
  5
20A
100
AcDbSymbolTableRecord
100
AcDbLayerTableRecord
  2
13_REF_GTOL
 70
0
 62
7
  6
CONTINUOUS
370
-3
390
F
  0
LAYER
  5
20B
100
AcDbSymbolTableRecord
100
AcDbLayerTableRecord
  2
16_MISC
 70
0
 62
7
  6
CONTINUOUS
370
-3
390
F
  0
LAYER
  5
20C
100
AcDbSymbolTableRecord
100
AcDbLayerTableRecord
  2
17_NO_PRINT
 70
0
 62
7
  6
CONTINUOUS
370
-3
390
F
  0
LAYER
  5
20D
100
AcDbSymbolTableRecord
100
AcDbLayerTableRecord
  2
18_DATUM_CAMS_JOINTS
 70
0
 62
7
  6
CONTINUOUS
370
-3
390
F
  0
LAYER
  5
20E
100
AcDbSymbolTableRecord
100
AcDbLayerTableRecord
  2
19_DATUM_FUNCTIONAL
 70
0
 62
7
  6
CONTINUOUS
370
-3
390
F
  0
LAYER
  5
20F
100
AcDbSymbolTableRecord
100
AcDbLayerTableRecord
  2
20_DATUM_KINEMATIC_SCHEME
 70
0
 62
7
  6
CONTINUOUS
370
-3
390
F
  0
LAYER
  5
210
100
AcDbSymbolTableRecord
100
AcDbLayerTableRecord
  2
INTFCLR_11
 70
0
 62
7
  6
CONTINUOUS
370
-3
390
F
  0
LAYER
  5
211
100
AcDbSymbolTableRecord
100
AcDbLayerTableRecord
  2
INTF_BLANK
 70
0
 62
7
  6
CONTINUOUS
370
-3
390
F
  0
LAYER
  5
212
100
AcDbSymbolTableRecord
100
AcDbLayerTableRecord
  2
INTF_YELLOW
 70
0
 62
7
  6
CONTINUOUS
370
-3
390
F
  0
LAYER
  5
213
100
AcDbSymbolTableRecord
100
AcDbLayerTableRecord
  2
_BLACK_HOLE
 70
0
 62
7
  6
CONTINUOUS
370
-3
390
F
  0
ENDTAB
  0
TABLE
  2
STYLE
  5
3
100
AcDbSymbolTable
 70
1
  0
STYLE
  5
11
100
AcDbSymbolTableRecord
100
AcDbTextStyleTableRecord
  2
STANDARD
 70
0
 40
0.0
 41
0.8
 50
0.0
 71
0
 42
0.2
  3
txt
  4

  0
STYLE
  5
214
100
AcDbSymbolTableRecord
100
AcDbTextStyleTableRecord
  2
TEXTSTYLE_1
 70
0
 40
0.0
 41
0.8
 50
0.0
 71
0
 42
0.2
  3
gdt
  4

  0
ENDTAB
  0
TABLE
  2
VIEW
  5
6
100
AcDbSymbolTable
 70
0
  0
ENDTAB
  0
TABLE
  2
UCS
  5
7
100
AcDbSymbolTable
 70
0
  0
ENDTAB
  0
TABLE
  2
APPID
  5
9
100
AcDbSymbolTable
 70
1
  0
APPID
  5
215
100
AcDbSymbolTableRecord
100
AcDbRegAppTableRecord
  2
ACAD
 70
0
  0
ENDTAB
  0
TABLE
  2
BLOCK_RECORD
  5
1
100
AcDbSymbolTable
 70
0
  0
BLOCK_RECORD
  5
216
100
AcDbSymbolTableRecord
100
AcDbBlockTableRecord
  2
*Model_Space
  0
BLOCK_RECORD
  5
217
100
AcDbSymbolTableRecord
100
AcDbBlockTableRecord
  2
*Paper_Space
  0
BLOCK_RECORD
  5
218
100
AcDbSymbolTableRecord
100
AcDbBlockTableRecord
  2
_FILLED
  0
ENDTAB
  0
TABLE
  2
DIMSTYLE
  5
A
100
AcDbSymbolTable
 70
1
100
AcDbDimStyleTable
 71
0
  0
DIMSTYLE
105
219
100
AcDbSymbolTableRecord
100
AcDbDimStyleTableRecord
  2
STANDARD
 70
0
  3

  4

 40
1.0
 41
1.5626966923
 42
1.0
 43
0.38
 44
1.0
 45
0.0
 46
0.0
 47
0.01
 48
0.01
140
2.1877753692
141
0.09
142
0.0
143
25.4
144
1.0
145
0.0
146
1.0
147
0.625
 71
1
 72
0
 73
0
 74
0
 75
0
 76
0
 77
1
 78
8
 79
2
170
0
171
1
172
0
173
0
174
0
175
0
176
0
177
0
178
0
270
2
179
2
271
2
272
2
273
2
274
2
275
0
280
0
281
0
282
0
283
1
284
8
285
0
286
0
287
3
288
0
340
11
278
46
341
218
342
218
343
218
344
218
  0
ENDTAB
  0
ENDSEC
  0
SECTION
  2
BLOCKS
  0
BLOCK
  5
20
100
AcDbEntity
  8
0
100
AcDbBlockBegin
  2
*Model_Space
 70
0
 10
0.0
 20
0.0
 30
0.0
  3
*Model_Space
  1

  0
ENDBLK
  5
21
100
AcDbEntity
  8
0
100
AcDbBlockEnd
  0
BLOCK
  5
1C
100
AcDbEntity
  8
0
100
AcDbBlockBegin
  2
*Paper_Space
 70
0
 10
0.0
 20
0.0
 30
0.0
  3
*Paper_Space
  1

  0
ENDBLK
  5
1D
100
AcDbEntity
  8
0
100
AcDbBlockEnd
  0
BLOCK
  5
21A
100
AcDbEntity
  8
0
100
AcDbBlockBegin
  2
_FILLED
 70
64
 10
0.0
 20
0.0
  3
_FILLED
  1

  0
SOLID
  5
21B
100
AcDbEntity
  8
0
  6
BYBLOCK
 62
0
100
AcDbTrace
 10
0.0
 20
0.0
 11
-1.0
 21
0.25
 12
-1.0
 22
-0.25
 13
-1.0
 23
-0.25
  0
ENDBLK
  5
21C
100
AcDbEntity
  8
0
  6
BYBLOCK
 62
0
100
AcDbBlockEnd
  0
ENDSEC
  0
SECTION
  2
ENTITIES
  0
LINE
  5
21D
100
AcDbEntity
  8
00_COMPONENTS_1
100
AcDbLine
 62
7
  6
CONTINUOUS
 10
15.2284268266
 20
71.525882617
 11
15.2284268266
 21
88.9745392711
  0
LINE
  5
21E
100
AcDbEntity
  8
00_COMPONENTS_1
100
AcDbLine
 62
7
  6
CONTINUOUS
 10
21.2388082653
 20
62.7484181662
 11
35.8052829511
 21
52.8689879528
  0
LINE
  5
21F
100
AcDbEntity
  8
00_COMPONENTS_1
100
AcDbLine
 62
7
  6
CONTINUOUS
 10
19.789245399
 20
92.9605554135
 11
19.789245399
 21
95.143166028
  0
LINE
  5
220
100
AcDbEntity
  8
00_COMPONENTS_1
100
AcDbLine
 62
7
  6
CONTINUOUS
 10
21.2388082653
 20
62.7484181662
 11
21.2388082653
 21
64.7898561092
  0
LINE
  5
221
100
AcDbEntity
  8
00_COMPONENTS_1
100
AcDbLine
 62
7
  6
CONTINUOUS
 10
21.2388082653
 20
95.9800665434
 11
21.2388082653
 21
105.0432433735
  0
LINE
  5
222
100
AcDbEntity
  8
00_COMPONENTS_1
100
AcDbLine
 62
7
  6
CONTINUOUS
 10
35.8052829511
 20
52.8689879528
 11
52.9173239519
 21
44.4592323637
  0
LINE
  5
223
100
AcDbEntity
  8
00_COMPONENTS_1
100
AcDbLine
 62
7
  6
CONTINUOUS
 10
43.866370695
 20
51.7261223904
 11
18.0568657272
 21
66.6269099304
  0
LINE
  5
224
100
AcDbEntity
  8
00_COMPONENTS_1
100
AcDbLine
 62
7
  6
CONTINUOUS
 10
31.4918139049
 20
124.4350734873
 11
53.800939969
 21
137.315176542
  0
LINE
  5
225
100
AcDbEntity
  8
00_COMPONENTS_1
100
AcDbLine
 62
7
  6
CONTINUOUS
 10
55.2151594193
 20
136.4986950329
 11
33.7899131517
 21
124.1288971706
  0
LINE
  5
226
100
AcDbEntity
  8
00_COMPONENTS_1
100
AcDbLine
 62
7
  6
CONTINUOUS
 10
34.8253109601
 20
123.5311234907
 11
45.8208123286
 21
129.8793412719
  0
LINE
  5
227
100
AcDbEntity
  8
00_COMPONENTS_1
100
AcDbLine
 62
7
  6
CONTINUOUS
 10
47.5430827855
 20
130.8736886484
 11
55.2151594193
 21
135.3031377179
  0
LINE
  5
228
100
AcDbEntity
  8
00_COMPONENTS_1
100
AcDbLine
 62
7
  6
CONTINUOUS
 10
56.8732013266
 20
133.8633214062
 11
59.5284810504
 21
135.3963387187
  0
LINE
  5
229
100
AcDbEntity
  8
00_COMPONENTS_1
100
AcDbLine
 62
7
  6
CONTINUOUS
 10
51.4677610856
 20
52.6855086784
 11
49.6694624554
 21
53.7237333888
  0
LINE
  5
22A
100
AcDbEntity
  8
00_COMPONENTS_1
100
AcDbLine
 62
7
  6
CONTINUOUS
 10
31.4918139049
 20
110.9627836047
 11
31.4918139049
 21
124.4350734873
  0
LINE
  5
22B
100
AcDbEntity
  8
00_COMPONENTS_1
100
AcDbLine
 62
7
  6
CONTINUOUS
 10
81.4487000041
 20
146.3372524127
 11
86.3984268646
 21
149.1949614898
  0
LINE
  5
22C
100
AcDbEntity
  8
00_COMPONENTS_1
100
AcDbLine
 62
7
  6
CONTINUOUS
 10
81.4487000041
 20
143.4794939528
 11
63.488363939
 21
133.1101509875
  0
LINE
  5
22D
100
AcDbEntity
  8
00_COMPONENTS_1
100
AcDbLine
 62
7
  6
CONTINUOUS
 10
36.724511246
 20
96.9192732667
 11
36.724511246
 21
96.1027708496
  0
LINE
  5
22E
100
AcDbEntity
  8
00_COMPONENTS_1
100
AcDbLine
 62
7
  6
CONTINUOUS
 10
42.8409176336
 20
118.9034155128
 11
64.2661639012
 21
131.2732133751
  0
LINE
  5
22F
100
AcDbEntity
  8
00_COMPONENTS_1
100
AcDbLine
 62
7
  6
CONTINUOUS
 10
65.1146955714
 20
130.7833244696
 11
43.6894493038
 21
118.4135266073
  0
LINE
  5
230
100
AcDbEntity
  8
00_COMPONENTS_1
100
AcDbLine
 62
7
  6
CONTINUOUS
 10
31.4918139049
 20
110.9627836047
 11
21.2388082653
 21
105.0432433735
  0
LINE
  5
231
100
AcDbEntity
  8
00_COMPONENTS_1
100
AcDbLine
 62
7
  6
CONTINUOUS
 10
44.7248471121
 20
117.8157529274
 11
55.7203484806
 21
124.1639707086
  0
LINE
  5
232
100
AcDbEntity
  8
00_COMPONENTS_1
100
AcDbLine
 62
7
  6
CONTINUOUS
 10
57.4426189376
 20
125.1583180851
 11
65.1146955714
 21
129.5877671546
  0
LINE
  5
233
100
AcDbEntity
  8
03_AXES_1
100
AcDbLine
 62
2
  6
CONTINUOUS
 10
38.4263966917
 20
113.4152068708
 11
36.4111067205
 21
112.2516856087
  0
LINE
  5
234
100
AcDbEntity
  8
00_COMPONENTS_1
100
AcDbLine
 62
7
  6
CONTINUOUS
 10
68.2865160823
 20
130.3399992252
 11
86.2468521474
 21
140.7093421904
  0
LINE
  5
235
100
AcDbEntity
  8
00_COMPONENTS_1
100
AcDbLine
 62
7
  6
CONTINUOUS
 10
37.4316209712
 20
96.5110325122
 11
37.4316209712
 21
95.694530095
  0
LINE
  5
236
100
AcDbEntity
  8
00_COMPONENTS_1
100
AcDbLine
 62
7
  6
CONTINUOUS
 10
37.6083377567
 20
102.5374210077
 11
37.6083377567
 21
103.5940132543
  0
LINE
  5
237
100
AcDbEntity
  8
00_COMPONENTS_1
100
AcDbLine
 62
7
  6
CONTINUOUS
 10
38.0679552509
 20
103.8593719543
 11
38.0679552509
 21
104.2676231629
  0
LINE
  5
238
100
AcDbEntity
  8
00_COMPONENTS_1
100
AcDbLine
 62
7
  6
CONTINUOUS
 10
98.3485812195
 20
144.7539476428
 11
96.6515320102
 21
143.7741616735
  0
LINE
  5
239
100
AcDbEntity
  8
00_COMPONENTS_1
100
AcDbLine
 62
7
  6
CONTINUOUS
 10
68.1281575349
 20
126.9709263675
 11
71.1250805428
 21
128.7011903446
  0
LINE
  5
23A
100
AcDbEntity
  8
00_COMPONENTS_1
100
AcDbLine
 62
7
  6
CONTINUOUS
 10
69.2543065561
 20
126.1514005762
 11
71.1250805428
 21
127.2314859937
  0
LINE
  5
23B
100
AcDbEntity
  8
00_COMPONENTS_1
100
AcDbLine
 62
7
  6
CONTINUOUS
 10
21.2388082653
 20
95.9800665434
 11
19.789245399
 21
95.143166028
  0
LINE
  5
23C
100
AcDbEntity
  8
00_COMPONENTS_1
100
AcDbLine
 62
7
  6
CONTINUOUS
 10
18.0568657272
 20
90.6075859215
 11
43.866370695
 21
75.7067983815
  0
LINE
  5
23D
100
AcDbEntity
  8
00_COMPONENTS_1
100
AcDbLine
 62
7
  6
CONTINUOUS
 10
44.2198743326
 20
92.5919212688
 11
44.2198743326
 21
91.7754188516
  0
LINE
  5
23E
100
AcDbEntity
  8
00_COMPONENTS_1
100
AcDbLine
 62
7
  6
CONTINUOUS
 10
44.9269840577
 20
92.1836805142
 11
44.9269840577
 21
91.3671780971
  0
LINE
  5
23F
100
AcDbEntity
  8
00_COMPONENTS_1
100
AcDbLine
 62
7
  6
CONTINUOUS
 10
45.1037008432
 20
98.2100690099
 11
45.1037008431
 21
99.2666612564
  0
LINE
  5
240
100
AcDbEntity
  8
00_COMPONENTS_1
100
AcDbLine
 62
7
  6
CONTINUOUS
 10
45.5633183372
 20
99.5320199566
 11
45.5633183372
 21
99.9402711651
  0
LINE
  5
241
100
AcDbEntity
  8
00_COMPONENTS_1
100
AcDbLine
 62
7
  6
CONTINUOUS
 10
46.4124697983
 20
100.8795946323
 11
46.4124697983
 21
101.6960970494
  0
LINE
  5
242
100
AcDbEntity
  8
00_COMPONENTS_1
100
AcDbLine
 62
7
  6
CONTINUOUS
 10
46.6948095956
 20
70.8078256949
 11
46.6948095956
 21
53.3591690409
  0
LINE
  5
243
100
AcDbEntity
  8
00_COMPONENTS_1
100
AcDbLine
 62
7
  6
CONTINUOUS
 10
52.7404537857
 20
113.1880449495
 11
74.1657000532
 21
125.5578428118
  0
LINE
  5
244
100
AcDbEntity
  8
00_COMPONENTS_1
100
AcDbLine
 62
7
  6
CONTINUOUS
 10
38.0679552509
 20
104.2676231629
 11
30.3456613825
 21
99.8091813324
  0
LINE
  5
245
100
AcDbEntity
  8
00_COMPONENTS_1
100
AcDbLine
 62
7
  6
CONTINUOUS
 10
30.6784615678
 20
99.5930712536
 11
36.6932889484
 21
103.065712732
  0
LINE
  5
246
100
AcDbEntity
  8
00_COMPONENTS_1
100
AcDbLine
 62
7
  6
CONTINUOUS
 10
37.6083377567
 20
103.5940132543
 11
38.0679552509
 21
103.8593719543
  0
LINE
  5
247
100
AcDbEntity
  8
00_COMPONENTS_1
100
AcDbLine
 62
7
  6
CONTINUOUS
 10
75.0142317234
 20
125.0679539064
 11
53.5889854558
 21
112.6981560441
  0
LINE
  5
248
100
AcDbEntity
  8
00_COMPONENTS_1
100
AcDbLine
 62
7
  6
CONTINUOUS
 10
16.0568746809
 20
90.8056830376
 11
20.6884048147
 21
93.4796822454
  0
LINE
  5
249
100
AcDbEntity
  8
00_COMPONENTS_1
100
AcDbLine
 62
7
  6
CONTINUOUS
 10
54.6243832642
 20
112.1003823641
 11
65.6198846327
 21
118.4486001453
  0
LINE
  5
24A
100
AcDbEntity
  8
00_COMPONENTS_1
100
AcDbLine
 62
7
  6
CONTINUOUS
 10
67.3421550896
 20
119.4429475218
 11
75.0142317234
 21
123.8723965913
  0
LINE
  5
24B
100
AcDbEntity
  8
00_COMPONENTS_1
100
AcDbLine
 62
7
  6
CONTINUOUS
 10
22.6883958609
 20
93.2815851294
 11
18.0568657272
 21
90.6075859215
  0
LINE
  5
24C
100
AcDbEntity
  8
03_AXES_1
100
AcDbLine
 62
2
  6
CONTINUOUS
 10
48.0255695735
 20
107.5264225277
 11
46.0581334444
 21
106.3905295293
  0
LINE
  5
24D
100
AcDbEntity
  8
00_COMPONENTS_1
100
AcDbLine
 62
7
  6
CONTINUOUS
 10
104.4297389868
 20
139.2835133738
 11
106.1267881962
 21
140.2632993431
  0
LINE
  5
24E
100
AcDbEntity
  8
00_COMPONENTS_1
100
AcDbLine
 62
7
  6
CONTINUOUS
 10
76.8981769734
 20
122.2364095337
 11
79.6103972446
 21
123.8023012903
  0
LINE
  5
24F
100
AcDbEntity
  8
00_COMPONENTS_1
100
AcDbLine
 62
7
  6
CONTINUOUS
 10
22.6883958609
 20
93.2815851294
 11
48.4979008288
 21
78.3807975894
  0
LINE
  5
250
100
AcDbEntity
  8
00_COMPONENTS_1
100
AcDbLine
 62
7
  6
CONTINUOUS
 10
51.4677610856
 20
76.8539802255
 11
19.789245399
 21
95.143166028
  0
LINE
  5
251
100
AcDbEntity
  8
00_COMPONENTS_1
100
AcDbLine
 62
7
  6
CONTINUOUS
 10
47.5430827855
 20
128.3837499445
 11
47.5430827855
 21
130.8736886484
  0
LINE
  5
252
100
AcDbEntity
  8
00_COMPONENTS_1
100
AcDbLine
 62
7
  6
CONTINUOUS
 10
51.3263397294
 20
73.4818249028
 11
51.3263397294
 21
56.0331682487
  0
LINE
  5
253
100
AcDbEntity
  8
00_COMPONENTS_1
100
AcDbLine
 62
7
  6
CONTINUOUS
 10
51.4677610856
 20
76.8539802255
 11
51.4677610856
 21
52.6855086784
  0
LINE
  5
254
100
AcDbEntity
  8
00_COMPONENTS_1
100
AcDbLine
 62
7
  6
CONTINUOUS
 10
36.724511246
 20
96.9192732667
 11
45.7053600732
 21
102.1043378039
  0
LINE
  5
255
100
AcDbEntity
  8
00_COMPONENTS_1
100
AcDbLine
 62
7
  6
CONTINUOUS
 10
36.1262785284
 20
96.2064516599
 11
36.724511246
 21
96.5518394188
  0
LINE
  5
256
100
AcDbEntity
  8
00_COMPONENTS_1
100
AcDbLine
 62
7
  6
CONTINUOUS
 10
46.4124697983
 20
101.6960970494
 11
37.4316209712
 21
96.5110325122
  0
LINE
  5
257
100
AcDbEntity
  8
00_COMPONENTS_1
100
AcDbLine
 62
7
  6
CONTINUOUS
 10
46.4124697983
 20
100.8795946323
 11
37.4316209712
 21
95.694530095
  0
LINE
  5
258
100
AcDbEntity
  8
00_COMPONENTS_1
100
AcDbLine
 62
7
  6
CONTINUOUS
 10
45.5633183372
 20
99.9402711651
 11
37.6112089509
 21
95.3491460756
  0
LINE
  5
259
100
AcDbEntity
  8
03_AXES_1
100
AcDbLine
 62
2
  6
CONTINUOUS
 10
33.6534747524
 20
92.9415958529
 11
32.0681900793
 21
92.0263367835
  0
LINE
  5
25A
100
AcDbEntity
  8
00_COMPONENTS_1
100
AcDbLine
 62
7
  6
CONTINUOUS
 10
37.9710793208
 20
95.1486648818
 11
44.1886520348
 21
98.7383607342
  0
LINE
  5
25B
100
AcDbEntity
  8
00_COMPONENTS_1
100
AcDbLine
 62
7
  6
CONTINUOUS
 10
45.1037008431
 20
99.2666612564
 11
45.5633183372
 21
99.5320199566
  0
LINE
  5
25C
100
AcDbEntity
  8
00_COMPONENTS_1
100
AcDbLine
 62
7
  6
CONTINUOUS
 10
107.4285558248
 20
134.5578259996
 11
112.3782826853
 21
137.4155350767
  0
LINE
  5
25D
100
AcDbEntity
  8
00_COMPONENTS_1
100
AcDbLine
 62
7
  6
CONTINUOUS
 10
108.1377724187
 20
134.5917638661
 11
113.0874992792
 21
137.4494729432
  0
LINE
  5
25E
100
AcDbEntity
  8
00_COMPONENTS_1
100
AcDbLine
 62
7
  6
CONTINUOUS
 10
52.5990639298
 20
93.882717012
 11
52.5990639297
 21
94.9393092585
  0
LINE
  5
25F
100
AcDbEntity
  8
00_COMPONENTS_1
100
AcDbLine
 62
7
  6
CONTINUOUS
 10
52.9173239519
 20
86.754057571
 11
52.9173239519
 21
77.6908807409
  0
LINE
  5
260
100
AcDbEntity
  8
00_COMPONENTS_1
100
AcDbLine
 62
7
  6
CONTINUOUS
 10
52.9173239519
 20
53.5224091939
 11
52.9173239519
 21
44.4592323637
  0
LINE
  5
261
100
AcDbEntity
  8
00_COMPONENTS_1
100
AcDbLine
 62
7
  6
CONTINUOUS
 10
53.0586814238
 20
95.2046679586
 11
53.0586814238
 21
95.6129191672
  0
LINE
  5
262
100
AcDbEntity
  8
00_COMPONENTS_1
100
AcDbLine
 62
7
  6
CONTINUOUS
 10
54.2182252117
 20
96.7314466581
 11
54.2182252117
 21
97.5479490753
  0
LINE
  5
263
100
AcDbEntity
  8
00_COMPONENTS_1
100
AcDbLine
 62
7
  6
CONTINUOUS
 10
55.2151594193
 20
135.3031377179
 11
55.2151594193
 21
136.4986950329
  0
LINE
  5
264
100
AcDbEntity
  8
00_COMPONENTS_1
100
AcDbLine
 62
7
  6
CONTINUOUS
 10
62.6399899377
 20
107.4726743862
 11
84.0652362053
 21
119.8424722485
  0
LINE
  5
265
100
AcDbEntity
  8
00_COMPONENTS_1
100
AcDbLine
 62
7
  6
CONTINUOUS
 10
63.1703295915
 20
106.1458876848
 11
85.4794556556
 21
119.0259907395
  0
LINE
  5
266
100
AcDbEntity
  8
03_AXES_1
100
AcDbLine
 62
2
  6
CONTINUOUS
 10
58.616015889
 20
102.2099467522
 11
56.2101790246
 21
100.8209444822
  0
LINE
  5
267
100
AcDbEntity
  8
03_AXES_1
100
AcDbLine
 62
2
  6
CONTINUOUS
 10
109.6623780374
 20
131.0282492079
 11
110.7674978813
 21
131.6662866387
  0
LINE
  5
268
100
AcDbEntity
  8
00_COMPONENTS_1
100
AcDbLine
 62
7
  6
CONTINUOUS
 10
44.2198743326
 20
92.5919212688
 11
53.4575300923
 21
97.9252524726
  0
LINE
  5
269
100
AcDbEntity
  8
00_COMPONENTS_1
100
AcDbLine
 62
7
  6
CONTINUOUS
 10
44.2198743326
 20
92.1836630061
 11
43.8892577838
 21
91.9927825921
  0
LINE
  5
26A
100
AcDbEntity
  8
00_COMPONENTS_1
100
AcDbLine
 62
7
  6
CONTINUOUS
 10
54.2182252117
 20
97.5479490753
 11
44.9269840577
 21
92.1836805142
  0
LINE
  5
26B
100
AcDbEntity
  8
00_COMPONENTS_1
100
AcDbLine
 62
7
  6
CONTINUOUS
 10
114.3111760417
 20
85.8443482448
 11
114.6111644438
 21
85.8740537035
  0
LINE
  5
26C
100
AcDbEntity
  8
00_COMPONENTS_1
100
AcDbLine
 62
7
  6
CONTINUOUS
 10
52.9173239519
 20
86.754057571
 11
38.0568293679
 21
94.0572850106
  0
LINE
  5
26D
100
AcDbEntity
  8
00_COMPONENTS_1
100
AcDbLine
 62
7
  6
CONTINUOUS
 10
36.0665812291
 20
95.0353974642
 11
35.8052829511
 21
95.1638131601
  0
LINE
  5
26E
100
AcDbEntity
  8
00_COMPONENTS_1
100
AcDbLine
 62
7
  6
CONTINUOUS
 10
36.0474877932
 20
95.0243200131
 11
35.8052829511
 21
95.1638131601
  0
LINE
  5
26F
100
AcDbEntity
  8
00_COMPONENTS_1
100
AcDbLine
 62
7
  6
CONTINUOUS
 10
44.9269840577
 20
91.3671780971
 11
44.2198743326
 21
91.7754188516
  0
LINE
  5
270
100
AcDbEntity
  8
00_COMPONENTS_1
100
AcDbLine
 62
7
  6
CONTINUOUS
 10
37.4316209712
 20
95.694530095
 11
36.724511246
 21
96.1027708496
  0
LINE
  5
271
100
AcDbEntity
  8
00_COMPONENTS_1
100
AcDbLine
 62
7
  6
CONTINUOUS
 10
44.9269840577
 20
92.1836805142
 11
44.2198743326
 21
92.5919212688
  0
LINE
  5
272
100
AcDbEntity
  8
00_COMPONENTS_1
100
AcDbLine
 62
7
  6
CONTINUOUS
 10
37.4316209712
 20
96.5110325122
 11
36.724511246
 21
96.9192732667
  0
LINE
  5
273
100
AcDbEntity
  8
00_COMPONENTS_1
100
AcDbLine
 62
7
  6
CONTINUOUS
 10
57.4426189376
 20
122.6683793812
 11
57.4426189376
 21
125.1583180851
  0
LINE
  5
274
100
AcDbEntity
  8
00_COMPONENTS_1
100
AcDbLine
 62
7
  6
CONTINUOUS
 10
118.0769425511
 20
133.6494312314
 11
113.1272156906
 21
130.7917221543
  0
LINE
  5
275
100
AcDbEntity
  8
00_COMPONENTS_1
100
AcDbLine
 62
7
  6
CONTINUOUS
 10
54.2182252117
 20
96.7314466581
 11
44.9269840577
 21
91.3671780971
  0
LINE
  5
276
100
AcDbEntity
  8
00_COMPONENTS_1
100
AcDbLine
 62
7
  6
CONTINUOUS
 10
108.3290635473
 20
127.9604599126
 11
90.3687274822
 21
117.5911169473
  0
LINE
  5
277
100
AcDbEntity
  8
00_COMPONENTS_1
100
AcDbLine
 62
7
  6
CONTINUOUS
 10
53.0586814238
 20
95.6129191672
 11
45.4501428357
 21
91.2201535865
  0
LINE
  5
278
100
AcDbEntity
  8
03_AXES_1
100
AcDbLine
 62
2
  6
CONTINUOUS
 10
41.2644567044
 20
88.6809960396
 11
39.5635531659
 21
87.6989847856
  0
LINE
  5
279
100
AcDbEntity
  8
00_COMPONENTS_1
100
AcDbLine
 62
7
  6
CONTINUOUS
 10
45.8371519271
 20
91.0353408472
 11
51.6840151214
 21
94.4110087362
  0
LINE
  5
27A
100
AcDbEntity
  8
00_COMPONENTS_1
100
AcDbLine
 62
7
  6
CONTINUOUS
 10
52.5990639297
 20
94.9393092585
 11
53.0586814238
 21
95.2046679586
  0
LINE
  5
27B
100
AcDbEntity
  8
00_COMPONENTS_1
100
AcDbLine
 62
7
  6
CONTINUOUS
 10
85.4794556556
 20
113.8003752698
 11
91.206996737
 21
117.1071529162
  0
LINE
  5
27C
100
AcDbEntity
  8
00_COMPONENTS_1
100
AcDbLine
 62
7
  6
CONTINUOUS
 10
113.1272156906
 20
125.1903081503
 11
91.206996737
 21
112.5347393803
  0
LINE
  5
27D
100
AcDbEntity
  8
00_COMPONENTS_1
100
AcDbLine
 62
7
  6
CONTINUOUS
 10
57.3408868128
 20
91.1450862274
 11
51.6840151214
 21
94.4110087362
  0
LINE
  5
27E
100
AcDbEntity
  8
00_COMPONENTS_1
100
AcDbLine
 62
7
  6
CONTINUOUS
 10
49.527312131
 20
95.6561536194
 11
44.1886520348
 21
98.7383607342
  0
LINE
  5
27F
100
AcDbEntity
  8
00_COMPONENTS_1
100
AcDbLine
 62
7
  6
CONTINUOUS
 10
42.0319490444
 20
99.9835056173
 11
36.6932889484
 21
103.065712732
  0
LINE
  5
280
100
AcDbEntity
  8
00_COMPONENTS_1
100
AcDbLine
 62
7
  6
CONTINUOUS
 10
37.6083377567
 20
103.5940132543
 11
42.9469978527
 21
100.5118061396
  0
LINE
  5
281
100
AcDbEntity
  8
00_COMPONENTS_1
100
AcDbLine
 62
7
  6
CONTINUOUS
 10
45.1037008431
 20
99.2666612564
 11
50.4423609393
 21
96.1844541417
  0
LINE
  5
282
100
AcDbEntity
  8
00_COMPONENTS_1
100
AcDbLine
 62
7
  6
CONTINUOUS
 10
52.5990639297
 20
94.9393092585
 11
58.2559356212
 21
91.6733867497
  0
LINE
  5
283
100
AcDbEntity
  8
00_COMPONENTS_1
100
AcDbLine
 62
7
  6
CONTINUOUS
 10
38.0679552509
 20
103.8593719543
 11
43.4066153469
 21
100.7771648396
  0
LINE
  5
284
100
AcDbEntity
  8
00_COMPONENTS_1
100
AcDbLine
 62
7
  6
CONTINUOUS
 10
45.5633183372
 20
99.5320199566
 11
50.9019784335
 21
96.4498128417
  0
LINE
  5
285
100
AcDbEntity
  8
00_COMPONENTS_1
100
AcDbLine
 62
7
  6
CONTINUOUS
 10
53.0586814238
 20
95.2046679586
 11
58.7155531154
 21
91.9387454497
  0
LINE
  5
286
100
AcDbEntity
  8
00_COMPONENTS_1
100
AcDbLine
 62
7
  6
CONTINUOUS
 10
38.0679552509
 20
104.2676231629
 11
43.7601763191
 21
100.9812921436
  0
LINE
  5
287
100
AcDbEntity
  8
00_COMPONENTS_1
100
AcDbLine
 62
7
  6
CONTINUOUS
 10
45.5633183372
 20
99.9402711651
 11
51.2555394057
 21
96.6539401457
  0
LINE
  5
288
100
AcDbEntity
  8
00_COMPONENTS_1
100
AcDbLine
 62
7
  6
CONTINUOUS
 10
53.0586814238
 20
95.6129191672
 11
59.0691140876
 21
92.1428727537
  0
LINE
  5
289
100
AcDbEntity
  8
00_COMPONENTS_1
100
AcDbLine
 62
7
  6
CONTINUOUS
 10
63.1703295915
 20
106.1458876848
 11
63.1703295915
 21
92.6735978022
  0
LINE
  5
28A
100
AcDbEntity
  8
00_COMPONENTS_1
100
AcDbLine
 62
7
  6
CONTINUOUS
 10
63.1703295915
 20
50.3787725949
 11
63.1703295915
 21
36.9064827122
  0
LINE
  5
28B
100
AcDbEntity
  8
00_COMPONENTS_1
100
AcDbLine
 62
7
  6
CONTINUOUS
 10
65.1146955714
 20
129.5877671546
 11
65.1146955714
 21
130.7833244696
  0
LINE
  5
28C
100
AcDbEntity
  8
00_COMPONENTS_1
100
AcDbLine
 62
7
  6
CONTINUOUS
 10
107.2038013775
 20
134.349368753
 11
107.4285622307
 21
134.5578149089
  0
LINE
  5
28D
100
AcDbEntity
  8
00_COMPONENTS_1
100
AcDbLine
 62
7
  6
CONTINUOUS
 10
52.1540936289
 20
88.1505076617
 11
59.0691140876
 21
92.1428727537
  0
LINE
  5
28E
100
AcDbEntity
  8
00_COMPONENTS_1
100
AcDbLine
 62
7
  6
CONTINUOUS
 10
63.1703295915
 20
92.6735978022
 11
52.9173239519
 21
86.754057571
  0
LINE
  5
28F
100
AcDbEntity
  8
03_AXES_1
100
AcDbLine
 62
2
  6
CONTINUOUS
 10
49.4480548672
 20
84.7509943764
 11
47.4524630613
 21
83.5988457875
  0
LINE
  5
290
100
AcDbEntity
  8
00_COMPONENTS_1
100
AcDbLine
 62
7
  6
CONTINUOUS
 10
113.1272156906
 20
72.8525032123
 11
110.1341720534
 21
73.9822374375
  0
LINE
  5
291
100
AcDbEntity
  8
00_COMPONENTS_1
100
AcDbLine
 62
7
  6
CONTINUOUS
 10
67.3421550896
 20
116.9530088179
 11
67.3421550896
 21
119.4429475218
  0
LINE
  5
292
100
AcDbEntity
  8
00_COMPONENTS_1
100
AcDbLine
 62
7
  6
CONTINUOUS
 10
71.1250805428
 20
127.2314859937
 11
71.1250805428
 21
128.7011903446
  0
LINE
  5
293
100
AcDbEntity
  8
00_COMPONENTS_1
100
AcDbLine
 62
7
  6
CONTINUOUS
 10
118.0769425511
 20
119.3930916058
 11
113.6928987604
 21
116.8619778518
  0
LINE
  5
294
100
AcDbEntity
  8
00_COMPONENTS_1
100
AcDbLine
 62
7
  6
CONTINUOUS
 10
113.6928987604
 20
116.5761519176
 11
114.7181784222
 21
117.1680938729
  0
LINE
  5
295
100
AcDbEntity
  8
00_COMPONENTS_1
100
AcDbLine
 62
7
  6
CONTINUOUS
 10
43.866370695
 20
75.7067983815
 11
48.4979008288
 21
78.3807975894
  0
LINE
  5
296
100
AcDbEntity
  8
00_COMPONENTS_1
100
AcDbLine
 62
7
  6
CONTINUOUS
 10
114.0889954563
 20
114.6411557694
 11
113.6928987604
 21
114.4124706004
  0
LINE
  5
297
100
AcDbEntity
  8
00_COMPONENTS_1
100
AcDbLine
 62
7
  6
CONTINUOUS
 10
75.0142317234
 20
123.8723965913
 11
75.0142317234
 21
125.0679539064
  0
LINE
  5
298
100
AcDbEntity
  8
00_COMPONENTS_1
100
AcDbLine
 62
7
  6
CONTINUOUS
 10
106.6218062193
 20
133.5213824225
 11
107.2038013775
 21
134.349368753
  0
LINE
  5
299
100
AcDbEntity
  8
00_COMPONENTS_1
100
AcDbLine
 62
7
  6
CONTINUOUS
 10
52.9173239519
 20
77.6908807409
 11
51.4677610856
 21
76.8539802255
  0
LINE
  5
29A
100
AcDbEntity
  8
00_COMPONENTS_1
100
AcDbLine
 62
7
  6
CONTINUOUS
 10
51.3263397294
 20
73.4818249028
 11
46.6948095956
 21
70.8078256949
  0
LINE
  5
29B
100
AcDbEntity
  8
00_COMPONENTS_1
100
AcDbLine
 62
7
  6
CONTINUOUS
 10
115.6030445061
 20
88.4072794498
 11
118.0769425511
 21
87.8353749275
  0
LWPOLYLINE
  5
29C
100
AcDbEntity
  8
00_COMPONENTS_1
100
AcDbPolyline
 62
7
  6
CONTINUOUS
 90
3
 70
0
 10
63.1703295915
 20
106.1458876848
 10
46.0582885907
 20
114.5556432739
 10
31.4918139049
 20
124.4350734873
  0
LINE
  5
29D
100
AcDbEntity
  8
00_COMPONENTS_1
100
AcDbLine
 62
7
  6
CONTINUOUS
 10
33.7899131517
 20
124.1288971706
 11
42.8409176336
 21
118.9034155128
  0
LINE
  5
29E
100
AcDbEntity
  8
00_COMPONENTS_1
100
AcDbLine
 62
7
  6
CONTINUOUS
 10
43.6894493038
 20
118.4135266073
 11
52.7404537857
 21
113.1880449495
  0
LINE
  5
29F
100
AcDbEntity
  8
00_COMPONENTS_1
100
AcDbLine
 62
7
  6
CONTINUOUS
 10
53.5889854558
 20
112.6981560441
 11
62.6399899377
 21
107.4726743862
  0
LINE
  5
2A0
100
AcDbEntity
  8
00_COMPONENTS_1
100
AcDbLine
 62
7
  6
CONTINUOUS
 10
81.4487000041
 20
146.3372524127
 11
81.4487000041
 21
143.4794939528
  0
LINE
  5
2A1
100
AcDbEntity
  8
03_AXES_1
100
AcDbLine
 62
2
  6
CONTINUOUS
 10
38.5551847064
 20
59.2333109954
 11
38.2094893611
 21
59.0337248861
  0
LINE
  5
2A2
100
AcDbEntity
  8
00_COMPONENTS_1
100
AcDbLine
 62
7
  6
CONTINUOUS
 10
85.4794556556
 20
55.0122012365
 11
85.4794556556
 21
49.7865857669
  0
LINE
  5
2A3
100
AcDbEntity
  8
00_COMPONENTS_1
100
AcDbLine
 62
7
  6
CONTINUOUS
 10
85.4794556556
 20
113.8003752698
 11
85.4794556556
 21
119.0259907395
  0
LINE
  5
2A4
100
AcDbEntity
  8
00_COMPONENTS_1
100
AcDbLine
 62
7
  6
CONTINUOUS
 10
114.1868967095
 20
86.1189992527
 11
114.6111644438
 21
85.8740537035
  0
LINE
  5
2A5
100
AcDbEntity
  8
00_COMPONENTS_1
100
AcDbLine
 62
7
  6
CONTINUOUS
 10
114.6828440697
 20
85.9154377078
 11
114.1869021415
 21
86.201763436
  0
LINE
  5
2A6
100
AcDbEntity
  8
00_COMPONENTS_1
100
AcDbLine
 62
7
  6
CONTINUOUS
 10
114.1869021415
 20
87.1815537917
 11
115.107106372
 21
86.6502856504
  0
LINE
  5
2A7
100
AcDbEntity
  8
00_COMPONENTS_1
100
AcDbLine
 62
7
  6
CONTINUOUS
 10
114.1869021415
 20
88.3245035022
 11
115.107106372
 21
87.7932353609
  0
LINE
  5
2A8
100
AcDbEntity
  8
00_COMPONENTS_1
100
AcDbLine
 62
7
  6
CONTINUOUS
 10
114.1869021415
 20
88.9799266761
 11
115.3909133549
 21
88.2848062036
  0
LINE
  5
2A9
100
AcDbEntity
  8
00_COMPONENTS_1
100
AcDbLine
 62
7
  6
CONTINUOUS
 10
114.1869021415
 20
89.2248711288
 11
115.6030445061
 21
88.4072794498
  0
LINE
  5
2AA
100
AcDbEntity
  8
00_COMPONENTS_1
100
AcDbLine
 62
7
  6
CONTINUOUS
 10
91.206996737
 20
117.1071529162
 11
91.206996737
 21
112.5347393803
  0
LINE
  5
2AB
100
AcDbEntity
  8
00_COMPONENTS_1
100
AcDbLine
 62
7
  6
CONTINUOUS
 10
91.206996737
 20
63.0546929022
 11
91.206996737
 21
58.3189788829
  0
LINE
  5
2AC
100
AcDbEntity
  8
03_AXES_1
100
AcDbLine
 62
2
  6
CONTINUOUS
 10
92.1967483961
 20
143.6332211795
 11
92.1967483961
 21
145.1117792991
  0
LINE
  5
2AD
100
AcDbEntity
  8
00_COMPONENTS_1
100
AcDbLine
 62
7
  6
CONTINUOUS
 10
46.6948095956
 20
53.3591690409
 11
51.3263397294
 21
56.0331682487
  0
LINE
  5
2AE
100
AcDbEntity
  8
00_COMPONENTS_1
100
AcDbLine
 62
7
  6
CONTINUOUS
 10
45.8663617413
 20
51.5280252744
 11
50.497891875
 21
54.2020244822
  0
LINE
  5
2AF
100
AcDbEntity
  8
03_AXES_1
100
AcDbLine
 62
2
  6
CONTINUOUS
 10
49.4518630941
 20
53.2361997429
 11
47.4524630613
 21
52.0818524863
  0
LINE
  5
2B0
100
AcDbEntity
  8
00_COMPONENTS_1
100
AcDbLine
 62
7
  6
CONTINUOUS
 10
118.0769425511
 20
87.8353749275
 11
114.1869021415
 21
90.0812399969
  0
LINE
  5
2B1
100
AcDbEntity
  8
00_COMPONENTS_1
100
AcDbLine
 62
7
  6
CONTINUOUS
 10
114.9657081424
 20
117.5968303046
 11
114.7181784222
 21
117.1680938729
  0
LINE
  5
2B2
100
AcDbEntity
  8
00_COMPONENTS_1
100
AcDbLine
 62
7
  6
CONTINUOUS
 10
52.9173239519
 20
53.5224091939
 11
51.4677610856
 21
52.6855086784
  0
LINE
  5
2B3
100
AcDbEntity
  8
00_COMPONENTS_1
100
AcDbLine
 62
7
  6
CONTINUOUS
 10
115.6030445061
 20
88.4072794498
 11
115.3909133549
 21
88.2848062036
  0
LINE
  5
2B4
100
AcDbEntity
  8
00_COMPONENTS_1
100
AcDbLine
 62
7
  6
CONTINUOUS
 10
114.6828440697
 20
85.9154377078
 11
114.6111644438
 21
85.8740537035
  0
LINE
  5
2B5
100
AcDbEntity
  8
00_COMPONENTS_1
100
AcDbLine
 62
7
  6
CONTINUOUS
 10
98.3485812195
 20
142.8843405091
 11
98.3485812195
 21
144.7539476428
  0
LINE
  5
2B6
100
AcDbEntity
  8
00_COMPONENTS_1
100
AcDbLine
 62
7
  6
CONTINUOUS
 10
63.1703295915
 20
50.3787725949
 11
52.9173239519
 21
44.4592323637
  0
LINE
  5
2B7
100
AcDbEntity
  8
00_COMPONENTS_1
100
AcDbLine
 62
7
  6
CONTINUOUS
 10
71.1250805428
 20
127.2314859937
 11
74.0948411907
 21
125.5169326726
  0
LINE
  5
2B8
100
AcDbEntity
  8
00_COMPONENTS_1
100
AcDbLine
 62
7
  6
CONTINUOUS
 10
75.0142317234
 20
124.9861343094
 11
78.3375777447
 21
123.0674429959
  0
LINE
  5
2B9
100
AcDbEntity
  8
00_COMPONENTS_1
100
AcDbLine
 62
7
  6
CONTINUOUS
 10
53.800939969
 20
137.315176542
 11
55.2151594193
 21
136.4986950329
  0
LINE
  5
2BA
100
AcDbEntity
  8
00_COMPONENTS_1
100
AcDbLine
 62
7
  6
CONTINUOUS
 10
64.2661639012
 20
131.2732133751
 11
65.1146955714
 21
130.7833244696
  0
LINE
  5
2BB
100
AcDbEntity
  8
00_COMPONENTS_1
100
AcDbLine
 62
7
  6
CONTINUOUS
 10
74.1657000532
 20
125.5578428118
 11
75.0142317234
 21
125.0679539064
  0
LINE
  5
2BC
100
AcDbEntity
  8
00_COMPONENTS_1
100
AcDbLine
 62
7
  6
CONTINUOUS
 10
84.0652362053
 20
119.8424722485
 11
85.4794556556
 21
119.0259907395
  0
LINE
  5
2BD
100
AcDbEntity
  8
00_COMPONENTS_1
100
AcDbLine
 62
7
  6
CONTINUOUS
 10
91.206996737
 20
117.1071529162
 11
79.6103972446
 21
123.8023012903
  0
LINE
  5
2BE
100
AcDbEntity
  8
00_COMPONENTS_1
100
AcDbLine
 62
7
  6
CONTINUOUS
 10
71.1250805428
 20
128.7011903446
 11
59.5284810504
 21
135.3963387187
  0
LINE
  5
2BF
100
AcDbEntity
  8
03_AXES_1
100
AcDbLine
 62
2
  6
CONTINUOUS
 10
107.0460526242
 20
134.7087866966
 11
107.0460526242
 21
136.5387234541
  0
LINE
  5
2C0
100
AcDbEntity
  8
00_COMPONENTS_1
100
AcDbLine
 62
7
  6
CONTINUOUS
 10
113.1272156906
 20
75.7102616722
 11
91.206996737
 21
63.0546929022
  0
LINE
  5
2C1
100
AcDbEntity
  8
00_COMPONENTS_1
100
AcDbLine
 62
7
  6
CONTINUOUS
 10
113.1272156906
 20
72.8525032123
 11
118.0769425511
 21
75.7102122894
  0
LINE
  5
2C2
100
AcDbEntity
  8
00_COMPONENTS_1
100
AcDbLine
 62
7
  6
CONTINUOUS
 10
114.1869021415
 20
86.1190086615
 11
114.3111760417
 21
85.8443482448
  0
LINE
  5
2C3
100
AcDbEntity
  8
00_COMPONENTS_1
100
AcDbLine
 62
7
  6
CONTINUOUS
 10
115.107106372
 20
87.7932353609
 11
115.3909133549
 21
88.2848062036
  0
LINE
  5
2C4
100
AcDbEntity
  8
00_COMPONENTS_1
100
AcDbLine
 62
7
  6
CONTINUOUS
 10
85.4794556556
 20
55.0122012365
 11
91.206996737
 21
58.3189788829
  0
LINE
  5
2C5
100
AcDbEntity
  8
00_COMPONENTS_1
100
AcDbLine
 62
7
  6
CONTINUOUS
 10
113.6928987604
 20
114.8698371299
 11
114.0889954563
 21
114.6411557694
  0
LINE
  5
2C6
100
AcDbEntity
  8
00_COMPONENTS_1
100
AcDbLine
 62
7
  6
CONTINUOUS
 10
113.1272156906
 20
72.8525032123
 11
113.1272156906
 21
75.7102616722
  0
LINE
  5
2C7
100
AcDbEntity
  8
00_COMPONENTS_1
100
AcDbLine
 62
7
  6
CONTINUOUS
 10
113.1272156906
 20
125.1903081503
 11
113.1272156906
 21
130.7917221543
  0
LINE
  5
2C8
100
AcDbEntity
  8
00_COMPONENTS_1
100
AcDbLine
 62
7
  6
CONTINUOUS
 10
113.6928987604
 20
114.4124706004
 11
113.6928987604
 21
116.8619778518
  0
LINE
  5
2C9
100
AcDbEntity
  8
00_COMPONENTS_1
100
AcDbLine
 62
7
  6
CONTINUOUS
 10
114.1869021415
 20
86.1190086615
 11
114.1869021415
 21
113.9628297076
  0
LINE
  5
2CA
100
AcDbEntity
  8
00_COMPONENTS_1
100
AcDbLine
 62
7
  6
CONTINUOUS
 10
115.107106372
 20
87.7932353609
 11
115.107106372
 21
86.6502856504
  0
LINE
  5
2CB
100
AcDbEntity
  8
00_COMPONENTS_1
100
AcDbLine
 62
7
  6
CONTINUOUS
 10
118.0769425511
 20
133.6494312314
 11
118.0769425511
 21
119.3930916058
  0
LINE
  5
2CC
100
AcDbEntity
  8
00_COMPONENTS_1
100
AcDbLine
 62
7
  6
CONTINUOUS
 10
118.0769425511
 20
87.8353749275
 11
118.0769425511
 21
75.7102122894
  0
LINE
  5
2CD
100
AcDbEntity
  8
00_COMPONENTS_1
100
AcDbLine
 62
7
  6
CONTINUOUS
 10
63.1703295915
 20
36.9064827122
 11
85.4794556556
 21
49.7865857669
  0
LINE
  5
2CE
100
AcDbEntity
  8
00_COMPONENTS_1
100
AcDbLine
 62
7
  6
CONTINUOUS
 10
81.4487000041
 20
143.4794939528
 11
86.2468521474
 21
140.7093421904
  0
LINE
  5
2CF
100
AcDbEntity
  8
00_COMPONENTS_1
100
AcDbLine
 62
7
  6
CONTINUOUS
 10
108.3290635473
 20
127.9604599126
 11
113.1272156906
 21
125.1903081503
  0
LINE
  5
2D0
100
AcDbEntity
  8
00_COMPONENTS_1
100
AcDbLine
 62
7
  6
CONTINUOUS
 10
114.0889954563
 20
114.6411557694
 11
114.1869021415
 21
113.9628297076
  0
LWPOLYLINE
  5
2D1
100
AcDbEntity
  8
00_COMPONENTS_1
100
AcDbPolyline
 62
7
  6
CONTINUOUS
 90
4
 70
0
 10
107.273887266
 20
128.8235821783
 10
99.5382392176
 20
135.1512548035
 10
95.0376764771
 20
137.7495971309
 10
86.2468521474
 20
140.7093421904
  0
ARC
  5
2D2
100
AcDbEntity
  8
00_COMPONENTS_1
100
AcDbCircle
 62
7
  6
CONTINUOUS
 10
112.379116883
 20
228.534266618
 40
152.7568433971
100
AcDbArc
 50
244.0146962442
 51
246.7805330219
  0
ARC
  5
2D3
100
AcDbEntity
  8
00_COMPONENTS_1
100
AcDbCircle
 62
7
  6
CONTINUOUS
 10
119.370449208
 20
229.8592047386
 40
147.4824757958
100
AcDbArc
 50
243.4537324429
 51
243.783611647
  0
ARC
  5
2D4
100
AcDbEntity
  8
00_COMPONENTS_1
100
AcDbCircle
 62
7
  6
CONTINUOUS
 10
115.0472590086
 20
220.665798019
 40
138.0560350428
100
AcDbArc
 50
240.1882653568
 51
243.154142186
  0
ARC
  5
2D5
100
AcDbEntity
  8
00_COMPONENTS_1
100
AcDbCircle
 62
7
  6
CONTINUOUS
 10
105.5089151605
 20
214.8015178776
 40
137.4007555934
100
AcDbArc
 50
240.3857454477
 51
243.3546513333
  0
ARC
  5
2D6
100
AcDbEntity
  8
00_COMPONENTS_1
100
AcDbCircle
 62
7
  6
CONTINUOUS
 10
103.4889356791
 20
212.4389630338
 40
135.4051652313
100
AcDbArc
 50
240.4196039378
 51
241.0344305441
  0
ARC
  5
2D7
100
AcDbEntity
  8
00_COMPONENTS_1
100
AcDbCircle
 62
7
  6
CONTINUOUS
 10
102.4585308258
 20
210.6178935096
 40
133.3127933485
100
AcDbArc
 50
240.1216877388
 51
240.4183770005
  0
ARC
  5
2D8
100
AcDbEntity
  8
00_COMPONENTS_1
100
AcDbCircle
 62
7
  6
CONTINUOUS
 10
112.1855483011
 20
216.4374972698
 40
132.2561408036
100
AcDbArc
 50
239.8237006188
 51
240.1774219075
  0
ARC
  5
2D9
100
AcDbEntity
  8
00_COMPONENTS_1
100
AcDbCircle
 62
7
  6
CONTINUOUS
 10
101.3785412044
 20
208.7450037952
 40
131.1508256323
100
AcDbArc
 50
239.3488226895
 51
240.0010868704
  0
ARC
  5
2DA
100
AcDbEntity
  8
00_COMPONENTS_1
100
AcDbCircle
 62
7
  6
CONTINUOUS
 10
97.9664215455
 20
201.8684977951
 40
122.4282291053
100
AcDbArc
 50
236.4730052489
 51
239.6611174573
  0
ARC
  5
2DB
100
AcDbEntity
  8
00_COMPONENTS_1
100
AcDbCircle
 62
7
  6
CONTINUOUS
 10
62.4147494118
 20
81.5367760327
 40
65.2938179885
100
AcDbArc
 50
45.3160610059
 51
46.5563572308
  0
ARC
  5
2DC
100
AcDbEntity
  8
00_COMPONENTS_1
100
AcDbCircle
 62
7
  6
CONTINUOUS
 10
107.3864302829
 20
138.2241380157
 40
3.5890790165
100
AcDbArc
 50
270.973150913
 51
273.3771140762
  0
ARC
  5
2DD
100
AcDbEntity
  8
00_COMPONENTS_1
100
AcDbCircle
 62
7
  6
CONTINUOUS
 10
108.4431220071
 20
136.0940854271
 40
1.1029283946
100
AcDbArc
 50
341.1443125252
 51
359.9724802091
  0
SPLINE
  5
2DE
100
AcDbEntity
  8
00_COMPONENTS_1
100
AcDbSpline
 62
7
  6
CONTINUOUS
 70
0
 71
3
 72
15
 73
11
 74
0
 42
0.0000001
 43
0.0000001
 44
0.0000000001
 40
0.0
 40
0.0
 40
0.0
 40
0.0
 40
0.1141546703
 40
0.2373261017
 40
0.3669753162
 40
0.4999989361
 40
0.6330227034
 40
0.7626723508
 40
0.8858444607
 40
1.0
 40
1.0
 40
1.0
 40
1.0
 10
18.0568657272
 20
66.6269099304
 30
0.0
 10
17.8632364436
 20
66.7386993204
 30
0.0
 10
17.4807838441
 20
67.0067917537
 30
0.0
 10
16.954549579
 20
67.499119909
 30
0.0
 10
16.4695962721
 20
68.0810892012
 30
0.0
 10
16.0441899435
 20
68.7308680966
 30
0.0
 10
15.6941644273
 20
69.4241693338
 30
0.0
 10
15.4326363339
 20
70.1351367937
 30
0.0
 10
15.2693794586
 20
70.8370358295
 30
0.0
 10
15.2284268266
 20
71.3022983414
 30
0.0
 10
15.2284268266
 20
71.525882617
 30
0.0
  0
SPLINE
  5
2DF
100
AcDbEntity
  8
00_COMPONENTS_1
100
AcDbSpline
 62
7
  6
CONTINUOUS
 70
0
 71
3
 72
12
 73
8
 74
0
 42
0.0000001
 43
0.0000001
 44
0.0000000001
 40
0.0
 40
0.0
 40
0.0
 40
0.0
 40
0.289581202
 40
0.5486347013
 40
0.7816368512
 40
0.8918382666
 40
1.0
 40
1.0
 40
1.0
 40
1.0
 10
15.2284268266
 20
88.9745392711
 30
0.0
 10
15.2284268266
 20
89.1772829896
 30
0.0
 10
15.2591450406
 20
89.5627743747
 30
0.0
 10
15.4150195793
 20
90.0921040541
 30
0.0
 10
15.6389954425
 20
90.4573413994
 30
0.0
 10
15.8652223043
 20
90.6797890322
 30
0.0
 10
15.9912965026
 20
90.7678137994
 30
0.0
 10
16.0568780953
 20
90.8056771236
 30
0.0
  0
SPLINE
  5
2E0
100
AcDbEntity
  8
00_COMPONENTS_1
100
AcDbSpline
 62
7
  6
CONTINUOUS
 70
0
 71
3
 72
11
 73
7
 74
0
 42
0.0000001
 43
0.0000001
 44
0.0000000001
 40
0.0
 40
0.0
 40
0.0
 40
0.0
 40
0.2177498889
 40
0.4508926554
 40
0.7104640787
 40
1.0
 40
1.0
 40
1.0
 40
1.0
 10
38.5594715333
 20
58.4275343622
 30
0.0
 10
38.5825584059
 20
58.4408634975
 30
0.0
 10
38.6257973988
 20
58.477131882
 30
0.0
 10
38.6717892577
 20
58.5523720658
 30
0.0
 10
38.6990559665
 20
58.6450601366
 30
0.0
 10
38.7044661581
 20
58.7125094499
 30
0.0
 10
38.7044661687
 20
58.747956358
 30
0.0
  0
SPLINE
  5
2E1
100
AcDbEntity
  8
00_COMPONENTS_1
100
AcDbSpline
 62
7
  6
CONTINUOUS
 70
0
 71
3
 72
15
 73
11
 74
0
 42
0.0000001
 43
0.0000001
 44
0.0000000001
 40
0.0
 40
0.0
 40
0.0
 40
0.0
 40
0.1141555516
 40
0.2373276756
 40
0.3669773296
 40
0.5000011
 40
0.6330247168
 40
0.7626739247
 40
0.885845342
 40
1.0
 40
1.0
 40
1.0
 40
1.0
 10
51.3263397294
 20
73.4818249028
 30
0.0
 10
51.3263397294
 20
73.7054092025
 30
0.0
 10
51.2853870839
 20
74.1706717656
 30
0.0
 10
51.1221301849
 20
74.8725708626
 30
0.0
 10
50.8606020516
 20
75.5835383578
 30
0.0
 10
50.5105765119
 20
76.2768395973
 30
0.0
 10
50.0851701736
 20
76.9266184713
 30
0.0
 10
49.6002168773
 20
77.5085877112
 30
0.0
 10
49.0739826534
 20
78.0009158154
 30
0.0
 10
48.6915300914
 20
78.2690082115
 30
0.0
 10
48.4979008288
 20
78.3807975894
 30
0.0
  0
SPLINE
  5
2E2
100
AcDbEntity
  8
00_COMPONENTS_1
100
AcDbSpline
 62
7
  6
CONTINUOUS
 70
0
 71
3
 72
12
 73
8
 74
0
 42
0.0000001
 43
0.0000001
 44
0.0000000001
 40
0.0
 40
0.0
 40
0.0
 40
0.0
 40
0.2895802184
 40
0.5486333627
 40
0.7816359182
 40
0.8918377609
 40
1.0
 40
1.0
 40
1.0
 40
1.0
 10
22.6883958609
 20
93.2815851294
 30
0.0
 10
22.5128189523
 20
93.3829522116
 30
0.0
 10
22.1636231552
 20
93.5490869694
 30
0.0
 10
21.6272869278
 20
93.6787524377
 30
0.0
 10
21.1990055764
 20
93.6674004261
 30
0.0
 10
20.8932542014
 20
93.5827079622
 30
0.0
 10
20.7539883768
 20
93.5175388135
 30
0.0
 10
20.6884082291
 20
93.4796763315
 30
0.0
  0
SPLINE
  5
2E3
100
AcDbEntity
  8
00_COMPONENTS_1
100
AcDbSpline
 62
7
  6
CONTINUOUS
 70
0
 71
3
 72
12
 73
8
 74
0
 42
0.0000001
 43
0.0000001
 44
0.0000000001
 40
0.0
 40
0.0
 40
0.0
 40
0.0
 40
0.1081617394
 40
0.2183631591
 40
0.4513653165
 40
0.7104188067
 40
1.0
 40
1.0
 40
1.0
 40
1.0
 10
50.4978884606
 20
54.2020303962
 30
0.0
 10
50.5634700604
 20
54.2398937165
 30
0.0
 10
50.6895442595
 20
54.3279184968
 30
0.0
 10
50.9157711336
 20
54.5503661342
 30
0.0
 10
51.1397469841
 20
54.9156034918
 30
0.0
 10
51.295621523
 20
55.4449331621
 30
0.0
 10
51.3263397294
 20
55.8304245361
 30
0.0
 10
51.3263397294
 20
56.0331682487
 30
0.0
  0
SPLINE
  5
2E4
100
AcDbEntity
  8
00_COMPONENTS_1
100
AcDbSpline
 62
7
  6
CONTINUOUS
 70
0
 71
3
 72
12
 73
8
 74
0
 42
0.0000001
 43
0.0000001
 44
0.0000000001
 40
0.0
 40
0.0
 40
0.0
 40
0.0
 40
0.108162245
 40
0.2183640921
 40
0.4513666551
 40
0.7104197903
 40
1.0
 40
1.0
 40
1.0
 40
1.0
 10
45.8663583269
 20
51.5280311883
 30
0.0
 10
45.8007781789
 20
51.4901686982
 30
0.0
 10
45.6615123426
 20
51.4249995554
 30
0.0
 10
45.3557609575
 20
51.3403070832
 30
0.0
 10
44.9274796017
 20
51.3289550886
 30
0.0
 10
44.3911433822
 20
51.4586205523
 30
0.0
 10
44.0419475985
 20
51.6247553111
 30
0.0
 10
43.866370695
 20
51.7261223904
 30
0.0
  0
SPLINE
  5
2E5
100
AcDbEntity
  8
00_COMPONENTS_1
100
AcDbSpline
 62
7
  6
CONTINUOUS
 70
0
 71
3
 72
11
 73
7
 74
0
 42
0.0000001
 43
0.0000001
 44
0.0000000001
 40
0.0
 40
0.0
 40
0.0
 40
0.0
 40
0.2372480934
 40
0.5000010914
 40
0.7627534954
 40
1.0
 40
1.0
 40
1.0
 40
1.0
 10
38.7044661687
 20
58.747956358
 30
0.0
 10
38.7044661928
 20
58.8291026251
 30
0.0
 10
38.6740443841
 20
59.0002342422
 30
0.0
 10
38.567921512
 20
59.2406713502
 30
0.0
 10
38.4127576731
 20
59.4527938813
 30
0.0
 10
38.2797640166
 20
59.5647044047
 30
0.0
 10
38.2094893611
 20
59.6052765781
 30
0.0
  0
SPLINE
  5
2E6
100
AcDbEntity
  8
00_COMPONENTS_1
100
AcDbSpline
 62
7
  6
CONTINUOUS
 70
0
 71
3
 72
11
 73
7
 74
0
 42
0.0000001
 43
0.0000001
 44
0.0000000001
 40
0.0
 40
0.0
 40
0.0
 40
0.0
 40
0.2895349057
 40
0.5491059956
 40
0.7822491655
 40
1.0
 40
1.0
 40
1.0
 40
1.0
 10
38.2094893611
 20
59.6052765781
 30
0.0
 10
38.1787921929
 20
59.6229991955
 30
0.0
 10
38.1176757858
 20
59.6520370532
 30
0.0
 10
38.0237746571
 20
59.674766011
 30
0.0
 10
37.9356210978
 20
59.6725555826
 30
0.0
 10
37.8825935435
 20
59.6532442464
 30
0.0
 10
37.8595071879
 20
59.6399154095
 30
0.0
  0
SPLINE
  5
2E7
100
AcDbEntity
  8
00_COMPONENTS_1
100
AcDbSpline
 62
7
  6
CONTINUOUS
 70
0
 71
3
 72
11
 73
7
 74
0
 42
0.0000001
 43
0.0000001
 44
0.0000000001
 40
0.0
 40
0.0
 40
0.0
 40
0.0
 40
0.2372480798
 40
0.5000010764
 40
0.7627534882
 40
1.0
 40
1.0
 40
1.0
 40
1.0
 10
37.7145125535
 20
59.3194935602
 30
0.0
 10
37.7145125499
 20
59.2383472862
 30
0.0
 10
37.7449342718
 20
59.0672156421
 30
0.0
 10
37.8510571739
 20
58.8267784969
 30
0.0
 10
38.0062210143
 20
58.6146559207
 30
0.0
 10
38.1392146935
 20
58.5027453745
 30
0.0
 10
38.2094893611
 20
58.4621731941
 30
0.0
  0
SPLINE
  5
2E8
100
AcDbEntity
  8
00_COMPONENTS_1
100
AcDbSpline
 62
7
  6
CONTINUOUS
 70
0
 71
3
 72
9
 73
5
 74
0
 42
0.0000001
 43
0.0000001
 44
0.0000000001
 40
0.0
 40
0.0
 40
0.0
 40
0.0
 40
0.4998511493
 40
1.0
 40
1.0
 40
1.0
 40
1.0
 10
38.6300097546
 20
59.0114657935
 30
0.0
 10
38.5797320089
 20
59.0686335832
 30
0.0
 10
38.4908479711
 20
59.1936222015
 30
0.0
 10
38.4265362028
 20
59.3328527658
 30
0.0
 10
38.4018612995
 20
59.4049226144
 30
0.0
  0
SPLINE
  5
2E9
100
AcDbEntity
  8
00_COMPONENTS_1
100
AcDbSpline
 62
7
  6
CONTINUOUS
 70
0
 71
3
 72
11
 73
7
 74
0
 42
0.0000001
 43
0.0000001
 44
0.0000000001
 40
0.0
 40
0.0
 40
0.0
 40
0.0
 40
0.2895349065
 40
0.5491059976
 40
0.7822491683
 40
1.0
 40
1.0
 40
1.0
 40
1.0
 10
38.2094893611
 20
58.4621731941
 30
0.0
 10
38.2401865293
 20
58.4444505768
 30
0.0
 10
38.3013029363
 20
58.415412719
 30
0.0
 10
38.3952040652
 20
58.3926837614
 30
0.0
 10
38.483357624
 20
58.3948941898
 30
0.0
 10
38.536385178
 20
58.4142055255
 30
0.0
 10
38.5594715333
 20
58.4275343622
 30
0.0
  0
SPLINE
  5
2EA
100
AcDbEntity
  8
00_COMPONENTS_1
100
AcDbSpline
 62
7
  6
CONTINUOUS
 70
0
 71
3
 72
11
 73
7
 74
0
 42
0.0000001
 43
0.0000001
 44
0.0000000001
 40
0.0
 40
0.0
 40
0.0
 40
0.0
 40
0.2177498979
 40
0.4508926639
 40
0.7104641134
 40
1.0
 40
1.0
 40
1.0
 40
1.0
 10
37.8595071879
 20
59.6399154095
 30
0.0
 10
37.8364203235
 20
59.6265862789
 30
0.0
 10
37.7931813443
 20
59.5903179113
 30
0.0
 10
37.7471894964
 20
59.5150777581
 30
0.0
 10
37.7199227638
 20
59.4223897373
 30
0.0
 10
37.7145125551
 20
59.35494045
 30
0.0
 10
37.7145125535
 20
59.3194935602
 30
0.0
  0
SPLINE
  5
2EB
100
AcDbEntity
  8
00_COMPONENTS_1
100
AcDbSpline
 62
7
  6
CONTINUOUS
 70
0
 71
3
 72
12
 73
8
 74
0
 42
0.0000001
 43
0.0000001
 44
0.0000000001
 40
0.0
 40
0.0
 40
0.0
 40
0.0
 40
0.289581202
 40
0.5486347013
 40
0.7816368512
 40
0.8918382666
 40
1.0
 40
1.0
 40
1.0
 40
1.0
 10
46.6948095956
 20
53.3591690409
 30
0.0
 10
46.6948095956
 20
53.1564253223
 30
0.0
 10
46.6640913816
 20
52.7709339372
 30
0.0
 10
46.5082168428
 20
52.2416042579
 30
0.0
 10
46.2842409797
 20
51.8763669126
 30
0.0
 10
46.0580141179
 20
51.6539192797
 30
0.0
 10
45.9319399196
 20
51.5658945125
 30
0.0
 10
45.8663583269
 20
51.5280311883
 30
0.0
  0
SPLINE
  5
2EC
100
AcDbEntity
  8
00_COMPONENTS_1
100
AcDbSpline
 62
7
  6
CONTINUOUS
 70
0
 71
3
 72
12
 73
8
 74
0
 42
0.0000001
 43
0.0000001
 44
0.0000000001
 40
0.0
 40
0.0
 40
0.0
 40
0.0
 40
0.108162245
 40
0.2183640921
 40
0.4513666551
 40
0.7104197903
 40
1.0
 40
1.0
 40
1.0
 40
1.0
 10
16.0568780953
 20
90.8056771236
 30
0.0
 10
16.1224582433
 20
90.8435396137
 30
0.0
 10
16.2617240796
 20
90.9087087566
 30
0.0
 10
16.5674754646
 20
90.9934012288
 30
0.0
 10
16.9957568205
 20
91.0047532233
 30
0.0
 10
17.53209304
 20
90.8750877597
 30
0.0
 10
17.8812888236
 20
90.7089530008
 30
0.0
 10
18.0568657272
 20
90.6075859215
 30
0.0
  0
SPLINE
  5
2ED
100
AcDbEntity
  8
00_COMPONENTS_1
100
AcDbSpline
 62
7
  6
CONTINUOUS
 70
0
 71
3
 72
15
 73
11
 74
0
 42
0.0000001
 43
0.0000001
 44
0.0000000001
 40
0.0
 40
0.0
 40
0.0
 40
0.0
 40
0.1141546703
 40
0.2373261017
 40
0.3669753162
 40
0.4999989361
 40
0.6330227034
 40
0.7626723508
 40
0.8858444607
 40
1.0
 40
1.0
 40
1.0
 40
1.0
 10
43.866370695
 20
75.7067983815
 30
0.0
 10
44.0599999785
 20
75.5950089916
 30
0.0
 10
44.4424525781
 20
75.3269165582
 30
0.0
 10
44.9686868432
 20
74.8345884029
 30
0.0
 10
45.4536401501
 20
74.2526191108
 30
0.0
 10
45.8790464786
 20
73.6028402154
 30
0.0
 10
46.2290719949
 20
72.9095389782
 30
0.0
 10
46.4906000883
 20
72.1985715183
 30
0.0
 10
46.6538569636
 20
71.4966724825
 30
0.0
 10
46.6948095956
 20
71.0314099705
 30
0.0
 10
46.6948095956
 20
70.8078256949
 30
0.0
  0
SPLINE
  5
2EE
100
AcDbEntity
  8
00_COMPONENTS_1
100
AcDbSpline
 62
7
  6
CONTINUOUS
 70
0
 71
3
 72
15
 73
11
 74
0
 42
0.0000001
 43
0.0000001
 44
0.0000000001
 40
0.0
 40
0.0
 40
0.0
 40
0.0
 40
0.1141474747
 40
0.2373368194
 40
0.366977659
 40
0.5000010823
 40
0.633024354
 40
0.7626647562
 40
0.8858534048
 40
1.0
 40
1.0
 40
1.0
 40
1.0
 10
39.058024564
 20
58.0539450357
 30
0.0
 10
39.0580246189
 20
58.1545506652
 30
0.0
 10
39.0395839251
 20
58.3639248241
 30
0.0
 10
38.9661369333
 20
58.6797838629
 30
0.0
 10
38.848423382
 20
58.9997167068
 30
0.0
 10
38.6909308374
 20
59.3117014344
 30
0.0
 10
38.4994892313
 20
59.6040851134
 30
0.0
 10
38.2812753852
 20
59.865992452
 30
0.0
 10
38.0444568118
 20
60.0875262388
 30
0.0
 10
37.8723539112
 20
60.2081811709
 30
0.0
 10
37.7852270588
 20
60.2584827446
 30
0.0
  0
SPLINE
  5
2EF
100
AcDbEntity
  8
00_COMPONENTS_1
100
AcDbSpline
 62
7
  6
CONTINUOUS
 70
0
 71
3
 72
15
 73
11
 74
0
 42
0.0000001
 43
0.0000001
 44
0.0000000001
 40
0.0
 40
0.0
 40
0.0
 40
0.0
 40
0.1448871796
 40
0.2745334153
 40
0.3911109734
 40
0.4999980164
 40
0.608885419
 40
0.7254639349
 40
0.8551114618
 40
1.0
 40
1.0
 40
1.0
 40
1.0
 10
37.7852270588
 20
60.2584827446
 30
0.0
 10
37.7062239176
 20
60.3040941976
 30
0.0
 10
37.5491055694
 20
60.3788632831
 30
0.0
 10
37.3076388741
 20
60.4371589313
 30
0.0
 10
37.0809115657
 20
60.4313555911
 30
0.0
 10
36.8791159526
 20
60.3581994289
 30
0.0
 10
36.7148661248
 20
60.2200128719
 30
0.0
 10
36.596479814
 20
60.026559176
 30
0.0
 10
36.5262350023
 20
59.7882918662
 30
0.0
 10
36.5124296032
 20
59.6148370611
 30
0.0
 10
36.5124295535
 20
59.523611752
 30
0.0
  0
SPLINE
  5
2F0
100
AcDbEntity
  8
00_COMPONENTS_1
100
AcDbSpline
 62
7
  6
CONTINUOUS
 70
0
 71
3
 72
15
 73
11
 74
0
 42
0.0000001
 43
0.0000001
 44
0.0000000001
 40
0.0
 40
0.0
 40
0.0
 40
0.0
 40
0.1141474747
 40
0.2373368194
 40
0.366977659
 40
0.5000010823
 40
0.633024354
 40
0.7626647562
 40
0.8858534048
 40
1.0
 40
1.0
 40
1.0
 40
1.0
 10
36.5124295535
 20
59.523611752
 30
0.0
 10
36.5124294986
 20
59.4230061224
 30
0.0
 10
36.5308701925
 20
59.2136319635
 30
0.0
 10
36.6043171842
 20
58.8977729247
 30
0.0
 10
36.7220307355
 20
58.5778400808
 30
0.0
 10
36.8795232802
 20
58.2658553532
 30
0.0
 10
37.0709648862
 20
57.9734716742
 30
0.0
 10
37.2891787323
 20
57.7115643356
 30
0.0
 10
37.5259973057
 20
57.4900305488
 30
0.0
 10
37.6981002063
 20
57.3693756167
 30
0.0
 10
37.7852270588
 20
57.319074043
 30
0.0
  0
SPLINE
  5
2F1
100
AcDbEntity
  8
00_COMPONENTS_1
100
AcDbSpline
 62
7
  6
CONTINUOUS
 70
0
 71
3
 72
15
 73
11
 74
0
 42
0.0000001
 43
0.0000001
 44
0.0000000001
 40
0.0
 40
0.0
 40
0.0
 40
0.0
 40
0.1448871796
 40
0.2745334153
 40
0.3911109734
 40
0.4999980164
 40
0.608885419
 40
0.7254639349
 40
0.8551114618
 40
1.0
 40
1.0
 40
1.0
 40
1.0
 10
37.7852270588
 20
57.319074043
 30
0.0
 10
37.8642302
 20
57.27346259
 30
0.0
 10
38.0213485481
 20
57.1986935046
 30
0.0
 10
38.2628152434
 20
57.1403978563
 30
0.0
 10
38.4895425518
 20
57.1462011965
 30
0.0
 10
38.6913381649
 20
57.2193573587
 30
0.0
 10
38.8555879927
 20
57.3575439157
 30
0.0
 10
38.9739743035
 20
57.5509976116
 30
0.0
 10
39.0442191152
 20
57.7892649214
 30
0.0
 10
39.0580245143
 20
57.9627197265
 30
0.0
 10
39.058024564
 20
58.0539450357
 30
0.0
  0
SPLINE
  5
2F2
100
AcDbEntity
  8
00_COMPONENTS_1
100
AcDbSpline
 62
7
  6
CONTINUOUS
 70
0
 71
3
 72
14
 73
10
 74
0
 42
0.0000001
 43
0.0000001
 44
0.0000000001
 40
0.0
 40
0.0
 40
0.0
 40
0.0
 40
0.094691572
 40
0.197149245
 40
0.3105146207
 40
0.4351938722
 40
0.5697258734
 40
0.7112327037
 40
1.0
 40
1.0
 40
1.0
 40
1.0
 10
104.5463076054
 20
136.4758394818
 30
0.0
 10
104.5463357721
 20
136.3575977426
 30
0.0
 10
104.5897308452
 20
136.1099830243
 30
0.0
 10
104.7719688571
 20
135.762428149
 30
0.0
 10
105.0569682793
 20
135.4423081112
 30
0.0
 10
105.4306029453
 20
135.1609588078
 30
0.0
 10
105.8766294504
 20
134.929459335
 30
0.0
 10
106.5445844422
 20
134.6984060091
 30
0.0
 10
107.0868547065
 20
134.6294038349
 30
0.0
 10
107.4473867377
 20
134.6355766748
 30
0.0
  0
SPLINE
  5
2F3
100
AcDbEntity
  8
00_COMPONENTS_1
100
AcDbSpline
 62
7
  6
CONTINUOUS
 70
0
 71
3
 72
18
 73
14
 74
0
 42
0.0000001
 43
0.0000001
 44
0.0000000001
 40
0.0
 40
0.0
 40
0.0
 40
0.0
 40
0.037216923
 40
0.0761396328
 40
0.1189282889
 40
0.1669153871
 40
0.220644811
 40
0.2800934606
 40
0.4141359719
 40
0.5625493515
 40
0.7161789148
 40
0.8650039617
 40
1.0
 40
1.0
 40
1.0
 40
1.0
 10
89.6967936553
 20
144.6666226471
 30
0.0
 10
89.696750574
 20
144.6070660963
 30
0.0
 10
89.7157054787
 20
144.4844209414
 30
0.0
 10
89.8003202307
 20
144.3112954378
 30
0.0
 10
89.9366918412
 20
144.1524575053
 30
0.0
 10
90.1200779355
 20
144.0096867904
 30
0.0
 10
90.3464440738
 20
143.8843607854
 30
0.0
 10
90.7147157564
 20
143.7375773421
 30
0.0
 10
91.2525845954
 20
143.6193970269
 30
0.0
 10
91.95148414
 20
143.5787674607
 30
0.0
 10
92.6730955445
 20
143.6403199419
 30
0.0
 10
93.3563376251
 20
143.8035999236
 30
0.0
 10
93.7774366228
 20
143.9831638553
 30
0.0
 10
93.964522709
 20
144.0911774128
 30
0.0
  0
SPLINE
  5
2F4
100
AcDbEntity
  8
00_COMPONENTS_1
100
AcDbSpline
 62
7
  6
CONTINUOUS
 70
0
 71
3
 72
11
 73
7
 74
0
 42
0.0000001
 43
0.0000001
 44
0.0000000001
 40
0.0
 40
0.0
 40
0.0
 40
0.0
 40
0.2177660095
 40
0.4508968553
 40
0.7103699668
 40
1.0
 40
1.0
 40
1.0
 40
1.0
 10
110.7873492908
 20
129.0797299053
 30
0.0
 10
110.8615459425
 20
129.122606414
 30
0.0
 10
111.0004830778
 20
129.2392331714
 30
0.0
 10
111.1482984746
 20
129.4810276428
 30
0.0
 10
111.2360500809
 20
129.7789220313
 30
0.0
 10
111.253374919
 20
129.9957334085
 30
0.0
 10
111.253374919
 20
130.1097075103
 30
0.0
  0
SPLINE
  5
2F5
100
AcDbEntity
  8
00_COMPONENTS_1
100
AcDbSpline
 62
7
  6
CONTINUOUS
 70
0
 71
3
 72
11
 73
7
 74
0
 42
0.0000001
 43
0.0000001
 44
0.0000000001
 40
0.0
 40
0.0
 40
0.0
 40
0.0
 40
0.2090866699
 40
0.4397116242
 40
0.7023521678
 40
1.0
 40
1.0
 40
1.0
 40
1.0
 10
38.4738147785
 20
108.8237372314
 30
0.0
 10
38.5966792671
 20
108.8946174486
 30
0.0
 10
38.8271646608
 20
109.0956020013
 30
0.0
 10
39.0680630327
 20
109.5140539229
 30
0.0
 10
39.2116049655
 20
110.0355431819
 30
0.0
 10
39.2395456211
 20
110.4167990298
 30
0.0
 10
39.2395456211
 20
110.6187225906
 30
0.0
  0
SPLINE
  5
2F6
100
AcDbEntity
  8
00_COMPONENTS_1
100
AcDbSpline
 62
7
  6
CONTINUOUS
 70
0
 71
3
 72
19
 73
15
 74
0
 42
0.0000001
 43
0.0000001
 44
0.0000000001
 40
0.0
 40
0.0
 40
0.0
 40
0.0
 40
0.0385238288
 40
0.0787838155
 40
0.122753798
 40
0.171686214
 40
0.2260985809
 40
0.2859783823
 40
0.3509189014
 40
0.4201875183
 40
0.5676940242
 40
0.7197060103
 40
0.8666493368
 40
1.0
 40
1.0
 40
1.0
 40
1.0
 10
34.8751020827
 20
115.9836535371
 30
0.0
 10
34.9612446378
 20
116.0333565352
 30
0.0
 10
35.1536151051
 20
116.1093303377
 30
0.0
 10
35.4728923175
 20
116.1375878926
 30
0.0
 10
35.8152548547
 20
116.0836884083
 30
0.0
 10
36.17384172
 20
115.9513270571
 30
0.0
 10
36.5427188045
 20
115.7447725637
 30
0.0
 10
36.9150557948
 20
115.468304562
 30
0.0
 10
37.2834948642
 20
115.1274728297
 30
0.0
 10
37.7694354531
 20
114.5852293188
 30
0.0
 10
38.3118071404
 20
113.7974344048
 30
0.0
 10
38.8186135049
 20
112.7574934084
 30
0.0
 10
39.1498400207
 20
111.6871938524
 30
0.0
 10
39.2395456211
 20
110.9629807582
 30
0.0
 10
39.2395456211
 20
110.6187225906
 30
0.0
  0
SPLINE
  5
2F7
100
AcDbEntity
  8
00_COMPONENTS_1
100
AcDbSpline
 62
7
  6
CONTINUOUS
 70
0
 71
3
 72
9
 73
5
 74
0
 42
0.0000001
 43
0.0000001
 44
0.0000000001
 40
0.0
 40
0.0
 40
0.0
 40
0.0
 40
0.2353337881
 40
1.0
 40
1.0
 40
1.0
 40
1.0
 10
59.6062491435
 20
46.6063449145
 30
0.0
 10
59.6062491435
 20
46.7286684122
 30
0.0
 10
59.5775102999
 20
47.2483977803
 30
0.0
 10
59.4444825736
 20
47.7594464825
 30
0.0
 10
59.3031509003
 20
48.1309337313
 30
0.0
  0
SPLINE
  5
2F8
100
AcDbEntity
  8
00_COMPONENTS_1
100
AcDbSpline
 62
7
  6
CONTINUOUS
 70
0
 71
3
 72
11
 73
7
 74
0
 42
0.0000001
 43
0.0000001
 44
0.0000000001
 40
0.0
 40
0.0
 40
0.0
 40
0.0
 40
0.2198368598
 40
0.4539369289
 40
0.7125454508
 40
1.0
 40
1.0
 40
1.0
 40
1.0
 10
48.0784637161
 20
102.9381144752
 30
0.0
 10
48.2129614535
 20
103.0157140083
 30
0.0
 10
48.4644684844
 20
103.2255888092
 30
0.0
 10
48.7342072317
 20
103.6585420399
 30
0.0
 10
48.895286538
 20
104.1908147135
 30
0.0
 10
48.9270578642
 20
104.5779017989
 30
0.0
 10
48.9270578642
 20
104.7809406971
 30
0.0
  0
SPLINE
  5
2F9
100
AcDbEntity
  8
00_COMPONENTS_1
100
AcDbSpline
 62
7
  6
CONTINUOUS
 70
0
 71
3
 72
17
 73
13
 74
0
 42
0.0000001
 43
0.0000001
 44
0.0000000001
 40
0.0
 40
0.0
 40
0.0
 40
0.0
 40
0.0421319371
 40
0.0861529143
 40
0.1335783378
 40
0.18536813
 40
0.3028249565
 40
0.4371023773
 40
0.5820343039
 40
0.7295198676
 40
0.8711901555
 40
1.0
 40
1.0
 40
1.0
 40
1.0
 10
44.0784652133
 20
109.8663492836
 30
0.0
 10
44.1751773098
 20
109.9221530503
 30
0.0
 10
44.3890563336
 20
110.0103483022
 30
0.0
 10
44.7428098989
 20
110.0595722935
 30
0.0
 10
45.1237778074
 20
110.0284929514
 30
0.0
 10
45.6802102557
 20
109.8765140776
 30
0.0
 10
46.3946696717
 20
109.4847387457
 30
0.0
 10
47.1902012284
 20
108.7887906527
 30
0.0
 10
47.8995363924
 20
107.9009121767
 30
0.0
 10
48.4618488705
 20
106.8909826696
 30
0.0
 10
48.8287432777
 20
105.8400154008
 30
0.0
 10
48.9270578642
 20
105.1223093661
 30
0.0
 10
48.9270578642
 20
104.7809406971
 30
0.0
  0
SPLINE
  5
2FA
100
AcDbEntity
  8
00_COMPONENTS_1
100
AcDbSpline
 62
7
  6
CONTINUOUS
 70
0
 71
3
 72
9
 73
5
 74
0
 42
0.0000001
 43
0.0000001
 44
0.0000000001
 40
0.0
 40
0.0
 40
0.0
 40
0.0
 40
0.5152083127
 40
1.0
 40
1.0
 40
1.0
 40
1.0
 10
98.3485812195
 20
144.7539476428
 30
0.0
 10
96.3854556602
 20
145.73111897
 30
0.0
 10
92.4802653748
 20
147.4451905996
 30
0.0
 10
88.4046187548
 20
148.7123749478
 30
0.0
 10
86.3984268646
 20
149.1949614898
 30
0.0
  0
SPLINE
  5
2FB
100
AcDbEntity
  8
00_COMPONENTS_1
100
AcDbSpline
 62
7
  6
CONTINUOUS
 70
0
 71
3
 72
11
 73
7
 74
0
 42
0.0000001
 43
0.0000001
 44
0.0000000001
 40
0.0
 40
0.0
 40
0.0
 40
0.0
 40
0.2756766405
 40
0.5368903986
 40
0.7792300618
 40
1.0
 40
1.0
 40
1.0
 40
1.0
 10
118.0769425511
 20
133.6494312314
 30
0.0
 10
117.711483147
 20
134.1040648733
 30
0.0
 10
116.9513312635
 20
134.9521096357
 30
0.0
 10
115.7095494595
 20
136.0433765428
 30
0.0
 10
114.4285554621
 20
136.8937636153
 30
0.0
 10
113.5304740364
 20
137.3011942384
 30
0.0
 10
113.0874992792
 20
137.4494729432
 30
0.0
  0
SPLINE
  5
2FC
100
AcDbEntity
  8
00_COMPONENTS_1
100
AcDbSpline
 62
7
  6
CONTINUOUS
 70
0
 71
3
 72
11
 73
7
 74
0
 42
0.0000001
 43
0.0000001
 44
0.0000000001
 40
0.0
 40
0.0
 40
0.0
 40
0.0
 40
0.2764402947
 40
0.5319388883
 40
0.7705278885
 40
1.0
 40
1.0
 40
1.0
 40
1.0
 10
113.0874992792
 20
137.4494729432
 30
0.0
 10
113.0236484551
 20
137.4708459839
 30
0.0
 10
112.8973482859
 20
137.5027719459
 30
0.0
 10
112.7088355178
 20
137.5150061219
 30
0.0
 10
112.5331440026
 20
137.4880538519
 30
0.0
 10
112.4266778056
 20
137.4434980404
 30
0.0
 10
112.3782935636
 20
137.415516244
 30
0.0
  0
SPLINE
  5
2FD
100
AcDbEntity
  8
00_COMPONENTS_1
100
AcDbSpline
 62
7
  6
CONTINUOUS
 70
0
 71
3
 72
9
 73
5
 74
0
 42
0.0000001
 43
0.0000001
 44
0.0000000001
 40
0.0
 40
0.0
 40
0.0
 40
0.0
 40
0.2536602169
 40
1.0
 40
1.0
 40
1.0
 40
1.0
 10
111.1428896808
 20
136.7074137295
 30
0.0
 10
110.7292094745
 20
137.0223931754
 30
0.0
 10
109.0880672775
 20
138.2505237484
 30
0.0
 10
107.4054081363
 20
139.4233593462
 30
0.0
 10
106.1267881962
 20
140.2632993431
 30
0.0
  0
SPLINE
  5
2FE
100
AcDbEntity
  8
00_COMPONENTS_1
100
AcDbSpline
 62
7
  6
CONTINUOUS
 70
0
 71
3
 72
11
 73
7
 74
0
 42
0.0000001
 43
0.0000001
 44
0.0000000001
 40
0.0
 40
0.0
 40
0.0
 40
0.0
 40
0.2301770419
 40
0.4676540402
 40
0.7225327866
 40
1.0
 40
1.0
 40
1.0
 40
1.0
 10
49.5113515798
 20
81.0351332735
 30
0.0
 10
49.6307432084
 20
81.1041428942
 30
0.0
 10
49.8538204474
 20
81.2819741608
 30
0.0
 10
50.0985783458
 20
81.646200604
 30
0.0
 10
50.2452132498
 20
82.0884077467
 30
0.0
 10
50.2750537412
 20
82.4086395966
 30
0.0
 10
50.2750537412
 20
82.5748725486
 30
0.0
  0
SPLINE
  5
2FF
100
AcDbEntity
  8
00_COMPONENTS_1
100
AcDbSpline
 62
7
  6
CONTINUOUS
 70
0
 71
3
 72
11
 73
7
 74
0
 42
0.0000001
 43
0.0000001
 44
0.0000000001
 40
0.0
 40
0.0
 40
0.0
 40
0.0
 40
0.3006479334
 40
0.5647801757
 40
0.7944140589
 40
1.0
 40
1.0
 40
1.0
 40
1.0
 10
93.964522709
 20
144.0911774128
 30
0.0
 10
94.0735779705
 20
144.1541401215
 30
0.0
 10
94.2705054516
 20
144.2875287024
 30
0.0
 10
94.5077398522
 20
144.5243777905
 30
0.0
 10
94.6597812517
 20
144.7793666783
 30
0.0
 10
94.6967044371
 20
144.9627978402
 30
0.0
 10
94.6966630849
 20
145.0489072242
 30
0.0
  0
SPLINE
  5
300
100
AcDbEntity
  8
00_COMPONENTS_1
100
AcDbSpline
 62
7
  6
CONTINUOUS
 70
0
 71
3
 72
17
 73
13
 74
0
 42
0.0000001
 43
0.0000001
 44
0.0000000001
 40
0.0
 40
0.0
 40
0.0
 40
0.0
 40
0.128688864
 40
0.2702797703
 40
0.4174318348
 40
0.5617733576
 40
0.6954455149
 40
0.8127096012
 40
0.8646749146
 40
0.9125085807
 40
0.9571389861
 40
1.0
 40
1.0
 40
1.0
 40
1.0
 10
111.253374919
 20
130.1097075103
 30
0.0
 10
111.253374919
 20
130.3020260586
 30
0.0
 10
111.1995706672
 20
130.7064050232
 30
0.0
 10
110.9987650189
 20
131.3001458463
 30
0.0
 10
110.6893237649
 20
131.8721015554
 30
0.0
 10
110.2961355452
 20
132.3753782722
 30
0.0
 10
109.8513223916
 20
132.7693251092
 30
0.0
 10
109.4487046877
 20
132.9894766344
 30
0.0
 10
109.1337572771
 20
133.0732502338
 30
0.0
 10
108.9169958033
 20
133.0892113509
 30
0.0
 10
108.7151550193
 20
133.059629921
 30
0.0
 10
108.5928660703
 20
133.0088171342
 30
0.0
 10
108.5374067841
 20
132.9767685105
 30
0.0
  0
SPLINE
  5
301
100
AcDbEntity
  8
00_COMPONENTS_1
100
AcDbSpline
 62
7
  6
CONTINUOUS
 70
0
 71
3
 72
11
 73
7
 74
0
 42
0.0000001
 43
0.0000001
 44
0.0000000001
 40
0.0
 40
0.0
 40
0.0
 40
0.0
 40
0.2191918978
 40
0.4602234792
 40
0.7216108019
 40
1.0
 40
1.0
 40
1.0
 40
1.0
 10
82.7216304711
 20
118.8593239689
 30
0.0
 10
82.0597440875
 20
119.0174067082
 30
0.0
 10
80.704230088
 20
119.4999008602
 30
0.0
 10
78.741795829
 20
120.5967832518
 30
0.0
 10
76.8059427499
 20
122.0670395451
 30
0.0
 10
75.6010569218
 20
123.2378675845
 30
0.0
 10
75.0142317234
 20
123.8723965913
 30
0.0
  0
SPLINE
  5
302
100
AcDbEntity
  8
00_COMPONENTS_1
100
AcDbSpline
 62
7
  6
CONTINUOUS
 70
0
 71
3
 72
11
 73
7
 74
0
 42
0.0000001
 43
0.0000001
 44
0.0000000001
 40
0.0
 40
0.0
 40
0.0
 40
0.0
 40
0.2191918978
 40
0.4602234792
 40
0.7216108019
 40
1.0
 40
1.0
 40
1.0
 40
1.0
 10
72.8220943191
 20
124.5746945322
 30
0.0
 10
72.1602079355
 20
124.7327772714
 30
0.0
 10
70.8046939359
 20
125.2152714235
 30
0.0
 10
68.842259677
 20
126.312153815
 30
0.0
 10
66.9064065978
 20
127.7824101084
 30
0.0
 10
65.7015207698
 20
128.9532381478
 30
0.0
 10
65.1146955714
 20
129.5877671546
 30
0.0
  0
SPLINE
  5
303
100
AcDbEntity
  8
00_COMPONENTS_1
100
AcDbSpline
 62
7
  6
CONTINUOUS
 70
0
 71
3
 72
11
 73
7
 74
0
 42
0.0000001
 43
0.0000001
 44
0.0000000001
 40
0.0
 40
0.0
 40
0.0
 40
0.0
 40
0.2191918978
 40
0.4602234792
 40
0.7216108019
 40
1.0
 40
1.0
 40
1.0
 40
1.0
 10
62.922558167
 20
130.2900650955
 30
0.0
 10
62.2606717834
 20
130.4481478347
 30
0.0
 10
60.9051577839
 20
130.9306419868
 30
0.0
 10
58.9427235249
 20
132.0275243783
 30
0.0
 10
57.0068704458
 20
133.4977806717
 30
0.0
 10
55.8019846177
 20
134.6686087111
 30
0.0
 10
55.2151594193
 20
135.3031377179
 30
0.0
  0
SPLINE
  5
304
100
AcDbEntity
  8
00_COMPONENTS_1
100
AcDbSpline
 62
7
  6
CONTINUOUS
 70
0
 71
3
 72
11
 73
7
 74
0
 42
0.0000001
 43
0.0000001
 44
0.0000000001
 40
0.0
 40
0.0
 40
0.0
 40
0.0
 40
0.2231841819
 40
0.4582994959
 40
0.7158041725
 40
1.0
 40
1.0
 40
1.0
 40
1.0
 10
41.3233670915
 20
84.9626658213
 30
0.0
 10
41.4357417657
 20
85.0275929344
 30
0.0
 10
41.6462545768
 20
85.199776533
 30
0.0
 10
41.8730505786
 20
85.5557096414
 30
0.0
 10
42.0082396438
 20
85.9911463954
 30
0.0
 10
42.0354841425
 20
86.3072977726
 30
0.0
 10
42.0354841425
 20
86.4725592812
 30
0.0
  0
SPLINE
  5
305
100
AcDbEntity
  8
00_COMPONENTS_1
100
AcDbSpline
 62
7
  6
CONTINUOUS
 70
0
 71
3
 72
11
 73
7
 74
0
 42
0.0000001
 43
0.0000001
 44
0.0000000001
 40
0.0
 40
0.0
 40
0.0
 40
0.0
 40
0.2191918978
 40
0.4602234792
 40
0.7216108019
 40
1.0
 40
1.0
 40
1.0
 40
1.0
 10
73.3272833804
 20
113.4355275229
 30
0.0
 10
72.6653969968
 20
113.5936102622
 30
0.0
 10
71.3098829973
 20
114.0761044142
 30
0.0
 10
69.3474487383
 20
115.1729868058
 30
0.0
 10
67.4115956592
 20
116.6432430991
 30
0.0
 10
66.2067098311
 20
117.8140711386
 30
0.0
 10
65.6198846327
 20
118.4486001453
 30
0.0
  0
SPLINE
  5
306
100
AcDbEntity
  8
00_COMPONENTS_1
100
AcDbSpline
 62
7
  6
CONTINUOUS
 70
0
 71
3
 72
11
 73
7
 74
0
 42
0.0000001
 43
0.0000001
 44
0.0000000001
 40
0.0
 40
0.0
 40
0.0
 40
0.0
 40
0.2155122902
 40
0.4481149848
 40
0.7085023043
 40
1.0
 40
1.0
 40
1.0
 40
1.0
 10
33.7051226556
 20
89.2190736539
 30
0.0
 10
33.8104136608
 20
89.2799104756
 30
0.0
 10
34.0081740514
 20
89.4466112561
 30
0.0
 10
34.2172514184
 20
89.793884594
 30
0.0
 10
34.3415017632
 20
90.2226623841
 30
0.0
 10
34.366296686
 20
90.53507636
 30
0.0
 10
34.366296686
 20
90.6995543313
 30
0.0
  0
SPLINE
  5
307
100
AcDbEntity
  8
00_COMPONENTS_1
100
AcDbSpline
 62
7
  6
CONTINUOUS
 70
0
 71
3
 72
19
 73
15
 74
0
 42
0.0000001
 43
0.0000001
 44
0.0000000001
 40
0.0
 40
0.0
 40
0.0
 40
0.0
 40
0.1304211728
 40
0.2739544641
 40
0.42299968
 40
0.5686915544
 40
0.6377271145
 40
0.702979641
 40
0.7636527
 40
0.8193299098
 40
0.8700840389
 40
0.9163320059
 40
0.9590642144
 40
1.0
 40
1.0
 40
1.0
 40
1.0
 10
34.366296686
 20
90.6995543313
 30
0.0
 10
34.366296686
 20
90.9777282092
 30
0.0
 10
34.2895685637
 20
91.5626693032
 30
0.0
 10
34.0040015011
 20
92.4227809985
 30
0.0
 10
33.5666201278
 20
93.2534151968
 30
0.0
 10
33.0977353865
 20
93.8767166799
 30
0.0
 10
32.676987054
 20
94.3015401731
 30
0.0
 10
32.3568853433
 20
94.5681179655
 30
0.0
 10
32.0326968527
 20
94.7818465603
 30
0.0
 10
31.7105833069
 20
94.9372395346
 30
0.0
 10
31.3976087905
 20
95.0324731492
 30
0.0
 10
31.0991717371
 20
95.065245533
 30
0.0
 10
30.8213938686
 20
95.0310206364
 30
0.0
 10
30.6538550452
 20
94.9624759145
 30
0.0
 10
30.5782867917
 20
94.918741095
 30
0.0
  0
SPLINE
  5
308
100
AcDbEntity
  8
00_COMPONENTS_1
100
AcDbSpline
 62
7
  6
CONTINUOUS
 70
0
 71
3
 72
19
 73
15
 74
0
 42
0.0000001
 43
0.0000001
 44
0.0000000001
 40
0.0
 40
0.0
 40
0.0
 40
0.0
 40
0.1271653673
 40
0.2669241456
 40
0.4126810313
 40
0.5564272527
 40
0.6252076155
 40
0.6907669117
 40
0.7523620078
 40
0.8095566577
 40
0.8623636217
 40
0.9110903578
 40
0.9565074935
 40
1.0
 40
1.0
 40
1.0
 40
1.0
 10
42.0354841425
 20
86.4725592812
 30
0.0
 10
42.0354841425
 20
86.7496007145
 30
0.0
 10
41.9531321297
 20
87.3319305488
 30
0.0
 10
41.6445392587
 20
88.1815543972
 30
0.0
 10
41.1720015599
 20
88.9939500717
 30
0.0
 10
40.6669789152
 20
89.5951605139
 30
0.0
 10
40.2146986793
 20
89.9994892335
 30
0.0
 10
39.8692399473
 20
90.2515725146
 30
0.0
 10
39.5193573156
 20
90.4508024432
 30
0.0
 10
39.1716526073
 20
90.5915010473
 30
0.0
 10
38.8338463134
 20
90.672066535
 30
0.0
 10
38.5121953656
 20
90.6907331168
 30
0.0
 10
38.2134750821
 20
90.6439231381
 30
0.0
 10
38.0327631518
 20
90.5679118499
 30
0.0
 10
37.9507490937
 20
90.5204596062
 30
0.0
  0
SPLINE
  5
309
100
AcDbEntity
  8
00_COMPONENTS_1
100
AcDbSpline
 62
7
  6
CONTINUOUS
 70
0
 71
3
 72
19
 73
15
 74
0
 42
0.0000001
 43
0.0000001
 44
0.0000000001
 40
0.0
 40
0.0
 40
0.0
 40
0.0
 40
0.1242235419
 40
0.2605127511
 40
0.4031740875
 40
0.5450101053
 40
0.6135146244
 40
0.6793308872
 40
0.7417603324
 40
0.8003773597
 40
0.855126447
 40
0.9061838915
 40
0.9541110189
 40
1.0
 40
1.0
 40
1.0
 40
1.0
 10
50.2750537412
 20
82.5748725486
 30
0.0
 10
50.2750537412
 20
82.8517811125
 30
0.0
 10
50.1864003863
 20
83.433531267
 30
0.0
 10
49.8525434463
 20
84.2741586108
 30
0.0
 10
49.3429364868
 20
85.0680245488
 30
0.0
 10
48.80100129
 20
85.6455724247
 30
0.0
 10
48.3176918919
 20
86.0282396883
 30
0.0
 10
47.9474146926
 20
86.2648485671
 30
0.0
 10
47.5723654041
 20
86.44844075
 30
0.0
 10
47.1997380968
 20
86.5736897582
 30
0.0
 10
46.8377164966
 20
86.6394119656
 30
0.0
 10
46.4931476872
 20
86.644111135
 30
0.0
 10
46.1734088696
 20
86.5846369625
 30
0.0
 10
45.9793469209
 20
86.5010685833
 30
0.0
 10
45.8908044764
 20
86.4498450398
 30
0.0
  0
SPLINE
  5
30A
100
AcDbEntity
  8
00_COMPONENTS_1
100
AcDbSpline
 62
7
  6
CONTINUOUS
 70
0
 71
3
 72
11
 73
7
 74
0
 42
0.0000001
 43
0.0000001
 44
0.0000000001
 40
0.0
 40
0.0
 40
0.0
 40
0.0
 40
0.2301753578
 40
0.4676489838
 40
0.7224747714
 40
1.0
 40
1.0
 40
1.0
 40
1.0
 10
49.5114259161
 20
49.5180296069
 30
0.0
 10
49.6307916161
 20
49.5870770329
 30
0.0
 10
49.8535800016
 20
49.7652343117
 30
0.0
 10
50.0985286875
 20
50.1291917781
 30
0.0
 10
50.2454137978
 20
50.5713641403
 30
0.0
 10
50.2750537412
 20
50.8916145681
 30
0.0
 10
50.2750537412
 20
51.0578792474
 30
0.0
  0
SPLINE
  5
30B
100
AcDbEntity
  8
00_COMPONENTS_1
100
AcDbSpline
 62
7
  6
CONTINUOUS
 70
0
 71
3
 72
11
 73
7
 74
0
 42
0.0000001
 43
0.0000001
 44
0.0000000001
 40
0.0
 40
0.0
 40
0.0
 40
0.0
 40
0.2279291729
 40
0.4742991763
 40
0.733847597
 40
1.0
 40
1.0
 40
1.0
 40
1.0
 10
50.2750537412
 20
51.0578792474
 30
0.0
 10
50.2750537412
 20
51.2627401731
 30
0.0
 10
50.2262943919
 20
51.6896180326
 30
0.0
 10
50.0353794459
 20
52.3238932754
 30
0.0
 10
49.7321086711
 20
52.9509088572
 30
0.0
 10
49.4670059477
 20
53.344173416
 30
0.0
 10
49.3200302795
 20
53.5329120852
 30
0.0
  0
SPLINE
  5
30C
100
AcDbEntity
  8
00_COMPONENTS_1
100
AcDbSpline
 62
7
  6
CONTINUOUS
 70
0
 71
3
 72
11
 73
7
 74
0
 42
0.0000001
 43
0.0000001
 44
0.0000000001
 40
0.0
 40
0.0
 40
0.0
 40
0.0
 40
0.2348704789
 40
0.4800561016
 40
0.7352661598
 40
1.0
 40
1.0
 40
1.0
 40
1.0
 10
31.4918139049
 20
55.1956685147
 30
0.0
 10
33.734659695
 20
53.4010351366
 30
0.0
 10
38.4748123104
 20
49.9245654514
 30
0.0
 10
46.1116926714
 20
45.1630634619
 30
0.0
 10
54.3817462911
 20
40.7702665229
 30
0.0
 10
60.1815789041
 20
38.1514905026
 30
0.0
 10
63.1703295915
 20
36.9064827122
 30
0.0
  0
SPLINE
  5
30D
100
AcDbEntity
  8
00_COMPONENTS_1
100
AcDbSpline
 62
7
  6
CONTINUOUS
 70
0
 71
3
 72
11
 73
7
 74
0
 42
0.0000001
 43
0.0000001
 44
0.0000000001
 40
0.0
 40
0.0
 40
0.0
 40
0.0
 40
0.2292941274
 40
0.466582412
 40
0.7216644082
 40
1.0
 40
1.0
 40
1.0
 40
1.0
 10
58.6741817478
 20
97.6246797146
 30
0.0
 10
58.8201074611
 20
97.7088767179
 30
0.0
 10
59.09222072
 20
97.9277405311
 30
0.0
 10
59.3908612889
 20
98.3744611658
 30
0.0
 10
59.5703422359
 20
98.917628782
 30
0.0
 10
59.6062491435
 20
99.3111944409
 30
0.0
 10
59.6062491435
 20
99.5157015445
 30
0.0
  0
SPLINE
  5
30E
100
AcDbEntity
  8
00_COMPONENTS_1
100
AcDbSpline
 62
7
  6
CONTINUOUS
 70
0
 71
3
 72
17
 73
13
 74
0
 42
0.0000001
 43
0.0000001
 44
0.0000000001
 40
0.0
 40
0.0
 40
0.0
 40
0.0
 40
0.0453842301
 40
0.0928097239
 40
0.1433941382
 40
0.1978099971
 40
0.3183401224
 40
0.4526184806
 40
0.5949879138
 40
0.7382741154
 40
0.875214516
 40
1.0
 40
1.0
 40
1.0
 40
1.0
 10
54.2728954585
 20
104.321234148
 30
0.0
 10
54.3801948539
 20
104.3831498206
 30
0.0
 10
54.6157158936
 20
104.4835969729
 30
0.0
 10
55.0036789075
 20
104.5533707274
 30
0.0
 10
55.4220751436
 20
104.5449290531
 30
0.0
 10
56.0288107678
 20
104.4272453291
 30
0.0
 10
56.8106431876
 20
104.0823071253
 30
0.0
 10
57.687826171
 20
103.4339117911
 30
0.0
 10
58.47008551
 20
102.587203863
 30
0.0
 10
59.0915005612
 20
101.6074323796
 30
0.0
 10
59.4980818949
 20
100.5719596895
 30
0.0
 10
59.6062491435
 20
99.8563188821
 30
0.0
 10
59.6062491435
 20
99.5157015445
 30
0.0
  0
SPLINE
  5
30F
100
AcDbEntity
  8
00_COMPONENTS_1
100
AcDbSpline
 62
7
  6
CONTINUOUS
 70
0
 71
3
 72
9
 73
5
 74
0
 42
0.0000001
 43
0.0000001
 44
0.0000000001
 40
0.0
 40
0.0
 40
0.0
 40
0.0
 40
0.2564614786
 40
1.0
 40
1.0
 40
1.0
 40
1.0
 10
104.4297389868
 20
139.2835133738
 30
0.0
 10
103.787807194
 20
139.7052056775
 30
0.0
 10
101.2622422667
 20
141.3147229522
 30
0.0
 10
98.6449753955
 20
142.7818992535
 30
0.0
 10
96.6515320102
 20
143.7741616735
 30
0.0
  0
SPLINE
  5
310
100
AcDbEntity
  8
00_COMPONENTS_1
100
AcDbSpline
 62
7
  6
CONTINUOUS
 70
0
 71
3
 72
11
 73
7
 74
0
 42
0.0000001
 43
0.0000001
 44
0.0000000001
 40
0.0
 40
0.0
 40
0.0
 40
0.0
 40
0.2191918978
 40
0.4602234792
 40
0.7216108019
 40
1.0
 40
1.0
 40
1.0
 40
1.0
 10
53.5282110763
 20
124.8662686495
 30
0.0
 10
52.8663246927
 20
125.0243513887
 30
0.0
 10
51.5108106932
 20
125.5068455408
 30
0.0
 10
49.5483764342
 20
126.6037279323
 30
0.0
 10
47.6125233551
 20
128.0739842257
 30
0.0
 10
46.407637527
 20
129.2448122651
 30
0.0
 10
45.8208123286
 20
129.8793412719
 30
0.0
  0
SPLINE
  5
311
100
AcDbEntity
  8
00_COMPONENTS_1
100
AcDbSpline
 62
7
  6
CONTINUOUS
 70
0
 71
3
 72
11
 73
7
 74
0
 42
0.0000001
 43
0.0000001
 44
0.0000000001
 40
0.0
 40
0.0
 40
0.0
 40
0.0
 40
0.27834954
 40
0.5334559068
 40
0.7707056359
 40
1.0
 40
1.0
 40
1.0
 40
1.0
 10
59.6062491435
 20
46.6063449145
 30
0.0
 10
59.6062491435
 20
46.401826438
 30
0.0
 10
59.5702794446
 20
46.0082415162
 30
0.0
 10
59.3909052355
 20
45.4650395281
 30
0.0
 10
59.0922166844
 20
45.018332994
 30
0.0
 10
58.8200616104
 20
44.7995785796
 30
0.0
 10
58.67413987
 20
44.7153724898
 30
0.0
  0
SPLINE
  5
312
100
AcDbEntity
  8
00_COMPONENTS_1
100
AcDbSpline
 62
7
  6
CONTINUOUS
 70
0
 71
3
 72
11
 73
7
 74
0
 42
0.0000001
 43
0.0000001
 44
0.0000000001
 40
0.0
 40
0.0
 40
0.0
 40
0.0
 40
0.2191918978
 40
0.4602234792
 40
0.7216108019
 40
1.0
 40
1.0
 40
1.0
 40
1.0
 10
63.4277472284
 20
119.1508980862
 30
0.0
 10
62.7658608448
 20
119.3089808255
 30
0.0
 10
61.4103468452
 20
119.7914749775
 30
0.0
 10
59.4479125863
 20
120.8883573691
 30
0.0
 10
57.5120595071
 20
122.3586136624
 30
0.0
 10
56.3071736791
 20
123.5294417018
 30
0.0
 10
55.7203484806
 20
124.1639707086
 30
0.0
  0
SPLINE
  5
313
100
AcDbEntity
  8
00_COMPONENTS_1
100
AcDbSpline
 62
7
  6
CONTINUOUS
 70
0
 71
3
 72
14
 73
10
 74
0
 42
0.0000001
 43
0.0000001
 44
0.0000000001
 40
0.0
 40
0.0
 40
0.0
 40
0.0
 40
0.3068458882
 40
0.44882921
 40
0.5802197025
 40
0.7000026626
 40
0.8086119182
 40
0.907513785
 40
1.0
 40
1.0
 40
1.0
 40
1.0
 10
30.8457079384
 20
59.1998845815
 30
0.0
 10
31.0360110012
 20
58.9110589195
 30
0.0
 10
31.355211301
 20
58.5122699714
 30
0.0
 10
31.8448756133
 20
58.0768797928
 30
0.0
 10
32.2126028445
 20
57.8267033432
 30
0.0
 10
32.5813977379
 20
57.653399283
 30
0.0
 10
32.9408217622
 20
57.5595999359
 30
0.0
 10
33.2822977133
 20
57.5495418445
 30
0.0
 10
33.4947817441
 20
57.60401801
 30
0.0
 10
33.5907297961
 20
57.6447926284
 30
0.0
  0
SPLINE
  5
314
100
AcDbEntity
  8
00_COMPONENTS_1
100
AcDbSpline
 62
7
  6
CONTINUOUS
 70
0
 71
3
 72
14
 73
10
 74
0
 42
0.0000001
 43
0.0000001
 44
0.0000000001
 40
0.0
 40
0.0
 40
0.0
 40
0.0
 40
0.294686689
 40
0.4341847645
 40
0.5656787409
 40
0.6877422159
 40
0.800210786
 40
0.9037263372
 40
1.0
 40
1.0
 40
1.0
 40
1.0
 10
38.1209534472
 20
54.9823188576
 30
0.0
 10
38.3172738407
 20
54.6917743877
 30
0.0
 10
38.6501220382
 20
54.289892152
 30
0.0
 10
39.161351194
 20
53.8503009847
 30
0.0
 10
39.5516060474
 20
53.5899050827
 30
0.0
 10
39.946808665
 20
53.4026902682
 30
0.0
 10
40.3359342975
 20
53.2926242054
 30
0.0
 10
40.7088363861
 20
53.2615174199
 30
0.0
 10
40.946764451
 20
53.298241815
 30
0.0
 10
41.0565646508
 20
53.3309132932
 30
0.0
  0
SPLINE
  5
315
100
AcDbEntity
  8
00_COMPONENTS_1
100
AcDbSpline
 62
7
  6
CONTINUOUS
 70
0
 71
3
 72
11
 73
7
 74
0
 42
0.0000001
 43
0.0000001
 44
0.0000000001
 40
0.0
 40
0.0
 40
0.0
 40
0.0
 40
0.2199829466
 40
0.4536023044
 40
0.7121283229
 40
1.0
 40
1.0
 40
1.0
 40
1.0
 10
37.9507490937
 20
90.5204596062
 30
0.0
 10
37.8417308365
 20
90.4573830919
 30
0.0
 10
37.6378237957
 20
90.2876103655
 30
0.0
 10
37.4199602071
 20
89.9362982539
 30
0.0
 10
37.2909130427
 20
89.5045098919
 30
0.0
 10
37.2654465591
 20
89.1905877156
 30
0.0
 10
37.2654465591
 20
89.0257672378
 30
0.0
  0
SPLINE
  5
316
100
AcDbEntity
  8
00_COMPONENTS_1
100
AcDbSpline
 62
7
  6
CONTINUOUS
 70
0
 71
3
 72
14
 73
10
 74
0
 42
0.0000001
 43
0.0000001
 44
0.0000000001
 40
0.0
 40
0.0
 40
0.0
 40
0.0
 40
0.2906752979
 40
0.4311653796
 40
0.5641519465
 40
0.6873142676
 40
0.8000922912
 40
0.9033527793
 40
1.0
 40
1.0
 40
1.0
 40
1.0
 10
45.7261314335
 20
51.4498491894
 30
0.0
 10
45.9488640692
 20
51.0584028088
 30
0.0
 10
46.3582967339
 20
50.5166692456
 30
0.0
 10
47.0217429712
 20
49.9442350874
 30
0.0
 10
47.5435343065
 20
49.6142963016
 30
0.0
 10
48.0760429955
 20
49.397181719
 30
0.0
 10
48.5972186372
 20
49.3015060178
 30
0.0
 10
49.0864653533
 20
49.3313411062
 30
0.0
 10
49.3818031338
 20
49.4430489427
 30
0.0
 10
49.5114259161
 20
49.5180296069
 30
0.0
  0
SPLINE
  5
317
100
AcDbEntity
  8
00_COMPONENTS_1
100
AcDbSpline
 62
7
  6
CONTINUOUS
 70
0
 71
3
 72
11
 73
7
 74
0
 42
0.0000001
 43
0.0000001
 44
0.0000000001
 40
0.0
 40
0.0
 40
0.0
 40
0.0
 40
0.2278853215
 40
0.4707071641
 40
0.7283417157
 40
1.0
 40
1.0
 40
1.0
 40
1.0
 10
81.4487000041
 20
146.3372524127
 30
0.0
 10
83.5490762186
 20
145.8320099684
 30
0.0
 10
87.819193579
 20
144.4899922836
 30
0.0
 10
94.132336717
 20
141.6628369208
 30
0.0
 10
100.4800162291
 20
137.9957668994
 30
0.0
 10
104.5818682161
 20
135.0931772778
 30
0.0
 10
106.6218062193
 20
133.5213824225
 30
0.0
  0
SPLINE
  5
318
100
AcDbEntity
  8
00_COMPONENTS_1
100
AcDbSpline
 62
7
  6
CONTINUOUS
 70
0
 71
3
 72
11
 73
7
 74
0
 42
0.0000001
 43
0.0000001
 44
0.0000000001
 40
0.0
 40
0.0
 40
0.0
 40
0.0
 40
0.2207699382
 40
0.4631096014
 40
0.7243233595
 40
1.0
 40
1.0
 40
1.0
 40
1.0
 10
108.1377724187
 20
134.5917638661
 30
0.0
 10
108.5807471759
 20
134.4434851613
 30
0.0
 10
109.4788286016
 20
134.0360545382
 30
0.0
 10
110.759822599
 20
133.1856674657
 30
0.0
 10
112.001604403
 20
132.0944005586
 30
0.0
 10
112.7617562865
 20
131.2463557962
 30
0.0
 10
113.1272156906
 20
130.7917221543
 30
0.0
  0
SPLINE
  5
319
100
AcDbEntity
  8
00_COMPONENTS_1
100
AcDbSpline
 62
7
  6
CONTINUOUS
 70
0
 71
3
 72
11
 73
7
 74
0
 42
0.0000001
 43
0.0000001
 44
0.0000000001
 40
0.0
 40
0.0
 40
0.0
 40
0.0
 40
0.2783891981
 40
0.5397765208
 40
0.7808081022
 40
1.0
 40
1.0
 40
1.0
 40
1.0
 10
67.3421550896
 20
119.4429475218
 30
0.0
 10
67.9289802881
 20
118.808418515
 30
0.0
 10
69.1338661161
 20
117.6375904756
 30
0.0
 10
71.0697191953
 20
116.1673341822
 30
0.0
 10
73.0321534542
 20
115.0704517907
 30
0.0
 10
74.3876674538
 20
114.5879576387
 30
0.0
 10
75.0495538374
 20
114.4298748994
 30
0.0
  0
SPLINE
  5
31A
100
AcDbEntity
  8
00_COMPONENTS_1
100
AcDbSpline
 62
7
  6
CONTINUOUS
 70
0
 71
3
 72
16
 73
12
 74
0
 42
0.0000001
 43
0.0000001
 44
0.0000000001
 40
0.0
 40
0.0
 40
0.0
 40
0.0
 40
0.1235170546
 40
0.2591300742
 40
0.4007592656
 40
0.5413199571
 40
0.6743953152
 40
0.7953432899
 40
0.9026993264
 40
0.9522674212
 40
1.0
 40
1.0
 40
1.0
 40
1.0
 10
105.2782783113
 20
137.5593253404
 30
0.0
 10
105.4633684797
 20
137.6661865611
 30
0.0
 10
105.8854080791
 20
137.8334028752
 30
0.0
 10
106.5744235397
 20
137.9431262559
 30
0.0
 10
107.3013663484
 20
137.9178036631
 30
0.0
 10
108.006358006
 20
137.7574526106
 30
0.0
 10
108.6329252108
 20
137.4727865061
 30
0.0
 10
109.1317011715
 20
137.0847790047
 30
0.0
 10
109.414364972
 20
136.6830028291
 30
0.0
 10
109.526984112
 20
136.3450080211
 30
0.0
 10
109.5460651177
 20
136.1761480687
 30
0.0
 10
109.5460502745
 20
136.0935556785
 30
0.0
  0
SPLINE
  5
31B
100
AcDbEntity
  8
00_COMPONENTS_1
100
AcDbSpline
 62
7
  6
CONTINUOUS
 70
0
 71
3
 72
17
 73
13
 74
0
 42
0.0000001
 43
0.0000001
 44
0.0000000001
 40
0.0
 40
0.0
 40
0.0
 40
0.0
 40
0.128688864
 40
0.2702797703
 40
0.4174318348
 40
0.5617733576
 40
0.6954455149
 40
0.8127096012
 40
0.8646749146
 40
0.9125085807
 40
0.9571389861
 40
1.0
 40
1.0
 40
1.0
 40
1.0
 10
108.0713811558
 20
131.9467909056
 30
0.0
 10
108.0713811558
 20
131.7544723573
 30
0.0
 10
108.1251854077
 20
131.3500933926
 30
0.0
 10
108.325991056
 20
130.7563525696
 30
0.0
 10
108.63543231
 20
130.1843968605
 30
0.0
 10
109.0286205297
 20
129.6811201436
 30
0.0
 10
109.4734336832
 20
129.2871733067
 30
0.0
 10
109.8760513871
 20
129.0670217815
 30
0.0
 10
110.1909987977
 20
128.9832481821
 30
0.0
 10
110.4077602716
 20
128.967287065
 30
0.0
 10
110.6096010556
 20
128.9968684948
 30
0.0
 10
110.7318900045
 20
129.0476812817
 30
0.0
 10
110.7873492908
 20
129.0797299053
 30
0.0
  0
SPLINE
  5
31C
100
AcDbEntity
  8
00_COMPONENTS_1
100
AcDbSpline
 62
7
  6
CONTINUOUS
 70
0
 71
3
 72
11
 73
7
 74
0
 42
0.0000001
 43
0.0000001
 44
0.0000000001
 40
0.0
 40
0.0
 40
0.0
 40
0.0
 40
0.2177660095
 40
0.4508968553
 40
0.7103699668
 40
1.0
 40
1.0
 40
1.0
 40
1.0
 10
108.5374067841
 20
132.9767685105
 30
0.0
 10
108.4632101323
 20
132.9338920018
 30
0.0
 10
108.3242729971
 20
132.8172652445
 30
0.0
 10
108.1764576003
 20
132.5754707731
 30
0.0
 10
108.088705994
 20
132.2775763846
 30
0.0
 10
108.0713811558
 20
132.0607650074
 30
0.0
 10
108.0713811558
 20
131.9467909056
 30
0.0
  0
SPLINE
  5
31D
100
AcDbEntity
  8
00_COMPONENTS_1
100
AcDbSpline
 62
7
  6
CONTINUOUS
 70
0
 71
3
 72
11
 73
7
 74
0
 42
0.0000001
 43
0.0000001
 44
0.0000000001
 40
0.0
 40
0.0
 40
0.0
 40
0.0
 40
0.2119708285
 40
0.442960399
 40
0.7044980278
 40
1.0
 40
1.0
 40
1.0
 40
1.0
 10
30.5782867917
 20
94.918741095
 30
0.0
 10
30.4763984546
 20
94.8597736341
 30
0.0
 10
30.2853307454
 20
94.6955060561
 30
0.0
 10
30.0852380471
 20
94.3530136894
 30
0.0
 10
29.9670143259
 20
93.9278958126
 30
0.0
 10
29.9439078425
 20
93.6175883389
 30
0.0
 10
29.9439078425
 20
93.4534761835
 30
0.0
  0
SPLINE
  5
31E
100
AcDbEntity
  8
00_COMPONENTS_1
100
AcDbSpline
 62
7
  6
CONTINUOUS
 70
0
 71
3
 72
13
 73
9
 74
0
 42
0.0000001
 43
0.0000001
 44
0.0000000001
 40
0.0
 40
0.0
 40
0.0
 40
0.0
 40
0.1020856647
 40
0.2083352194
 40
0.3209935683
 40
0.4414528685
 40
0.7063743125
 40
1.0
 40
1.0
 40
1.0
 40
1.0
 10
58.67413987
 20
44.7153724898
 30
0.0
 10
58.5591691859
 20
44.6490271206
 30
0.0
 10
58.3074295645
 20
44.5414234147
 30
0.0
 10
57.8937437619
 20
44.4666638967
 30
0.0
 10
57.4498908599
 20
44.4766075433
 30
0.0
 10
56.8124164145
 20
44.6056479641
 30
0.0
 10
56.0009564246
 20
44.9832938749
 30
0.0
 10
55.4287761851
 20
45.4405630319
 30
0.0
 10
55.155282831
 20
45.7069647423
 30
0.0
  0
SPLINE
  5
31F
100
AcDbEntity
  8
00_COMPONENTS_1
100
AcDbSpline
 62
7
  6
CONTINUOUS
 70
0
 71
3
 72
11
 73
7
 74
0
 42
0.0000001
 43
0.0000001
 44
0.0000000001
 40
0.0
 40
0.0
 40
0.0
 40
0.0
 40
0.2783891981
 40
0.5397765208
 40
0.7808081022
 40
1.0
 40
1.0
 40
1.0
 40
1.0
 10
47.5430827855
 20
130.8736886484
 30
0.0
 10
48.1299079839
 20
130.2391596416
 30
0.0
 10
49.334793812
 20
129.0683316022
 30
0.0
 10
51.2706468911
 20
127.5980753088
 30
0.0
 10
53.2330811501
 20
126.5011929173
 30
0.0
 10
54.5885951497
 20
126.0186987652
 30
0.0
 10
55.2504815333
 20
125.8606160259
 30
0.0
  0
SPLINE
  5
320
100
AcDbEntity
  8
00_COMPONENTS_1
100
AcDbSpline
 62
7
  6
CONTINUOUS
 70
0
 71
3
 72
18
 73
14
 74
0
 42
0.0000001
 43
0.0000001
 44
0.0000000001
 40
0.0
 40
0.0
 40
0.0
 40
0.0
 40
0.0390571049
 40
0.0795028399
 40
0.1232950471
 40
0.1717520924
 40
0.2255474859
 40
0.2847499373
 40
0.4174142027
 40
0.5643220895
 40
0.7169444981
 40
0.8653892152
 40
1.0
 40
1.0
 40
1.0
 40
1.0
 10
94.6966630849
 20
145.0489072242
 30
0.0
 10
94.6966328704
 20
145.1118240221
 30
0.0
 10
94.6776781927
 20
145.240657173
 30
0.0
 10
94.5930831482
 20
145.4229392719
 30
0.0
 10
94.4565147153
 20
145.5898219422
 30
0.0
 10
94.2722893552
 20
145.7382904912
 30
0.0
 10
94.0444077089
 20
145.8657126462
 30
0.0
 10
93.6751127337
 20
146.0105182262
 30
0.0
 10
93.1365210848
 20
146.1206284815
 30
0.0
 10
92.4381865809
 20
146.1433502889
 30
0.0
 10
91.7185647826
 20
146.0617028953
 30
0.0
 10
91.0373506426
 20
145.8840287521
 30
0.0
 10
90.6167663697
 20
145.7000235401
 30
0.0
 10
90.4289740832
 20
145.5916022602
 30
0.0
  0
SPLINE
  5
321
100
AcDbEntity
  8
00_COMPONENTS_1
100
AcDbSpline
 62
7
  6
CONTINUOUS
 70
0
 71
3
 72
11
 73
7
 74
0
 42
0.0000001
 43
0.0000001
 44
0.0000000001
 40
0.0
 40
0.0
 40
0.0
 40
0.0
 40
0.3029079159
 40
0.5673126994
 40
0.7958041874
 40
1.0
 40
1.0
 40
1.0
 40
1.0
 10
34.1502990382
 20
114.2123687073
 30
0.0
 10
34.1502990382
 20
114.4137659298
 30
0.0
 10
34.1761212624
 20
114.7919978137
 30
0.0
 10
34.3101648887
 20
115.3079317621
 30
0.0
 10
34.5367386403
 20
115.7193926384
 30
0.0
 10
34.7575070657
 20
115.9158029273
 30
0.0
 10
34.8751020827
 20
115.9836535371
 30
0.0
  0
SPLINE
  5
322
100
AcDbEntity
  8
00_COMPONENTS_1
100
AcDbSpline
 62
7
  6
CONTINUOUS
 70
0
 71
3
 72
11
 73
7
 74
0
 42
0.0000001
 43
0.0000001
 44
0.0000000001
 40
0.0
 40
0.0
 40
0.0
 40
0.0
 40
0.2824937139
 40
0.5388576831
 40
0.7743613494
 40
1.0
 40
1.0
 40
1.0
 40
1.0
 10
53.381740124
 20
102.4539075002
 30
0.0
 10
53.381740124
 20
102.6575699919
 30
0.0
 10
53.4152855289
 20
103.0475402846
 30
0.0
 10
53.5845484417
 20
103.5852224985
 30
0.0
 10
53.8691339947
 20
104.0256788579
 30
0.0
 10
54.1319972799
 20
104.2399307495
 30
0.0
 10
54.2728954585
 20
104.321234148
 30
0.0
  0
SPLINE
  5
323
100
AcDbEntity
  8
00_COMPONENTS_1
100
AcDbSpline
 62
7
  6
CONTINUOUS
 70
0
 71
3
 72
17
 73
13
 74
0
 42
0.0000001
 43
0.0000001
 44
0.0000000001
 40
0.0
 40
0.0
 40
0.0
 40
0.0
 40
0.1285646944
 40
0.2700613091
 40
0.416882795
 40
0.5606392097
 40
0.6937277257
 40
0.8107952397
 40
0.8629375602
 40
0.9111754591
 40
0.9564124033
 40
1.0
 40
1.0
 40
1.0
 40
1.0
 10
43.270180063
 20
108.0468667333
 30
0.0
 10
43.270180063
 20
107.7044244905
 30
0.0
 10
43.3631980103
 20
106.9843407827
 30
0.0
 10
43.7102804803
 20
105.9243258131
 30
0.0
 10
44.2480338888
 20
104.9006741621
 30
0.0
 10
44.9368209568
 20
103.99924904
 30
0.0
 10
45.7226563212
 20
103.2941273244
 30
0.0
 10
46.4399230891
 20
102.9032741757
 30
0.0
 10
47.0033085565
 20
102.7573606103
 30
0.0
 10
47.3930404525
 20
102.731872054
 30
0.0
 10
47.7569916636
 20
102.7875735077
 30
0.0
 10
47.9779019391
 20
102.8800945627
 30
0.0
 10
48.0784637161
 20
102.9381144752
 30
0.0
  0
SPLINE
  5
324
100
AcDbEntity
  8
00_COMPONENTS_1
100
AcDbSpline
 62
7
  6
CONTINUOUS
 70
0
 71
3
 72
17
 73
13
 74
0
 42
0.0000001
 43
0.0000001
 44
0.0000000001
 40
0.0
 40
0.0
 40
0.0
 40
0.0
 40
0.1245948549
 40
0.2614537005
 40
0.4042215894
 40
0.5455557511
 40
0.6786904656
 40
0.7987672495
 40
0.8534637396
 40
0.904764249
 40
0.9532869347
 40
1.0
 40
1.0
 40
1.0
 40
1.0
 10
53.381740124
 20
102.4539075002
 30
0.0
 10
53.381740124
 20
102.1122795098
 30
0.0
 10
53.484488597
 20
101.3943349621
 30
0.0
 10
53.8709563032
 20
100.3487935042
 30
0.0
 10
54.4684396624
 20
99.3534297632
 30
0.0
 10
55.2318451761
 20
98.4920146497
 30
0.0
 10
56.1008563585
 20
97.8350036477
 30
0.0
 10
56.8852726663
 20
97.4926862027
 30
0.0
 10
57.4977974729
 20
97.3820208622
 30
0.0
 10
57.9239236302
 20
97.3796826714
 30
0.0
 10
58.3211589335
 20
97.4560409967
 30
0.0
 10
58.563241037
 20
97.5606685462
 30
0.0
 10
58.6741817478
 20
97.6246797146
 30
0.0
  0
SPLINE
  5
325
100
AcDbEntity
  8
00_COMPONENTS_1
100
AcDbSpline
 62
7
  6
CONTINUOUS
 70
0
 71
3
 72
11
 73
7
 74
0
 42
0.0000001
 43
0.0000001
 44
0.0000000001
 40
0.0
 40
0.0
 40
0.0
 40
0.0
 40
0.2783891981
 40
0.5397765208
 40
0.7808081022
 40
1.0
 40
1.0
 40
1.0
 40
1.0
 10
57.4426189376
 20
125.1583180851
 30
0.0
 10
58.029444136
 20
124.5237890783
 30
0.0
 10
59.2343299641
 20
123.3529610389
 30
0.0
 10
61.1701830432
 20
121.8827047455
 30
0.0
 10
63.1326173022
 20
120.785822354
 30
0.0
 10
64.4881313017
 20
120.3033282019
 30
0.0
 10
65.1500176853
 20
120.1452454627
 30
0.0
  0
SPLINE
  5
326
100
AcDbEntity
  8
00_COMPONENTS_1
100
AcDbSpline
 62
7
  6
CONTINUOUS
 70
0
 71
3
 72
18
 73
14
 74
0
 42
0.0000001
 43
0.0000001
 44
0.0000000001
 40
0.0
 40
0.0
 40
0.0
 40
0.0
 40
0.1330543403
 40
0.2797308428
 40
0.4309186139
 40
0.5771099996
 40
0.7099662766
 40
0.769558527
 40
0.8239960239
 40
0.8733601008
 40
0.9182459448
 40
0.959858845
 40
1.0
 40
1.0
 40
1.0
 40
1.0
 10
34.1502990382
 20
114.2123687073
 30
0.0
 10
34.1502990382
 20
113.8669387993
 30
0.0
 10
34.2345773398
 20
113.1401941399
 30
0.0
 10
34.5455510727
 20
112.0615838873
 30
0.0
 10
35.0267852594
 20
111.0090252834
 30
0.0
 10
35.641597118
 20
110.0714310651
 30
0.0
 10
36.2474088362
 20
109.4250607792
 30
0.0
 10
36.7621083204
 20
109.0404349821
 30
0.0
 10
37.1347941211
 20
108.8345096284
 30
0.0
 10
37.5007505117
 20
108.7051919343
 30
0.0
 10
37.8530361017
 20
108.656401309
 30
0.0
 10
38.1835881615
 20
108.6911525687
 30
0.0
 10
38.3835462185
 20
108.7716615241
 30
0.0
 10
38.4738147785
 20
108.8237372314
 30
0.0
  0
SPLINE
  5
327
100
AcDbEntity
  8
00_COMPONENTS_1
100
AcDbSpline
 62
7
  6
CONTINUOUS
 70
0
 71
3
 72
11
 73
7
 74
0
 42
0.0000001
 43
0.0000001
 44
0.0000000001
 40
0.0
 40
0.0
 40
0.0
 40
0.0
 40
0.2920697757
 40
0.5521774832
 40
0.7843587003
 40
1.0
 40
1.0
 40
1.0
 40
1.0
 10
43.270180063
 20
108.0468667333
 30
0.0
 10
43.270180063
 20
108.2492321519
 30
0.0
 10
43.2997548044
 20
108.6330662428
 30
0.0
 10
43.4511303674
 20
109.1598975867
 30
0.0
 10
43.7068837805
 20
109.5863409017
 30
0.0
 10
43.9490526646
 20
109.791677056
 30
0.0
 10
44.0784652133
 20
109.8663492836
 30
0.0
  0
SPLINE
  5
328
100
AcDbEntity
  8
00_COMPONENTS_1
100
AcDbSpline
 62
7
  6
CONTINUOUS
 70
0
 71
3
 72
9
 73
5
 74
0
 42
0.0000001
 43
0.0000001
 44
0.0000000001
 40
0.0
 40
0.0
 40
0.0
 40
0.0
 40
0.2466910568
 40
1.0
 40
1.0
 40
1.0
 40
1.0
 10
54.2182252117
 20
96.7314466581
 30
0.0
 10
54.9433801474
 20
96.3743642638
 30
0.0
 10
57.8947140836
 20
94.9509427721
 30
0.0
 10
60.8918308614
 20
93.6227397568
 30
0.0
 10
63.1703295915
 20
92.6735978022
 30
0.0
  0
SPLINE
  5
329
100
AcDbEntity
  8
00_COMPONENTS_1
100
AcDbSpline
 62
7
  6
CONTINUOUS
 70
0
 71
3
 72
9
 73
5
 74
0
 42
0.0000001
 43
0.0000001
 44
0.0000000001
 40
0.0
 40
0.0
 40
0.0
 40
0.0
 40
0.2574879339
 40
1.0
 40
1.0
 40
1.0
 40
1.0
 10
34.5165337812
 20
95.9176532663
 30
0.0
 10
33.3263955538
 20
96.6229792844
 30
0.0
 10
28.748662453
 20
99.4358513334
 30
0.0
 10
24.3537662805
 20
102.5507814975
 30
0.0
 10
21.2388082653
 20
105.0432433735
 30
0.0
  0
SPLINE
  5
32A
100
AcDbEntity
  8
00_COMPONENTS_1
100
AcDbSpline
 62
7
  6
CONTINUOUS
 70
0
 71
3
 72
9
 73
5
 74
0
 42
0.0000001
 43
0.0000001
 44
0.0000000001
 40
0.0
 40
0.0
 40
0.0
 40
0.0
 40
0.2425085802
 40
1.0
 40
1.0
 40
1.0
 40
1.0
 10
31.4918139049
 20
110.9627836047
 30
0.0
 10
32.5263050133
 20
110.1350261722
 30
0.0
 10
36.8582825912
 20
106.8047796926
 30
0.0
 10
41.4385547031
 20
103.8015526624
 30
0.0
 10
45.0031112019
 20
101.6990938335
 30
0.0
  0
SPLINE
  5
32B
100
AcDbEntity
  8
00_COMPONENTS_1
100
AcDbSpline
 62
7
  6
CONTINUOUS
 70
0
 71
3
 72
11
 73
7
 74
0
 42
0.0000001
 43
0.0000001
 44
0.0000000001
 40
0.0
 40
0.0
 40
0.0
 40
0.0
 40
0.2372423294
 40
0.4999983821
 40
0.7627553152
 40
1.0
 40
1.0
 40
1.0
 40
1.0
 10
114.6828440697
 20
85.9154377078
 30
0.0
 10
114.7430779942
 20
85.9502135727
 30
0.0
 10
114.8570572591
 20
86.0461508377
 30
0.0
 10
114.9900895462
 20
86.2279462715
 30
0.0
 10
115.0810120702
 20
86.4340544383
 30
0.0
 10
115.107106372
 20
86.5807329186
 30
0.0
 10
115.107106372
 20
86.6502856504
 30
0.0
  0
SPLINE
  5
32C
100
AcDbEntity
  8
00_COMPONENTS_1
100
AcDbSpline
 62
7
  6
CONTINUOUS
 70
0
 71
3
 72
11
 73
7
 74
0
 42
0.0000001
 43
0.0000001
 44
0.0000000001
 40
0.0
 40
0.0
 40
0.0
 40
0.0
 40
0.227264483
 40
0.4633412702
 40
0.7191466225
 40
1.0
 40
1.0
 40
1.0
 40
1.0
 10
45.8908044764
 20
86.4498450398
 30
0.0
 10
45.7747556603
 20
86.38270852
 30
0.0
 10
45.558182084
 20
86.2074260319
 30
0.0
 10
45.322550283
 20
85.8476262502
 30
0.0
 10
45.1823216592
 20
85.4091331028
 30
0.0
 10
45.1543564546
 20
85.0913113283
 30
0.0
 10
45.1543564546
 20
84.9256282397
 30
0.0
  0
SPLINE
  5
32D
100
AcDbEntity
  8
00_COMPONENTS_1
100
AcDbSpline
 62
7
  6
CONTINUOUS
 70
0
 71
3
 72
19
 73
15
 74
0
 42
0.0000001
 43
0.0000001
 44
0.0000000001
 40
0.0
 40
0.0
 40
0.0
 40
0.0
 40
0.130187725
 40
0.2735229128
 40
0.4220007569
 40
0.5667042341
 40
0.6352115005
 40
0.7000149906
 40
0.760400819
 40
0.8160587187
 40
0.8671409298
 40
0.9140780671
 40
0.957826104
 40
1.0
 40
1.0
 40
1.0
 40
1.0
 10
29.9439078425
 20
93.4534761835
 30
0.0
 10
29.9439078425
 20
93.1745928949
 30
0.0
 10
30.0173282169
 20
92.5881676334
 30
0.0
 10
30.2891866835
 20
91.7220628164
 30
0.0
 10
30.7107222657
 20
90.8830073553
 30
0.0
 10
31.1675517462
 20
90.2518858155
 30
0.0
 10
31.5820146963
 20
89.8230489231
 30
0.0
 10
31.89950702
 20
89.554643518
 30
0.0
 10
32.2235626832
 20
89.3404045489
 30
0.0
 10
32.547978915
 20
89.1858767215
 30
0.0
 10
32.865379121
 20
89.0927229126
 30
0.0
 10
33.1699433189
 20
89.0633083896
 30
0.0
 10
33.454671913
 20
89.1023204798
 30
0.0
 10
33.6268981565
 20
89.1738757769
 30
0.0
 10
33.7051226556
 20
89.2190736539
 30
0.0
  0
SPLINE
  5
32E
100
AcDbEntity
  8
00_COMPONENTS_1
100
AcDbSpline
 62
7
  6
CONTINUOUS
 70
0
 71
3
 72
11
 73
7
 74
0
 42
0.0000001
 43
0.0000001
 44
0.0000000001
 40
0.0
 40
0.0
 40
0.0
 40
0.0
 40
0.2294721115
 40
0.4680611117
 40
0.7235597053
 40
1.0
 40
1.0
 40
1.0
 40
1.0
 10
107.4285667031
 20
134.5578071669
 30
0.0
 10
107.4769509451
 20
134.5857889633
 30
0.0
 10
107.5834171421
 20
134.6303447748
 30
0.0
 10
107.7591086573
 20
134.6572970448
 30
0.0
 10
107.9476214254
 20
134.6450628688
 30
0.0
 10
108.0739215946
 20
134.6131369068
 30
0.0
 10
108.1377724187
 20
134.5917638661
 30
0.0
  0
SPLINE
  5
32F
100
AcDbEntity
  8
00_COMPONENTS_1
100
AcDbSpline
 62
7
  6
CONTINUOUS
 70
0
 71
3
 72
20
 73
16
 74
0
 42
0.0000001
 43
0.0000001
 44
0.0000000001
 40
0.0
 40
0.0
 40
0.0
 40
0.0
 40
0.126956903
 40
0.266541383
 40
0.4117830967
 40
0.4840661402
 40
0.5547517859
 40
0.6230267636
 40
0.6881377112
 40
0.7494154553
 40
0.8065563426
 40
0.8596496541
 40
0.9090025833
 40
0.9553541545
 40
1.0
 40
1.0
 40
1.0
 40
1.0
 10
37.2654465591
 20
89.0257672378
 30
0.0
 10
37.2654465591
 20
88.748039926
 30
0.0
 10
37.3445417413
 20
88.1642800831
 30
0.0
 10
37.6392158654
 20
87.3084153529
 30
0.0
 10
38.0214185199
 20
86.6219866649
 30
0.0
 10
38.3973821027
 20
86.1150137581
 30
0.0
 10
38.7068328275
 20
85.7708072363
 30
0.0
 10
39.0366532849
 20
85.4688769092
 30
0.0
 10
39.3796663987
 20
85.2150571394
 30
0.0
 10
39.7295369056
 20
85.0158563779
 30
0.0
 10
40.0793554398
 20
84.876555714
 30
0.0
 10
40.4211666257
 20
84.7983201244
 30
0.0
 10
40.7484571187
 20
84.7831198572
 30
0.0
 10
41.0536386785
 20
84.8348583551
 30
0.0
 10
41.2388013733
 20
84.913805987
 30
0.0
 10
41.3233670915
 20
84.9626658213
 30
0.0
  0
SPLINE
  5
330
100
AcDbEntity
  8
00_COMPONENTS_1
100
AcDbSpline
 62
7
  6
CONTINUOUS
 70
0
 71
3
 72
11
 73
7
 74
0
 42
0.0000001
 43
0.0000001
 44
0.0000000001
 40
0.0
 40
0.0
 40
0.0
 40
0.0
 40
0.3068346473
 40
0.5729177728
 40
0.8000140926
 40
1.0
 40
1.0
 40
1.0
 40
1.0
 10
90.4289740832
 20
145.5916022602
 30
0.0
 10
90.3201502039
 20
145.5287731392
 30
0.0
 10
90.1241642884
 20
145.3977780716
 30
0.0
 10
89.8869588229
 20
145.1684711807
 30
0.0
 10
89.734723322
 20
144.9243786096
 30
0.0
 10
89.6968528996
 20
144.7485233832
 30
0.0
 10
89.6967936553
 20
144.6666226471
 30
0.0
  0
SPLINE
  5
331
100
AcDbEntity
  8
00_COMPONENTS_1
100
AcDbSpline
 62
7
  6
CONTINUOUS
 70
0
 71
3
 72
20
 73
16
 74
0
 42
0.0000001
 43
0.0000001
 44
0.0000000001
 40
0.0
 40
0.0
 40
0.0
 40
0.0
 40
0.1240447721
 40
0.2602145906
 40
0.4024444378
 40
0.4736259124
 40
0.5435979942
 40
0.6116191226
 40
0.6769933867
 40
0.7391028654
 40
0.7976394756
 40
0.8526234328
 40
0.9042455981
 40
0.9530370558
 40
1.0
 40
1.0
 40
1.0
 40
1.0
 10
45.1543564546
 20
84.9256282397
 30
0.0
 10
45.1543564546
 20
84.6480640082
 30
0.0
 10
45.2396745962
 20
84.064926895
 30
0.0
 10
45.5592817066
 20
83.2174355841
 30
0.0
 10
45.9720468118
 20
82.5469418347
 30
0.0
 10
46.3762528606
 20
82.0573792884
 30
0.0
 10
46.7090884657
 20
81.7271199165
 30
0.0
 10
47.0633693712
 20
81.4402738237
 30
0.0
 10
47.4314670579
 20
81.2021934198
 30
0.0
 10
47.8064864109
 20
81.0189714319
 30
0.0
 10
48.1809930038
 20
80.8955524485
 30
0.0
 10
48.5466338877
 20
80.8326863204
 30
0.0
 10
48.896319299
 20
80.8318157073
 30
0.0
 10
49.2220802943
 20
80.8960888116
 30
0.0
 10
49.4203714028
 20
80.9825457714
 30
0.0
 10
49.5113515798
 20
81.0351332735
 30
0.0
  0
SPLINE
  5
332
100
AcDbEntity
  8
00_COMPONENTS_1
100
AcDbSpline
 62
7
  6
CONTINUOUS
 70
0
 71
3
 72
11
 73
7
 74
0
 42
0.0000001
 43
0.0000001
 44
0.0000000001
 40
0.0
 40
0.0
 40
0.0
 40
0.0
 40
0.2348704789
 40
0.4800561016
 40
0.7352661598
 40
1.0
 40
1.0
 40
1.0
 40
1.0
 10
21.2388082653
 20
95.9800665434
 30
0.0
 10
23.4816540554
 20
94.1854331652
 30
0.0
 10
28.2218066708
 20
90.7089634801
 30
0.0
 10
35.8586870318
 20
85.9474614905
 30
0.0
 10
44.1287406515
 20
81.5546645516
 30
0.0
 10
49.9285732645
 20
78.9358885313
 30
0.0
 10
52.9173239519
 20
77.6908807409
 30
0.0
  0
SPLINE
  5
333
100
AcDbEntity
  8
00_COMPONENTS_1
100
AcDbSpline
 62
7
  6
CONTINUOUS
 70
0
 71
3
 72
11
 73
7
 74
0
 42
0.0000001
 43
0.0000001
 44
0.0000000001
 40
0.0
 40
0.0
 40
0.0
 40
0.0
 40
0.279744077
 40
0.535238843
 40
0.7716609672
 40
1.0
 40
1.0
 40
1.0
 40
1.0
 10
105.2782783113
 20
137.5593253404
 30
0.0
 10
105.1678606799
 20
137.4955760717
 30
0.0
 10
104.9667916879
 20
137.3540509497
 30
0.0
 10
104.7284719802
 20
137.0907469185
 30
0.0
 10
104.5790201472
 20
136.7933051132
 30
0.0
 10
104.5462828145
 20
136.5799096824
 30
0.0
 10
104.5463076054
 20
136.4758394818
 30
0.0
  0
ENDSEC
  0
SECTION
  2
OBJECTS
  0
DICTIONARY
  5
C
100
AcDbDictionary
280
0
281
1
  3
ACAD_GROUP
350
D
  3
ACAD_MLINESTYLE
350
17
  3
ACAD_LAYOUT
350
1A
  3
ACAD_PLOTSETTINGS
350
19
  3
ACAD_PLOTSTYLENAME
350
E
  0
DICTIONARY
  5
D
102
{ACAD_REACTORS
330
C
102
}
100
AcDbDictionary
280
0
281
1
  0
ACDBDICTIONARYWDFLT
  5
E
102
{ACAD_REACTORS
330
C
102
}
100
AcDbDictionary
281
1
  3
Normal
350
F
100
AcDbDictionaryWithDefault
340
F
  0
DICTIONARY
  5
17
102
{ACAD_REACTORS
330
C
102
}
100
AcDbDictionary
280
0
281
1
  3
Standard
350
18
  0
DICTIONARY
  5
19
102
{ACAD_REACTORS
330
C
102
}
100
AcDbDictionary
281
1
  0
DICTIONARY
  5
1A
102
{ACAD_REACTORS
330
C
102
}
100
AcDbDictionary
281
1
  3
Model
350
334
  3
Layout1
350
335
  0
ACDBPLACEHOLDER
  5
F
102
{ACAD_REACTORS
330
E
102
}
  0
MLINESTYLE
  5
18
102
{ACAD_REACTORS
330
17
102
}
100
AcDbMlineStyle
  2
STANDARD
 70
0
  3

 62
256
 51
90.0
 52
90.0
 71
2
 49
0.5
 62
256
  6
BYLAYER
 49
-0.5
 62
256
  6
BYLAYER
  0
LAYOUT
  5
334
102
{ACAD_REACTORS
330
1A
102
}
100
AcDbPlotSettings
  1

  2
none_device
  4

  6

 40
0.0
 41
0.0
 42
0.0
 43
0.0
 44
210.0
 45
297.0
 46
0.0
 47
0.0
 48
0.0
 49
0.0
140
0.0
141
0.0
142
1.0
143
1.0
 70
1024
 72
1
 73
0
 74
0
  7

 75
0
147
1.0
148
0.0
149
0.0
100
AcDbLayout
  1
Model
 70
0
 71
0
 10
0.0
 20
0.0
 11
210.0
 21
297.0
 12
0.0
 22
0.0
 32
0.0
 14
0.0
 24
0.0
 34
0.0
 15
0.0
 25
0.0
 35
0.0
146
0.0
 13
0.0
 23
0.0
 33
0.0
 16
1.0
 26
0.0
 36
0.0
 17
0.0
 27
1.0
 37
0.0
 76
0
330
216
345
0
346
0
  0
LAYOUT
  5
335
102
{ACAD_REACTORS
330
1A
102
}
100
AcDbPlotSettings
  1

  2
none_device
  4

  6

 40
0.0
 41
0.0
 42
0.0
 43
0.0
 44
210.0
 45
297.0
 46
0.0
 47
0.0
 48
0.0
 49
0.0
140
0.0
141
0.0
142
1.0
143
1.0
 70
0
 72
1
 73
0
 74
0
  7

 75
0
147
1.0
148
0.0
149
0.0
100
AcDbLayout
  1
Layout1
 70
0
 71
1
 10
0.0
 20
0.0
 11
210.0
 21
297.0
 12
0.0
 22
0.0
 32
0.0
 14
0.0
 24
0.0
 34
0.0
 15
0.0
 25
0.0
 35
0.0
146
0.0
 13
0.0
 23
0.0
 33
0.0
 16
1.0
 26
0.0
 36
0.0
 17
0.0
 27
1.0
 37
0.0
 76
0
330
217
345
0
346
0
  0
ENDSEC
  0
EOF
