999
DXF file: C:\Users\sesa63760\Dev\_Creo\CAD\MCADID0004931_3D-CAD\drw0001_1.dxf
999
Pro/ENGINEER 2019471 by Parametric Technology Corporation
  0
SECTION
  2
HEADER
  9
$ACADVER
  1
AC1024
  9
$DWGCODEPAGE
  3
ANSI_1252
  9
$EXTMAX
 10
422.2029647826
 20
597.1156216211
 30
0.0
  9
$EXTMIN
 10
0.0
 20
0.0
 30
0.0
  9
$LIMMIN
 10
0.0
 20
0.0
  9
$LIMMAX
 10
422.2029647826
 20
597.1156216211
  9
$VIEWCTR
 10
211.1014823913
 20
298.5578108105
  9
$VIEWSIZE
 40
597.1156216211
  9
$CLAYER
  8
0
  9
$LTSCALE
 40
38.9230923723
  9
$CELTYPE
  6
BYLAYER
  9
$DIMSCALE
 40
1.0
  9
$DIMASZ
 40
5.0262257712
  9
$DIMEXO
 40
1.0
  9
$DIMDLI
 40
26.8923183663
  9
$DIMEXE
 40
1.0
  9
$DIMCEN
 40
6.3692332973
  9
$DIMLFAC
 40
1.0
  9
$DIMBLK
  1
_FILLED
  9
$DIMALT
 70
0
  9
$DIMALTF
 40
0.0393700787
  9
$DIMTXT
 40
7.0367160797
  9
$DIMTOL
 70
1
  9
$DIMLIM
 70
0
  9
$DIMTFAC
 40
1.0
  9
$DIMTP
 40
0.01
  9
$DIMTM
 40
0.01
  9
$DIMGAP
 40
0.625
  9
$DIMDSEP
 70
46
  9
$AUNITS
 70
0
  9
$PDMODE
 70
3
  9
$PDSIZE
 40
0.3125
  9
$HANDSEED
  5
40C
  9
$TILEMODE
 70
1
  9
$MEASUREMENT
 70
1
  9
$INSUNITS
 70
4
  0
ENDSEC
  0
SECTION
  2
CLASSES
  0
CLASS
  1
ACDBDICTIONARYWDFLT
  2
AcDbDictionaryWithDefault
  3
AutoCAD 2000
 90
0
 91
1
280
0
281
0
  0
CLASS
  1
ACDBPLACEHOLDER
  2
AcDbPlaceHolder
  3
AutoCAD 2000
 90
0
 91
1
280
0
281
0
  0
CLASS
  1
LAYOUT
  2
AcDbLayout
  3
AutoCAD 2000
 90
0
 91
0
280
0
281
0
  0
ENDSEC
  0
SECTION
  2
TABLES
  0
TABLE
  2
VPORT
  5
8
100
AcDbSymbolTable
 70
2
  0
VPORT
  5
1F4
100
AcDbSymbolTableRecord
100
AcDbViewportTableRecord
  2
*ACTIVE
 70
0
 10
0.0
 20
0.0
 11
1.0
 21
1.0
 12
211.1014823913
 22
298.5578108105
 13
0.0
 23
0.0
 14
1.0
 24
1.0
 15
0.0
 25
0.0
 16
0.0
 26
0.0
 36
1.0
 17
0.0
 27
0.0
 37
0.0
 40
597.1156216211
 41
0.7070707071
 42
50.0
 43
0.0
 44
0.0
 50
0.0
 51
0.0
 71
0
 72
100
 73
1
 74
1
 75
0
 76
0
 77
0
 78
0
  0
ENDTAB
  0
TABLE
  2
LTYPE
  5
5
100
AcDbSymbolTable
 70
6
  0
LTYPE
  5
14
100
AcDbSymbolTableRecord
100
AcDbLinetypeTableRecord
  2
BYBLOCK
 70
0
  3

 72
65
 73
0
 40
0.0
  0
LTYPE
  5
15
100
AcDbSymbolTableRecord
100
AcDbLinetypeTableRecord
  2
BYLAYER
 70
0
  3

 72
65
 73
0
 40
0.0
  0
LTYPE
  5
16
100
AcDbSymbolTableRecord
100
AcDbLinetypeTableRecord
  2
CONTINUOUS
 70
64
  3
Solid line
 72
65
 73
0
 40
0.0
  0
LTYPE
  5
1F5
100
AcDbSymbolTableRecord
100
AcDbLinetypeTableRecord
  2
CENTER
 70
64
  3
____ _ ____ _ ____ _ ____ _ ____ _ ____ _ ____
 72
65
 73
4
 40
0.6
 49
0.375
 74
0
 49
-0.075
 74
0
 49
0.075
 74
0
 49
-0.075
 74
0
  0
LTYPE
  5
1F6
100
AcDbSymbolTableRecord
100
AcDbLinetypeTableRecord
  2
HIDDEN
 70
64
  3
- - - - - - - - - - - - - - - - - - - -
 72
65
 73
2
 40
0.2
 49
0.1
 74
0
 49
-0.1
 74
0
  0
LTYPE
  5
1F7
100
AcDbSymbolTableRecord
100
AcDbLinetypeTableRecord
  2
PHANTOM
 70
64
  3
_____ _ _ _____ _ _ _____ _ _ _____
 72
65
 73
6
 40
0.8
 49
0.45
 74
0
 49
-0.05
 74
0
 49
0.1
 74
0
 49
-0.05
 74
0
 49
0.1
 74
0
 49
-0.05
 74
0
  0
LTYPE
  5
1F8
100
AcDbSymbolTableRecord
100
AcDbLinetypeTableRecord
  2
DOT
 70
64
  3
. . . . . . . . . . . . . . . . . . . .
 72
65
 73
2
 40
0.2
 49
0.1
 74
0
 49
-0.1
 74
0
  0
LTYPE
  5
1F9
100
AcDbSymbolTableRecord
100
AcDbLinetypeTableRecord
  2
DASHED
 70
64
  3
- - - - - - - - - - - - - - - - - - - -
 72
65
 73
2
 40
0.2
 49
0.1
 74
0
 49
-0.1
 74
0
  0
ENDTAB
  0
TABLE
  2
LAYER
  5
2
100
AcDbSymbolTable
 70
36
  0
LAYER
  5
10
100
AcDbSymbolTableRecord
100
AcDbLayerTableRecord
  2
0
 70
0
 62
7
  6
CONTINUOUS
370
-3
390
F
  0
LAYER
  5
1FA
100
AcDbSymbolTableRecord
100
AcDbLayerTableRecord
  2
DEFAULT_1
 70
0
 62
7
  6
CENTER
370
-3
390
F
  0
LAYER
  5
1FB
100
AcDbSymbolTableRecord
100
AcDbLayerTableRecord
  2
DEFAULT_2
 70
0
 62
7
  6
HIDDEN
370
-3
390
F
  0
LAYER
  5
1FC
100
AcDbSymbolTableRecord
100
AcDbLayerTableRecord
  2
DEFAULT_3
 70
0
 62
7
  6
PHANTOM
370
-3
390
F
  0
LAYER
  5
1FD
100
AcDbSymbolTableRecord
100
AcDbLayerTableRecord
  2
00_COMPONENTS
 70
0
 62
7
  6
CONTINUOUS
370
-3
390
F
  0
LAYER
  5
1FE
100
AcDbSymbolTableRecord
100
AcDbLayerTableRecord
  2
01_1_DEFAULT_DATUMS
 70
0
 62
7
  6
CONTINUOUS
370
-3
390
F
  0
LAYER
  5
1FF
100
AcDbSymbolTableRecord
100
AcDbLayerTableRecord
  2
01_PLANES
 70
0
 62
7
  6
CONTINUOUS
370
-3
390
F
  0
LAYER
  5
200
100
AcDbSymbolTableRecord
100
AcDbLayerTableRecord
  2
02_COORD_SYS
 70
0
 62
7
  6
CONTINUOUS
370
-3
390
F
  0
LAYER
  5
201
100
AcDbSymbolTableRecord
100
AcDbLayerTableRecord
  2
03_AXES
 70
0
 62
7
  6
CONTINUOUS
370
-3
390
F
  0
LAYER
  5
202
100
AcDbSymbolTableRecord
100
AcDbLayerTableRecord
  2
04_POINTS
 70
0
 62
7
  6
CONTINUOUS
370
-3
390
F
  0
LAYER
  5
203
100
AcDbSymbolTableRecord
100
AcDbLayerTableRecord
  2
05_CURVES
 70
0
 62
7
  6
CONTINUOUS
370
-3
390
F
  0
LAYER
  5
204
100
AcDbSymbolTableRecord
100
AcDbLayerTableRecord
  2
06_SURFS
 70
0
 62
7
  6
CONTINUOUS
370
-3
390
F
  0
LAYER
  5
205
100
AcDbSymbolTableRecord
100
AcDbLayerTableRecord
  2
07_COSMETICS
 70
0
 62
7
  6
CONTINUOUS
370
-3
390
F
  0
LAYER
  5
206
100
AcDbSymbolTableRecord
100
AcDbLayerTableRecord
  2
10_NOTES
 70
0
 62
7
  6
CONTINUOUS
370
-3
390
F
  0
LAYER
  5
207
100
AcDbSymbolTableRecord
100
AcDbLayerTableRecord
  2
11_NOTES_PUB
 70
0
 62
7
  6
CONTINUOUS
370
-3
390
F
  0
LAYER
  5
208
100
AcDbSymbolTableRecord
100
AcDbLayerTableRecord
  2
13_REF_GTOL
 70
0
 62
7
  6
CONTINUOUS
370
-3
390
F
  0
LAYER
  5
209
100
AcDbSymbolTableRecord
100
AcDbLayerTableRecord
  2
16_MISC
 70
0
 62
7
  6
CONTINUOUS
370
-3
390
F
  0
LAYER
  5
20A
100
AcDbSymbolTableRecord
100
AcDbLayerTableRecord
  2
17_NO_PRINT
 70
0
 62
7
  6
CONTINUOUS
370
-3
390
F
  0
LAYER
  5
20B
100
AcDbSymbolTableRecord
100
AcDbLayerTableRecord
  2
18_DATUM_CAMS_JOINTS
 70
0
 62
7
  6
CONTINUOUS
370
-3
390
F
  0
LAYER
  5
20C
100
AcDbSymbolTableRecord
100
AcDbLayerTableRecord
  2
19_DATUM_FUNCTIONAL
 70
0
 62
7
  6
CONTINUOUS
370
-3
390
F
  0
LAYER
  5
20D
100
AcDbSymbolTableRecord
100
AcDbLayerTableRecord
  2
20_DATUM_KINEMATIC_SCHEME
 70
0
 62
7
  6
CONTINUOUS
370
-3
390
F
  0
LAYER
  5
20E
100
AcDbSymbolTableRecord
100
AcDbLayerTableRecord
  2
INTFCLR_4
 70
0
 62
7
  6
CONTINUOUS
370
-3
390
F
  0
ENDTAB
  0
TABLE
  2
STYLE
  5
3
100
AcDbSymbolTable
 70
1
  0
STYLE
  5
11
100
AcDbSymbolTableRecord
100
AcDbTextStyleTableRecord
  2
STANDARD
 70
0
 40
0.0
 41
1.0
 50
0.0
 71
0
 42
0.2
  3
ARIAL.TTF
  4

  0
STYLE
  5
20F
100
AcDbSymbolTableRecord
100
AcDbTextStyleTableRecord
  2
TEXTSTYLE_1
 70
0
 40
0.0
 41
0.8
 50
0.0
 71
0
 42
0.2
  3
gdt
  4

  0
ENDTAB
  0
TABLE
  2
VIEW
  5
6
100
AcDbSymbolTable
 70
0
  0
ENDTAB
  0
TABLE
  2
UCS
  5
7
100
AcDbSymbolTable
 70
0
  0
ENDTAB
  0
TABLE
  2
APPID
  5
9
100
AcDbSymbolTable
 70
1
  0
APPID
  5
210
100
AcDbSymbolTableRecord
100
AcDbRegAppTableRecord
  2
ACAD
 70
0
  0
ENDTAB
  0
TABLE
  2
BLOCK_RECORD
  5
1
100
AcDbSymbolTable
 70
0
  0
BLOCK_RECORD
  5
211
100
AcDbSymbolTableRecord
100
AcDbBlockTableRecord
  2
*Model_Space
  0
BLOCK_RECORD
  5
212
100
AcDbSymbolTableRecord
100
AcDbBlockTableRecord
  2
*Paper_Space
  0
BLOCK_RECORD
  5
213
100
AcDbSymbolTableRecord
100
AcDbBlockTableRecord
  2
_FILLED
  0
ENDTAB
  0
TABLE
  2
DIMSTYLE
  5
A
100
AcDbSymbolTable
 70
1
100
AcDbDimStyleTable
 71
0
  0
DIMSTYLE
105
214
100
AcDbSymbolTableRecord
100
AcDbDimStyleTableRecord
  2
STANDARD
 70
0
  3

  4

 40
1.0
 41
5.0262257712
 42
1.0
 43
0.38
 44
1.0
 45
0.0
 46
0.0
 47
0.01
 48
0.01
140
7.0367160797
141
0.09
142
0.0
143
25.4
144
1.0
145
0.0
146
1.0
147
0.625
 71
1
 72
0
 73
0
 74
0
 75
0
 76
0
 77
1
 78
8
 79
2
170
0
171
1
172
0
173
0
174
0
175
0
176
0
177
0
178
0
270
2
179
2
271
2
272
2
273
2
274
2
275
0
280
0
281
0
282
0
283
1
284
8
285
0
286
0
287
3
288
0
340
11
278
46
341
213
342
213
343
213
344
213
  0
ENDTAB
  0
ENDSEC
  0
SECTION
  2
BLOCKS
  0
BLOCK
  5
20
100
AcDbEntity
  8
0
100
AcDbBlockBegin
  2
*Model_Space
 70
0
 10
0.0
 20
0.0
 30
0.0
  3
*Model_Space
  1

  0
ENDBLK
  5
21
100
AcDbEntity
  8
0
100
AcDbBlockEnd
  0
BLOCK
  5
1C
100
AcDbEntity
  8
0
100
AcDbBlockBegin
  2
*Paper_Space
 70
0
 10
0.0
 20
0.0
 30
0.0
  3
*Paper_Space
  1

  0
ENDBLK
  5
1D
100
AcDbEntity
  8
0
100
AcDbBlockEnd
  0
BLOCK
  5
215
100
AcDbEntity
  8
0
100
AcDbBlockBegin
  2
_FILLED
 70
64
 10
0.0
 20
0.0
  3
_FILLED
  1

  0
SOLID
  5
216
100
AcDbEntity
  8
0
  6
BYBLOCK
 62
0
100
AcDbTrace
 10
0.0
 20
0.0
 11
-1.0
 21
0.25
 12
-1.0
 22
-0.25
 13
-1.0
 23
-0.25
  0
ENDBLK
  5
217
100
AcDbEntity
  8
0
  6
BYBLOCK
 62
0
100
AcDbBlockEnd
  0
ENDSEC
  0
SECTION
  2
ENTITIES
  0
LINE
  5
218
100
AcDbEntity
  8
0
100
AcDbLine
 62
7
  6
BYLAYER
 10
48.9556048218
 20
323.7661023024
 11
48.9556048218
 21
326.2156095538
  0
LINE
  5
219
100
AcDbEntity
  8
0
100
AcDbLine
 62
7
  6
BYLAYER
 10
50.1270895859
 20
322.1339575075
 11
50.127089584
 21
324.58346476
  0
LINE
  5
21A
100
AcDbEntity
  8
0
100
AcDbLine
 62
7
  6
BYLAYER
 10
52.9688375818
 20
319.6903995231
 11
52.9688375818
 21
320.4933106172
  0
LINE
  5
21B
100
AcDbEntity
  8
0
100
AcDbLine
 62
7
  6
BYLAYER
 10
53.0224357079
 20
313.1138447068
 11
53.0224357079
 21
320.462366461
  0
LINE
  5
21C
100
AcDbEntity
  8
0
100
AcDbLine
 62
7
  6
BYLAYER
 10
50.5154964836
 20
324.8225543675
 11
50.5154619323
 21
324.8083077827
  0
LINE
  5
21D
100
AcDbEntity
  8
0
100
AcDbLine
 62
7
  6
BYLAYER
 10
50.646637331
 20
340.3828493769
 11
50.1870198905
 21
325.0121961294
  0
LINE
  5
21E
100
AcDbEntity
  8
0
100
AcDbLine
 62
7
  6
BYLAYER
 10
49.6666482886
 20
341.797568845
 11
49.0168616694
 21
326.7015974012
  0
LINE
  5
21F
100
AcDbEntity
  8
0
100
AcDbLine
 62
7
  6
BYLAYER
 10
59.2703519371
 20
319.3047192003
 11
59.2703519371
 21
318.5479783037
  0
LINE
  5
220
100
AcDbEntity
  8
0
100
AcDbLine
 62
7
  6
BYLAYER
 10
55.8343864956
 20
311.4240228759
 11
55.9381240692
 21
318.2266775216
  0
LINE
  5
221
100
AcDbEntity
  8
0
100
AcDbLine
 62
7
  6
BYLAYER
 10
64.7756494306
 20
312.9463211527
 11
64.671911857
 21
306.1436665069
  0
LINE
  5
222
100
AcDbEntity
  8
0
100
AcDbLine
 62
7
  6
BYLAYER
 10
66.189857105
 20
313.7628094604
 11
66.1503290845
 21
311.1707354138
  0
LINE
  5
223
100
AcDbEntity
  8
0
100
AcDbLine
 62
7
  6
BYLAYER
 10
66.1256475519
 20
309.5522288613
 11
66.0861195314
 21
306.9601548147
  0
LINE
  5
224
100
AcDbEntity
  8
0
100
AcDbLine
 62
7
  6
BYLAYER
 10
59.5908776583
 20
319.5829991406
 11
59.5548453121
 21
318.3779956057
  0
LINE
  5
225
100
AcDbEntity
  8
0
100
AcDbLine
 62
7
  6
BYLAYER
 10
77.8136627782
 20
309.1037809
 11
77.8138483982
 21
309.0479335555
  0
LINE
  5
226
100
AcDbEntity
  8
0
100
AcDbLine
 62
7
  6
BYLAYER
 10
68.2811441725
 20
314.1024535686
 11
68.2811441725
 21
310.7547936584
  0
LINE
  5
227
100
AcDbEntity
  8
0
100
AcDbLine
 62
7
  6
BYLAYER
 10
68.3900338115
 20
314.5029187419
 11
68.3900338115
 21
314.4886523584
  0
LINE
  5
228
100
AcDbEntity
  8
0
100
AcDbLine
 62
7
  6
BYLAYER
 10
74.5290604017
 20
300.697270051
 11
74.5290604017
 21
308.0457918052
  0
LINE
  5
229
100
AcDbEntity
  8
0
100
AcDbLine
 62
7
  6
BYLAYER
 10
77.4244065233
 20
308.8237080103
 11
77.4244055047
 21
306.374201347
  0
LINE
  5
22A
100
AcDbEntity
  8
0
100
AcDbLine
 62
7
  6
BYLAYER
 10
77.7281875753
 20
302.5442759607
 11
77.7281875753
 21
306.2344061639
  0
LINE
  5
22B
100
AcDbEntity
  8
0
100
AcDbLine
 62
7
  6
BYLAYER
 10
67.9710617039
 20
312.8854039364
 11
68.0257185083
 21
314.7132516737
  0
LINE
  5
22C
100
AcDbEntity
  8
0
100
AcDbLine
 62
7
  6
BYLAYER
 10
77.9194969999
 20
324.6372127178
 11
77.459879427
 21
309.2665593209
  0
LINE
  5
22D
100
AcDbEntity
  8
0
100
AcDbLine
 62
7
  6
BYLAYER
 10
82.6539951157
 20
324.6372240993
 11
83.1136165084
 21
309.2665731352
  0
LINE
  5
22E
100
AcDbEntity
  8
0
100
AcDbLine
 62
7
  6
BYLAYER
 10
82.667446038
 20
306.1851414003
 11
82.667446038
 21
302.5442878332
  0
LINE
  5
22F
100
AcDbEntity
  8
0
100
AcDbLine
 62
7
  6
BYLAYER
 10
83.0783802572
 20
306.3742149375
 11
83.078379238
 21
308.8237216005
  0
LINE
  5
230
100
AcDbEntity
  8
0
100
AcDbLine
 62
7
  6
BYLAYER
 10
85.9201507737
 20
300.6663803625
 11
85.9201507737
 21
308.0149021166
  0
LINE
  5
231
100
AcDbEntity
  8
0
100
AcDbLine
 62
7
  6
BYLAYER
 10
82.7597761036
 20
309.1037598339
 11
82.7596447625
 21
309.0479454176
  0
LINE
  5
232
100
AcDbEntity
  8
0
100
AcDbLine
 62
7
  6
BYLAYER
 10
98.1425404976
 20
370.5378945331
 11
50.6466176171
 21
343.1162743486
  0
LINE
  5
233
100
AcDbEntity
  8
0
100
AcDbLine
 62
7
  6
BYLAYER
 10
118.8383424695
 20
361.3227120986
 11
119.7253215922
 21
361.8348066771
  0
LINE
  5
234
100
AcDbEntity
  8
0
100
AcDbLine
 62
7
  6
BYLAYER
 10
119.9014153261
 20
361.9267226236
 11
119.7253215922
 21
361.8348066771
  0
LINE
  5
235
100
AcDbEntity
  8
0
100
AcDbLine
 62
7
  6
BYLAYER
 10
127.6494569318
 20
324.7586626944
 11
127.6494569318
 21
332.1071844486
  0
LINE
  5
236
100
AcDbEntity
  8
0
100
AcDbLine
 62
7
  6
BYLAYER
 10
127.6679137683
 20
331.3768182144
 11
127.6679137683
 21
332.1071844486
  0
LINE
  5
237
100
AcDbEntity
  8
0
100
AcDbLine
 62
7
  6
BYLAYER
 10
138.9658737696
 20
358.2288783767
 11
131.1591947247
 21
352.789519473
  0
LINE
  5
238
100
AcDbEntity
  8
0
100
AcDbLine
 62
7
  6
BYLAYER
 10
57.5170772368
 20
319.3971594473
 11
56.1028695624
 21
318.5806711396
  0
LINE
  5
239
100
AcDbEntity
  8
0
100
AcDbLine
 62
7
  6
BYLAYER
 10
57.9256161266
 20
319.3514480547
 11
56.5114084522
 21
318.534959747
  0
LINE
  5
23A
100
AcDbEntity
  8
0
100
AcDbLine
 62
7
  6
BYLAYER
 10
59.2703519371
 20
319.3047192003
 11
59.5880410344
 21
319.4881359913
  0
LINE
  5
23B
100
AcDbEntity
  8
0
100
AcDbLine
 62
7
  6
BYLAYER
 10
82.6539951157
 20
324.6372240993
 11
130.1499182446
 21
352.0588444295
  0
LINE
  5
23C
100
AcDbEntity
  8
0
100
AcDbLine
 62
7
  6
BYLAYER
 10
64.2220351372
 20
313.9279170444
 11
65.6362428116
 21
314.7444053522
  0
LINE
  5
23D
100
AcDbEntity
  8
0
100
AcDbLine
 62
7
  6
BYLAYER
 10
66.189857105
 20
313.7628094604
 11
64.7756494306
 21
312.9463211526
  0
LINE
  5
23E
100
AcDbEntity
  8
0
100
AcDbLine
 62
7
  6
BYLAYER
 10
68.2811441725
 20
314.1024535686
 11
68.682406508
 21
314.3341211031
  0
LINE
  5
23F
100
AcDbEntity
  8
0
100
AcDbLine
 62
7
  6
BYLAYER
 10
57.524062447
 20
319.401052846
 11
57.5171067645
 21
319.3971085475
  0
LINE
  5
240
100
AcDbEntity
  8
0
100
AcDbLine
 62
7
  6
BYLAYER
 10
56.1028990901
 20
318.5806202398
 11
56.1098547726
 21
318.5845645383
  0
LWPOLYLINE
  5
241
100
AcDbEntity
  8
0
100
AcDbPolyline
 62
7
  6
BYLAYER
 90
27
 70
0
 10
140.001690118
 20
360.9207214339
 10
146.2234619616
 20
364.2673611847
 10
153.5942115252
 20
368.5090090503
 10
159.0882401118
 20
372.0446197874
 10
163.6825392767
 20
374.6339867091
 10
168.5142277388
 20
376.0801979064
 10
173.1807322378
 20
376.1617597462
 10
177.9770824253
 20
374.8875247439
 10
182.8267239092
 20
372.6896460224
 10
187.4915943774
 20
369.2217900519
 10
190.8575625268
 20
364.0492399014
 10
193.8059150929
 20
358.8688594703
 10
198.1420672549
 20
355.16642559
 10
202.9282997644
 20
353.2685681325
 10
207.8939670891
 20
352.9056824919
 10
212.2828302853
 20
353.624831986
 10
215.9509774676
 20
354.8146416786
 10
219.0166898223
 20
356.1116398902
 10
221.7817398384
 20
357.1676978873
 10
224.6254818293
 20
357.7089004297
 10
227.4644828888
 20
357.7309314628
 10
229.997165981
 20
357.4263493079
 10
232.1836935933
 20
356.8802921851
 10
233.748588491
 20
356.2043909156
 10
234.2889262019
 20
355.7894618309
 10
234.4339029096
 20
355.4938282385
 10
234.5213184689
 20
354.8026352428
  0
LINE
  5
242
100
AcDbEntity
  8
0
100
AcDbLine
 62
7
  6
BYLAYER
 10
133.2228362882
 20
368.1761704612
 11
119.9014153261
 21
361.9267226236
  0
LINE
  5
243
100
AcDbEntity
  8
0
100
AcDbLine
 62
7
  6
BYLAYER
 10
349.9200167804
 20
234.490197388
 11
349.8711838856
 21
234.4796363539
  0
LINE
  5
244
100
AcDbEntity
  8
0
100
AcDbLine
 62
7
  6
BYLAYER
 10
351.5308121497
 20
233.9200868814
 11
351.2689941588
 21
233.8690936647
  0
LINE
  5
245
100
AcDbEntity
  8
0
100
AcDbLine
 62
7
  6
BYLAYER
 10
131.1297544248
 20
353.4734830481
 11
131.7795403805
 21
338.3775116603
  0
LINE
  5
246
100
AcDbEntity
  8
0
100
AcDbLine
 62
7
  6
BYLAYER
 10
130.1499182446
 20
352.0588444295
 11
130.6095395538
 21
336.6881931892
  0
LINE
  5
247
100
AcDbEntity
  8
0
100
AcDbLine
 62
7
  6
BYLAYER
 10
130.2809244339
 20
336.4984720875
 11
130.2809737561
 21
336.4842337317
  0
LINE
  5
248
100
AcDbEntity
  8
0
100
AcDbLine
 62
7
  6
BYLAYER
 10
130.5632888219
 20
333.7894760328
 11
130.5632888214
 21
336.2389832839
  0
LINE
  5
249
100
AcDbEntity
  8
0
100
AcDbLine
 62
7
  6
BYLAYER
 10
131.7347462578
 20
335.4216041271
 11
131.7347462578
 21
337.8711113785
  0
LINE
  5
24A
100
AcDbEntity
  8
0
100
AcDbLine
 62
7
  6
BYLAYER
 10
68.2811441725
 20
312.400954735
 11
66.1503290845
 21
311.1707354138
  0
LINE
  5
24B
100
AcDbEntity
  8
0
100
AcDbLine
 62
7
  6
BYLAYER
 10
66.1256475519
 20
309.5522288613
 11
68.2629991201
 21
310.7862219986
  0
LINE
  5
24C
100
AcDbEntity
  8
0
100
AcDbLine
 62
7
  6
BYLAYER
 10
64.671911857
 20
306.143666507
 11
66.0861195314
 21
306.9601548147
  0
LINE
  5
24D
100
AcDbEntity
  8
0
100
AcDbLine
 62
7
  6
BYLAYER
 10
64.5071663639
 20
305.789672889
 11
65.9213740383
 21
306.6061611967
  0
LINE
  5
24E
100
AcDbEntity
  8
0
100
AcDbLine
 62
7
  6
BYLAYER
 10
83.1120662833
 20
309.265681509
 11
130.6094803878
 21
336.6881628998
  0
LINE
  5
24F
100
AcDbEntity
  8
0
100
AcDbLine
 62
7
  6
BYLAYER
 10
82.7602702766
 20
309.0484544175
 11
130.278954743
 21
336.4832159223
  0
LINE
  5
250
100
AcDbEntity
  8
0
100
AcDbLine
 62
7
  6
BYLAYER
 10
130.5650097454
 20
336.2399748777
 11
83.0783727742
 21
308.8237159087
  0
LINE
  5
251
100
AcDbEntity
  8
0
100
AcDbLine
 62
7
  6
BYLAYER
 10
64.5071368361
 20
305.7897237888
 11
64.5001811536
 21
305.7857794903
  0
LINE
  5
252
100
AcDbEntity
  8
0
100
AcDbLine
 62
7
  6
BYLAYER
 10
67.9710617039
 20
312.8854039364
 11
68.2811441725
 21
313.051848703
  0
LINE
  5
253
100
AcDbEntity
  8
0
100
AcDbLine
 62
7
  6
BYLAYER
 10
331.5351639266
 20
245.1044570055
 11
331.4863310318
 21
245.0938959714
  0
LINE
  5
254
100
AcDbEntity
  8
0
100
AcDbLine
 62
7
  6
BYLAYER
 10
333.1459592959
 20
244.534346499
 11
332.884141305
 21
244.4833532823
  0
LINE
  5
255
100
AcDbEntity
  8
0
100
AcDbLine
 62
7
  6
BYLAYER
 10
83.0766549189
 20
306.3732168579
 11
85.9201507737
 21
308.0149021166
  0
LINE
  5
256
100
AcDbEntity
  8
0
100
AcDbLine
 62
7
  6
BYLAYER
 10
127.6494569318
 20
332.1071844486
 11
130.5632974613
 21
333.7894790445
  0
LINE
  5
257
100
AcDbEntity
  8
0
100
AcDbLine
 62
7
  6
BYLAYER
 10
127.6679137683
 20
331.3768182144
 11
127.6494569318
 21
331.3661622185
  0
LINE
  5
258
100
AcDbEntity
  8
0
100
AcDbLine
 62
7
  6
BYLAYER
 10
74.5290604017
 20
300.697270051
 11
77.7281875752
 21
302.5442759607
  0
LINE
  5
259
100
AcDbEntity
  8
0
100
AcDbLine
 62
7
  6
BYLAYER
 10
127.6494569318
 20
324.7586626944
 11
85.9201507737
 21
300.6663803625
  0
LINE
  5
25A
100
AcDbEntity
  8
0
100
AcDbLine
 62
7
  6
BYLAYER
 10
74.5290604017
 20
300.697270051
 11
65.107858386
 21
306.1364805195
  0
LINE
  5
25B
100
AcDbEntity
  8
0
100
AcDbLine
 62
7
  6
BYLAYER
 10
55.8353898978
 20
311.4898215884
 11
53.0224357079
 21
313.1138447068
  0
LINE
  5
25C
100
AcDbEntity
  8
0
100
AcDbLine
 62
7
  6
BYLAYER
 10
68.2811441725
 20
310.7547936584
 11
68.2448534406
 21
310.7757456482
  0
LINE
  5
25D
100
AcDbEntity
  8
0
100
AcDbLine
 62
7
  6
BYLAYER
 10
85.9201507737
 20
300.6663803625
 11
82.667446038
 21
302.5442878332
  0
LINE
  5
25E
100
AcDbEntity
  8
0
100
AcDbLine
 62
7
  6
BYLAYER
 10
52.9688375818
 20
319.6903995231
 11
53.0224357079
 21
319.6594553306
  0
LINE
  5
25F
100
AcDbEntity
  8
0
100
AcDbLine
 62
7
  6
BYLAYER
 10
77.4244055047
 20
306.374201347
 11
74.5290604017
 21
308.0457918052
  0
LINE
  5
260
100
AcDbEntity
  8
0
100
AcDbLine
 62
7
  6
BYLAYER
 10
50.1253649046
 20
322.1349512691
 11
53.0224357079
 21
320.462366461
  0
LINE
  5
261
100
AcDbEntity
  8
0
100
AcDbLine
 62
7
  6
BYLAYER
 10
66.1750316504
 20
313.9223189131
 11
67.9710617039
 21
312.8854039364
  0
LINE
  5
262
100
AcDbEntity
  8
0
100
AcDbLine
 62
7
  6
BYLAYER
 10
64.0986274741
 20
305.8353842816
 11
56.388000789
 21
310.4424269842
  0
LINE
  5
263
100
AcDbEntity
  8
0
100
AcDbLine
 62
7
  6
BYLAYER
 10
56.5114084522
 20
318.534959747
 11
64.2220351372
 21
313.9279170444
  0
LINE
  5
264
100
AcDbEntity
  8
0
100
AcDbLine
 62
7
  6
BYLAYER
 10
57.9256161266
 20
319.3514480547
 11
65.6362428116
 21
314.7444053522
  0
LINE
  5
265
100
AcDbEntity
  8
0
100
AcDbLine
 62
7
  6
BYLAYER
 10
77.4261278401
 20
308.8227122681
 11
68.2811441725
 21
314.1024535686
  0
LINE
  5
266
100
AcDbEntity
  8
0
100
AcDbLine
 62
7
  6
BYLAYER
 10
59.2703519371
 20
319.3047192003
 11
50.1270797215
 21
324.5834684941
  0
LINE
  5
267
100
AcDbEntity
  8
0
100
AcDbLine
 62
7
  6
BYLAYER
 10
59.5847001372
 20
319.5722991181
 11
50.5154619323
 21
324.8083077827
  0
LINE
  5
268
100
AcDbEntity
  8
0
100
AcDbLine
 62
7
  6
BYLAYER
 10
68.3900338115
 20
314.4886523584
 11
77.8120847412
 21
309.0490996048
  0
LINE
  5
269
100
AcDbEntity
  8
0
100
AcDbLine
 62
7
  6
BYLAYER
 10
77.459879427
 20
309.2665593209
 11
50.1870198905
 21
325.0121961294
  0
LINE
  5
26A
100
AcDbEntity
  8
0
100
AcDbLine
 62
7
  6
BYLAYER
 10
350.4414987218
 20
234.4808661702
 11
350.3854058268
 21
234.4912009443
  0
LINE
  5
26B
100
AcDbEntity
  8
0
100
AcDbLine
 62
7
  6
BYLAYER
 10
352.0765303123
 20
233.3800227647
 11
351.7771071033
 21
233.4400908642
  0
LINE
  5
26C
100
AcDbEntity
  8
0
100
AcDbLine
 62
7
  6
BYLAYER
 10
50.646637331
 20
340.3828493769
 11
77.9194969999
 21
324.6372127178
  0
LINE
  5
26D
100
AcDbEntity
  8
0
100
AcDbLine
 62
7
  6
BYLAYER
 10
332.0566458679
 20
245.0951257877
 11
332.000552973
 21
245.1054605619
  0
LINE
  5
26E
100
AcDbEntity
  8
0
100
AcDbLine
 62
7
  6
BYLAYER
 10
333.6916774584
 20
243.9942823822
 11
333.3922542495
 21
244.0543504817
  0
LINE
  5
26F
100
AcDbEntity
  8
0
100
AcDbLine
 62
7
  6
BYLAYER
 10
314.3784869437
 20
214.2639509813
 11
312.9819452366
 21
215.0702264715
  0
LINE
  5
270
100
AcDbEntity
  8
0
100
AcDbLine
 62
7
  6
BYLAYER
 10
312.6142481795
 20
215.2825116638
 11
312.2394800252
 21
215.4988792637
  0
LINE
  5
271
100
AcDbEntity
  8
0
100
AcDbLine
 62
7
  6
BYLAYER
 10
311.8717829681
 20
215.7111644561
 11
311.5323703
 21
215.9071200182
  0
LINE
  5
272
100
AcDbEntity
  8
0
100
AcDbLine
 62
7
  6
BYLAYER
 10
311.1646732429
 20
216.1194052106
 11
310.7899050886
 21
216.3357728105
  0
LINE
  5
273
100
AcDbEntity
  8
0
100
AcDbLine
 62
7
  6
BYLAYER
 10
310.4222080315
 20
216.5480580028
 11
310.0827953635
 21
216.744013565
  0
LINE
  5
274
100
AcDbEntity
  8
0
100
AcDbLine
 62
7
  6
BYLAYER
 10
309.7150983064
 20
216.9562987573
 11
309.3403301521
 21
217.1726663572
  0
LINE
  5
275
100
AcDbEntity
  8
0
100
AcDbLine
 62
7
  6
BYLAYER
 10
308.972633095
 20
217.3849515496
 11
308.6332204269
 21
217.5809071118
  0
LINE
  5
276
100
AcDbEntity
  8
0
100
AcDbLine
 62
7
  6
BYLAYER
 10
308.2655233698
 20
217.7931923041
 11
307.8907552155
 21
218.009559904
  0
LINE
  5
277
100
AcDbEntity
  8
0
100
AcDbLine
 62
7
  6
BYLAYER
 10
307.5230581584
 20
218.2218450964
 11
306.1335875485
 21
219.024038179
  0
LINE
  5
278
100
AcDbEntity
  8
0
100
AcDbLine
 62
7
  6
BYLAYER
 10
307.5230581584
 20
219.6098992055
 11
307.8907552155
 21
219.3976140131
  0
LINE
  5
279
100
AcDbEntity
  8
0
100
AcDbLine
 62
7
  6
BYLAYER
 10
308.2655233698
 20
219.1812464132
 11
308.6332204269
 21
218.9689612209
  0
LINE
  5
27A
100
AcDbEntity
  8
0
100
AcDbLine
 62
7
  6
BYLAYER
 10
308.972633095
 20
218.7730056587
 11
309.3403301521
 21
218.5607204664
  0
LINE
  5
27B
100
AcDbEntity
  8
0
100
AcDbLine
 62
7
  6
BYLAYER
 10
309.7150983064
 20
218.3443528665
 11
310.0827953635
 21
218.1320676741
  0
LINE
  5
27C
100
AcDbEntity
  8
0
100
AcDbLine
 62
7
  6
BYLAYER
 10
310.4222080315
 20
217.9361121119
 11
310.7899050886
 21
217.7238269196
  0
LINE
  5
27D
100
AcDbEntity
  8
0
100
AcDbLine
 62
7
  6
BYLAYER
 10
311.1646732429
 20
217.5074593197
 11
311.5323703
 21
217.2951741273
  0
LINE
  5
27E
100
AcDbEntity
  8
0
100
AcDbLine
 62
7
  6
BYLAYER
 10
311.8717829681
 20
217.0992185652
 11
312.2394800252
 21
216.8869333728
  0
LINE
  5
27F
100
AcDbEntity
  8
0
100
AcDbLine
 62
7
  6
BYLAYER
 10
312.6142481795
 20
216.6705657729
 11
312.9819452366
 21
216.4582805806
  0
LINE
  5
280
100
AcDbEntity
  8
0
100
AcDbLine
 62
7
  6
BYLAYER
 10
311.5783394977
 20
219.2282652899
 11
307.2366857853
 21
221.7348635227
  0
LINE
  5
281
100
AcDbEntity
  8
0
100
AcDbLine
 62
7
  6
BYLAYER
 10
314.3784869437
 20
218.5914137921
 11
312.4268641023
 21
219.7181582745
  0
LINE
  5
282
100
AcDbEntity
  8
0
100
AcDbLine
 62
7
  6
BYLAYER
 10
307.2366857853
 20
222.7146413335
 11
306.1335875485
 21
223.3515009898
  0
LINE
  5
283
100
AcDbEntity
  8
0
100
AcDbLine
 62
7
  6
BYLAYER
 10
311.5783394977
 20
220.5311079138
 11
307.2366857853
 21
223.0377061465
  0
LINE
  5
284
100
AcDbEntity
  8
0
100
AcDbLine
 62
7
  6
BYLAYER
 10
314.7320388623
 20
218.795535869
 11
312.7804160209
 21
219.9222803515
  0
LINE
  5
285
100
AcDbEntity
  8
0
100
AcDbLine
 62
7
  6
BYLAYER
 10
307.2735676327
 20
223.1015888253
 11
306.4871394671
 21
223.5556230667
  0
LINE
  5
286
100
AcDbEntity
  8
0
100
AcDbLine
 62
7
  6
BYLAYER
 10
314.7320388623
 20
219.8569890113
 11
312.7804160209
 21
220.9837334937
  0
LINE
  5
287
100
AcDbEntity
  8
0
100
AcDbLine
 62
7
  6
BYLAYER
 10
307.64596376
 20
223.9480438271
 11
306.4871394671
 21
224.617076209
  0
LINE
  5
288
100
AcDbEntity
  8
0
100
AcDbLine
 62
7
  6
BYLAYER
 10
307.9437896225
 20
224.2624527175
 11
312.2854433349
 21
221.7558544848
  0
LINE
  5
289
100
AcDbEntity
  8
0
100
AcDbLine
 62
7
  6
BYLAYER
 10
321.5909370297
 20
218.4280361237
 11
322.2980528645
 21
218.0197918419
  0
LINE
  5
28A
100
AcDbEntity
  8
0
100
AcDbLine
 62
7
  6
BYLAYER
 10
322.4394265533
 20
218.1014134919
 11
325.1052619871
 21
216.5623275054
  0
LINE
  5
28B
100
AcDbEntity
  8
0
100
AcDbLine
 62
7
  6
BYLAYER
 10
314.548175614
 20
223.0622357772
 11
310.2065219016
 21
225.5688340099
  0
LINE
  5
28C
100
AcDbEntity
  8
0
100
AcDbLine
 62
7
  6
BYLAYER
 10
315.6395357447
 20
223.9601946426
 11
311.2978820323
 21
226.4667928753
  0
LINE
  5
28D
100
AcDbEntity
  8
0
100
AcDbLine
 62
7
  6
BYLAYER
 10
316.0623076043
 20
224.7017630991
 11
311.7206538919
 21
227.2083613318
  0
LINE
  5
28E
100
AcDbEntity
  8
0
100
AcDbLine
 62
7
  6
BYLAYER
 10
312.3985437983
 20
227.7487845609
 11
313.4238528997
 21
227.1568354669
  0
LINE
  5
28F
100
AcDbEntity
  8
0
100
AcDbLine
 62
7
  6
BYLAYER
 10
315.7007462147
 20
225.8423002373
 11
316.7401975107
 21
225.2421863282
  0
LINE
  5
290
100
AcDbEntity
  8
0
100
AcDbLine
 62
7
  6
BYLAYER
 10
313.6995986067
 20
228.7811665785
 11
314.6566774157
 21
228.228609371
  0
LINE
  5
291
100
AcDbEntity
  8
0
100
AcDbLine
 62
7
  6
BYLAYER
 10
317.6066975973
 20
226.5254529556
 11
321.9444980019
 21
224.0210793808
  0
LINE
  5
292
100
AcDbEntity
  8
0
100
AcDbLine
 62
7
  6
BYLAYER
 10
322.2980528645
 20
224.2252102121
 11
317.8872983498
 21
226.7717029091
  0
LINE
  5
293
100
AcDbEntity
  8
0
100
AcDbLine
 62
7
  6
BYLAYER
 10
314.938871871
 20
228.4739392206
 11
313.3460437441
 21
229.3935381643
  0
LINE
  5
294
100
AcDbEntity
  8
0
100
AcDbLine
 62
7
  6
BYLAYER
 10
332.7248247856
 20
219.7222875656
 11
335.1871867697
 21
218.3006743724
  0
LINE
  5
295
100
AcDbEntity
  8
0
100
AcDbLine
 62
7
  6
BYLAYER
 10
324.2779436087
 20
225.3682938429
 11
322.347534059
 21
226.4827911027
  0
LINE
  5
296
100
AcDbEntity
  8
0
100
AcDbLine
 62
7
  6
BYLAYER
 10
316.4501101602
 20
229.8875933514
 11
315.3259344883
 21
230.5366217951
  0
LINE
  5
297
100
AcDbEntity
  8
0
100
AcDbLine
 62
7
  6
BYLAYER
 10
314.4986161099
 20
232.0757166202
 11
317.1299600976
 21
230.5565438289
  0
LINE
  5
298
100
AcDbEntity
  8
0
100
AcDbLine
 62
7
  6
BYLAYER
 10
322.347534059
 20
227.544244245
 11
325.1052619871
 21
225.9521053024
  0
LINE
  5
299
100
AcDbEntity
  8
0
100
AcDbLine
 62
7
  6
BYLAYER
 10
324.82237395
 20
228.9730851932
 11
321.7638989575
 21
230.7388566063
  0
LINE
  5
29A
100
AcDbEntity
  8
0
100
AcDbLine
 62
7
  6
BYLAYER
 10
325.7416324777
 20
229.5038161836
 11
322.3668611813
 21
231.4521972218
  0
LINE
  5
29B
100
AcDbEntity
  8
0
100
AcDbLine
 62
7
  6
BYLAYER
 10
321.9737288643
 20
232.0147134539
 11
319.6968355493
 21
233.3292486834
  0
LINE
  5
29C
100
AcDbEntity
  8
0
100
AcDbLine
 62
7
  6
BYLAYER
 10
320.1084935766
 20
233.4925260244
 11
322.3853868916
 21
232.1779907948
  0
LINE
  5
29D
100
AcDbEntity
  8
0
100
AcDbLine
 62
7
  6
BYLAYER
 10
315.3881144656
 20
236.6716860446
 11
318.9236447624
 21
234.6304928539
  0
LINE
  5
29E
100
AcDbEntity
  8
0
100
AcDbLine
 62
7
  6
BYLAYER
 10
330.5909735562
 20
227.8945098224
 11
335.1871867697
 21
225.240944918
  0
LINE
  5
29F
100
AcDbEntity
  8
0
100
AcDbLine
 62
7
  6
BYLAYER
 10
229.6743567143
 20
337.9219246995
 11
229.5805330252
 21
336.274359841
  0
LINE
  5
2A0
100
AcDbEntity
  8
0
100
AcDbLine
 62
7
  6
BYLAYER
 10
349.5228424179
 20
234.2785225142
 11
349.4863585007
 21
234.29676501
  0
LINE
  5
2A1
100
AcDbEntity
  8
0
100
AcDbLine
 62
7
  6
BYLAYER
 10
331.1379895641
 20
244.8927821318
 11
331.1015056468
 21
244.9110246275
  0
LINE
  5
2A2
100
AcDbEntity
  8
0
100
AcDbLine
 62
7
  6
BYLAYER
 10
351.0118931638
 20
234.2694676194
 11
350.9527257246
 21
234.2999270571
  0
LINE
  5
2A3
100
AcDbEntity
  8
0
100
AcDbLine
 62
7
  6
BYLAYER
 10
332.62704031
 20
244.8837272369
 11
332.5678728708
 21
244.9141866746
  0
LINE
  5
2A4
100
AcDbEntity
  8
0
100
AcDbLine
 62
7
  6
BYLAYER
 10
352.5491606291
 20
232.7200324048
 11
352.2344741161
 21
232.8866797487
  0
LINE
  5
2A5
100
AcDbEntity
  8
0
100
AcDbLine
 62
7
  6
BYLAYER
 10
334.1643077753
 20
243.3342920223
 11
333.8496212623
 21
243.5009393662
  0
LINE
  5
2A6
100
AcDbEntity
  8
0
100
AcDbLine
 62
7
  6
BYLAYER
 10
321.3984970819
 20
240.1417613525
 11
325.4628895579
 21
237.7952363479
  0
LINE
  5
2A7
100
AcDbEntity
  8
0
100
AcDbLine
 62
7
  6
BYLAYER
 10
335.2310821084
 20
232.1556953328
 11
341.197569386
 21
228.711020226
  0
LINE
  5
2A8
100
AcDbEntity
  8
0
100
AcDbLine
 62
7
  6
BYLAYER
 10
334.0856426775
 20
233.831310978
 11
333.9386900986
 21
233.9161521577
  0
LINE
  5
2A9
100
AcDbEntity
  8
0
100
AcDbLine
 62
7
  6
BYLAYER
 10
328.292873572
 20
237.175692114
 11
328.1459209863
 21
237.260533316
  0
LINE
  5
2AA
100
AcDbEntity
  8
0
100
AcDbLine
 62
7
  6
BYLAYER
 10
130.1498985321
 20
354.7921299024
 11
102.8767974896
 21
370.5379059139
  0
LINE
  5
2AB
100
AcDbEntity
  8
0
100
AcDbLine
 62
7
  6
BYLAYER
 10
234.5213184689
 20
354.8026352428
 11
234.522949409
 21
354.6654558932
  0
LINE
  5
2AC
100
AcDbEntity
  8
0
100
AcDbLine
 62
7
  6
BYLAYER
 10
237.5797071237
 20
336.3901200553
 11
237.5799350912
 21
336.2865910665
  0
LINE
  5
2AD
100
AcDbEntity
  8
0
100
AcDbLine
 62
7
  6
BYLAYER
 10
229.5804725728
 20
336.4206409588
 11
229.5805330252
 21
336.274359841
  0
LINE
  5
2AE
100
AcDbEntity
  8
0
100
AcDbLine
 62
7
  6
BYLAYER
 10
242.4851414828
 20
353.6003027314
 11
242.5229734223
 21
354.6691429715
  0
LINE
  5
2AF
100
AcDbEntity
  8
0
100
AcDbLine
 62
7
  6
BYLAYER
 10
242.5229313964
 20
354.6344177587
 11
242.4488468667
 21
353.1525227175
  0
LWPOLYLINE
  5
2B0
100
AcDbEntity
  8
0
100
AcDbPolyline
 62
7
  6
BYLAYER
 90
5
 70
0
 10
234.5224720069
 20
354.5791818411
 10
234.4700540505
 20
353.7525215722
 10
233.3665478354
 20
348.7559502619
 10
232.1353185861
 20
345.5448960724
 10
229.6743567143
 20
337.9219246995
  0
LWPOLYLINE
  5
2B1
100
AcDbEntity
  8
0
100
AcDbPolyline
 62
7
  6
BYLAYER
 90
4
 70
0
 10
237.5889970215
 20
336.3893004181
 10
237.6752534597
 20
337.3669445452
 10
239.9293570272
 20
343.4507300602
 10
241.2743820745
 20
347.2367199101
  0
LINE
  5
2B2
100
AcDbEntity
  8
0
100
AcDbLine
 62
7
  6
BYLAYER
 10
241.2743820745
 20
347.2367199101
 11
242.4851414828
 21
353.6003027314
  0
LWPOLYLINE
  5
2B3
100
AcDbEntity
  8
0
100
AcDbPolyline
 62
7
  6
BYLAYER
 90
14
 70
0
 10
229.5804725728
 20
336.4206409588
 10
230.337281996
 20
332.1181644687
 10
233.9457316382
 20
327.0031334867
 10
239.9241002689
 20
323.8991846057
 10
248.512281493
 20
322.772508113
 10
257.5757558694
 20
323.4922421276
 10
264.7303466038
 20
324.5353149574
 10
270.7467797675
 20
325.3856600514
 10
273.4597044779
 20
325.6842059934
 10
278.4233178157
 20
325.9500541271
 10
282.7587420075
 20
325.6865646865
 10
286.2338503005
 20
324.8651411616
 10
288.5934949328
 20
323.7222466549
 10
289.7536150104
 20
322.7479746611
  0
LWPOLYLINE
  5
2B4
100
AcDbEntity
  8
0
100
AcDbPolyline
 62
7
  6
BYLAYER
 90
24
 70
0
 10
242.4488468667
 20
353.1525227175
 10
241.9779425411
 20
358.1624131057
 10
238.9808029851
 20
362.3067001378
 10
233.1863521844
 20
364.9143921657
 10
226.9663226193
 20
365.7585345839
 10
221.4533032184
 20
365.3278130124
 10
216.9644026162
 20
363.926657516
 10
213.3876441599
 20
362.4045419739
 10
210.0159086329
 20
361.3044654472
 10
206.610359302
 20
360.8614772295
 10
203.7830476958
 20
361.3341668687
 10
201.5300592105
 20
362.4881041242
 10
200.6122018471
 20
363.2410172426
 10
199.2308847506
 20
365.1495776648
 10
197.7637880472
 20
368.1263296962
 10
195.6004476581
 20
371.8534197718
 10
191.8899000863
 20
376.0786451837
 10
184.8248066379
 20
380.6621216734
 10
176.635153804
 20
383.6429245804
 10
168.9736347272
 20
384.2036765741
 10
161.2733483097
 20
382.2970323639
 10
153.6868351886
 20
378.0617903439
 10
144.1096326407
 20
372.2433328965
 10
135.9495133606
 20
367.8226624825
  0
LINE
  5
2B5
100
AcDbEntity
  8
0
100
AcDbLine
 62
7
  6
BYLAYER
 10
242.5229734223
 20
354.6691429715
 11
242.5229313964
 21
354.6344177587
  0
LINE
  5
2B6
100
AcDbEntity
  8
0
100
AcDbLine
 62
7
  6
BYLAYER
 10
331.7267295364
 20
244.9473694707
 11
331.5351639266
 21
245.1044570055
  0
LINE
  5
2B7
100
AcDbEntity
  8
0
100
AcDbLine
 62
7
  6
BYLAYER
 10
350.1115823902
 20
234.3331098531
 11
349.9200167804
 21
234.490197388
  0
LINE
  5
2B8
100
AcDbEntity
  8
0
100
AcDbLine
 62
7
  6
BYLAYER
 10
333.2037864117
 20
244.4860351746
 11
333.1459592959
 21
244.534346499
  0
LINE
  5
2B9
100
AcDbEntity
  8
0
100
AcDbLine
 62
7
  6
BYLAYER
 10
351.5886392655
 20
233.8717755571
 11
351.5308121497
 21
233.9200868814
  0
LINE
  5
2BA
100
AcDbEntity
  8
0
100
AcDbLine
 62
7
  6
BYLAYER
 10
334.528584223
 20
242.6036215947
 11
334.2221152144
 21
242.8644135403
  0
LINE
  5
2BB
100
AcDbEntity
  8
0
100
AcDbLine
 62
7
  6
BYLAYER
 10
352.9134370768
 20
231.9893619772
 11
352.6069680682
 21
232.2501539228
  0
LINE
  5
2BC
100
AcDbEntity
  8
0
100
AcDbLine
 62
7
  6
BYLAYER
 10
237.7955619131
 20
335.0192490605
 11
237.5797071237
 21
336.3901200553
  0
LINE
  5
2BD
100
AcDbEntity
  8
0
100
AcDbLine
 62
7
  6
BYLAYER
 10
332.3275305304
 20
244.7754257879
 11
332.0566458679
 21
245.0951257877
  0
LINE
  5
2BE
100
AcDbEntity
  8
0
100
AcDbLine
 62
7
  6
BYLAYER
 10
350.7123833842
 20
234.1611661704
 11
350.4414987218
 21
234.4808661702
  0
LINE
  5
2BF
100
AcDbEntity
  8
0
100
AcDbLine
 62
7
  6
BYLAYER
 10
333.7438493934
 20
243.9317239935
 11
333.6916774584
 21
243.9942823822
  0
LINE
  5
2C0
100
AcDbEntity
  8
0
100
AcDbLine
 62
7
  6
BYLAYER
 10
352.1287022473
 20
233.317464376
 11
352.0765303123
 21
233.3800227647
  0
LINE
  5
2C1
100
AcDbEntity
  8
0
100
AcDbLine
 62
7
  6
BYLAYER
 10
334.7573257653
 20
241.8567911746
 11
334.4819419082
 21
242.1922683378
  0
LINE
  5
2C2
100
AcDbEntity
  8
0
100
AcDbLine
 62
7
  6
BYLAYER
 10
289.8133784368
 20
322.7908486762
 11
289.813410734
 21
322.7741326662
  0
LINE
  5
2C3
100
AcDbEntity
  8
0
100
AcDbLine
 62
7
  6
BYLAYER
 10
282.6206083732
 20
303.1338803162
 11
282.6205579063
 21
303.1062295144
  0
LINE
  5
2C4
100
AcDbEntity
  8
0
100
AcDbLine
 62
7
  6
BYLAYER
 10
282.6205579063
 20
303.1062295144
 11
282.6335174253
 21
303.696569223
  0
LINE
  5
2C5
100
AcDbEntity
  8
0
100
AcDbLine
 62
7
  6
BYLAYER
 10
283.1517841919
 20
307.2079980402
 11
282.6206083732
 21
303.1338803162
  0
LWPOLYLINE
  5
2C6
100
AcDbEntity
  8
0
100
AcDbPolyline
 62
7
  6
BYLAYER
 90
5
 70
0
 10
290.6207550045
 20
303.1578827284
 10
291.2424487322
 20
306.4201743316
 10
293.5165293417
 20
311.5692187355
 10
295.533760718
 20
315.88046447
 10
297.2810708053
 20
319.7514893403
  0
LWPOLYLINE
  5
2C7
100
AcDbEntity
  8
0
100
AcDbPolyline
 62
7
  6
BYLAYER
 90
7
 70
0
 10
289.8133784368
 20
322.7908486762
 10
289.6369264718
 20
322.1298524244
 10
288.5665767538
 20
319.8494400117
 10
287.2268083717
 20
316.9903753912
 10
286.5122279616
 20
315.4630064198
 10
284.8108594639
 20
311.8919589656
 10
283.1517841919
 20
307.2079980402
  0
LINE
  5
2C8
100
AcDbEntity
  8
0
100
AcDbLine
 62
7
  6
BYLAYER
 10
353.1421786191
 20
231.2425315571
 11
352.866794762
 21
231.5780087202
  0
LINE
  5
2C9
100
AcDbEntity
  8
0
100
AcDbLine
 62
7
  6
BYLAYER
 10
332.8563732465
 20
244.5020491193
 11
332.62704031
 21
244.8837272369
  0
LINE
  5
2CA
100
AcDbEntity
  8
0
100
AcDbLine
 62
7
  6
BYLAYER
 10
334.8332866406
 20
241.1966553209
 11
334.6092161233
 21
241.5727775244
  0
LINE
  5
2CB
100
AcDbEntity
  8
0
100
AcDbLine
 62
7
  6
BYLAYER
 10
334.2069316419
 20
243.2621544576
 11
334.1643077753
 21
243.3342920223
  0
LWPOLYLINE
  5
2CC
100
AcDbEntity
  8
0
100
AcDbPolyline
 62
7
  6
BYLAYER
 90
15
 70
0
 10
282.6335174253
 20
303.696569223
 10
283.3627792524
 20
299.0769496548
 10
286.2279164998
 20
295.4042801643
 10
291.3540090343
 20
293.298938935
 10
298.3635175143
 20
292.6686968613
 10
305.9082928198
 20
293.2457607131
 10
312.234523948
 20
294.2778585368
 10
317.6393552035
 20
295.1175502128
 10
320.0975324021
 20
295.4023753276
 10
324.6206654484
 20
295.6865286668
 10
328.6486173262
 20
295.6131907063
 10
332.2310903764
 20
295.2220363943
 10
335.181470787
 20
294.5005143333
 10
336.8551982289
 20
293.6475248385
 10
337.5222771201
 20
292.7915739182
  0
LINE
  5
2CD
100
AcDbEntity
  8
0
100
AcDbLine
 62
7
  6
BYLAYER
 10
297.8133681927
 20
322.8075518127
 11
297.8132495686
 21
322.7344578878
  0
LINE
  5
2CE
100
AcDbEntity
  8
0
100
AcDbLine
 62
7
  6
BYLAYER
 10
290.6207550045
 20
303.1578827284
 11
290.6205425255
 21
303.1009482279
  0
LINE
  5
2CF
100
AcDbEntity
  8
0
100
AcDbLine
 62
7
  6
BYLAYER
 10
297.2810708053
 20
319.7514893403
 11
297.8133681927
 21
322.8075518127
  0
LINE
  5
2D0
100
AcDbEntity
  8
0
100
AcDbLine
 62
7
  6
BYLAYER
 10
341.9291240108
 20
279.5972456505
 11
341.8445701575
 21
279.6983011187
  0
LINE
  5
2D1
100
AcDbEntity
  8
0
100
AcDbLine
 62
7
  6
BYLAYER
 10
351.2412261003
 20
233.8877895017
 11
351.0118931638
 21
234.2694676194
  0
LINE
  5
2D2
100
AcDbEntity
  8
0
100
AcDbLine
 62
7
  6
BYLAYER
 10
353.2181394944
 20
230.5823957034
 11
352.9940689771
 21
230.9585179069
  0
LINE
  5
2D3
100
AcDbEntity
  8
0
100
AcDbLine
 62
7
  6
BYLAYER
 10
352.5917844957
 20
232.6478948402
 11
352.5491606291
 21
232.7200324048
  0
LWPOLYLINE
  5
2D4
100
AcDbEntity
  8
0
100
AcDbPolyline
 62
7
  6
BYLAYER
 90
12
 70
0
 10
297.8132495686
 20
322.7344578878
 10
297.0815625321
 20
326.0338399585
 10
293.2490003079
 20
330.2327388854
 10
286.3403804526
 20
333.1529979853
 10
276.7559150164
 20
333.9166558532
 10
266.6247805482
 20
332.9018269036
 10
258.6308512359
 20
331.7104472903
 10
252.0017638818
 20
330.9274138112
 10
246.3113205095
 20
330.8467148039
 10
241.8119925072
 20
331.6901442653
 10
239.081220137
 20
333.1357511957
 10
237.7955619131
 20
335.0192490605
  0
LINE
  5
2D5
100
AcDbEntity
  8
0
100
AcDbLine
 62
7
  6
BYLAYER
 10
306.1335875485
 20
223.3515009898
 11
306.1335875485
 21
219.024038179
  0
LINE
  5
2D6
100
AcDbEntity
  8
0
100
AcDbLine
 62
7
  6
BYLAYER
 10
306.4871394671
 20
224.617076209
 11
306.4871394671
 21
223.5556230667
  0
LINE
  5
2D7
100
AcDbEntity
  8
0
100
AcDbLine
 62
7
  6
BYLAYER
 10
307.2366857853
 20
223.0377061465
 11
307.2366857853
 21
221.7348635227
  0
LINE
  5
2D8
100
AcDbEntity
  8
0
100
AcDbLine
 62
7
  6
BYLAYER
 10
307.5230581584
 20
218.2218450964
 11
307.5230581584
 21
219.6098992055
  0
LINE
  5
2D9
100
AcDbEntity
  8
0
100
AcDbLine
 62
7
  6
BYLAYER
 10
307.8907552155
 20
218.009559904
 11
307.8907552155
 21
219.3976140131
  0
LINE
  5
2DA
100
AcDbEntity
  8
0
100
AcDbLine
 62
7
  6
BYLAYER
 10
308.2655233698
 20
217.7931923041
 11
308.2655233698
 21
219.1812464132
  0
LINE
  5
2DB
100
AcDbEntity
  8
0
100
AcDbLine
 62
7
  6
BYLAYER
 10
308.6332204269
 20
217.5809071118
 11
308.6332204269
 21
218.9689612209
  0
LINE
  5
2DC
100
AcDbEntity
  8
0
100
AcDbLine
 62
7
  6
BYLAYER
 10
308.972633095
 20
217.3849515496
 11
308.972633095
 21
218.7730056587
  0
LINE
  5
2DD
100
AcDbEntity
  8
0
100
AcDbLine
 62
7
  6
BYLAYER
 10
309.3403301521
 20
217.1726663572
 11
309.3403301521
 21
218.5607204664
  0
LINE
  5
2DE
100
AcDbEntity
  8
0
100
AcDbLine
 62
7
  6
BYLAYER
 10
309.7150983064
 20
216.9562987573
 11
309.7150983064
 21
218.3443528665
  0
LINE
  5
2DF
100
AcDbEntity
  8
0
100
AcDbLine
 62
7
  6
BYLAYER
 10
310.0827953635
 20
216.744013565
 11
310.0827953635
 21
218.1320676741
  0
LINE
  5
2E0
100
AcDbEntity
  8
0
100
AcDbLine
 62
7
  6
BYLAYER
 10
310.4222080315
 20
216.5480580028
 11
310.4222080315
 21
217.9361121119
  0
LINE
  5
2E1
100
AcDbEntity
  8
0
100
AcDbLine
 62
7
  6
BYLAYER
 10
310.7899050886
 20
216.3357728105
 11
310.7899050886
 21
217.7238269196
  0
LINE
  5
2E2
100
AcDbEntity
  8
0
100
AcDbLine
 62
7
  6
BYLAYER
 10
311.1646732429
 20
216.1194052106
 11
311.1646732429
 21
217.5074593197
  0
LINE
  5
2E3
100
AcDbEntity
  8
0
100
AcDbLine
 62
7
  6
BYLAYER
 10
311.5323703
 20
215.9071200182
 11
311.5323703
 21
217.2951741273
  0
LINE
  5
2E4
100
AcDbEntity
  8
0
100
AcDbLine
 62
7
  6
BYLAYER
 10
311.5783394977
 20
220.5311079138
 11
311.5783394977
 21
219.2282652899
  0
LINE
  5
2E5
100
AcDbEntity
  8
0
100
AcDbLine
 62
7
  6
BYLAYER
 10
311.8717829681
 20
215.7111644561
 11
311.8717829681
 21
217.0992185652
  0
LINE
  5
2E6
100
AcDbEntity
  8
0
100
AcDbLine
 62
7
  6
BYLAYER
 10
312.2394800252
 20
215.4988792637
 11
312.2394800252
 21
216.8869333728
  0
LINE
  5
2E7
100
AcDbEntity
  8
0
100
AcDbLine
 62
7
  6
BYLAYER
 10
312.6142481795
 20
215.2825116638
 11
312.6142481795
 21
216.6705657729
  0
LINE
  5
2E8
100
AcDbEntity
  8
0
100
AcDbLine
 62
7
  6
BYLAYER
 10
312.7804160209
 20
220.9837334937
 11
312.7804160209
 21
219.9222803515
  0
LINE
  5
2E9
100
AcDbEntity
  8
0
100
AcDbLine
 62
7
  6
BYLAYER
 10
312.9819452366
 20
215.0702264715
 11
312.9819452366
 21
216.4582805806
  0
LINE
  5
2EA
100
AcDbEntity
  8
0
100
AcDbLine
 62
7
  6
BYLAYER
 10
313.2667852901
 20
233.405645014
 11
313.2667852901
 21
235.4469010568
  0
LINE
  5
2EB
100
AcDbEntity
  8
0
100
AcDbLine
 62
7
  6
BYLAYER
 10
313.3460437441
 20
229.3935381643
 11
313.3460437441
 21
228.5770428018
  0
LINE
  5
2EC
100
AcDbEntity
  8
0
100
AcDbLine
 62
7
  6
BYLAYER
 10
314.3784869437
 20
218.5914137921
 11
314.3784869437
 21
214.2639509813
  0
LINE
  5
2ED
100
AcDbEntity
  8
0
100
AcDbLine
 62
7
  6
BYLAYER
 10
314.4986161099
 20
232.0757166202
 11
314.4986161099
 21
230.0589721578
  0
LINE
  5
2EE
100
AcDbEntity
  8
0
100
AcDbLine
 62
7
  6
BYLAYER
 10
314.548175614
 20
222.0043438784
 11
314.548175614
 21
222.1473199701
  0
LINE
  5
2EF
100
AcDbEntity
  8
0
100
AcDbLine
 62
7
  6
BYLAYER
 10
314.7320388623
 20
219.8569890113
 11
314.7320388623
 21
218.795535869
  0
LINE
  5
2F0
100
AcDbEntity
  8
0
100
AcDbLine
 62
7
  6
BYLAYER
 10
333.3661465381
 20
244.0806648404
 11
333.2037864117
 21
244.4860351746
  0
LINE
  5
2F1
100
AcDbEntity
  8
0
100
AcDbLine
 62
7
  6
BYLAYER
 10
334.7087335152
 20
240.7085602185
 11
334.6015164265
 21
240.9792273877
  0
LINE
  5
2F2
100
AcDbEntity
  8
0
100
AcDbLine
 62
7
  6
BYLAYER
 10
334.5584795772
 20
242.5272875072
 11
334.528584223
 21
242.6036215947
  0
LINE
  5
2F3
100
AcDbEntity
  8
0
100
AcDbLine
 62
7
  6
BYLAYER
 10
316.7401975107
 20
225.2421863282
 11
316.7401975107
 21
224.2814862922
  0
LINE
  5
2F4
100
AcDbEntity
  8
0
100
AcDbLine
 62
7
  6
BYLAYER
 10
321.9444980019
 20
218.6321634277
 11
321.9444980019
 21
224.0210793808
  0
LINE
  5
2F5
100
AcDbEntity
  8
0
100
AcDbLine
 62
7
  6
BYLAYER
 10
322.2980528645
 20
218.0197918419
 11
322.2980528645
 21
224.2252102121
  0
LINE
  5
2F6
100
AcDbEntity
  8
0
100
AcDbLine
 62
7
  6
BYLAYER
 10
322.347534059
 20
227.544244245
 11
322.347534059
 21
226.4827911027
  0
LINE
  5
2F7
100
AcDbEntity
  8
0
100
AcDbLine
 62
7
  6
BYLAYER
 10
322.4889430519
 20
231.8058712438
 11
322.4889430519
 21
231.9490977209
  0
LINE
  5
2F8
100
AcDbEntity
  8
0
100
AcDbLine
 62
7
  6
BYLAYER
 10
324.2779436087
 20
219.1628754727
 11
324.2779436087
 21
225.3682938429
  0
LINE
  5
2F9
100
AcDbEntity
  8
0
100
AcDbLine
 62
7
  6
BYLAYER
 10
325.1052619871
 20
225.9521053024
 11
325.1052619871
 21
216.5623275054
  0
LINE
  5
2FA
100
AcDbEntity
  8
0
100
AcDbLine
 62
7
  6
BYLAYER
 10
313.8881211809
 20
236.8202588817
 11
319.8985037972
 21
240.2903341896
  0
LINE
  5
2FB
100
AcDbEntity
  8
0
100
AcDbLine
 62
7
  6
BYLAYER
 10
321.3984970819
 20
240.1417613525
 11
315.3881144656
 21
236.6716860446
  0
LINE
  5
2FC
100
AcDbEntity
  8
0
100
AcDbLine
 62
7
  6
BYLAYER
 10
331.1015056468
 20
244.9110246275
 11
322.1196795613
 21
239.7253958733
  0
LINE
  5
2FD
100
AcDbEntity
  8
0
100
AcDbLine
 62
7
  6
BYLAYER
 10
331.4863310318
 20
245.0938959714
 11
322.1537203625
 21
239.7057428522
  0
LINE
  5
2FE
100
AcDbEntity
  8
0
100
AcDbLine
 62
7
  6
BYLAYER
 10
331.5351639266
 20
245.1044570055
 11
322.1689907586
 21
239.6969266844
  0
LINE
  5
2FF
100
AcDbEntity
  8
0
100
AcDbLine
 62
7
  6
BYLAYER
 10
332.000552973
 20
245.1054605619
 11
322.4008181018
 21
239.5630841333
  0
LINE
  5
300
100
AcDbEntity
  8
0
100
AcDbLine
 62
7
  6
BYLAYER
 10
332.0566458679
 20
245.0951257877
 11
322.4378150876
 21
239.5417243968
  0
LINE
  5
301
100
AcDbEntity
  8
0
100
AcDbLine
 62
7
  6
BYLAYER
 10
332.5678728708
 20
244.9141866746
 11
322.8501308262
 21
239.3036791794
  0
LINE
  5
302
100
AcDbEntity
  8
0
100
AcDbLine
 62
7
  6
BYLAYER
 10
332.62704031
 20
244.8837272369
 11
322.906093816
 21
239.2713696631
  0
LINE
  5
303
100
AcDbEntity
  8
0
100
AcDbLine
 62
7
  6
BYLAYER
 10
323.3513089105
 20
239.0143304235
 11
332.8563732465
 21
244.5020491193
  0
LINE
  5
304
100
AcDbEntity
  8
0
100
AcDbLine
 62
7
  6
BYLAYER
 10
332.884141305
 20
244.4833532823
 11
323.3813843566
 21
238.9969667494
  0
LINE
  5
305
100
AcDbEntity
  8
0
100
AcDbLine
 62
7
  6
BYLAYER
 10
333.1459592959
 20
244.534346499
 11
323.4681323897
 21
238.9468838822
  0
LINE
  5
306
100
AcDbEntity
  8
0
100
AcDbLine
 62
7
  6
BYLAYER
 10
333.2037864117
 20
244.4860351746
 11
323.5388856206
 21
238.9060354093
  0
LINE
  5
307
100
AcDbEntity
  8
0
100
AcDbLine
 62
7
  6
BYLAYER
 10
318.8643254074
 20
235.8354153261
 11
311.9347078027
 21
231.8346226181
  0
LINE
  5
308
100
AcDbEntity
  8
0
100
AcDbLine
 62
7
  6
BYLAYER
 10
323.971132386
 20
238.6564832686
 11
333.3661465381
 21
244.0806648404
  0
LINE
  5
309
100
AcDbEntity
  8
0
100
AcDbLine
 62
7
  6
BYLAYER
 10
333.3922542495
 20
244.0543504817
 11
324.0069755793
 21
238.6357896595
  0
LINE
  5
30A
100
AcDbEntity
  8
0
100
AcDbLine
 62
7
  6
BYLAYER
 10
333.6916774584
 20
243.9942823822
 11
324.2087096742
 21
238.5193210604
  0
LINE
  5
30B
100
AcDbEntity
  8
0
100
AcDbLine
 62
7
  6
BYLAYER
 10
333.7438493934
 20
243.9317239935
 11
324.2889737873
 21
238.4729816014
  0
LINE
  5
30C
100
AcDbEntity
  8
0
100
AcDbLine
 62
7
  6
BYLAYER
 10
324.6759994797
 20
238.2495372687
 11
333.8271219642
 21
243.532908761
  0
LINE
  5
30D
100
AcDbEntity
  8
0
100
AcDbLine
 62
7
  6
BYLAYER
 10
333.8496212623
 20
243.5009393662
 11
324.7149359263
 21
238.2270578093
  0
LINE
  5
30E
100
AcDbEntity
  8
0
100
AcDbLine
 62
7
  6
BYLAYER
 10
323.4790162305
 20
237.2605220981
 11
314.4986161099
 21
232.0757166202
  0
LINE
  5
30F
100
AcDbEntity
  8
0
100
AcDbLine
 62
7
  6
BYLAYER
 10
334.1643077753
 20
243.3342920223
 11
325.0166033894
 21
238.0528939584
  0
LINE
  5
310
100
AcDbEntity
  8
0
100
AcDbLine
 62
7
  6
BYLAYER
 10
334.2069316419
 20
243.2621544576
 11
325.1003893569
 21
238.0045212018
  0
LINE
  5
311
100
AcDbEntity
  8
0
100
AcDbLine
 62
7
  6
BYLAYER
 10
325.413315471
 20
237.8238573128
 11
334.2049031487
 21
242.8996525267
  0
LINE
  5
312
100
AcDbEntity
  8
0
100
AcDbLine
 62
7
  6
BYLAYER
 10
334.2221152144
 20
242.8644135403
 11
325.4524398692
 21
237.801269342
  0
LINE
  5
313
100
AcDbEntity
  8
0
100
AcDbLine
 62
7
  6
BYLAYER
 10
334.5285842229
 20
242.6036215947
 11
326.2001485594
 21
237.7952257247
  0
LINE
  5
314
100
AcDbEntity
  8
0
100
AcDbLine
 62
7
  6
BYLAYER
 10
334.5584795772
 20
242.5272875072
 11
326.3504152601
 21
237.7883876516
  0
LINE
  5
315
100
AcDbEntity
  8
0
100
AcDbLine
 62
7
  6
BYLAYER
 10
326.6359638057
 20
237.7044402514
 11
334.4713013791
 21
242.2281475056
  0
LINE
  5
316
100
AcDbEntity
  8
0
100
AcDbLine
 62
7
  6
BYLAYER
 10
334.4819419082
 20
242.1922683378
 11
326.6841915567
 21
237.6902619466
  0
LINE
  5
317
100
AcDbEntity
  8
0
100
AcDbLine
 62
7
  6
BYLAYER
 10
314.4986161099
 20
230.4281398954
 11
313.1847022066
 21
229.6695558778
  0
LINE
  5
318
100
AcDbEntity
  8
0
100
AcDbLine
 62
7
  6
BYLAYER
 10
334.7573257653
 20
241.8567911746
 11
327.2516772473
 21
237.5234288489
  0
LINE
  5
319
100
AcDbEntity
  8
0
100
AcDbLine
 62
7
  6
BYLAYER
 10
334.7722619203
 20
241.7819563472
 11
327.3474593924
 21
237.4952701971
  0
LINE
  5
31A
100
AcDbEntity
  8
0
100
AcDbLine
 62
7
  6
BYLAYER
 10
313.3460437441
 20
229.3935381643
 11
315.3259344883
 21
230.5366217951
  0
LINE
  5
31B
100
AcDbEntity
  8
0
100
AcDbLine
 62
7
  6
BYLAYER
 10
331.5890732887
 20
239.8286612967
 11
334.6091724704
 21
241.5727498525
  0
LINE
  5
31C
100
AcDbEntity
  8
0
100
AcDbLine
 62
7
  6
BYLAYER
 10
331.5890916796
 20
239.828630443
 11
334.6091724704
 21
241.5727498525
  0
LINE
  5
31D
100
AcDbEntity
  8
0
100
AcDbLine
 62
7
  6
BYLAYER
 10
334.8332866406
 20
241.1966553209
 11
328.1133616932
 21
237.3169280025
  0
LINE
  5
31E
100
AcDbEntity
  8
0
100
AcDbLine
 62
7
  6
BYLAYER
 10
334.8332866406
 20
241.1282343207
 11
328.142988767
 21
237.2656120992
  0
LINE
  5
31F
100
AcDbEntity
  8
0
100
AcDbLine
 62
7
  6
BYLAYER
 10
334.6015164265
 20
240.9792273877
 11
328.1532160082
 21
237.2563216281
  0
LINE
  5
320
100
AcDbEntity
  8
0
100
AcDbLine
 62
7
  6
BYLAYER
 10
331.8582395189
 20
239.3625796583
 11
328.1637822601
 21
237.2295964977
  0
LINE
  5
321
100
AcDbEntity
  8
0
100
AcDbLine
 62
7
  6
BYLAYER
 10
313.6995986067
 20
228.7811665785
 11
306.4871394671
 21
224.617076209
  0
LINE
  5
322
100
AcDbEntity
  8
0
100
AcDbLine
 62
7
  6
BYLAYER
 10
306.4871394671
 20
223.5556230667
 11
306.1335875485
 21
223.3515009898
  0
LINE
  5
323
100
AcDbEntity
  8
0
100
AcDbLine
 62
7
  6
BYLAYER
 10
310.2065219016
 20
225.5688340099
 11
307.9437896225
 21
224.2624527175
  0
LINE
  5
324
100
AcDbEntity
  8
0
100
AcDbLine
 62
7
  6
BYLAYER
 10
359.8790430652
 20
251.7518241725
 11
348.18081387
 21
245.1731338373
  0
LINE
  5
325
100
AcDbEntity
  8
0
100
AcDbLine
 62
7
  6
BYLAYER
 10
332.0347059997
 20
239.4546704299
 11
331.8582395189
 21
239.3625796583
  0
LINE
  5
326
100
AcDbEntity
  8
0
100
AcDbLine
 62
7
  6
BYLAYER
 10
345.3572868471
 20
245.7018159843
 11
332.0347137746
 21
239.4546749187
  0
LINE
  5
327
100
AcDbEntity
  8
0
100
AcDbLine
 62
7
  6
BYLAYER
 10
351.7509993919
 20
233.4664052228
 11
351.5886392655
 21
233.8717755571
  0
LINE
  5
328
100
AcDbEntity
  8
0
100
AcDbLine
 62
7
  6
BYLAYER
 10
353.1470212261
 20
229.9594054859
 11
352.9863692803
 21
230.3649677702
  0
LINE
  5
329
100
AcDbEntity
  8
0
100
AcDbLine
 62
7
  6
BYLAYER
 10
352.943332431
 20
231.9130278897
 11
352.9134370768
 21
231.9893619772
  0
LINE
  5
32A
100
AcDbEntity
  8
0
100
AcDbLine
 62
7
  6
BYLAYER
 10
333.8271219642
 20
243.532908761
 11
333.7438493934
 21
243.9317239935
  0
LINE
  5
32B
100
AcDbEntity
  8
0
100
AcDbLine
 62
7
  6
BYLAYER
 10
334.7722619203
 20
241.7819563472
 11
334.7573257653
 21
241.8567911746
  0
LINE
  5
32C
100
AcDbEntity
  8
0
100
AcDbLine
 62
7
  6
BYLAYER
 10
337.7531949696
 20
291.7220026402
 11
337.7535321295
 21
291.6566304343
  0
LINE
  5
32D
100
AcDbEntity
  8
0
100
AcDbLine
 62
7
  6
BYLAYER
 10
330.5909735562
 20
227.8945098224
 11
330.5909735562
 21
221.3770623759
  0
LINE
  5
32E
100
AcDbEntity
  8
0
100
AcDbLine
 62
7
  6
BYLAYER
 10
334.0856621077
 20
229.9121571546
 11
334.0856621077
 21
231.1369107803
  0
LINE
  5
32F
100
AcDbEntity
  8
0
100
AcDbLine
 62
7
  6
BYLAYER
 10
334.8332866406
 20
241.1966553209
 11
334.8332866406
 21
241.1282343207
  0
LINE
  5
330
100
AcDbEntity
  8
0
100
AcDbLine
 62
7
  6
BYLAYER
 10
335.0522000147
 20
232.1556953328
 11
335.0522000147
 21
231.2593516446
  0
LINE
  5
331
100
AcDbEntity
  8
0
100
AcDbLine
 62
7
  6
BYLAYER
 10
337.3085159451
 20
221.5667154031
 11
337.3085159451
 21
219.5254593603
  0
LINE
  5
332
100
AcDbEntity
  8
0
100
AcDbLine
 62
7
  6
BYLAYER
 10
333.8468524298
 20
279.8064830598
 11
333.8467680916
 21
279.7404959414
  0
LINE
  5
333
100
AcDbEntity
  8
0
100
AcDbLine
 62
7
  6
BYLAYER
 10
334.2069316419
 20
243.2621544576
 11
334.2049031487
 21
242.8996525267
  0
LINE
  5
334
100
AcDbEntity
  8
0
100
AcDbLine
 62
7
  6
BYLAYER
 10
333.8836799444
 20
280.588434126
 11
333.8467680916
 21
279.7404959414
  0
LWPOLYLINE
  5
335
100
AcDbEntity
  8
0
100
AcDbPolyline
 62
7
  6
BYLAYER
 90
5
 70
0
 10
337.7531949696
 20
291.7220026402
 10
337.6935530334
 20
291.0154917573
 10
336.1439800596
 20
287.1714143629
 10
335.1461506172
 20
285.0479014924
 10
333.8836799444
 20
280.588434126
  0
LINE
  5
336
100
AcDbEntity
  8
0
100
AcDbLine
 62
7
  6
BYLAYER
 10
311.7206538919
 20
227.2083613318
 11
311.2978820323
 21
226.4667928753
  0
LINE
  5
337
100
AcDbEntity
  8
0
100
AcDbLine
 62
7
  6
BYLAYER
 10
315.6395357447
 20
223.9601946426
 11
316.0623076043
 21
224.7017630991
  0
LINE
  5
338
100
AcDbEntity
  8
0
100
AcDbLine
 62
7
  6
BYLAYER
 10
311.2978820323
 20
226.4667928753
 11
310.2065219016
 21
225.5688340099
  0
LINE
  5
339
100
AcDbEntity
  8
0
100
AcDbLine
 62
7
  6
BYLAYER
 10
314.548175614
 20
223.0622357772
 11
315.6395357447
 21
223.9601946426
  0
LINE
  5
33A
100
AcDbEntity
  8
0
100
AcDbLine
 62
7
  6
BYLAYER
 10
316.7401975107
 20
224.2814862922
 11
314.8282199555
 21
222.7083326211
  0
LINE
  5
33B
100
AcDbEntity
  8
0
100
AcDbLine
 62
7
  6
BYLAYER
 10
314.548175614
 20
223.0622357772
 11
312.2854433349
 21
221.7558544848
  0
LINE
  5
33C
100
AcDbEntity
  8
0
100
AcDbLine
 62
7
  6
BYLAYER
 10
322.347534059
 20
227.544244245
 11
325.7416324777
 21
229.5038161836
  0
LINE
  5
33D
100
AcDbEntity
  8
0
100
AcDbLine
 62
7
  6
BYLAYER
 10
307.5230581584
 20
218.2218450964
 11
307.8907552155
 21
218.434133824
  0
LINE
  5
33E
100
AcDbEntity
  8
0
100
AcDbLine
 62
7
  6
BYLAYER
 10
314.548175614
 20
222.0043438784
 11
312.7804160209
 21
220.9837334937
  0
LINE
  5
33F
100
AcDbEntity
  8
0
100
AcDbLine
 62
7
  6
BYLAYER
 10
308.2655233698
 20
217.7931923041
 11
308.6332204269
 21
218.0054810318
  0
LINE
  5
340
100
AcDbEntity
  8
0
100
AcDbLine
 62
7
  6
BYLAYER
 10
311.5783394977
 20
219.2282652899
 11
312.7804160209
 21
219.9222803515
  0
LINE
  5
341
100
AcDbEntity
  8
0
100
AcDbLine
 62
7
  6
BYLAYER
 10
308.972633095
 20
217.3849515496
 11
309.3403301521
 21
217.5972402773
  0
LINE
  5
342
100
AcDbEntity
  8
0
100
AcDbLine
 62
7
  6
BYLAYER
 10
335.2310821084
 20
232.1556953328
 11
335.0522000147
 21
232.0524183243
  0
LINE
  5
343
100
AcDbEntity
  8
0
100
AcDbLine
 62
7
  6
BYLAYER
 10
325.1052619871
 20
225.9521053024
 11
334.0856621077
 21
231.1369107803
  0
LINE
  5
344
100
AcDbEntity
  8
0
100
AcDbLine
 62
7
  6
BYLAYER
 10
322.2980528645
 20
224.2252102121
 11
324.2779436087
 21
225.3682938429
  0
LINE
  5
345
100
AcDbEntity
  8
0
100
AcDbLine
 62
7
  6
BYLAYER
 10
321.9444980019
 20
224.0210793808
 11
314.7320388623
 21
219.8569890113
  0
LINE
  5
346
100
AcDbEntity
  8
0
100
AcDbLine
 62
7
  6
BYLAYER
 10
309.7150983064
 20
216.9562987573
 11
310.0827953635
 21
217.168587485
  0
LINE
  5
347
100
AcDbEntity
  8
0
100
AcDbLine
 62
7
  6
BYLAYER
 10
310.4222080315
 20
216.5480580028
 11
310.7899050886
 21
216.7603467305
  0
LINE
  5
348
100
AcDbEntity
  8
0
100
AcDbLine
 62
7
  6
BYLAYER
 10
314.7320388623
 20
218.795535869
 11
314.3784869437
 21
218.5914137921
  0
LINE
  5
349
100
AcDbEntity
  8
0
100
AcDbLine
 62
7
  6
BYLAYER
 10
330.5909735562
 20
227.8945098224
 11
334.0856621077
 21
229.9121571546
  0
LINE
  5
34A
100
AcDbEntity
  8
0
100
AcDbLine
 62
7
  6
BYLAYER
 10
311.1646732429
 20
216.1194052106
 11
311.5323703
 21
216.3316939383
  0
LINE
  5
34B
100
AcDbEntity
  8
0
100
AcDbLine
 62
7
  6
BYLAYER
 10
311.8717829681
 20
215.7111644561
 11
312.2394800252
 21
215.9234531837
  0
LINE
  5
34C
100
AcDbEntity
  8
0
100
AcDbLine
 62
7
  6
BYLAYER
 10
312.6142481795
 20
215.2825116638
 11
312.9819452366
 21
215.4948003915
  0
LINE
  5
34D
100
AcDbEntity
  8
0
100
AcDbLine
 62
7
  6
BYLAYER
 10
314.3784869437
 20
214.2639509813
 11
321.9444980019
 21
218.6321634277
  0
LINE
  5
34E
100
AcDbEntity
  8
0
100
AcDbLine
 62
7
  6
BYLAYER
 10
349.4863585007
 20
234.29676501
 11
340.5045324152
 21
229.1111362558
  0
LINE
  5
34F
100
AcDbEntity
  8
0
100
AcDbLine
 62
7
  6
BYLAYER
 10
349.8711838856
 20
234.4796363539
 11
340.5385732163
 21
229.0914832347
  0
LINE
  5
350
100
AcDbEntity
  8
0
100
AcDbLine
 62
7
  6
BYLAYER
 10
349.9200167804
 20
234.490197388
 11
340.5538436124
 21
229.0826670668
  0
LINE
  5
351
100
AcDbEntity
  8
0
100
AcDbLine
 62
7
  6
BYLAYER
 10
350.3854058269
 20
234.4912009443
 11
340.7856709556
 21
228.9488245158
  0
LINE
  5
352
100
AcDbEntity
  8
0
100
AcDbLine
 62
7
  6
BYLAYER
 10
350.4414987218
 20
234.4808661702
 11
340.8226679415
 21
228.9274647792
  0
LINE
  5
353
100
AcDbEntity
  8
0
100
AcDbLine
 62
7
  6
BYLAYER
 10
322.2980528645
 20
218.0197918419
 11
324.2779436087
 21
219.1628754727
  0
LINE
  5
354
100
AcDbEntity
  8
0
100
AcDbLine
 62
7
  6
BYLAYER
 10
335.1871867697
 20
225.240944918
 11
341.197569386
 21
228.711020226
  0
LINE
  5
355
100
AcDbEntity
  8
0
100
AcDbLine
 62
7
  6
BYLAYER
 10
350.9527257246
 20
234.299927057
 11
341.2258023165
 21
228.6841187308
  0
LINE
  5
356
100
AcDbEntity
  8
0
100
AcDbLine
 62
7
  6
BYLAYER
 10
351.0118931638
 20
234.2694676194
 11
341.2680321446
 21
228.6438804172
  0
LINE
  5
357
100
AcDbEntity
  8
0
100
AcDbLine
 62
7
  6
BYLAYER
 10
341.6039926954
 20
228.3237634139
 11
351.2412261003
 21
233.8877895017
  0
LINE
  5
358
100
AcDbEntity
  8
0
100
AcDbLine
 62
7
  6
BYLAYER
 10
351.2689941588
 20
233.8690936647
 11
341.6266877108
 21
228.3021386716
  0
LINE
  5
359
100
AcDbEntity
  8
0
100
AcDbLine
 62
7
  6
BYLAYER
 10
351.5308121497
 20
233.9200868814
 11
341.6921480183
 21
228.2397654036
  0
LINE
  5
35A
100
AcDbEntity
  8
0
100
AcDbLine
 62
7
  6
BYLAYER
 10
351.5886392655
 20
233.8717755571
 11
341.7455386035
 21
228.1888926625
  0
LINE
  5
35B
100
AcDbEntity
  8
0
100
AcDbLine
 62
7
  6
BYLAYER
 10
337.2491782612
 20
225.2211557085
 11
330.3195606565
 21
221.2203630006
  0
LWPOLYLINE
  5
35C
100
AcDbEntity
  8
0
100
AcDbPolyline
 62
7
  6
BYLAYER
 90
5
 70
0
 10
352.1085950142
 20
238.203926977
 10
364.6109939552
 20
245.2333750961
 10
373.3030494315
 20
251.055279331
 10
375.9050701219
 20
253.619199739
 10
379.1496132884
 20
258.7681162275
  0
LINE
  5
35D
100
AcDbEntity
  8
0
100
AcDbLine
 62
7
  6
BYLAYER
 10
337.5222771201
 20
292.7915739182
 11
337.7533372729
 21
291.6947820189
  0
LINE
  5
35E
100
AcDbEntity
  8
0
100
AcDbLine
 62
7
  6
BYLAYER
 10
352.211974818
 20
232.9186491435
 11
352.1287022473
 21
233.317464376
  0
LINE
  5
35F
100
AcDbEntity
  8
0
100
AcDbLine
 62
7
  6
BYLAYER
 10
352.9229388191
 20
229.471723539
 11
352.8661272098
 21
229.7498783191
  0
LINE
  5
360
100
AcDbEntity
  8
0
100
AcDbLine
 62
7
  6
BYLAYER
 10
353.1571147741
 20
231.1676967297
 11
353.1421786191
 21
231.2425315571
  0
LWPOLYLINE
  5
361
100
AcDbEntity
  8
0
100
AcDbPolyline
 62
7
  6
BYLAYER
 90
13
 70
0
 10
333.8468524298
 20
279.8064830598
 10
334.4415216841
 20
276.667075252
 10
337.7941461073
 20
272.6684811859
 10
342.5876244917
 20
270.393749608
 10
347.5072084344
 20
269.4806340728
 10
352.1474006717
 20
269.529762891
 10
356.2283637391
 20
269.690784599
 10
360.0875849846
 20
268.9545790758
 10
364.1515497542
 20
267.3522046075
 10
368.1743400283
 20
265.4988497926
 10
370.9897130791
 20
263.729567197
 10
371.8392540565
 20
262.7969368487
 10
371.8823642438
 20
262.5249604599
  0
LINE
  5
362
100
AcDbEntity
  8
0
100
AcDbLine
 62
7
  6
BYLAYER
 10
345.7532796695
 20
291.7210575807
 11
345.7533560649
 21
291.6276511927
  0
LINE
  5
363
100
AcDbEntity
  8
0
100
AcDbLine
 62
7
  6
BYLAYER
 10
343.3188985614
 20
225.036790711
 11
343.3188985614
 21
222.9955346682
  0
LINE
  5
364
100
AcDbEntity
  8
0
100
AcDbLine
 62
7
  6
BYLAYER
 10
341.8470728128
 20
279.790212715
 11
341.8470051028
 21
279.7693762834
  0
LINE
  5
365
100
AcDbEntity
  8
0
100
AcDbLine
 62
7
  6
BYLAYER
 10
345.6672888128
 20
290.2726143086
 11
345.7532796695
 21
291.7210575807
  0
LWPOLYLINE
  5
366
100
AcDbEntity
  8
0
100
AcDbPolyline
 62
7
  6
BYLAYER
 90
5
 70
0
 10
341.8470728128
 20
279.790212715
 10
341.9136196067
 20
280.2533748653
 10
343.0283634587
 20
283.036653508
 10
343.9722325357
 20
284.9790382124
 10
345.6672888128
 20
290.2726143086
  0
LINE
  5
367
100
AcDbEntity
  8
0
100
AcDbLine
 62
7
  6
BYLAYER
 10
334.4713013791
 20
242.2281475056
 11
334.5584795772
 21
242.5272875072
  0
LINE
  5
368
100
AcDbEntity
  8
0
100
AcDbLine
 62
7
  6
BYLAYER
 10
334.6092161233
 20
241.5727775244
 11
334.7722619203
 21
241.7819563472
  0
LINE
  5
369
100
AcDbEntity
  8
0
100
AcDbLine
 62
7
  6
BYLAYER
 10
351.0977148267
 20
235.7590437164
 11
346.6524490157
 21
232.6606163725
  0
LINE
  5
36A
100
AcDbEntity
  8
0
100
AcDbLine
 62
7
  6
BYLAYER
 10
342.071713217
 20
227.8781001019
 11
351.7509993919
 21
233.4664052228
  0
LINE
  5
36B
100
AcDbEntity
  8
0
100
AcDbLine
 62
7
  6
BYLAYER
 10
351.7771071033
 20
233.4400908642
 11
342.0987605906
 21
227.8523282542
  0
LINE
  5
36C
100
AcDbEntity
  8
0
100
AcDbLine
 62
7
  6
BYLAYER
 10
352.0765303123
 20
233.3800227647
 11
342.2509897007
 21
227.7072781094
  0
LINE
  5
36D
100
AcDbEntity
  8
0
100
AcDbLine
 62
7
  6
BYLAYER
 10
352.1287022472
 20
233.317464376
 11
342.311557224
 21
227.6495668869
  0
LINE
  5
36E
100
AcDbEntity
  8
0
100
AcDbLine
 62
7
  6
BYLAYER
 10
342.550180374
 20
227.3404428178
 11
352.211974818
 21
232.9186491435
  0
LINE
  5
36F
100
AcDbEntity
  8
0
100
AcDbLine
 62
7
  6
BYLAYER
 10
352.2344741161
 20
232.8866797487
 11
342.569648996
 21
227.3067236718
  0
LINE
  5
370
100
AcDbEntity
  8
0
100
AcDbLine
 62
7
  6
BYLAYER
 10
352.5491606291
 20
232.7200324048
 11
342.7204858168
 21
227.0454782287
  0
LINE
  5
371
100
AcDbEntity
  8
0
100
AcDbLine
 62
7
  6
BYLAYER
 10
352.5917844957
 20
232.6478948401
 11
342.7623796585
 21
226.9729191865
  0
LINE
  5
372
100
AcDbEntity
  8
0
100
AcDbLine
 62
7
  6
BYLAYER
 10
325.1052619871
 20
216.5623275054
 11
330.4228610018
 21
219.6324264019
  0
LINE
  5
373
100
AcDbEntity
  8
0
100
AcDbLine
 62
7
  6
BYLAYER
 10
342.9159131345
 20
226.7002304642
 11
352.5897560025
 21
232.2853929092
  0
LINE
  5
374
100
AcDbEntity
  8
0
100
AcDbLine
 62
7
  6
BYLAYER
 10
352.6069680682
 20
232.2501539228
 11
342.9255146205
 21
226.6605975337
  0
LINE
  5
375
100
AcDbEntity
  8
0
100
AcDbLine
 62
7
  6
BYLAYER
 10
352.9134370768
 20
231.9893619772
 11
343.0185471393
 21
226.2765787088
  0
LINE
  5
376
100
AcDbEntity
  8
0
100
AcDbLine
 62
7
  6
BYLAYER
 10
352.943332431
 20
231.9130278896
 11
343.038439026
 21
226.1944691511
  0
LINE
  5
377
100
AcDbEntity
  8
0
100
AcDbLine
 62
7
  6
BYLAYER
 10
343.091319077
 20
225.9761913348
 11
352.8561542329
 21
231.6138878881
  0
LINE
  5
378
100
AcDbEntity
  8
0
100
AcDbLine
 62
7
  6
BYLAYER
 10
352.866794762
 20
231.5780087202
 11
343.1002502587
 21
225.9393252805
  0
LINE
  5
379
100
AcDbEntity
  8
0
100
AcDbLine
 62
7
  6
BYLAYER
 10
338.4991726651
 20
223.0560889682
 11
331.5695550604
 21
219.0552962602
  0
LINE
  5
37A
100
AcDbEntity
  8
0
100
AcDbLine
 62
7
  6
BYLAYER
 10
353.1421786192
 20
231.242531557
 11
343.2053415741
 21
225.5055302594
  0
LINE
  5
37B
100
AcDbEntity
  8
0
100
AcDbLine
 62
7
  6
BYLAYER
 10
353.1571147741
 20
231.1676967297
 11
343.22307924
 21
225.4323128756
  0
LINE
  5
37C
100
AcDbEntity
  8
0
100
AcDbLine
 62
7
  6
BYLAYER
 10
343.3188985614
 20
225.036790711
 11
337.3085159451
 21
221.5667154031
  0
LINE
  5
37D
100
AcDbEntity
  8
0
100
AcDbLine
 62
7
  6
BYLAYER
 10
353.2181394944
 20
230.5823957034
 11
343.3188985614
 21
224.8671004017
  0
LINE
  5
37E
100
AcDbEntity
  8
0
100
AcDbLine
 62
7
  6
BYLAYER
 10
353.2181394944
 20
230.5139747032
 11
343.3188985614
 21
224.7986794015
  0
LINE
  5
37F
100
AcDbEntity
  8
0
100
AcDbLine
 62
7
  6
BYLAYER
 10
352.9863692803
 20
230.3649677702
 11
343.3188985614
 21
224.7834842652
  0
LINE
  5
380
100
AcDbEntity
  8
0
100
AcDbLine
 62
7
  6
BYLAYER
 10
353.1470212261
 20
229.9594054859
 11
343.3188985614
 21
224.2851700904
  0
LINE
  5
381
100
AcDbEntity
  8
0
100
AcDbLine
 62
7
  6
BYLAYER
 10
353.1309870274
 20
229.9027942933
 11
343.3188985614
 21
224.2378161915
  0
LINE
  5
382
100
AcDbEntity
  8
0
100
AcDbLine
 62
7
  6
BYLAYER
 10
352.9229388191
 20
229.471723539
 11
343.3188985614
 21
223.9268614093
  0
LINE
  5
383
100
AcDbEntity
  8
0
100
AcDbLine
 62
7
  6
BYLAYER
 10
352.8920668375
 20
229.4311462833
 11
343.3188985614
 21
223.9041079941
  0
LINE
  5
384
100
AcDbEntity
  8
0
100
AcDbLine
 62
7
  6
BYLAYER
 10
352.56261252
 20
229.155738986
 11
343.3188985614
 21
223.8189101003
  0
LINE
  5
385
100
AcDbEntity
  8
0
100
AcDbLine
 62
7
  6
BYLAYER
 10
337.3085159451
 20
219.5254593603
 11
343.3188985614
 21
222.9955346682
  0
LINE
  5
386
100
AcDbEntity
  8
0
100
AcDbLine
 62
7
  6
BYLAYER
 10
336.6871800544
 20
218.1521015354
 11
342.6975626707
 21
221.6221768433
  0
LWPOLYLINE
  5
387
100
AcDbEntity
  8
0
100
AcDbPolyline
 62
7
  6
BYLAYER
 90
23
 70
0
 10
345.7533560649
 20
291.6276511927
 10
345.0978365894
 20
295.3899955903
 10
341.9935830715
 20
299.7769712188
 10
336.7195038959
 20
302.4042540112
 10
331.4295862905
 20
303.4025044682
 10
326.4706095073
 20
303.694186159
 10
322.0233286223
 20
303.5811247094
 10
318.0535264834
 20
303.2276522323
 10
314.4892882495
 20
302.7500965231
 10
311.2666827587
 20
302.2276912774
 10
308.3182204291
 20
301.7194633924
 10
305.5817163495
 20
301.2795801822
 10
303.0084559557
 20
300.9441392044
 10
300.5789318458
 20
300.7367985809
 10
298.2976130572
 20
300.6671727034
 10
296.1353673229
 20
300.7321922753
 10
294.1209626671
 20
300.9319658101
 10
292.3538331941
 20
301.2808056796
 10
291.154797775
 20
301.7257144794
 10
290.8546336333
 20
301.9553282607
 10
290.7405748845
 20
302.1752811445
 10
290.6397166649
 20
302.6808077323
 10
290.6205425255
 20
303.1009482279
  0
LINE
  5
388
100
AcDbEntity
  8
0
100
AcDbLine
 62
7
  6
BYLAYER
 10
353.2181394944
 20
230.5823957034
 11
353.2181394944
 21
230.5139747032
  0
LINE
  5
389
100
AcDbEntity
  8
0
100
AcDbLine
 62
7
  6
BYLAYER
 10
352.5917844957
 20
232.6478948401
 11
352.5897560025
 21
232.2853929092
  0
LINE
  5
38A
100
AcDbEntity
  8
0
100
AcDbLine
 62
7
  6
BYLAYER
 10
352.56261252
 20
229.155738986
 11
352.5635660652
 21
229.2414874061
  0
LINE
  5
38B
100
AcDbEntity
  8
0
100
AcDbLine
 62
7
  6
BYLAYER
 10
353.1309870274
 20
229.9027942933
 11
353.1470212261
 21
229.9594054859
  0
LINE
  5
38C
100
AcDbEntity
  8
0
100
AcDbLine
 62
7
  6
BYLAYER
 10
352.8561542329
 20
231.6138878881
 11
352.943332431
 21
231.9130278897
  0
LWPOLYLINE
  5
38D
100
AcDbEntity
  8
0
100
AcDbPolyline
 62
7
  6
BYLAYER
 90
4
 70
0
 10
371.8844243706
 20
262.53064988
 10
371.2180583277
 20
260.6903572362
 10
367.8798920561
 20
256.9411460585
 10
359.8790430652
 20
251.7518241725
  0
LINE
  5
38E
100
AcDbEntity
  8
0
100
AcDbLine
 62
7
  6
BYLAYER
 10
352.8920668375
 20
229.4311462833
 11
352.9229388191
 21
229.471723539
  0
LINE
  5
38F
100
AcDbEntity
  8
0
100
AcDbLine
 62
7
  6
BYLAYER
 10
352.9940689771
 20
230.9585179069
 11
353.1571147741
 21
231.1676967297
  0
LWPOLYLINE
  5
390
100
AcDbEntity
  8
0
100
AcDbPolyline
 62
7
  6
BYLAYER
 90
12
 70
0
 10
379.8843610936
 20
262.5004455627
 10
379.1512991498
 20
266.0425210969
 10
375.0414948601
 20
270.6921462021
 10
369.7442537354
 20
273.6311817286
 10
364.8711257912
 20
275.7115517189
 10
360.175936261
 20
277.2260927341
 10
355.5239799
 20
277.6956857938
 10
353.3621003207
 20
277.618326804
 10
349.3406047988
 20
277.423411766
 10
345.8742452595
 20
277.7871665253
 10
343.2883569597
 20
278.6904303874
 10
341.9291240108
 20
279.5972456505
  0
LINE
  5
391
100
AcDbEntity
  8
0
100
AcDbLine
 62
7
  6
BYLAYER
 10
379.8843721029
 20
262.5614831567
 11
379.8843610936
 21
262.5004455627
  0
LINE
  5
392
100
AcDbEntity
  8
0
100
AcDbLine
 62
7
  6
BYLAYER
 10
379.1496132884
 20
258.7681162275
 11
379.8843721029
 21
262.5614831567
  0
ARC
  5
393
100
AcDbEntity
  8
0
100
AcDbCircle
 62
7
  6
BYLAYER
 10
285.8337015293
 20
261.0378356391
 40
43.6936909097
100
AcDbArc
 50
309.1567935723
 51
310.8123230405
  0
ARC
  5
394
100
AcDbEntity
  8
0
100
AcDbCircle
 62
7
  6
BYLAYER
 10
289.1384834426
 20
258.2329451489
 40
42.6310412816
100
AcDbArc
 50
309.7217380099
 51
309.8984456802
  0
ARC
  5
395
100
AcDbEntity
  8
0
100
AcDbCircle
 62
7
  6
BYLAYER
 10
285.870201632
 20
260.329729354
 40
42.015127058
100
AcDbArc
 50
307.9712043235
 51
309.1534717603
  0
ARC
  5
396
100
AcDbEntity
  8
0
100
AcDbCircle
 62
7
  6
BYLAYER
 10
290.2118553443
 20
257.8231311214
 40
42.0151270581
100
AcDbArc
 50
307.9712043235
 51
309.1534717603
  0
ARC
  5
397
100
AcDbEntity
  8
0
100
AcDbCircle
 62
7
  6
BYLAYER
 10
299.6156349969
 20
303.0829212319
 40
8.995192344
100
AcDbArc
 50
176.299534093
 51
179.5225197058
  0
ARC
  5
398
100
AcDbEntity
  8
0
100
AcDbCircle
 62
7
  6
BYLAYER
 10
245.031181936
 20
336.3539131634
 40
7.4515627769
100
AcDbArc
 50
178.9183015316
 51
179.7216006467
  0
ARC
  5
399
100
AcDbEntity
  8
0
100
AcDbCircle
 62
7
  6
BYLAYER
 10
373.2694596842
 20
262.5326150717
 40
6.6149796322
100
AcDbArc
 50
358.4125406987
 51
359.7213620505
  0
ARC
  5
39A
100
AcDbEntity
  8
0
100
AcDbCircle
 62
7
  6
BYLAYER
 10
340.0625522427
 20
279.7650480487
 40
6.2158326409
100
AcDbArc
 50
180.2263149382
 51
180.9906247964
  0
ARC
  5
39B
100
AcDbEntity
  8
0
100
AcDbCircle
 62
7
  6
BYLAYER
 10
348.4560521098
 20
230.2445111703
 40
4.6100657419
100
AcDbArc
 50
25.7889399939
 51
26.2763571737
  0
ARC
  5
39C
100
AcDbEntity
  8
0
100
AcDbCircle
 62
7
  6
BYLAYER
 10
330.0711992582
 20
240.8587707889
 40
4.6100657394
100
AcDbArc
 50
25.7889399939
 51
26.2763571729
  0
ARC
  5
39D
100
AcDbEntity
  8
0
100
AcDbCircle
 62
7
  6
BYLAYER
 10
330.104297537
 20
240.8889717283
 40
4.5661608326
100
AcDbArc
 50
34.8917013616
 51
35.3822380166
  0
ARC
  5
39E
100
AcDbEntity
  8
0
100
AcDbCircle
 62
7
  6
BYLAYER
 10
348.4891503903
 20
230.2747121104
 40
4.5661608332
100
AcDbArc
 50
34.8917013618
 51
35.3822380167
  0
ARC
  5
39F
100
AcDbEntity
  8
0
100
AcDbCircle
 62
7
  6
BYLAYER
 10
349.0209845797
 20
230.4569908728
 40
4.005862825
100
AcDbArc
 50
16.2509118117
 51
16.7861846501
  0
ARC
  5
3A0
100
AcDbEntity
  8
0
100
AcDbCircle
 62
7
  6
BYLAYER
 10
330.6361317273
 20
241.0712504907
 40
4.0058628236
100
AcDbArc
 50
16.2509118117
 51
16.7861846502
  0
ARC
  5
3A1
100
AcDbEntity
  8
0
100
AcDbCircle
 62
7
  6
BYLAYER
 10
330.6157745833
 20
241.3257830951
 40
3.8928035296
100
AcDbArc
 50
44.5013481143
 51
45.0469355132
  0
ARC
  5
3A2
100
AcDbEntity
  8
0
100
AcDbCircle
 62
7
  6
BYLAYER
 10
349.000627437
 20
230.7115234774
 40
3.8928035298
100
AcDbArc
 50
44.5013481143
 51
45.0469355135
  0
ARC
  5
3A3
100
AcDbEntity
  8
0
100
AcDbCircle
 62
7
  6
BYLAYER
 10
128.6821647565
 20
339.2510519333
 40
3.1954114672
100
AcDbArc
 50
299.9810417052
 51
302.2095191374
  0
ARC
  5
3A4
100
AcDbEntity
  8
0
100
AcDbCircle
 62
7
  6
BYLAYER
 10
52.106853747
 20
327.5640491412
 40
3.1821100644
100
AcDbArc
 50
237.7871054702
 51
240.0192012978
  0
ARC
  5
3A5
100
AcDbEntity
  8
0
100
AcDbCircle
 62
7
  6
BYLAYER
 10
331.2690647844
 20
242.1145243476
 40
2.8670233151
100
AcDbArc
 50
55.7136863454
 51
56.3826754834
  0
ARC
  5
3A6
100
AcDbEntity
  8
0
100
AcDbCircle
 62
7
  6
BYLAYER
 10
349.6539176384
 20
231.5002647304
 40
2.8670233146
100
AcDbArc
 50
55.7136863447
 51
56.3826754833
  0
ARC
  5
3A7
100
AcDbEntity
  8
0
100
AcDbCircle
 62
7
  6
BYLAYER
 10
332.5842037368
 20
241.2529712316
 40
2.0358011151
100
AcDbArc
 50
352.2723197694
 51
352.7389116002
  0
ARC
  5
3A8
100
AcDbEntity
  8
0
100
AcDbCircle
 62
7
  6
BYLAYER
 10
350.9690565968
 20
230.6387116132
 40
2.0358011088
100
AcDbArc
 50
352.2723197692
 51
352.7389116019
  0
ARC
  5
3A9
100
AcDbEntity
  8
0
100
AcDbCircle
 62
7
  6
BYLAYER
 10
130.3484308447
 20
338.3387833048
 40
1.4342443119
100
AcDbArc
 50
342.5048299049
 51
346.5062542113
  0
ARC
  5
3AA
100
AcDbEntity
  8
0
100
AcDbCircle
 62
7
  6
BYLAYER
 10
50.4141745346
 20
326.6542728526
 40
1.3993761229
100
AcDbArc
 50
190.986612864
 51
194.8271611438
  0
ARC
  5
3AB
100
AcDbEntity
  8
0
100
AcDbCircle
 62
7
  6
BYLAYER
 10
130.3906496864
 20
338.3284010073
 40
1.3907683289
100
AcDbArc
 50
346.5163222589
 51
348.970546285
  0
ARC
  5
3AC
100
AcDbEntity
  8
0
100
AcDbCircle
 62
7
  6
BYLAYER
 10
50.3720490439
 20
326.6461136542
 40
1.3564677422
100
AcDbArc
 50
184.0115830781
 51
190.9873987657
  0
ARC
  5
3AD
100
AcDbEntity
  8
0
100
AcDbCircle
 62
7
  6
BYLAYER
 10
130.4300397366
 20
338.3208506783
 40
1.3506613789
100
AcDbArc
 50
348.965244342
 51
2.4042792147
  0
ARC
  5
3AE
100
AcDbEntity
  8
0
100
AcDbCircle
 62
7
  6
BYLAYER
 10
130.3954535886
 20
337.8709756243
 40
1.3392621919
100
AcDbArc
 50
0.0058077522
 51
5.7886313029
  0
ARC
  5
3AF
100
AcDbEntity
  8
0
100
AcDbCircle
 62
7
  6
BYLAYER
 10
50.3527055428
 20
326.6442915468
 40
1.3370442435
100
AcDbArc
 50
177.5435602448
 51
183.9916820151
  0
SPLINE
  5
3B0
100
AcDbEntity
  8
0
100
AcDbSpline
 62
7
  6
BYLAYER
 70
0
 71
3
 72
12
 73
8
 74
0
 42
0.0000001
 43
0.0000001
 44
0.0000000001
 40
0.0
 40
0.0
 40
0.0
 40
0.0
 40
0.2895882927
 40
0.5486297738
 40
0.781635881
 40
0.8918368971
 40
1.0
 40
1.0
 40
1.0
 40
1.0
 10
311.6758178482
 20
231.2623901911
 30
0.0
 10
311.6758178482
 20
231.3257491894
 30
0.0
 10
311.6854153999
 20
231.4462141594
 30
0.0
 10
311.7341296148
 20
231.6116302952
 30
0.0
 10
311.8041249513
 20
231.7257593876
 30
0.0
 10
311.8748091595
 20
231.7952893359
 30
0.0
 10
311.914215397
 20
231.8227865268
 30
0.0
 10
311.934709912
 20
231.8346189781
 30
0.0
  0
SPLINE
  5
3B1
100
AcDbEntity
  8
0
100
AcDbSpline
 62
7
  6
BYLAYER
 70
0
 71
3
 72
18
 73
14
 74
0
 42
0.0000001
 43
0.0000001
 44
0.0000000001
 40
0.0
 40
0.0
 40
0.0
 40
0.0
 40
0.0428495297
 40
0.0874678576
 40
0.1352896239
 40
0.1872410881
 40
0.2437333339
 40
0.3047396398
 40
0.4383734136
 40
0.5826807341
 40
0.7297960542
 40
0.8713492175
 40
1.0
 40
1.0
 40
1.0
 40
1.0
 10
313.1847000973
 20
229.6695595178
 30
0.0
 10
313.1538821676
 20
229.6517668716
 30
0.0
 10
313.0859496064
 20
229.6235310953
 30
0.0
 10
312.9738116552
 20
229.6070959568
 30
0.0
 10
312.8533929887
 20
229.6159594065
 30
0.0
 10
312.7273705588
 20
229.6494455524
 30
0.0
 10
312.5982055513
 20
229.7065252373
 30
0.0
 10
312.4199034506
 20
229.8156623892
 30
0.0
 10
312.2074950296
 20
230.0037821228
 30
0.0
 10
311.9892139457
 20
230.2832462575
 30
0.0
 10
311.8172530771
 20
230.6010449015
 30
0.0
 10
311.7057126969
 20
230.930894259
 30
0.0
 10
311.6758178482
 20
231.1555490228
 30
0.0
 10
311.6758178482
 20
231.2623901911
 30
0.0
  0
SPLINE
  5
3B2
100
AcDbEntity
  8
0
100
AcDbSpline
 62
7
  6
BYLAYER
 70
0
 71
3
 72
12
 73
8
 74
0
 42
0.0000001
 43
0.0000001
 44
0.0000000001
 40
0.0
 40
0.0
 40
0.0
 40
0.0
 40
0.2895882927
 40
0.5486297738
 40
0.781635881
 40
0.8918368971
 40
1.0
 40
1.0
 40
1.0
 40
1.0
 10
313.4435921611
 20
230.2417883048
 30
0.0
 10
313.4435921611
 20
230.1784293064
 30
0.0
 10
313.4339946094
 20
230.0579643365
 30
0.0
 10
313.3852803945
 20
229.8925482007
 30
0.0
 10
313.315285058
 20
229.7784191083
 30
0.0
 10
313.2446008497
 20
229.7088891599
 30
0.0
 10
313.2051946122
 20
229.6813919691
 30
0.0
 10
313.1847000973
 20
229.6695595178
 30
0.0
  0
SPLINE
  5
3B3
100
AcDbEntity
  8
0
100
AcDbSpline
 62
7
  6
BYLAYER
 70
0
 71
3
 72
18
 73
14
 74
0
 42
0.0000001
 43
0.0000001
 44
0.0000000001
 40
0.0
 40
0.0
 40
0.0
 40
0.0
 40
0.0428495297
 40
0.0874678576
 40
0.1352896239
 40
0.1872410881
 40
0.2437333339
 40
0.3047396398
 40
0.4383734136
 40
0.5826807341
 40
0.7297960542
 40
0.8713492175
 40
1.0
 40
1.0
 40
1.0
 40
1.0
 10
311.934709912
 20
231.8346189781
 30
0.0
 10
311.9655278417
 20
231.8524116242
 30
0.0
 10
312.0334604029
 20
231.8806474006
 30
0.0
 10
312.1455983541
 20
231.897082539
 30
0.0
 10
312.2660170205
 20
231.8882190893
 30
0.0
 10
312.3920394504
 20
231.8547329435
 30
0.0
 10
312.521204458
 20
231.7976532586
 30
0.0
 10
312.6995065586
 20
231.6885161067
 30
0.0
 10
312.9119149796
 20
231.500396373
 30
0.0
 10
313.1301960635
 20
231.2209322384
 30
0.0
 10
313.3021569322
 20
230.9031335943
 30
0.0
 10
313.4136973123
 20
230.5732842369
 30
0.0
 10
313.4435921611
 20
230.348629473
 30
0.0
 10
313.4435921611
 20
230.2417883048
 30
0.0
  0
SPLINE
  5
3B4
100
AcDbEntity
  8
0
100
AcDbSpline
 62
7
  6
BYLAYER
 70
0
 71
3
 72
12
 73
8
 74
0
 42
0.0000001
 43
0.0000001
 44
0.0000000001
 40
0.0
 40
0.0
 40
0.0
 40
0.0
 40
0.2895882927
 40
0.5486297738
 40
0.781635881
 40
0.8918368971
 40
1.0
 40
1.0
 40
1.0
 40
1.0
 10
330.060670702
 20
220.6481305736
 30
0.0
 10
330.060670702
 20
220.7114895719
 30
0.0
 10
330.0702682537
 20
220.8319545418
 30
0.0
 10
330.1189824686
 20
220.9973706777
 30
0.0
 10
330.1889778051
 20
221.1114997701
 30
0.0
 10
330.2596620133
 20
221.1810297184
 30
0.0
 10
330.2990682509
 20
221.2085269092
 30
0.0
 10
330.3195627658
 20
221.2203593606
 30
0.0
  0
SPLINE
  5
3B5
100
AcDbEntity
  8
0
100
AcDbSpline
 62
7
  6
BYLAYER
 70
0
 71
3
 72
18
 73
14
 74
0
 42
0.0000001
 43
0.0000001
 44
0.0000000001
 40
0.0
 40
0.0
 40
0.0
 40
0.0
 40
0.0428495297
 40
0.0874678576
 40
0.1352896239
 40
0.1872410881
 40
0.2437333339
 40
0.3047396398
 40
0.4383734136
 40
0.5826807341
 40
0.7297960542
 40
0.8713492175
 40
1.0
 40
1.0
 40
1.0
 40
1.0
 10
331.5695529511
 20
219.0552999003
 30
0.0
 10
331.5387350214
 20
219.0375072541
 30
0.0
 10
331.4708024602
 20
219.0092714778
 30
0.0
 10
331.358664509
 20
218.9928363393
 30
0.0
 10
331.2382458426
 20
219.001699789
 30
0.0
 10
331.1122234127
 20
219.0351859349
 30
0.0
 10
330.9830584051
 20
219.0922656197
 30
0.0
 10
330.8047563045
 20
219.2014027717
 30
0.0
 10
330.5923478834
 20
219.3895225053
 30
0.0
 10
330.3740667996
 20
219.6689866399
 30
0.0
 10
330.2021059309
 20
219.986785284
 30
0.0
 10
330.0905655508
 20
220.3166346415
 30
0.0
 10
330.060670702
 20
220.5412894053
 30
0.0
 10
330.060670702
 20
220.6481305736
 30
0.0
  0
SPLINE
  5
3B6
100
AcDbEntity
  8
0
100
AcDbSpline
 62
7
  6
BYLAYER
 70
0
 71
3
 72
12
 73
8
 74
0
 42
0.0000001
 43
0.0000001
 44
0.0000000001
 40
0.0
 40
0.0
 40
0.0
 40
0.0
 40
0.2895882927
 40
0.5486297738
 40
0.781635881
 40
0.8918368971
 40
1.0
 40
1.0
 40
1.0
 40
1.0
 10
331.8284450149
 20
219.6275286873
 30
0.0
 10
331.8284450149
 20
219.5641696889
 30
0.0
 10
331.8188474632
 20
219.443704719
 30
0.0
 10
331.7701332483
 20
219.2782885831
 30
0.0
 10
331.7001379118
 20
219.1641594907
 30
0.0
 10
331.6294537036
 20
219.0946295424
 30
0.0
 10
331.5900474661
 20
219.0671323516
 30
0.0
 10
331.5695529511
 20
219.0552999003
 30
0.0
  0
SPLINE
  5
3B7
100
AcDbEntity
  8
0
100
AcDbSpline
 62
7
  6
BYLAYER
 70
0
 71
3
 72
18
 73
14
 74
0
 42
0.0000001
 43
0.0000001
 44
0.0000000001
 40
0.0
 40
0.0
 40
0.0
 40
0.0
 40
0.0428495297
 40
0.0874678576
 40
0.1352896239
 40
0.1872410881
 40
0.2437333339
 40
0.3047396398
 40
0.4383734136
 40
0.5826807341
 40
0.7297960542
 40
0.8713492175
 40
1.0
 40
1.0
 40
1.0
 40
1.0
 10
330.3195627658
 20
221.2203593606
 30
0.0
 10
330.3503806955
 20
221.2381520067
 30
0.0
 10
330.4183132567
 20
221.266387783
 30
0.0
 10
330.5304512079
 20
221.2828229215
 30
0.0
 10
330.6508698744
 20
221.2739594718
 30
0.0
 10
330.7768923043
 20
221.2404733259
 30
0.0
 10
330.9060573118
 20
221.1833936411
 30
0.0
 10
331.0843594125
 20
221.0742564891
 30
0.0
 10
331.2967678335
 20
220.8861367555
 30
0.0
 10
331.5150489173
 20
220.6066726209
 30
0.0
 10
331.687009786
 20
220.2888739768
 30
0.0
 10
331.7985501661
 20
219.9590246193
 30
0.0
 10
331.8284450149
 20
219.7343698555
 30
0.0
 10
331.8284450149
 20
219.6275286873
 30
0.0
  0
LINE
  5
3B8
100
AcDbEntity
  8
0
100
AcDbLine
 62
7
  6
BYLAYER
 10
327.4799885238
 20
237.4563020076
 11
327.8947696618
 21
237.6955453209
  0
SPLINE
  5
3B9
100
AcDbEntity
  8
0
100
AcDbSpline
 62
7
  6
BYLAYER
 70
0
 71
3
 72
8
 73
4
 74
0
 42
0.0000001
 43
0.0000001
 44
0.0000000001
 40
0.0
 40
0.0
 40
0.0
 40
0.0
 40
1.0
 40
1.0
 40
1.0
 40
1.0
 10
327.8947696618
 20
237.6955453209
 30
0.0
 10
329.1264785296
 20
238.4061086685
 30
0.0
 10
330.3577385846
 20
239.1174497583
 30
0.0
 10
331.5890732887
 20
239.8286612967
 30
0.0
  0
SPLINE
  5
3BA
100
AcDbEntity
  8
0
100
AcDbSpline
 62
7
  6
BYLAYER
 70
0
 71
3
 72
11
 73
7
 74
0
 42
0.0000001
 43
0.0000001
 44
0.0000000001
 40
0.0
 40
0.0
 40
0.0
 40
0.0
 40
0.25000159
 40
0.5000017645
 40
0.7500007472
 40
1.0
 40
1.0
 40
1.0
 40
1.0
 10
343.2471358262
 20
225.3327177786
 30
0.0
 10
344.0594832565
 20
225.8013593629
 30
0.0
 10
345.6846984169
 20
226.7377297388
 30
0.0
 10
348.1213962494
 20
228.1442216293
 30
0.0
 10
350.5575752512
 20
229.5515940215
 30
0.0
 10
352.1818433272
 20
230.4895795394
 30
0.0
 10
352.9940253242
 20
230.958490235
 30
0.0
  0
SPLINE
  5
3BB
100
AcDbEntity
  8
0
100
AcDbSpline
 62
7
  6
BYLAYER
 70
0
 71
3
 72
17
 73
13
 74
0
 42
0.0000001
 43
0.0000001
 44
0.0000000001
 40
0.0
 40
0.0
 40
0.0
 40
0.0
 40
0.0429548809
 40
0.0881142461
 40
0.1367079063
 40
0.1894750216
 40
0.3079994922
 40
0.4420570088
 40
0.5859182353
 40
0.7320008081
 40
0.872340784
 40
1.0
 40
1.0
 40
1.0
 40
1.0
 10
138.9658610448
 20
358.2288991327
 30
0.0
 10
139.0985668338
 20
358.3213609878
 30
0.0
 10
139.3474782275
 20
358.546609148
 30
0.0
 10
139.6402358081
 20
358.9747967363
 30
0.0
 10
139.8537481786
 20
359.4871559966
 30
0.0
 10
140.0355336617
 20
360.2983445306
 30
0.0
 10
140.0297831532
 20
361.4621361169
 30
0.0
 10
139.7033474872
 20
362.9271473876
 30
0.0
 10
139.0839817925
 20
364.4070534395
 30
0.0
 10
138.2195441502
 20
365.7861115493
 30
0.0
 10
137.1785868257
 20
366.9564812973
 30
0.0
 10
136.3694609753
 20
367.5755660854
 30
0.0
 10
135.953174993
 20
367.8159034722
 30
0.0
  0
SPLINE
  5
3BC
100
AcDbEntity
  8
0
100
AcDbSpline
 62
7
  6
BYLAYER
 70
0
 71
3
 72
11
 73
7
 74
0
 42
0.0000001
 43
0.0000001
 44
0.0000000001
 40
0.0
 40
0.0
 40
0.0
 40
0.0
 40
0.288047803
 40
0.5476182207
 40
0.7821179963
 40
1.0
 40
1.0
 40
1.0
 40
1.0
 10
135.953174993
 20
367.8159034722
 30
0.0
 10
135.7157355256
 20
367.9529861114
 30
0.0
 10
135.243426727
 20
368.1804702804
 30
0.0
 10
134.517957544
 20
368.3708093125
 30
0.0
 10
133.8328537393
 20
368.3832823213
 30
0.0
 10
133.4105885603
 20
368.2642475551
 30
0.0
 10
133.2228382396
 20
368.1761668452
 30
0.0
  0
SPLINE
  5
3BD
100
AcDbEntity
  8
0
100
AcDbSpline
 62
7
  6
BYLAYER
 70
0
 71
3
 72
11
 73
7
 74
0
 42
0.0000001
 43
0.0000001
 44
0.0000000001
 40
0.0
 40
0.0
 40
0.0
 40
0.0
 40
0.2621939558
 40
0.5231936721
 40
0.7721728623
 40
1.0
 40
1.0
 40
1.0
 40
1.0
 10
127.4197932174
 20
356.3855583683
 30
0.0
 10
127.1958945244
 20
356.9274273501
 30
0.0
 10
126.6666765441
 20
357.9763187805
 30
0.0
 10
125.6728325687
 20
359.3956449079
 30
0.0
 10
124.5301161168
 20
360.594444505
 30
0.0
 10
123.6665093462
 20
361.2334135715
 30
0.0
 10
123.2253059231
 20
361.488136724
 30
0.0
  0
SPLINE
  5
3BE
100
AcDbEntity
  8
0
100
AcDbSpline
 62
7
  6
BYLAYER
 70
0
 71
3
 72
11
 73
7
 74
0
 42
0.0000001
 43
0.0000001
 44
0.0000000001
 40
0.0
 40
0.0
 40
0.0
 40
0.0
 40
0.2880527838
 40
0.5476144574
 40
0.7821164898
 40
1.0
 40
1.0
 40
1.0
 40
1.0
 10
123.2253059231
 20
361.488136724
 30
0.0
 10
122.9362442691
 20
361.6550227723
 30
0.0
 10
122.3612660348
 20
361.9319642404
 30
0.0
 10
121.4780835749
 20
362.163666339
 30
0.0
 10
120.6440551035
 20
362.1788571901
 30
0.0
 10
120.1299792012
 20
362.0339600961
 30
0.0
 10
119.9014194627
 20
361.9267149653
 30
0.0
  0
SPLINE
  5
3BF
100
AcDbEntity
  8
0
100
AcDbSpline
 62
7
  6
BYLAYER
 70
0
 71
3
 72
11
 73
7
 74
0
 42
0.0000001
 43
0.0000001
 44
0.0000000001
 40
0.0
 40
0.0
 40
0.0
 40
0.0
 40
0.2372008865
 40
0.499962005
 40
0.7627427499
 40
1.0
 40
1.0
 40
1.0
 40
1.0
 10
77.4244099473
 20
306.3741968204
 30
0.0
 10
77.8255152942
 20
306.1424867055
 30
0.0
 10
78.7584249827
 20
305.8042815343
 30
0.0
 10
80.2502272288
 20
305.6420681617
 30
0.0
 10
81.7420868491
 20
305.8039028992
 30
0.0
 10
82.6754559335
 20
306.1414487895
 30
0.0
 10
83.0766549189
 20
306.3732168579
 30
0.0
  0
SPLINE
  5
3C0
100
AcDbEntity
  8
0
100
AcDbSpline
 62
7
  6
BYLAYER
 70
0
 71
3
 72
11
 73
7
 74
0
 42
0.0000001
 43
0.0000001
 44
0.0000000001
 40
0.0
 40
0.0
 40
0.0
 40
0.0
 40
0.2897952285
 40
0.5490954704
 40
0.7822440529
 40
1.0
 40
1.0
 40
1.0
 40
1.0
 10
130.5632974613
 20
333.7894790445
 30
0.0
 10
130.7388321096
 20
333.8907636964
 30
0.0
 10
131.0572587871
 20
334.1098734323
 30
0.0
 10
131.4377117205
 20
334.5096960687
 30
0.0
 10
131.6784552368
 20
334.9518744063
 30
0.0
 10
131.7347161021
 20
335.2693228901
 30
0.0
 10
131.7347157736
 20
335.4216041279
 30
0.0
  0
SPLINE
  5
3C1
100
AcDbEntity
  8
0
100
AcDbSpline
 62
7
  6
BYLAYER
 70
0
 71
3
 72
11
 73
7
 74
0
 42
0.0000001
 43
0.0000001
 44
0.0000000001
 40
0.0
 40
0.0
 40
0.0
 40
0.0
 40
0.2372279391
 40
0.4999994739
 40
0.762771295
 40
1.0
 40
1.0
 40
1.0
 40
1.0
 10
77.7281875752
 20
302.5442759607
 30
0.0
 10
78.0787873746
 20
302.7466936409
 30
0.0
 10
78.894136971
 20
303.0421016939
 30
0.0
 10
80.1978129239
 20
303.1836090131
 30
0.0
 10
81.5014908437
 20
303.0421076432
 30
0.0
 10
82.3168436471
 20
302.7467036387
 30
0.0
 10
82.6674460381
 20
302.5442878332
 30
0.0
  0
SPLINE
  5
3C2
100
AcDbEntity
  8
0
100
AcDbSpline
 62
7
  6
BYLAYER
 70
0
 71
3
 72
9
 73
5
 74
0
 42
0.0000001
 43
0.0000001
 44
0.0000000001
 40
0.0
 40
0.0
 40
0.0
 40
0.0
 40
0.7474233717
 40
1.0
 40
1.0
 40
1.0
 40
1.0
 10
48.9556352844
 20
326.2156095545
 30
0.0
 10
48.9556354603
 20
326.3007153445
 30
0.0
 10
48.966676947
 20
326.4149852464
 30
0.0
 10
48.9916678142
 20
326.5260988234
 30
0.0
 10
48.9988247628
 20
326.5539538618
 30
0.0
  0
SPLINE
  5
3C3
100
AcDbEntity
  8
0
100
AcDbSpline
 62
7
  6
BYLAYER
 70
0
 71
3
 72
11
 73
7
 74
0
 42
0.0000001
 43
0.0000001
 44
0.0000000001
 40
0.0
 40
0.0
 40
0.0
 40
0.0
 40
0.217790122
 40
0.4509516249
 40
0.7102360685
 40
1.0
 40
1.0
 40
1.0
 40
1.0
 10
48.9556352845
 20
323.7661023017
 30
0.0
 10
48.9556356236
 20
323.6139376893
 30
0.0
 10
49.0117928446
 20
323.2967483985
 30
0.0
 10
49.2521903522
 20
322.8548889454
 30
0.0
 10
49.6320674323
 20
322.4552819304
 30
0.0
 10
49.9500103389
 20
322.2361301305
 30
0.0
 10
50.1253649046
 20
322.1349512691
 30
0.0
  0
SPLINE
  5
3C4
100
AcDbEntity
  8
0
100
AcDbSpline
 62
7
  6
BYLAYER
 70
0
 71
3
 72
11
 73
7
 74
0
 42
0.0000001
 43
0.0000001
 44
0.0000000001
 40
0.0
 40
0.0
 40
0.0
 40
0.0
 40
0.2372002214
 40
0.4999610884
 40
0.7627420846
 40
1.0
 40
1.0
 40
1.0
 40
1.0
 10
83.0783727742
 20
308.8237159087
 30
0.0
 10
82.6772702261
 20
308.5920035511
 30
0.0
 10
81.7443633962
 20
308.2537949222
 30
0.0
 10
80.2525633077
 20
308.0915754184
 30
0.0
 10
78.7607015492
 20
308.2534040206
 30
0.0
 10
77.8273296202
 20
308.5909464457
 30
0.0
 10
77.4261278401
 20
308.8227122681
 30
0.0
  0
SPLINE
  5
3C5
100
AcDbEntity
  8
0
100
AcDbSpline
 62
7
  6
BYLAYER
 70
0
 71
3
 72
11
 73
7
 74
0
 42
0.0000001
 43
0.0000001
 44
0.0000000001
 40
0.0
 40
0.0
 40
0.0
 40
0.0
 40
0.2177905509
 40
0.4509522424
 40
0.7102365273
 40
1.0
 40
1.0
 40
1.0
 40
1.0
 10
131.7347157735
 20
337.8711113778
 30
0.0
 10
131.7347154493
 20
337.7189484827
 30
0.0
 10
131.6785595107
 20
337.4017629927
 30
0.0
 10
131.438167252
 20
336.9599080263
 30
0.0
 10
131.0582978664
 20
336.5603041936
 30
0.0
 10
130.7403608946
 20
336.3411536493
 30
0.0
 10
130.5650097454
 20
336.2399748777
 30
0.0
  0
SPLINE
  5
3C6
100
AcDbEntity
  8
0
100
AcDbSpline
 62
7
  6
BYLAYER
 70
0
 71
3
 72
11
 73
7
 74
0
 42
0.0000001
 43
0.0000001
 44
0.0000000001
 40
0.0
 40
0.0
 40
0.0
 40
0.0
 40
0.289795734
 40
0.5490961579
 40
0.7822445326
 40
1.0
 40
1.0
 40
1.0
 40
1.0
 10
50.1270797215
 20
324.5834684941
 30
0.0
 10
49.9515413848
 20
324.6847533906
 30
0.0
 10
49.6331080476
 20
324.9038643155
 30
0.0
 10
49.2526465602
 20
325.3036904564
 30
0.0
 10
49.0118972724
 20
325.7458737532
 30
0.0
 10
48.9556349698
 20
326.0633264254
 30
0.0
 10
48.9556352844
 20
326.2156095545
 30
0.0
  0
SPLINE
  5
3C7
100
AcDbEntity
  8
0
100
AcDbSpline
 62
7
  6
BYLAYER
 70
0
 71
3
 72
11
 73
7
 74
0
 42
0.0000001
 43
0.0000001
 44
0.0000000001
 40
0.0
 40
0.0
 40
0.0
 40
0.0
 40
0.2196537366
 40
0.4567934659
 40
0.7164387272
 40
1.0
 40
1.0
 40
1.0
 40
1.0
 10
49.0613945782
 20
326.2961668308
 30
0.0
 10
49.0941090334
 20
326.172494306
 30
0.0
 10
49.1974865497
 20
325.9238015219
 30
0.0
 10
49.4441112871
 20
325.5835777022
 30
0.0
 10
49.7783068194
 20
325.2721731971
 30
0.0
 10
50.0424314015
 20
325.0956253134
 30
0.0
 10
50.1854747034
 20
325.0130916087
 30
0.0
  0
SPLINE
  5
3C8
100
AcDbEntity
  8
0
100
AcDbSpline
 62
7
  6
BYLAYER
 70
0
 71
3
 72
11
 73
7
 74
0
 42
0.0000001
 43
0.0000001
 44
0.0000000001
 40
0.0
 40
0.0
 40
0.0
 40
0.0
 40
0.2177500333
 40
0.4515623809
 40
0.7110660265
 40
1.0
 40
1.0
 40
1.0
 40
1.0
 10
49.6666710916
 20
341.7975690155
 30
0.0
 10
49.6719973958
 20
341.9215178765
 30
0.0
 10
49.727507594
 20
342.1781669882
 30
0.0
 10
49.9315100045
 20
342.5339715344
 30
0.0
 10
50.2445467197
 20
342.8563233586
 30
0.0
 10
50.5039530317
 20
343.0339575961
 30
0.0
 10
50.6465402638
 20
343.1162299604
 30
0.0
  0
SPLINE
  5
3C9
100
AcDbEntity
  8
0
100
AcDbSpline
 62
7
  6
BYLAYER
 70
0
 71
3
 72
9
 73
5
 74
0
 42
0.0000001
 43
0.0000001
 44
0.0000000001
 40
0.0
 40
0.0
 40
0.0
 40
0.0
 40
0.2444790124
 40
1.0
 40
1.0
 40
1.0
 40
1.0
 10
77.4598184747
 20
309.2665981219
 30
0.0
 10
77.4881860837
 20
309.2502105071
 30
0.0
 10
77.6050987624
 20
309.1847090911
 30
0.0
 10
77.7253392795
 20
309.1251910642
 30
0.0
 10
77.8175389413
 20
309.0833681733
 30
0.0
  0
SPLINE
  5
3CA
100
AcDbEntity
  8
0
100
AcDbSpline
 62
7
  6
BYLAYER
 70
0
 71
3
 72
11
 73
7
 74
0
 42
0.0000001
 43
0.0000001
 44
0.0000000001
 40
0.0
 40
0.0
 40
0.0
 40
0.0
 40
0.2408001276
 40
0.4999753609
 40
0.7591617283
 40
1.0
 40
1.0
 40
1.0
 40
1.0
 10
77.8175389413
 20
309.0833681733
 30
0.0
 10
78.1875683275
 20
308.9155183313
 30
0.0
 10
79.003474756
 20
308.669148799
 30
0.0
 10
80.2860082174
 20
308.5494907748
 30
0.0
 10
81.5686325432
 20
308.6688897228
 30
0.0
 10
82.384671016
 20
308.915073406
 30
0.0
 10
82.75482347
 20
309.0828076753
 30
0.0
  0
SPLINE
  5
3CB
100
AcDbEntity
  8
0
100
AcDbSpline
 62
7
  6
BYLAYER
 70
0
 71
3
 72
9
 73
5
 74
0
 42
0.0000001
 43
0.0000001
 44
0.0000000001
 40
0.0
 40
0.0
 40
0.0
 40
0.0
 40
0.2554959472
 40
1.0
 40
1.0
 40
1.0
 40
1.0
 10
82.75482347
 20
309.0828076753
 30
0.0
 10
82.7859624809
 20
309.0969182916
 30
0.0
 10
82.90719786
 20
309.1535439236
 30
0.0
 10
83.0258065274
 20
309.215849237
 30
0.0
 10
83.1120662833
 20
309.265681509
 30
0.0
  0
SPLINE
  5
3CC
100
AcDbEntity
  8
0
100
AcDbSpline
 62
7
  6
BYLAYER
 70
0
 71
3
 72
10
 73
6
 74
0
 42
0.0000001
 43
0.0000001
 44
0.0000000001
 40
0.0
 40
0.0
 40
0.0
 40
0.0
 40
0.2829572785
 40
0.543180994
 40
1.0
 40
1.0
 40
1.0
 40
1.0
 10
130.6094803878
 20
336.6881628998
 30
0.0
 10
130.7465334239
 20
336.7672502778
 30
0.0
 10
131.0007486303
 20
336.9362909661
 30
0.0
 10
131.4152513137
 20
337.3122710679
 30
0.0
 10
131.6395873229
 20
337.6639507767
 30
0.0
 10
131.716330308
 20
337.9076130316
 30
0.0
  0
SPLINE
  5
3CD
100
AcDbEntity
  8
0
100
AcDbSpline
 62
7
  6
BYLAYER
 70
0
 71
3
 72
11
 73
7
 74
0
 42
0.0000001
 43
0.0000001
 44
0.0000000001
 40
0.0
 40
0.0
 40
0.0
 40
0.0
 40
0.2371935269
 40
0.4999714359
 40
0.7627641319
 40
1.0
 40
1.0
 40
1.0
 40
1.0
 10
77.8120847412
 20
309.0490996048
 30
0.0
 10
78.1632609399
 20
308.8462906783
 30
0.0
 10
78.9798420367
 20
308.549762834
 30
0.0
 10
80.2859766586
 20
308.4077940363
 30
0.0
 10
81.5921488319
 20
308.5495132828
 30
0.0
 10
82.4090328497
 20
308.8456067601
 30
0.0
 10
82.7602702766
 20
309.0484544175
 30
0.0
  0
SPLINE
  5
3CE
100
AcDbEntity
  8
0
100
AcDbSpline
 62
7
  6
BYLAYER
 70
0
 71
3
 72
11
 73
7
 74
0
 42
0.0000001
 43
0.0000001
 44
0.0000000001
 40
0.0
 40
0.0
 40
0.0
 40
0.0
 40
0.2889327436
 40
0.5484361609
 40
0.7822489878
 40
1.0
 40
1.0
 40
1.0
 40
1.0
 10
130.1498983732
 20
354.7921301626
 30
0.0
 10
130.2924788824
 20
354.7098545249
 30
0.0
 10
130.5518775675
 20
354.532223415
 30
0.0
 10
130.8649036823
 20
354.2098746964
 30
0.0
 10
131.0688970068
 20
353.8540744556
 30
0.0
 10
131.1244054322
 20
353.5974300878
 30
0.0
 10
131.1297316199
 20
353.4734832934
 30
0.0
  0
SPLINE
  5
3CF
100
AcDbEntity
  8
0
100
AcDbSpline
 62
7
  6
BYLAYER
 70
0
 71
3
 72
11
 73
7
 74
0
 42
0.0000001
 43
0.0000001
 44
0.0000000001
 40
0.0
 40
0.0
 40
0.0
 40
0.0
 40
0.2372182975
 40
0.4999979276
 40
0.7627786445
 40
1.0
 40
1.0
 40
1.0
 40
1.0
 10
98.1425403665
 20
370.5378946259
 30
0.0
 10
98.4785376873
 20
370.7319792126
 30
0.0
 10
99.2600254998
 20
371.0152465201
 30
0.0
 10
100.5096259289
 20
371.1509284917
 30
0.0
 10
101.7592302809
 20
371.0152652263
 30
0.0
 10
102.5407366778
 20
370.7320240097
 30
0.0
 10
102.8767397665
 20
370.537939408
 30
0.0
  0
SPLINE
  5
3D0
100
AcDbEntity
  8
0
100
AcDbSpline
 62
7
  6
BYLAYER
 70
0
 71
3
 72
11
 73
7
 74
0
 42
0.0000001
 43
0.0000001
 44
0.0000000001
 40
0.0
 40
0.0
 40
0.0
 40
0.0
 40
0.2179010759
 40
0.4503844199
 40
0.7094193283
 40
1.0
 40
1.0
 40
1.0
 40
1.0
 10
131.1297316199
 20
353.4734832934
 30
0.0
 10
131.1353572355
 20
353.3425684549
 30
0.0
 10
131.0973922631
 20
353.0677729233
 30
0.0
 10
130.8988939528
 20
352.6828676377
 30
0.0
 10
130.5750956981
 20
352.3355230577
 30
0.0
 10
130.3013260189
 20
352.1462155227
 30
0.0
 10
130.1499759397
 20
352.0588779396
 30
0.0
  0
SPLINE
  5
3D1
100
AcDbEntity
  8
0
100
AcDbSpline
 62
7
  6
BYLAYER
 70
0
 71
3
 72
11
 73
7
 74
0
 42
0.0000001
 43
0.0000001
 44
0.0000000001
 40
0.0
 40
0.0
 40
0.0
 40
0.0
 40
0.2905862419
 40
0.5496233647
 40
0.7821044149
 40
1.0
 40
1.0
 40
1.0
 40
1.0
 10
50.6466483465
 20
340.3828431331
 30
0.0
 10
50.4952697727
 20
340.4701861568
 30
0.0
 10
50.2214399466
 20
340.6594944158
 30
0.0
 10
49.897567713
 20
341.0068656095
 30
0.0
 10
49.6990212689
 20
341.3918102766
 30
0.0
 10
49.6610448145
 20
341.6666394597
 30
0.0
 10
49.6666710916
 20
341.7975690155
 30
0.0
  0
SPLINE
  5
3D2
100
AcDbEntity
  8
0
100
AcDbSpline
 62
7
  6
BYLAYER
 70
0
 71
3
 72
11
 73
7
 74
0
 42
0.0000001
 43
0.0000001
 44
0.0000000001
 40
0.0
 40
0.0
 40
0.0
 40
0.0
 40
0.2372158314
 40
0.499997132
 40
0.7627799354
 40
1.0
 40
1.0
 40
1.0
 40
1.0
 10
82.6540059476
 20
324.637230483
 30
0.0
 10
82.3180027616
 20
324.4431213992
 30
0.0
 10
81.536481611
 20
324.1598091935
 30
0.0
 10
80.2868094214
 20
324.0241082393
 30
0.0
 10
79.0371319387
 20
324.1597834461
 30
0.0
 10
78.2555848149
 20
324.4430591244
 30
0.0
 10
77.9195738037
 20
324.637168506
 30
0.0
  0
SPLINE
  5
3D3
100
AcDbEntity
  8
0
100
AcDbSpline
 62
7
  6
BYLAYER
 70
0
 71
3
 72
11
 73
7
 74
0
 42
0.0000001
 43
0.0000001
 44
0.0000000001
 40
0.0
 40
0.0
 40
0.0
 40
0.0
 40
0.2878533888
 40
0.5476806106
 40
0.782142155
 40
1.0
 40
1.0
 40
1.0
 40
1.0
 10
348.0860925371
 20
245.341567341
 30
0.0
 10
347.8489530152
 20
245.4784768104
 30
0.0
 10
347.3767673061
 20
245.70559508
 30
0.0
 10
346.6518355315
 20
245.8962609471
 30
0.0
 10
345.966892141
 20
245.9087545812
 30
0.0
 10
345.5450104522
 20
245.7896322845
 30
0.0
 10
345.3573596602
 20
245.7016810207
 30
0.0
  0
SPLINE
  5
3D4
100
AcDbEntity
  8
0
100
AcDbSpline
 62
7
  6
BYLAYER
 70
0
 71
3
 72
11
 73
7
 74
0
 42
0.0000001
 43
0.0000001
 44
0.0000000001
 40
0.0
 40
0.0
 40
0.0
 40
0.0
 40
0.2372524156
 40
0.4999996414
 40
0.7627470637
 40
1.0
 40
1.0
 40
1.0
 40
1.0
 10
323.4790162305
 20
237.2605220981
 30
0.0
 10
323.8103166885
 20
237.451797365
 30
0.0
 10
324.5807049708
 20
237.7309584203
 30
0.0
 10
325.8124656169
 20
237.8644244247
 30
0.0
 10
327.0442276942
 20
237.7309637771
 30
0.0
 10
327.8146184219
 20
237.4518066136
 30
0.0
 10
328.1459209863
 20
237.260533316
 30
0.0
  0
SPLINE
  5
3D5
100
AcDbEntity
  8
0
100
AcDbSpline
 62
7
  6
BYLAYER
 70
0
 71
3
 72
10
 73
6
 74
0
 42
0.0000001
 43
0.0000001
 44
0.0000000001
 40
0.0
 40
0.0
 40
0.0
 40
0.0
 40
0.5477534882
 40
0.7815969799
 40
1.0
 40
1.0
 40
1.0
 40
1.0
 10
334.0856426775
 20
233.831310978
 30
0.0
 10
334.3585915445
 20
233.6737274412
 30
0.0
 10
334.7270060005
 20
233.383574046
 30
0.0
 10
335.0058597589
 20
232.8718714421
 30
0.0
 10
335.052015398
 20
232.6097724012
 30
0.0
 10
335.05201537
 20
232.4841052715
 30
0.0
  0
SPLINE
  5
3D6
100
AcDbEntity
  8
0
100
AcDbSpline
 62
7
  6
BYLAYER
 70
0
 71
3
 72
9
 73
5
 74
0
 42
0.0000001
 43
0.0000001
 44
0.0000000001
 40
0.0
 40
0.0
 40
0.0
 40
0.0
 40
0.4491660543
 40
1.0
 40
1.0
 40
1.0
 40
1.0
 10
342.6974787405
 20
221.6223222129
 30
0.0
 10
342.8998183206
 20
221.7391424232
 30
0.0
 10
343.2494572636
 20
222.1765760709
 30
0.0
 10
343.3188985614
 20
222.7090090729
 30
0.0
 10
343.3188985614
 20
222.9955346682
 30
0.0
  0
SPLINE
  5
3D7
100
AcDbEntity
  8
0
100
AcDbSpline
 62
7
  6
BYLAYER
 70
0
 71
3
 72
9
 73
5
 74
0
 42
0.0000001
 43
0.0000001
 44
0.0000000001
 40
0.0
 40
0.0
 40
0.0
 40
0.0
 40
0.4491675054
 40
1.0
 40
1.0
 40
1.0
 40
1.0
 10
336.6870961262
 20
218.1522469062
 30
0.0
 10
336.4847611893
 20
218.0354295205
 30
0.0
 10
335.9311294445
 20
217.9513504293
 30
0.0
 10
335.4353193916
 20
218.1574181773
 30
0.0
 10
335.1871867697
 20
218.3006743724
 30
0.0
  0
SPLINE
  5
3D8
100
AcDbEntity
  8
0
100
AcDbSpline
 62
7
  6
BYLAYER
 70
0
 71
3
 72
9
 73
5
 74
0
 42
0.0000001
 43
0.0000001
 44
0.0000000001
 40
0.0
 40
0.0
 40
0.0
 40
0.0
 40
0.220853087
 40
1.0
 40
1.0
 40
1.0
 40
1.0
 10
322.3854099736
 20
232.1780307533
 30
0.0
 10
322.4018957061
 20
232.1685129377
 30
0.0
 10
322.469331339
 20
232.1117560439
 30
0.0
 10
322.4889430519
 20
232.0162546631
 30
0.0
 10
322.4889430519
 20
231.9490977209
 30
0.0
  0
SPLINE
  5
3D9
100
AcDbEntity
  8
0
100
AcDbSpline
 62
7
  6
BYLAYER
 70
0
 71
3
 72
9
 73
5
 74
0
 42
0.0000001
 43
0.0000001
 44
0.0000000001
 40
0.0
 40
0.0
 40
0.0
 40
0.0
 40
0.220854453
 40
1.0
 40
1.0
 40
1.0
 40
1.0
 10
320.1085166392
 20
233.4925659941
 30
0.0
 10
320.0920314602
 20
233.5020835124
 30
0.0
 10
320.0091636997
 20
233.5321037033
 30
0.0
 10
319.916655143
 20
233.5013390287
 30
0.0
 10
319.8584978184
 20
233.4677620821
 30
0.0
  0
SPLINE
  5
3DA
100
AcDbEntity
  8
0
100
AcDbSpline
 62
7
  6
BYLAYER
 70
0
 71
3
 72
15
 73
11
 74
0
 42
0.0000001
 43
0.0000001
 44
0.0000000001
 40
0.0
 40
0.0
 40
0.0
 40
0.0
 40
0.0876040483
 40
0.1886775289
 40
0.307317333
 40
0.4415044554
 40
0.5855026442
 40
0.7317297645
 40
0.8722172502
 40
1.0
 40
1.0
 40
1.0
 40
1.0
 10
351.0976933868
 20
235.7590785713
 30
0.0
 10
351.367961973
 20
235.9473484081
 30
0.0
 10
351.8426934795
 20
236.5150045151
 30
0.0
 10
352.1669201809
 20
237.6464882138
 30
0.0
 10
352.1610157819
 20
238.9900248607
 30
0.0
 10
351.8344595185
 20
240.45536813
 30
0.0
 10
351.2154764042
 20
241.9342264802
 30
0.0
 10
350.3514074471
 20
243.3127247822
 30
0.0
 10
349.3109381325
 20
244.4825413914
 30
0.0
 10
348.5021729554
 20
245.1013486339
 30
0.0
 10
348.0860925371
 20
245.341567341
 30
0.0
  0
SPLINE
  5
3DB
100
AcDbEntity
  8
0
100
AcDbSpline
 62
7
  6
BYLAYER
 70
0
 71
3
 72
11
 73
7
 74
0
 42
0.0000001
 43
0.0000001
 44
0.0000000001
 40
0.0
 40
0.0
 40
0.0
 40
0.0
 40
0.2372539654
 40
0.5000012591
 40
0.7627478695
 40
1.0
 40
1.0
 40
1.0
 40
1.0
 10
343.3188985614
 20
225.036790711
 30
0.0
 10
343.3188985614
 20
225.3845683604
 30
0.0
 10
343.1885057645
 20
226.117987434
 30
0.0
 10
342.7336884988
 20
227.1484163294
 30
0.0
 10
342.0687167844
 20
228.0575087276
 30
0.0
 10
341.4987530393
 20
228.5371356964
 30
0.0
 10
341.197569386
 20
228.711020226
 30
0.0
  0
SPLINE
  5
3DC
100
AcDbEntity
  8
0
100
AcDbSpline
 62
7
  6
BYLAYER
 70
0
 71
3
 72
9
 73
5
 74
0
 42
0.0000001
 43
0.0000001
 44
0.0000000001
 40
0.0
 40
0.0
 40
0.0
 40
0.0
 40
0.5508341095
 40
1.0
 40
1.0
 40
1.0
 40
1.0
 10
313.2667852901
 20
235.4469010568
 30
0.0
 10
313.2667852901
 20
235.7334267376
 30
0.0
 10
313.3362266527
 20
236.2658596961
 30
0.0
 10
313.6858655402
 20
236.7032934509
 30
0.0
 10
313.888205109
 20
236.8201135109
 30
0.0
  0
SPLINE
  5
3DD
100
AcDbEntity
  8
0
100
AcDbSpline
 62
7
  6
BYLAYER
 70
0
 71
3
 72
9
 73
5
 74
0
 42
0.0000001
 43
0.0000001
 44
0.0000000001
 40
0.0
 40
0.0
 40
0.0
 40
0.0
 40
0.2608019715
 40
1.0
 40
1.0
 40
1.0
 40
1.0
 10
313.339467048
 20
232.7282727094
 30
0.0
 10
313.3275804075
 20
232.7863476825
 30
0.0
 10
313.2870357368
 20
233.0099833651
 30
0.0
 10
313.2667852901
 20
233.2376290755
 30
0.0
 10
313.2667852901
 20
233.405645014
 30
0.0
  0
SPLINE
  5
3DE
100
AcDbEntity
  8
0
100
AcDbSpline
 62
7
  6
BYLAYER
 70
0
 71
3
 72
9
 73
5
 74
0
 42
0.0000001
 43
0.0000001
 44
0.0000000001
 40
0.0
 40
0.0
 40
0.0
 40
0.0
 40
0.5508326585
 40
1.0
 40
1.0
 40
1.0
 40
1.0
 10
321.3984970819
 20
240.1417613525
 30
0.0
 10
321.1503643858
 20
240.2850175905
 30
0.0
 10
320.6545543382
 20
240.4910852606
 30
0.0
 10
320.1009225284
 20
240.407006271
 30
0.0
 10
319.8985877273
 20
240.2901888199
 30
0.0
  0
SPLINE
  5
3DF
100
AcDbEntity
  8
0
100
AcDbSpline
 62
7
  6
BYLAYER
 70
0
 71
3
 72
9
 73
5
 74
0
 42
0.0000001
 43
0.0000001
 44
0.0000000001
 40
0.0
 40
0.0
 40
0.0
 40
0.0
 40
0.2559888804
 40
1.0
 40
1.0
 40
1.0
 40
1.0
 10
319.6968355495
 20
233.3292486837
 30
0.0
 10
319.2786592393
 20
232.8395468048
 30
0.0
 10
317.6113268042
 20
230.9558442811
 30
0.0
 10
315.8078450757
 20
229.1911593055
 30
0.0
 10
314.3911726616
 20
227.9680689656
 30
0.0
  0
SPLINE
  5
3E0
100
AcDbEntity
  8
0
100
AcDbSpline
 62
7
  6
BYLAYER
 70
0
 71
3
 72
8
 73
4
 74
0
 42
0.0000001
 43
0.0000001
 44
0.0000000001
 40
0.0
 40
0.0
 40
0.0
 40
0.0
 40
1.0
 40
1.0
 40
1.0
 40
1.0
 10
319.8584978184
 20
233.4677620821
 30
0.0
 10
319.8391408911
 20
233.4565864217
 30
0.0
 10
319.8205453048
 20
233.444022163
 30
0.0
 10
319.8027636977
 20
233.43047962
 30
0.0
  0
SPLINE
  5
3E1
100
AcDbEntity
  8
0
100
AcDbSpline
 62
7
  6
BYLAYER
 70
0
 71
3
 72
8
 73
4
 74
0
 42
0.0000001
 43
0.0000001
 44
0.0000000001
 40
0.0
 40
0.0
 40
0.0
 40
0.0
 40
1.0
 40
1.0
 40
1.0
 40
1.0
 10
319.8027636977
 20
233.43047962
 30
0.0
 10
319.7639088497
 20
233.4008876126
 30
0.0
 10
319.7285518528
 20
233.366389796
 30
0.0
 10
319.6968355495
 20
233.3292486837
 30
0.0
  0
SPLINE
  5
3E2
100
AcDbEntity
  8
0
100
AcDbSpline
 62
7
  6
BYLAYER
 70
0
 71
3
 72
9
 73
5
 74
0
 42
0.0000001
 43
0.0000001
 44
0.0000000001
 40
0.0
 40
0.0
 40
0.0
 40
0.0
 40
0.2568106613
 40
1.0
 40
1.0
 40
1.0
 40
1.0
 10
322.298357113
 20
231.3335420108
 30
0.0
 10
321.8426064034
 20
230.7970712044
 30
0.0
 10
320.0270184984
 20
228.7435148224
 30
0.0
 10
318.0460916935
 20
226.8338070239
 30
0.0
 10
316.4832619335
 20
225.5271540709
 30
0.0
  0
SPLINE
  5
3E3
100
AcDbEntity
  8
0
100
AcDbSpline
 62
7
  6
BYLAYER
 70
0
 71
3
 72
9
 73
5
 74
0
 42
0.0000001
 43
0.0000001
 44
0.0000000001
 40
0.0
 40
0.0
 40
0.0
 40
0.0
 40
0.229679131
 40
1.0
 40
1.0
 40
1.0
 40
1.0
 10
322.4889430519
 20
231.8058712438
 30
0.0
 10
322.4889430519
 20
231.7664449874
 30
0.0
 10
322.4675538235
 20
231.5951774304
 30
0.0
 10
322.383969572
 20
231.4343176847
 30
0.0
 10
322.298357113
 20
231.3335420108
 30
0.0
  0
SPLINE
  5
3E4
100
AcDbEntity
  8
0
100
AcDbSpline
 62
7
  6
BYLAYER
 70
0
 71
3
 72
9
 73
5
 74
0
 42
0.0000001
 43
0.0000001
 44
0.0000000001
 40
0.0
 40
0.0
 40
0.0
 40
0.0
 40
0.4999983279
 40
1.0
 40
1.0
 40
1.0
 40
1.0
 10
307.9437896225
 20
224.2624527175
 30
0.0
 10
307.733910797
 20
224.1412798445
 30
0.0
 10
307.4023051473
 20
223.7585823474
 30
0.0
 10
307.2366857853
 20
223.2800545985
 30
0.0
 10
307.2366857853
 20
223.0377061465
 30
0.0
  0
SPLINE
  5
3E5
100
AcDbEntity
  8
0
100
AcDbSpline
 62
7
  6
BYLAYER
 70
0
 71
3
 72
9
 73
5
 74
0
 42
0.0000001
 43
0.0000001
 44
0.0000000001
 40
0.0
 40
0.0
 40
0.0
 40
0.0
 40
0.7657554928
 40
1.0
 40
1.0
 40
1.0
 40
1.0
 10
314.8282199555
 20
222.7083326211
 30
0.0
 10
314.7026109649
 20
222.6049829537
 30
0.0
 10
314.5812119798
 20
222.4082125456
 30
0.0
 10
314.548175614
 20
222.1970781103
 30
0.0
 10
314.548175614
 20
222.1473199701
 30
0.0
  0
SPLINE
  5
3E6
100
AcDbEntity
  8
0
100
AcDbSpline
 62
7
  6
BYLAYER
 70
0
 71
3
 72
11
 73
7
 74
0
 42
0.0000001
 43
0.0000001
 44
0.0000000001
 40
0.0
 40
0.0
 40
0.0
 40
0.0
 40
0.2372523758
 40
0.4999990758
 40
0.7627462798
 40
1.0
 40
1.0
 40
1.0
 40
1.0
 10
335.1871867697
 20
225.240944918
 30
0.0
 10
335.4883707343
 20
225.0670602088
 30
0.0
 10
336.0583347976
 20
224.58743281
 30
0.0
 10
336.7233064977
 20
223.678339956
 30
0.0
 10
337.1781233615
 20
222.6479112761
 30
0.0
 10
337.3085159451
 20
221.914492693
 30
0.0
 10
337.3085159451
 20
221.5667154031
 30
0.0
  0
SPLINE
  5
3E7
100
AcDbEntity
  8
0
100
AcDbSpline
 62
7
  6
BYLAYER
 70
0
 71
3
 72
9
 73
5
 74
0
 42
0.0000001
 43
0.0000001
 44
0.0000000001
 40
0.0
 40
0.0
 40
0.0
 40
0.0
 40
0.2568206422
 40
1.0
 40
1.0
 40
1.0
 40
1.0
 10
242.5229313964
 20
354.6344177587
 30
0.0
 10
242.5224646815
 20
354.4629900846
 30
0.0
 10
242.5057297649
 20
353.7954813893
 30
0.0
 10
242.4389546444
 20
353.1302679549
 30
0.0
 10
242.3773364166
 20
352.6380359298
 30
0.0
  0
SPLINE
  5
3E8
100
AcDbEntity
  8
0
100
AcDbSpline
 62
7
  6
BYLAYER
 70
0
 71
3
 72
12
 73
8
 74
0
 42
0.0000001
 43
0.0000001
 44
0.0000000001
 40
0.0
 40
0.0
 40
0.0
 40
0.0
 40
0.2643281475
 40
0.5249569379
 40
0.6542197108
 40
0.777629011
 40
1.0
 40
1.0
 40
1.0
 40
1.0
 10
242.3773364166
 20
352.6380359298
 30
0.0
 10
242.1924191596
 20
351.1608399915
 30
0.0
 10
241.5702974224
 20
348.2545569679
 30
0.0
 10
240.2999556973
 20
344.7895430685
 30
0.0
 10
239.1414462513
 20
342.1386851766
 30
0.0
 10
238.126227703
 20
339.6714699411
 30
0.0
 10
237.6045659897
 20
337.746779349
 30
0.0
 10
237.5809470783
 20
336.494584349
 30
0.0
  0
SPLINE
  5
3E9
100
AcDbEntity
  8
0
100
AcDbSpline
 62
7
  6
BYLAYER
 70
0
 71
3
 72
10
 73
6
 74
0
 42
0.0000001
 43
0.0000001
 44
0.0000000001
 40
0.0
 40
0.0
 40
0.0
 40
0.0
 40
0.5477659701
 40
0.7815941322
 40
1.0
 40
1.0
 40
1.0
 40
1.0
 10
334.0856621077
 20
229.9121571546
 30
0.0
 10
334.3586146713
 20
230.06974545
 30
0.0
 10
334.7270320198
 20
230.3599301664
 30
0.0
 10
335.0057988924
 20
230.8716325014
 30
0.0
 10
335.0521571423
 20
231.1336835798
 30
0.0
 10
335.0521855422
 20
231.2593517064
 30
0.0
  0
SPLINE
  5
3EA
100
AcDbEntity
  8
0
100
AcDbSpline
 62
7
  6
BYLAYER
 70
0
 71
3
 72
9
 73
5
 74
0
 42
0.0000001
 43
0.0000001
 44
0.0000000001
 40
0.0
 40
0.0
 40
0.0
 40
0.0
 40
0.4758234533
 40
1.0
 40
1.0
 40
1.0
 40
1.0
 10
331.1157815664
 20
236.5665493904
 30
0.0
 10
331.6504774886
 20
236.2578495395
 30
0.0
 10
332.6862311152
 20
235.4544005962
 30
0.0
 10
333.5394117238
 20
234.4667723267
 30
0.0
 10
333.9386899681
 20
233.916152078
 30
0.0
  0
SPLINE
  5
3EB
100
AcDbEntity
  8
0
100
AcDbSpline
 62
7
  6
BYLAYER
 70
0
 71
3
 72
9
 73
5
 74
0
 42
0.0000001
 43
0.0000001
 44
0.0000000001
 40
0.0
 40
0.0
 40
0.0
 40
0.0
 40
0.4575418421
 40
1.0
 40
1.0
 40
1.0
 40
1.0
 10
328.2928734211
 20
237.1756920332
 30
0.0
 10
328.7299981323
 20
237.2737672858
 30
0.0
 10
329.7445039845
 20
237.229530088
 30
0.0
 10
330.6558018236
 20
236.8321128108
 30
0.0
 10
331.1157815664
 20
236.5665493904
 30
0.0
  0
SPLINE
  5
3EC
100
AcDbEntity
  8
0
100
AcDbSpline
 62
7
  6
BYLAYER
 70
0
 71
3
 72
13
 73
9
 74
0
 42
0.0000001
 43
0.0000001
 44
0.0000000001
 40
0.0
 40
0.0
 40
0.0
 40
0.0
 40
0.143207875
 40
0.263045365
 40
0.3796481591
 40
0.4985852454
 40
0.7448255926
 40
1.0
 40
1.0
 40
1.0
 40
1.0
 10
327.8170992771
 20
233.6414382543
 30
0.0
 10
327.6534857828
 20
233.7358984122
 30
0.0
 10
327.3796299154
 20
233.9823461433
 30
0.0
 10
327.2417193875
 20
234.4822143119
 30
0.0
 10
327.2767129991
 20
234.9539720499
 30
0.0
 10
327.4399362162
 20
235.5703243117
 30
0.0
 10
327.7809740572
 20
236.3187347483
 30
0.0
 10
328.1145088601
 20
236.8901966673
 30
0.0
 10
328.2928734431
 20
237.1756920649
 30
0.0
  0
SPLINE
  5
3ED
100
AcDbEntity
  8
0
100
AcDbSpline
 62
7
  6
BYLAYER
 70
0
 71
3
 72
12
 73
8
 74
0
 42
0.0000001
 43
0.0000001
 44
0.0000000001
 40
0.0
 40
0.0
 40
0.0
 40
0.0
 40
0.248674244
 40
0.5008907832
 40
0.7570765613
 40
0.8841499791
 40
1.0
 40
1.0
 40
1.0
 40
1.0
 10
333.9386900026
 20
233.9161520951
 30
0.0
 10
333.4346737342
 20
233.811190185
 30
0.0
 10
332.4162508226
 20
233.6132802758
 30
0.0
 10
330.8664013793
 20
233.382508103
 30
0.0
 10
329.5480783071
 20
233.2893646838
 30
0.0
 10
328.5175462292
 20
233.3745498323
 30
0.0
 10
328.0248113844
 20
233.5215183262
 30
0.0
 10
327.8170992771
 20
233.6414382543
 30
0.0
  0
SPLINE
  5
3EE
100
AcDbEntity
  8
0
100
AcDbSpline
 62
7
  6
BYLAYER
 70
0
 71
3
 72
30
 73
26
 74
0
 42
0.0000001
 43
0.0000001
 44
0.0000000001
 40
0.0
 40
0.0
 40
0.0
 40
0.0
 40
0.0282078885
 40
0.0589739327
 40
0.0937414884
 40
0.1319414033
 40
0.2170200654
 40
0.3126330315
 40
0.3640495619
 40
0.4151104768
 40
0.4613615196
 40
0.5024673393
 40
0.5380967254
 40
0.5676906189
 40
0.5903596853
 40
0.6097571975
 40
0.6325121528
 40
0.6589184249
 40
0.7212244042
 40
0.7876618556
 40
0.8484665146
 40
0.9002398112
 40
0.9407581414
 40
0.9710087178
 40
1.0
 40
1.0
 40
1.0
 40
1.0
 10
333.8476486359
 20
279.6575837429
 30
0.0
 10
333.8549697442
 20
279.2346058912
 30
0.0
 10
333.9630994522
 20
278.3480244739
 30
0.0
 10
334.4795536115
 20
277.0231767075
 30
0.0
 10
335.4157483958
 20
275.7600012743
 30
0.0
 10
337.2118496967
 20
274.1944405113
 30
0.0
 10
340.1508444296
 20
272.6486388148
 30
0.0
 10
343.5077799501
 20
271.6627597306
 30
0.0
 10
346.4487240349
 20
271.2137026798
 30
0.0
 10
348.6791096013
 20
271.0927733739
 30
0.0
 10
350.7556279138
 20
271.1318678784
 30
0.0
 10
352.5970116251
 20
271.2398768037
 30
0.0
 10
354.1883009476
 20
271.3443286763
 30
0.0
 10
355.5054670186
 20
271.3970911459
 30
0.0
 10
356.5816343216
 20
271.379541326
 30
0.0
 10
357.5470958283
 20
271.2498394283
 30
0.0
 10
358.5483164415
 20
271.0101448415
 30
0.0
 10
360.1419236886
 20
270.5014489151
 30
0.0
 10
362.2966554179
 20
269.6184005227
 30
0.0
 10
364.9155067903
 20
268.5137518449
 30
0.0
 10
367.3456143871
 20
267.3688885171
 30
0.0
 10
369.3406012357
 20
266.2237530618
 30
0.0
 10
370.8025528387
 20
265.0967015075
 30
0.0
 10
371.7257824221
 20
263.8742484039
 30
0.0
 10
371.884856709
 20
262.9654396346
 30
0.0
 10
371.8844243707
 20
262.53064988
 30
0.0
  0
SPLINE
  5
3EF
100
AcDbEntity
  8
0
100
AcDbSpline
 62
7
  6
BYLAYER
 70
0
 71
3
 72
13
 73
9
 74
0
 42
0.0000001
 43
0.0000001
 44
0.0000000001
 40
0.0
 40
0.0
 40
0.0
 40
0.0
 40
0.1407548066
 40
0.277455776
 40
0.5420090711
 40
0.7903386938
 40
0.9030934408
 40
1.0
 40
1.0
 40
1.0
 40
1.0
 10
345.7533560649
 20
291.6276511927
 30
0.0
 10
345.7505845022
 20
291.0382299519
 30
0.0
 10
345.6220581778
 20
289.8747363816
 30
0.0
 10
344.992101889
 20
287.6863782616
 30
0.0
 10
343.8139779672
 20
285.2263394784
 30
0.0
 10
342.6370750933
 20
282.883174195
 30
0.0
 10
341.9966070843
 20
281.071977444
 30
0.0
 10
341.8495365592
 20
280.1960131596
 30
0.0
 10
341.8470728128
 20
279.790212715
 30
0.0
  0
SPLINE
  5
3F0
100
AcDbEntity
  8
0
100
AcDbSpline
 62
7
  6
BYLAYER
 70
0
 71
3
 72
8
 73
4
 74
0
 42
0.0000001
 43
0.0000001
 44
0.0000000001
 40
0.0
 40
0.0
 40
0.0
 40
0.0
 40
1.0
 40
1.0
 40
1.0
 40
1.0
 10
335.05201537
 20
232.4841052715
 30
0.0
 10
335.0520153478
 20
232.3841522402
 30
0.0
 10
335.0381155416
 20
232.2833799559
 30
0.0
 10
335.0117865958
 20
232.1869569551
 30
0.0
  0
SPLINE
  5
3F1
100
AcDbEntity
  8
0
100
AcDbSpline
 62
7
  6
BYLAYER
 70
0
 71
3
 72
9
 73
5
 74
0
 42
0.0000001
 43
0.0000001
 44
0.0000000001
 40
0.0
 40
0.0
 40
0.0
 40
0.0
 40
0.221495169
 40
1.0
 40
1.0
 40
1.0
 40
1.0
 10
335.0117865958
 20
232.1869569551
 30
0.0
 10
334.9841362511
 20
232.0856946699
 30
0.0
 10
334.7966894138
 20
231.6446600252
 30
0.0
 10
334.4051772052
 20
231.3213818067
 30
0.0
 10
334.0856621077
 20
231.1369107803
 30
0.0
  0
SPLINE
  5
3F2
100
AcDbEntity
  8
0
100
AcDbSpline
 62
7
  6
BYLAYER
 70
0
 71
3
 72
9
 73
5
 74
0
 42
0.0000001
 43
0.0000001
 44
0.0000000001
 40
0.0
 40
0.0
 40
0.0
 40
0.0
 40
0.4491675054
 40
1.0
 40
1.0
 40
1.0
 40
1.0
 10
313.888205109
 20
236.8201135109
 30
0.0
 10
314.0905400459
 20
236.9369308966
 30
0.0
 10
314.6441717907
 20
237.0210099878
 30
0.0
 10
315.1399818436
 20
236.8149422398
 30
0.0
 10
315.3881144656
 20
236.6716860446
 30
0.0
  0
SPLINE
  5
3F3
100
AcDbEntity
  8
0
100
AcDbSpline
 62
7
  6
BYLAYER
 70
0
 71
3
 72
11
 73
7
 74
0
 42
0.0000001
 43
0.0000001
 44
0.0000000001
 40
0.0
 40
0.0
 40
0.0
 40
0.0
 40
0.2879178179
 40
0.5476549474
 40
0.7821099373
 40
1.0
 40
1.0
 40
1.0
 40
1.0
 10
335.3582234672
 20
239.0159097431
 30
0.0
 10
335.0693343408
 20
239.1826961848
 30
0.0
 10
334.4943142987
 20
239.4594280762
 30
0.0
 10
333.611357707
 20
239.6914612487
 30
0.0
 10
332.7772374199
 20
239.7066464262
 30
0.0
 10
332.2633284942
 20
239.5617296327
 30
0.0
 10
332.0347287322
 20
239.4546283242
 30
0.0
  0
SPLINE
  5
3F4
100
AcDbEntity
  8
0
100
AcDbSpline
 62
7
  6
BYLAYER
 70
0
 71
3
 72
9
 73
5
 74
0
 42
0.0000001
 43
0.0000001
 44
0.0000000001
 40
0.0
 40
0.0
 40
0.0
 40
0.0
 40
0.293909939
 40
1.0
 40
1.0
 40
1.0
 40
1.0
 10
322.1353911333
 20
232.1532268526
 30
0.0
 10
322.1572052311
 20
232.1658211526
 30
0.0
 10
322.2333602158
 20
232.2029473386
 30
0.0
 10
322.3330034905
 20
232.2082869304
 30
0.0
 10
322.3854099736
 20
232.1780307533
 30
0.0
  0
SPLINE
  5
3F5
100
AcDbEntity
  8
0
100
AcDbSpline
 62
7
  6
BYLAYER
 70
0
 71
3
 72
9
 73
5
 74
0
 42
0.0000001
 43
0.0000001
 44
0.0000000001
 40
0.0
 40
0.0
 40
0.0
 40
0.0
 40
0.2655634194
 40
1.0
 40
1.0
 40
1.0
 40
1.0
 10
321.9737288646
 20
232.0147134543
 30
0.0
 10
321.9859976307
 20
232.0290806905
 30
0.0
 10
322.0341003427
 20
232.0814520896
 30
0.0
 10
322.090141507
 20
232.1271021246
 30
0.0
 10
322.1353911333
 20
232.1532268526
 30
0.0
  0
SPLINE
  5
3F6
100
AcDbEntity
  8
0
100
AcDbSpline
 62
7
  6
BYLAYER
 70
0
 71
3
 72
9
 73
5
 74
0
 42
0.0000001
 43
0.0000001
 44
0.0000000001
 40
0.0
 40
0.0
 40
0.0
 40
0.0
 40
0.2422170488
 40
1.0
 40
1.0
 40
1.0
 40
1.0
 10
315.7007462147
 20
225.8423002373
 30
0.0
 10
316.2521963307
 20
226.2912546198
 30
0.0
 10
318.4823949263
 20
228.2015325171
 30
0.0
 10
320.5290495083
 20
230.3229337483
 30
0.0
 10
321.9737288646
 20
232.0147134543
 30
0.0
  0
SPLINE
  5
3F7
100
AcDbEntity
  8
0
100
AcDbSpline
 62
7
  6
BYLAYER
 70
0
 71
3
 72
15
 73
11
 74
0
 42
0.0000001
 43
0.0000001
 44
0.0000000001
 40
0.0
 40
0.0
 40
0.0
 40
0.0
 40
0.1469989598
 40
0.21668551
 40
0.2815817074
 40
0.4063664956
 40
0.5315868369
 40
0.6536356543
 40
0.770978724
 40
1.0
 40
1.0
 40
1.0
 40
1.0
 10
297.8132495686
 20
322.7344578878
 30
0.0
 10
297.8047801718
 20
321.7311726557
 30
0.0
 10
297.3675560816
 20
320.266070498
 30
0.0
 10
296.5450380494
 20
318.5365041946
 30
0.0
 10
295.748206411
 20
316.9538736297
 30
0.0
 10
294.8563465223
 20
314.9986218643
 30
0.0
 10
293.7829004001
 20
312.6973726605
 30
0.0
 10
292.676933991
 20
310.4664027978
 30
0.0
 10
291.3803228592
 20
307.5490916816
 30
0.0
 10
290.7384881577
 20
305.2234709761
 30
0.0
 10
290.6391967881
 20
303.66347475
 30
0.0
  0
SPLINE
  5
3F8
100
AcDbEntity
  8
0
100
AcDbSpline
 62
7
  6
BYLAYER
 70
0
 71
3
 72
9
 73
5
 74
0
 42
0.0000001
 43
0.0000001
 44
0.0000000001
 40
0.0
 40
0.0
 40
0.0
 40
0.0
 40
0.2459609492
 40
1.0
 40
1.0
 40
1.0
 40
1.0
 10
229.5805330252
 20
336.274359841
 30
0.0
 10
229.581639338
 20
336.1303160992
 30
0.0
 10
229.5986855068
 20
335.5448598138
 30
0.0
 10
229.6694699333
 20
334.9608325649
 30
0.0
 10
229.7537139906
 20
334.527336634
 30
0.0
  0
SPLINE
  5
3F9
100
AcDbEntity
  8
0
100
AcDbSpline
 62
7
  6
BYLAYER
 70
0
 71
3
 72
27
 73
23
 74
0
 42
0.0000001
 43
0.0000001
 44
0.0000000001
 40
0.0
 40
0.0
 40
0.0
 40
0.0
 40
0.0511108326
 40
0.1114016854
 40
0.1475319543
 40
0.1873482557
 40
0.2289269035
 40
0.2715522704
 40
0.3551092305
 40
0.4331061281
 40
0.5049413389
 40
0.5729782319
 40
0.7067996918
 40
0.7721624219
 40
0.8321127885
 40
0.8842199119
 40
0.9074210187
 40
0.9298843028
 40
0.9515972625
 40
0.9711848601
 40
0.9874317188
 40
1.0
 40
1.0
 40
1.0
 40
1.0
 10
229.7537139906
 20
334.527336634
 30
0.0
 10
229.9674372942
 20
333.4275773701
 30
0.0
 10
230.8742380251
 20
331.0960919036
 30
0.0
 10
233.117570979
 20
328.6631110767
 30
0.0
 10
235.6410452125
 20
327.0452200674
 30
0.0
 10
238.0155908395
 20
326.0207475102
 30
0.0
 10
240.6302138395
 20
325.2584352649
 30
0.0
 10
244.2514011467
 20
324.5880145279
 30
0.0
 10
248.7400003734
 20
324.3619424807
 30
0.0
 10
253.8499571937
 20
324.6890670553
 30
0.0
 10
258.5910066922
 20
325.2729375273
 30
0.0
 10
264.5255215473
 20
326.1505177768
 30
0.0
 10
270.312493535
 20
327.0680273987
 30
0.0
 10
275.9700723199
 20
327.6119274673
 30
0.0
 10
279.862964512
 20
327.6895223167
 30
0.0
 10
282.8263270043
 20
327.3959871831
 30
0.0
 10
284.9116593756
 20
326.8855046179
 30
0.0
 10
286.2995893455
 20
326.3703891293
 30
0.0
 10
287.5449696398
 20
325.7279837605
 30
0.0
 10
288.5803455812
 20
324.9980010666
 30
0.0
 10
289.330019388
 20
324.2381951673
 30
0.0
 10
289.6466658713
 20
323.6752416239
 30
0.0
 10
289.7258219709
 20
323.4113654173
 30
0.0
  0
SPLINE
  5
3FA
100
AcDbEntity
  8
0
100
AcDbSpline
 62
7
  6
BYLAYER
 70
0
 71
3
 72
9
 73
5
 74
0
 42
0.0000001
 43
0.0000001
 44
0.0000000001
 40
0.0
 40
0.0
 40
0.0
 40
0.0
 40
0.2395762591
 40
1.0
 40
1.0
 40
1.0
 40
1.0
 10
289.7258219709
 20
323.4113654173
 30
0.0
 10
289.7402296176
 20
323.3633358253
 30
0.0
 10
289.7924285741
 20
323.160488044
 30
0.0
 10
289.8125616326
 20
322.9500054955
 30
0.0
 10
289.8133784368
 20
322.7908486762
 30
0.0
  0
SPLINE
  5
3FB
100
AcDbEntity
  8
0
100
AcDbSpline
 62
7
  6
BYLAYER
 70
0
 71
3
 72
55
 73
51
 74
0
 42
0.0000001
 43
0.0000001
 44
0.0000000001
 40
0.0
 40
0.0
 40
0.0
 40
0.0
 40
0.066855027
 40
0.1002987124
 40
0.13359353
 40
0.1666139353
 40
0.1830045895
 40
0.1989966346
 40
0.229081337
 40
0.2578564148
 40
0.2874626389
 40
0.3017684662
 40
0.3147938591
 40
0.3268994122
 40
0.340320287
 40
0.3710207716
 40
0.403048603
 40
0.4325094899
 40
0.4591865247
 40
0.4835359841
 40
0.5072274946
 40
0.5311340467
 40
0.5432817731
 40
0.5558676419
 40
0.5694792065
 40
0.5845273551
 40
0.6016047196
 40
0.6210540115
 40
0.6428397915
 40
0.6673417873
 40
0.6951710351
 40
0.7246285538
 40
0.752263857
 40
0.7778620486
 40
0.8015412305
 40
0.8226928463
 40
0.8410482487
 40
0.8568851533
 40
0.8705896775
 40
0.882749664
 40
0.8961410495
 40
0.9115493587
 40
0.9275489625
 40
0.9427944506
 40
0.956019201
 40
0.966258014
 40
0.9737161562
 40
0.9813180734
 40
0.9900272874
 40
1.0
 40
1.0
 40
1.0
 40
1.0
 10
139.7835385513
 20
362.1816424507
 30
0.0
 10
141.9767053523
 20
363.3527424551
 30
0.0
 10
145.2685866833
 20
365.1069354472
 30
0.0
 10
149.6147500757
 20
367.5142596386
 30
0.0
 10
152.8293909821
 20
369.3666380277
 30
0.0
 10
155.4577136403
 20
370.9648631218
 30
0.0
 10
157.5071190879
 20
372.2750854761
 30
0.0
 10
159.4405248218
 20
373.5627530979
 30
0.0
 10
161.7602578356
 20
375.1035874705
 30
0.0
 10
164.6830874058
 20
376.6352981088
 30
0.0
 10
167.2636412852
 20
377.4894404388
 30
0.0
 10
169.3449712495
 20
377.890437527
 30
0.0
 10
170.8088174046
 20
378.0253593649
 30
0.0
 10
172.2452434783
 20
377.9724362741
 30
0.0
 10
174.3150140146
 20
377.6483361655
 30
0.0
 10
177.033851342
 20
376.8179518344
 30
0.0
 10
180.2034108506
 20
375.5023941352
 30
0.0
 10
183.0992398595
 20
373.9505904312
 30
0.0
 10
185.5511808957
 20
372.2160384709
 30
0.0
 10
187.5379977564
 20
370.2525785931
 30
0.0
 10
189.0889247964
 20
368.0595330926
 30
0.0
 10
190.1508501587
 20
366.1050749728
 30
0.0
 10
190.9445996362
 20
364.4796914348
 30
0.0
 10
191.5536446546
 20
363.1902728751
 30
0.0
 10
192.2738292043
 20
361.8344686056
 30
0.0
 10
193.2253173896
 20
360.419122959
 30
0.0
 10
194.5194995687
 20
358.9929659036
 30
0.0
 10
196.2163758429
 20
357.6294698153
 30
0.0
 10
198.3274144268
 20
356.3805160486
 30
0.0
 10
200.8891234928
 20
355.3352440515
 30
0.0
 10
203.8671786602
 20
354.6453181825
 30
0.0
 10
207.0360168843
 20
354.4800430486
 30
0.0
 10
210.106039113
 20
354.7639451112
 30
0.0
 10
212.9113244663
 20
355.3454546032
 30
0.0
 10
215.42088305
 20
356.1064721106
 30
0.0
 10
217.6101982649
 20
356.9643085213
 30
0.0
 10
219.4936871832
 20
357.7939361712
 30
0.0
 10
221.1316696662
 20
358.4944106628
 30
0.0
 10
222.5951992459
 20
359.0134073927
 30
0.0
 10
224.0215675593
 20
359.3435197356
 30
0.0
 10
225.5430302851
 20
359.4752133736
 30
0.0
 10
227.2110913408
 20
359.4577286867
 30
0.0
 10
228.9394027479
 20
359.2802822728
 30
0.0
 10
230.5649747021
 20
358.9605985608
 30
0.0
 10
231.9413671493
 20
358.5293000863
 30
0.0
 10
232.9891910948
 20
358.0413127146
 30
0.0
 10
233.735203637
 20
357.44692098
 30
0.0
 10
234.2118025634
 20
356.6837493848
 30
0.0
 10
234.4792761463
 20
355.7336917406
 30
0.0
 10
234.5231264399
 20
355.0363283404
 30
0.0
 10
234.522949409
 20
354.6654558932
 30
0.0
  0
SPLINE
  5
3FC
100
AcDbEntity
  8
0
100
AcDbSpline
 62
7
  6
BYLAYER
 70
0
 71
3
 72
17
 73
13
 74
0
 42
0.0000001
 43
0.0000001
 44
0.0000000001
 40
0.0
 40
0.0
 40
0.0
 40
0.0
 40
0.1119141279
 40
0.1721105979
 40
0.2345724697
 40
0.3624417353
 40
0.4921751669
 40
0.6211265065
 40
0.6845627587
 40
0.7474961196
 40
0.8736843037
 40
1.0
 40
1.0
 40
1.0
 40
1.0
 10
379.8819005036
 20
262.3493613036
 30
0.0
 10
379.8434173412
 20
260.9593945637
 30
0.0
 10
379.100493217
 20
258.8458496506
 30
0.0
 10
377.5038001167
 20
256.4140388103
 30
0.0
 10
375.4855030159
 20
254.0312469326
 30
0.0
 10
372.4663474148
 20
251.4126763564
 30
0.0
 10
368.4523973286
 20
248.7635229818
 30
0.0
 10
364.9687052221
 20
246.791336228
 30
0.0
 10
362.1902881614
 20
245.2605783114
 30
0.0
 10
359.4481467062
 20
243.734927417
 30
0.0
 10
356.0317940132
 20
241.8142942056
 30
0.0
 10
353.3048144865
 20
240.2630919484
 30
0.0
 10
351.942083639
 20
239.4845745393
 30
0.0
  0
SPLINE
  5
3FD
100
AcDbEntity
  8
0
100
AcDbSpline
 62
7
  6
BYLAYER
 70
0
 71
3
 72
28
 73
24
 74
0
 42
0.0000001
 43
0.0000001
 44
0.0000000001
 40
0.0
 40
0.0
 40
0.0
 40
0.0
 40
0.0258593809
 40
0.0533710025
 40
0.0846140406
 40
0.1233811759
 40
0.1686445376
 40
0.2147137197
 40
0.2602175587
 40
0.3042620334
 40
0.3868396856
 40
0.4629920593
 40
0.5335065889
 40
0.5997492977
 40
0.6636718356
 40
0.7262716781
 40
0.788546242
 40
0.8500845346
 40
0.8776416067
 40
0.9011776483
 40
0.9348287739
 40
0.9663757464
 40
1.0
 40
1.0
 40
1.0
 40
1.0
 10
282.6205579063
 20
303.1062295144
 30
0.0
 10
282.6202595018
 20
302.5665361351
 30
0.0
 10
282.7032538928
 20
301.4491293224
 30
0.0
 10
283.215068952
 20
299.7396343838
 30
0.0
 10
284.3524691637
 20
298.0109829073
 30
0.0
 10
286.286475249
 20
296.511674553
 30
0.0
 10
288.8213936478
 20
295.4804602134
 30
0.0
 10
291.6104001068
 20
294.8376881253
 30
0.0
 10
294.4227548167
 20
294.4885003182
 30
0.0
 10
298.0122174844
 20
294.3012807532
 30
0.0
 10
302.2502734917
 20
294.443981516
 30
0.0
 10
307.0026129511
 20
295.0256463171
 30
0.0
 10
311.382441606
 20
295.7766944344
 30
0.0
 10
315.5088602703
 20
296.4944503483
 30
0.0
 10
319.4949249525
 20
297.0477288783
 30
0.0
 10
323.4238157457
 20
297.3821090448
 30
0.0
 10
327.3181170542
 20
297.4182396375
 30
0.0
 10
330.4734436891
 20
297.1803189472
 30
0.0
 10
332.7943427268
 20
296.7779677326
 30
0.0
 10
334.4995661468
 20
296.3283744627
 30
0.0
 10
336.2415213022
 20
295.5511407272
 30
0.0
 10
337.486725022
 20
293.7984886667
 30
0.0
 10
337.7456286629
 20
292.4237106607
 30
0.0
 10
337.7531949696
 20
291.7220026402
 30
0.0
  0
SPLINE
  5
3FE
100
AcDbEntity
  8
0
100
AcDbSpline
 62
7
  6
BYLAYER
 70
0
 71
3
 72
11
 73
7
 74
0
 42
0.0000001
 43
0.0000001
 44
0.0000000001
 40
0.0
 40
0.0
 40
0.0
 40
0.0
 40
0.2222695594
 40
0.4842403193
 40
0.7550446462
 40
1.0
 40
1.0
 40
1.0
 40
1.0
 10
340.1861880124
 20
229.2529720574
 30
0.0
 10
340.368738188
 20
230.0807653802
 30
0.0
 10
340.2898801722
 20
231.9823763137
 30
0.0
 10
339.3216199787
 20
234.722067694
 30
0.0
 10
337.6713858903
 20
237.2198082687
 30
0.0
 10
336.1672699487
 20
238.5488171063
 30
0.0
 10
335.3582234672
 20
239.0159097431
 30
0.0
  0
SPLINE
  5
3FF
100
AcDbEntity
  8
0
100
AcDbSpline
 62
7
  6
BYLAYER
 70
0
 71
3
 72
9
 73
5
 74
0
 42
0.0000001
 43
0.0000001
 44
0.0000000001
 40
0.0
 40
0.0
 40
0.0
 40
0.0
 40
0.5000016721
 40
1.0
 40
1.0
 40
1.0
 40
1.0
 10
311.5783394977
 20
220.5311079138
 30
0.0
 10
311.5783394977
 20
220.7734563657
 30
0.0
 10
311.7439588597
 20
221.2519841146
 30
0.0
 10
312.0755645094
 20
221.6346816117
 30
0.0
 10
312.2854433349
 20
221.7558544848
 30
0.0
  0
SPLINE
  5
400
100
AcDbEntity
  8
0
100
AcDbSpline
 62
7
  6
BYLAYER
 70
0
 71
3
 72
9
 73
5
 74
0
 42
0.0000001
 43
0.0000001
 44
0.0000000001
 40
0.0
 40
0.0
 40
0.0
 40
0.0
 40
0.5508341095
 40
1.0
 40
1.0
 40
1.0
 40
1.0
 10
337.3085159451
 20
219.5254593603
 30
0.0
 10
337.3085159451
 20
219.2389336794
 30
0.0
 10
337.2390745825
 20
218.7065007209
 30
0.0
 10
336.889435695
 20
218.2690669661
 30
0.0
 10
336.6870961262
 20
218.1522469062
 30
0.0
  0
ELLIPSE
  5
401
100
AcDbEntity
  8
0
100
AcDbEllipse
 62
7
  6
BYLAYER
 10
65.518432682
 20
307.3043250442
 30
0.0
 11
-0.4028895438
 21
0.6981937535
 31
0.0
 40
0.5729902666
 41
-3.1414631331
 42
-2.3771757344
  0
ELLIPSE
  5
402
100
AcDbEntity
  8
0
100
AcDbEllipse
 62
7
  6
BYLAYER
 10
57.920018593
 20
318.6989955998
 30
0.0
 11
-0.4028895438
 21
0.6981937535
 31
0.0
 40
0.5729902666
 41
-0.7987832109
 42
-0.0171831458
  0
ELLIPSE
  5
403
100
AcDbEntity
  8
0
100
AcDbEllipse
 62
7
  6
BYLAYER
 10
65.6220196955
 20
314.0971066193
 30
0.0
 11
-0.4001605744
 21
0.692729759
 31
0.0
 40
0.5817565268
 41
-2.3701095929
 42
-0.8069094627
  0
ELLIPSE
  5
404
100
AcDbEntity
  8
0
100
AcDbEllipse
 62
7
  6
BYLAYER
 10
64.1042250076
 20
306.4878367365
 30
0.0
 11
-0.4028895438
 21
0.6981937535
 31
0.0
 40
0.5729902666
 41
-3.9403758644
 42
-3.1587757994
  0
ELLIPSE
  5
405
100
AcDbEntity
  8
0
100
AcDbEllipse
 62
7
  6
BYLAYER
 10
56.4022239051
 20
311.089725717
 30
0.0
 11
-0.4001605744
 21
0.692729759
 31
0.0
 40
0.5817565268
 41
0.7714830607
 42
2.3346831908
  0
ELLIPSE
  5
406
100
AcDbEntity
  8
0
100
AcDbEllipse
 62
7
  6
BYLAYER
 10
56.5058109186
 20
317.8825072921
 30
0.0
 11
-0.4028895438
 21
0.6981937535
 31
0.0
 40
0.5729902666
 41
0.0001292567
 42
0.7644169193
  0
ELLIPSE
  5
407
100
AcDbEntity
  8
0
100
AcDbEllipse
 62
7
  6
BYLAYER
 10
64.1042250076
 20
306.4878367365
 30
0.0
 11
-0.4028895438
 21
0.6981937535
 31
0.0
 40
0.5729902666
 41
-3.1414633969
 42
-2.3771757343
  0
ELLIPSE
  5
408
100
AcDbEntity
  8
0
100
AcDbEllipse
 62
7
  6
BYLAYER
 10
56.5058109186
 20
317.8825072921
 30
0.0
 11
-0.4028895438
 21
0.6981937535
 31
0.0
 40
0.5729902666
 41
-0.7987832109
 42
-0.0171831458
  0
ELLIPSE
  5
409
100
AcDbEntity
  8
0
100
AcDbEllipse
 62
7
  6
BYLAYER
 10
64.2078120211
 20
313.2806183116
 30
0.0
 11
-0.4001605744
 21
0.692729759
 31
0.0
 40
0.5817565268
 41
-2.3701095929
 42
-0.8069094627
  0
ENDSEC
  0
SECTION
  2
OBJECTS
  0
DICTIONARY
  5
C
100
AcDbDictionary
280
0
281
1
  3
ACAD_GROUP
350
D
  3
ACAD_MLINESTYLE
350
17
  3
ACAD_LAYOUT
350
1A
  3
ACAD_PLOTSETTINGS
350
19
  3
ACAD_PLOTSTYLENAME
350
E
  0
DICTIONARY
  5
D
102
{ACAD_REACTORS
330
C
102
}
100
AcDbDictionary
280
0
281
1
  0
ACDBDICTIONARYWDFLT
  5
E
102
{ACAD_REACTORS
330
C
102
}
100
AcDbDictionary
281
1
  3
Normal
350
F
100
AcDbDictionaryWithDefault
340
F
  0
DICTIONARY
  5
17
102
{ACAD_REACTORS
330
C
102
}
100
AcDbDictionary
280
0
281
1
  3
Standard
350
18
  0
DICTIONARY
  5
19
102
{ACAD_REACTORS
330
C
102
}
100
AcDbDictionary
281
1
  0
DICTIONARY
  5
1A
102
{ACAD_REACTORS
330
C
102
}
100
AcDbDictionary
281
1
  3
Model
350
40A
  3
Layout1
350
40B
  0
ACDBPLACEHOLDER
  5
F
102
{ACAD_REACTORS
330
E
102
}
  0
MLINESTYLE
  5
18
102
{ACAD_REACTORS
330
17
102
}
100
AcDbMlineStyle
  2
STANDARD
 70
0
  3

 62
256
 51
90.0
 52
90.0
 71
2
 49
0.5
 62
256
  6
BYLAYER
 49
-0.5
 62
256
  6
BYLAYER
  0
LAYOUT
  5
40A
102
{ACAD_REACTORS
330
1A
102
}
100
AcDbPlotSettings
  1

  2
none_device
  4

  6

 40
0.0
 41
0.0
 42
0.0
 43
0.0
 44
210.0
 45
297.0
 46
0.0
 47
0.0
 48
0.0
 49
0.0
140
0.0
141
0.0
142
1.0
143
1.0
 70
1024
 72
1
 73
0
 74
0
  7

 75
0
147
1.0
148
0.0
149
0.0
100
AcDbLayout
  1
Model
 70
0
 71
0
 10
0.0
 20
0.0
 11
210.0
 21
297.0
 12
0.0
 22
0.0
 32
0.0
 14
0.0
 24
0.0
 34
0.0
 15
0.0
 25
0.0
 35
0.0
146
0.0
 13
0.0
 23
0.0
 33
0.0
 16
1.0
 26
0.0
 36
0.0
 17
0.0
 27
1.0
 37
0.0
 76
0
330
211
345
0
346
0
  0
LAYOUT
  5
40B
102
{ACAD_REACTORS
330
1A
102
}
100
AcDbPlotSettings
  1

  2
none_device
  4

  6

 40
0.0
 41
0.0
 42
0.0
 43
0.0
 44
210.0
 45
297.0
 46
0.0
 47
0.0
 48
0.0
 49
0.0
140
0.0
141
0.0
142
1.0
143
1.0
 70
0
 72
1
 73
0
 74
0
  7

 75
0
147
1.0
148
0.0
149
0.0
100
AcDbLayout
  1
Layout1
 70
0
 71
1
 10
0.0
 20
0.0
 11
210.0
 21
297.0
 12
0.0
 22
0.0
 32
0.0
 14
0.0
 24
0.0
 34
0.0
 15
0.0
 25
0.0
 35
0.0
146
0.0
 13
0.0
 23
0.0
 33
0.0
 16
1.0
 26
0.0
 36
0.0
 17
0.0
 27
1.0
 37
0.0
 76
0
330
212
345
0
346
0
  0
ENDSEC
  0
EOF
