999
DXF file: C:\Users\sesa63760\Documents\7-Dev\_Creo\CAD\MCADFD0001159_3D-CAD\drw0001_1.dxf
999
Pro/ENGINEER 2019471 by Parametric Technology Corporation
  0
SECTION
  2
HEADER
  9
$ACADVER
  1
AC1024
  9
$DWGCODEPAGE
  3
ANSI_1252
  9
$EXTMAX
 10
96.1416814255
 20
135.9718065875
 30
0.0
  9
$EXTMIN
 10
-0.0
 20
0.0
 30
0.0
  9
$LIMMIN
 10
-0.0
 20
0.0
  9
$LIMMAX
 10
96.1416814255
 20
135.9718065875
  9
$VIEWCTR
 10
48.0708407128
 20
67.9859032938
  9
$VIEWSIZE
 40
135.9718065875
  9
$CLAYER
  8
0
  9
$LTSCALE
 40
8.8633473924
  9
$CELTYPE
  6
BYLAYER
  9
$DIMSCALE
 40
1.0
  9
$DIMASZ
 40
1.1445438265
  9
$DIMEXO
 40
1.0
  9
$DIMDLI
 40
6.1237672893
  9
$DIMEXE
 40
1.0
  9
$DIMCEN
 40
1.4503659369
  9
$DIMLFAC
 40
1.0
  9
$DIMBLK
  1
_FILLED
  9
$DIMALT
 70
0
  9
$DIMALTF
 40
0.0393700787
  9
$DIMTXT
 40
1.6023613571
  9
$DIMTOL
 70
1
  9
$DIMLIM
 70
0
  9
$DIMTFAC
 40
1.0
  9
$DIMTP
 40
0.01
  9
$DIMTM
 40
0.01
  9
$DIMGAP
 40
0.625
  9
$DIMDSEP
 70
46
  9
$AUNITS
 70
0
  9
$PDMODE
 70
3
  9
$PDSIZE
 40
0.3125
  9
$HANDSEED
  5
34C
  9
$TILEMODE
 70
1
  9
$MEASUREMENT
 70
1
  9
$INSUNITS
 70
4
  0
ENDSEC
  0
SECTION
  2
CLASSES
  0
CLASS
  1
ACDBDICTIONARYWDFLT
  2
AcDbDictionaryWithDefault
  3
AutoCAD 2000
 90
0
 91
1
280
0
281
0
  0
CLASS
  1
ACDBPLACEHOLDER
  2
AcDbPlaceHolder
  3
AutoCAD 2000
 90
0
 91
1
280
0
281
0
  0
CLASS
  1
LAYOUT
  2
AcDbLayout
  3
AutoCAD 2000
 90
0
 91
0
280
0
281
0
  0
ENDSEC
  0
SECTION
  2
TABLES
  0
TABLE
  2
VPORT
  5
8
100
AcDbSymbolTable
 70
2
  0
VPORT
  5
1F4
100
AcDbSymbolTableRecord
100
AcDbViewportTableRecord
  2
*ACTIVE
 70
0
 10
0.0
 20
0.0
 11
1.0
 21
1.0
 12
48.0708407128
 22
67.9859032938
 13
0.0
 23
0.0
 14
1.0
 24
1.0
 15
0.0
 25
0.0
 16
0.0
 26
0.0
 36
1.0
 17
0.0
 27
0.0
 37
0.0
 40
135.9718065875
 41
0.7070707071
 42
50.0
 43
0.0
 44
0.0
 50
0.0
 51
0.0
 71
0
 72
100
 73
1
 74
1
 75
0
 76
0
 77
0
 78
0
  0
ENDTAB
  0
TABLE
  2
LTYPE
  5
5
100
AcDbSymbolTable
 70
6
  0
LTYPE
  5
14
100
AcDbSymbolTableRecord
100
AcDbLinetypeTableRecord
  2
BYBLOCK
 70
0
  3

 72
65
 73
0
 40
0.0
  0
LTYPE
  5
15
100
AcDbSymbolTableRecord
100
AcDbLinetypeTableRecord
  2
BYLAYER
 70
0
  3

 72
65
 73
0
 40
0.0
  0
LTYPE
  5
16
100
AcDbSymbolTableRecord
100
AcDbLinetypeTableRecord
  2
CONTINUOUS
 70
64
  3
Solid line
 72
65
 73
0
 40
0.0
  0
LTYPE
  5
1F5
100
AcDbSymbolTableRecord
100
AcDbLinetypeTableRecord
  2
CENTER
 70
64
  3
____ _ ____ _ ____ _ ____ _ ____ _ ____ _ ____
 72
65
 73
4
 40
0.6
 49
0.375
 74
0
 49
-0.075
 74
0
 49
0.075
 74
0
 49
-0.075
 74
0
  0
LTYPE
  5
1F6
100
AcDbSymbolTableRecord
100
AcDbLinetypeTableRecord
  2
HIDDEN
 70
64
  3
- - - - - - - - - - - - - - - - - - - -
 72
65
 73
2
 40
0.2
 49
0.1
 74
0
 49
-0.1
 74
0
  0
LTYPE
  5
1F7
100
AcDbSymbolTableRecord
100
AcDbLinetypeTableRecord
  2
PHANTOM
 70
64
  3
_____ _ _ _____ _ _ _____ _ _ _____
 72
65
 73
6
 40
0.8
 49
0.45
 74
0
 49
-0.05
 74
0
 49
0.1
 74
0
 49
-0.05
 74
0
 49
0.1
 74
0
 49
-0.05
 74
0
  0
LTYPE
  5
1F8
100
AcDbSymbolTableRecord
100
AcDbLinetypeTableRecord
  2
DOT
 70
64
  3
. . . . . . . . . . . . . . . . . . . .
 72
65
 73
2
 40
0.2
 49
0.1
 74
0
 49
-0.1
 74
0
  0
LTYPE
  5
1F9
100
AcDbSymbolTableRecord
100
AcDbLinetypeTableRecord
  2
DASHED
 70
64
  3
- - - - - - - - - - - - - - - - - - - -
 72
65
 73
2
 40
0.2
 49
0.1
 74
0
 49
-0.1
 74
0
  0
ENDTAB
  0
TABLE
  2
LAYER
  5
2
100
AcDbSymbolTable
 70
36
  0
LAYER
  5
10
100
AcDbSymbolTableRecord
100
AcDbLayerTableRecord
  2
0
 70
0
 62
7
  6
CONTINUOUS
370
-3
390
F
  0
LAYER
  5
1FA
100
AcDbSymbolTableRecord
100
AcDbLayerTableRecord
  2
DEFAULT_1
 70
0
 62
7
  6
CENTER
370
-3
390
F
  0
LAYER
  5
1FB
100
AcDbSymbolTableRecord
100
AcDbLayerTableRecord
  2
DEFAULT_2
 70
0
 62
8
  6
HIDDEN
370
-3
390
F
  0
LAYER
  5
1FC
100
AcDbSymbolTableRecord
100
AcDbLayerTableRecord
  2
DEFAULT_3
 70
0
 62
7
  6
PHANTOM
370
-3
390
F
  0
LAYER
  5
1FD
100
AcDbSymbolTableRecord
100
AcDbLayerTableRecord
  2
00_COMPONENTS
 70
0
 62
7
  6
CONTINUOUS
370
-3
390
F
  0
LAYER
  5
1FE
100
AcDbSymbolTableRecord
100
AcDbLayerTableRecord
  2
01_1_DEFAULT_DATUMS
 70
0
 62
7
  6
CONTINUOUS
370
-3
390
F
  0
LAYER
  5
1FF
100
AcDbSymbolTableRecord
100
AcDbLayerTableRecord
  2
01_PLANES
 70
0
 62
7
  6
CONTINUOUS
370
-3
390
F
  0
LAYER
  5
200
100
AcDbSymbolTableRecord
100
AcDbLayerTableRecord
  2
02_COORD_SYS
 70
0
 62
7
  6
CONTINUOUS
370
-3
390
F
  0
LAYER
  5
201
100
AcDbSymbolTableRecord
100
AcDbLayerTableRecord
  2
03_AXES
 70
0
 62
7
  6
CONTINUOUS
370
-3
390
F
  0
LAYER
  5
202
100
AcDbSymbolTableRecord
100
AcDbLayerTableRecord
  2
04_POINTS
 70
0
 62
7
  6
CONTINUOUS
370
-3
390
F
  0
LAYER
  5
203
100
AcDbSymbolTableRecord
100
AcDbLayerTableRecord
  2
05_CURVES
 70
0
 62
7
  6
CONTINUOUS
370
-3
390
F
  0
LAYER
  5
204
100
AcDbSymbolTableRecord
100
AcDbLayerTableRecord
  2
06_SURFS
 70
0
 62
7
  6
CONTINUOUS
370
-3
390
F
  0
LAYER
  5
205
100
AcDbSymbolTableRecord
100
AcDbLayerTableRecord
  2
07_COSMETICS
 70
0
 62
7
  6
CONTINUOUS
370
-3
390
F
  0
LAYER
  5
206
100
AcDbSymbolTableRecord
100
AcDbLayerTableRecord
  2
10_NOTES
 70
0
 62
7
  6
CONTINUOUS
370
-3
390
F
  0
LAYER
  5
207
100
AcDbSymbolTableRecord
100
AcDbLayerTableRecord
  2
11_NOTES_PUB
 70
0
 62
7
  6
CONTINUOUS
370
-3
390
F
  0
LAYER
  5
208
100
AcDbSymbolTableRecord
100
AcDbLayerTableRecord
  2
13_REF_GTOL
 70
0
 62
7
  6
CONTINUOUS
370
-3
390
F
  0
LAYER
  5
209
100
AcDbSymbolTableRecord
100
AcDbLayerTableRecord
  2
16_MISC
 70
0
 62
7
  6
CONTINUOUS
370
-3
390
F
  0
LAYER
  5
20A
100
AcDbSymbolTableRecord
100
AcDbLayerTableRecord
  2
17_NO_PRINT
 70
0
 62
7
  6
CONTINUOUS
370
-3
390
F
  0
LAYER
  5
20B
100
AcDbSymbolTableRecord
100
AcDbLayerTableRecord
  2
18_DATUM_CAMS_JOINTS
 70
0
 62
7
  6
CONTINUOUS
370
-3
390
F
  0
LAYER
  5
20C
100
AcDbSymbolTableRecord
100
AcDbLayerTableRecord
  2
19_DATUM_FUNCTIONAL
 70
0
 62
7
  6
CONTINUOUS
370
-3
390
F
  0
LAYER
  5
20D
100
AcDbSymbolTableRecord
100
AcDbLayerTableRecord
  2
20_DATUM_KINEMATIC_SCHEME
 70
0
 62
7
  6
CONTINUOUS
370
-3
390
F
  0
ENDTAB
  0
TABLE
  2
STYLE
  5
3
100
AcDbSymbolTable
 70
1
  0
STYLE
  5
11
100
AcDbSymbolTableRecord
100
AcDbTextStyleTableRecord
  2
STANDARD
 70
0
 40
0.0
 41
0.8
 50
0.0
 71
0
 42
0.2
  3
txt
  4

  0
STYLE
  5
20E
100
AcDbSymbolTableRecord
100
AcDbTextStyleTableRecord
  2
TEXTSTYLE_1
 70
0
 40
0.0
 41
0.8
 50
0.0
 71
0
 42
0.2
  3
gdt
  4

  0
ENDTAB
  0
TABLE
  2
VIEW
  5
6
100
AcDbSymbolTable
 70
0
  0
ENDTAB
  0
TABLE
  2
UCS
  5
7
100
AcDbSymbolTable
 70
0
  0
ENDTAB
  0
TABLE
  2
APPID
  5
9
100
AcDbSymbolTable
 70
1
  0
APPID
  5
20F
100
AcDbSymbolTableRecord
100
AcDbRegAppTableRecord
  2
ACAD
 70
0
  0
ENDTAB
  0
TABLE
  2
BLOCK_RECORD
  5
1
100
AcDbSymbolTable
 70
0
  0
BLOCK_RECORD
  5
210
100
AcDbSymbolTableRecord
100
AcDbBlockTableRecord
  2
*Model_Space
  0
BLOCK_RECORD
  5
211
100
AcDbSymbolTableRecord
100
AcDbBlockTableRecord
  2
*Paper_Space
  0
BLOCK_RECORD
  5
212
100
AcDbSymbolTableRecord
100
AcDbBlockTableRecord
  2
_FILLED
  0
ENDTAB
  0
TABLE
  2
DIMSTYLE
  5
A
100
AcDbSymbolTable
 70
1
100
AcDbDimStyleTable
 71
0
  0
DIMSTYLE
105
213
100
AcDbSymbolTableRecord
100
AcDbDimStyleTableRecord
  2
STANDARD
 70
0
  3

  4

 40
1.0
 41
1.1445438265
 42
1.0
 43
0.38
 44
1.0
 45
0.0
 46
0.0
 47
0.01
 48
0.01
140
1.6023613571
141
0.09
142
0.0
143
25.4
144
1.0
145
0.0
146
1.0
147
0.625
 71
1
 72
0
 73
0
 74
0
 75
0
 76
0
 77
1
 78
8
 79
2
170
0
171
1
172
0
173
0
174
0
175
0
176
0
177
0
178
0
270
2
179
2
271
2
272
2
273
2
274
2
275
0
280
0
281
0
282
0
283
1
284
8
285
0
286
0
287
3
288
0
340
11
278
46
341
212
342
212
343
212
344
212
  0
ENDTAB
  0
ENDSEC
  0
SECTION
  2
BLOCKS
  0
BLOCK
  5
20
100
AcDbEntity
  8
0
100
AcDbBlockBegin
  2
*Model_Space
 70
0
 10
0.0
 20
0.0
 30
0.0
  3
*Model_Space
  1

  0
ENDBLK
  5
21
100
AcDbEntity
  8
0
100
AcDbBlockEnd
  0
BLOCK
  5
1C
100
AcDbEntity
  8
0
100
AcDbBlockBegin
  2
*Paper_Space
 70
0
 10
0.0
 20
0.0
 30
0.0
  3
*Paper_Space
  1

  0
ENDBLK
  5
1D
100
AcDbEntity
  8
0
100
AcDbBlockEnd
  0
BLOCK
  5
214
100
AcDbEntity
  8
0
100
AcDbBlockBegin
  2
_FILLED
 70
64
 10
0.0
 20
0.0
  3
_FILLED
  1

  0
SOLID
  5
215
100
AcDbEntity
  8
0
  6
BYBLOCK
 62
0
100
AcDbTrace
 10
0.0
 20
0.0
 11
-1.0
 21
0.25
 12
-1.0
 22
-0.25
 13
-1.0
 23
-0.25
  0
ENDBLK
  5
216
100
AcDbEntity
  8
0
  6
BYBLOCK
 62
0
100
AcDbBlockEnd
  0
ENDSEC
  0
SECTION
  2
ENTITIES
  0
LINE
  5
217
100
AcDbEntity
  8
0
100
AcDbLine
 62
7
  6
CONTINUOUS
 10
62.4398938045
 20
23.7641212664
 11
61.6620795836
 21
23.5600034222
  0
LINE
  5
218
100
AcDbEntity
  8
0
100
AcDbLine
 62
7
  6
CONTINUOUS
 10
12.6239868377
 20
36.9684838157
 11
12.7308797378
 21
36.8830991292
  0
LINE
  5
219
100
AcDbEntity
  8
0
100
AcDbLine
 62
7
  6
CONTINUOUS
 10
15.9827580322
 20
35.0293402317
 11
14.6192052762
 21
36.1185287985
  0
LINE
  5
21A
100
AcDbEntity
  8
0
100
AcDbLine
 62
7
  6
CONTINUOUS
 10
18.0687317213
 20
33.8250300059
 11
16.7051789654
 21
34.9142185727
  0
LINE
  5
21B
100
AcDbEntity
  8
0
100
AcDbLine
 62
7
  6
CONTINUOUS
 10
12.7308797378
 20
36.8830991292
 11
21.5343958159
 21
31.8005017354
  0
LINE
  5
21C
100
AcDbEntity
  8
0
100
AcDbLine
 62
7
  6
CONTINUOUS
 10
21.4275029158
 20
31.8858864219
 11
18.0687317213
 21
33.8250300059
  0
LINE
  5
21D
100
AcDbEntity
  8
0
100
AcDbLine
 62
7
  6
CONTINUOUS
 10
12.6239868377
 20
36.9684838157
 11
15.9827580322
 21
35.0293402317
  0
LINE
  5
21E
100
AcDbEntity
  8
0
100
AcDbLine
 62
7
  6
CONTINUOUS
 10
21.1547923646
 20
32.1037241353
 11
17.7960211701
 21
34.0428677192
  0
LINE
  5
21F
100
AcDbEntity
  8
0
100
AcDbLine
 62
7
  6
CONTINUOUS
 10
12.3512762865
 20
37.186321529
 11
15.710047481
 21
35.2471779451
  0
LINE
  5
220
100
AcDbEntity
  8
0
100
AcDbLine
 62
7
  6
CONTINUOUS
 10
20.8820818134
 20
32.3215618486
 11
17.523310619
 21
34.2607054326
  0
LINE
  5
221
100
AcDbEntity
  8
0
100
AcDbLine
 62
7
  6
CONTINUOUS
 10
12.0785657353
 20
37.4041592424
 11
15.4373369298
 21
35.4650156584
  0
LINE
  5
222
100
AcDbEntity
  8
0
100
AcDbLine
 62
7
  6
CONTINUOUS
 10
20.6093712622
 20
32.539399562
 11
17.2506000678
 21
34.4785431459
  0
LINE
  5
223
100
AcDbEntity
  8
0
100
AcDbLine
 62
7
  6
CONTINUOUS
 10
11.8058551841
 20
37.6219969558
 11
15.1646263786
 21
35.6828533718
  0
LINE
  5
224
100
AcDbEntity
  8
0
100
AcDbLine
 62
7
  6
CONTINUOUS
 10
20.336660711
 20
32.7572372753
 11
16.9778895166
 21
34.6963808593
  0
LINE
  5
225
100
AcDbEntity
  8
0
100
AcDbLine
 62
7
  6
CONTINUOUS
 10
11.5331446329
 20
37.8398346691
 11
14.8919158274
 21
35.9006910851
  0
LINE
  5
226
100
AcDbEntity
  8
0
100
AcDbLine
 62
7
  6
CONTINUOUS
 10
20.0639501598
 20
32.9750749887
 11
16.7051789654
 21
34.9142185727
  0
LINE
  5
227
100
AcDbEntity
  8
0
100
AcDbLine
 62
7
  6
CONTINUOUS
 10
11.2604340817
 20
38.0576723825
 11
14.6192052762
 21
36.1185287985
  0
LINE
  5
228
100
AcDbEntity
  8
0
100
AcDbLine
 62
7
  6
CONTINUOUS
 10
19.9570572598
 20
33.0604596752
 11
11.1535411817
 21
38.143057069
  0
LINE
  5
229
100
AcDbEntity
  8
0
100
AcDbLine
 62
7
  6
CONTINUOUS
 10
21.0440882831
 20
34.39979124
 11
22.547210253
 21
33.5319829985
  0
LINE
  5
22A
100
AcDbEntity
  8
0
100
AcDbLine
 62
7
  6
CONTINUOUS
 10
26.2430370596
 20
32.414697117
 11
51.6212050952
 21
17.7629364373
  0
LINE
  5
22B
100
AcDbEntity
  8
0
100
AcDbLine
 62
7
  6
CONTINUOUS
 10
21.8498768676
 20
33.1998274357
 11
21.8791875504
 21
33.1801375614
  0
LINE
  5
22C
100
AcDbEntity
  8
0
100
AcDbLine
 62
7
  6
CONTINUOUS
 10
19.9570572598
 20
33.0604596752
 11
20.0639501598
 21
32.9750749887
  0
LINE
  5
22D
100
AcDbEntity
  8
0
100
AcDbLine
 62
7
  6
CONTINUOUS
 10
21.4275029158
 20
31.8858864219
 11
21.5343958159
 21
31.8005017354
  0
LINE
  5
22E
100
AcDbEntity
  8
0
100
AcDbLine
 62
7
  6
CONTINUOUS
 10
21.0862873243
 20
33.809773033
 11
21.8498768676
 21
33.1998274357
  0
LINE
  5
22F
100
AcDbEntity
  8
0
100
AcDbLine
 62
7
  6
CONTINUOUS
 10
11.2524357107
 20
73.4849182581
 11
11.2524357107
 21
61.1984082049
  0
LINE
  5
230
100
AcDbEntity
  8
0
100
AcDbLine
 62
7
  6
CONTINUOUS
 10
52.9576920933
 20
114.0566643546
 11
37.0755957821
 21
104.8871865084
  0
LINE
  5
231
100
AcDbEntity
  8
0
100
AcDbLine
 62
7
  6
CONTINUOUS
 10
61.1032562343
 20
118.5145292069
 11
53.7493763273
 21
114.2687900067
  0
LINE
  5
232
100
AcDbEntity
  8
0
100
AcDbLine
 62
7
  6
CONTINUOUS
 10
36.2839115481
 20
104.185159406
 11
26.2430370596
 21
98.3880924211
  0
LINE
  5
233
100
AcDbEntity
  8
0
100
AcDbLine
 62
7
  6
CONTINUOUS
 10
40.1661229323
 20
30.5625112567
 11
38.5154066756
 21
30.9888735764
  0
LINE
  5
234
100
AcDbEntity
  8
0
100
AcDbLine
 62
7
  6
CONTINUOUS
 10
25.2827443679
 20
35.3140824749
 11
40.5803475738
 21
26.4822069498
  0
LINE
  5
235
100
AcDbEntity
  8
0
100
AcDbLine
 62
7
  6
CONTINUOUS
 10
12.8068262261
 20
42.7019921648
 11
21.6103423042
 21
37.619394771
  0
LINE
  5
236
100
AcDbEntity
  8
0
100
AcDbLine
 62
7
  6
CONTINUOUS
 10
25.6060681845
 20
35.803840603
 11
40.1661229323
 21
27.3977792454
  0
LINE
  5
237
100
AcDbEntity
  8
0
100
AcDbLine
 62
7
  6
CONTINUOUS
 10
27.1588395382
 20
35.1916017511
 11
25.7399132209
 21
36.0108007096
  0
LINE
  5
238
100
AcDbEntity
  8
0
100
AcDbLine
 62
7
  6
CONTINUOUS
 10
25.9595753178
 20
36.6864659716
 11
27.1588395382
 21
35.9940861149
  0
LINE
  5
239
100
AcDbEntity
  8
0
100
AcDbLine
 62
7
  6
CONTINUOUS
 10
25.147240486
 20
37.5523228506
 11
23.6013428479
 21
38.4448270769
  0
LINE
  5
23A
100
AcDbEntity
  8
0
100
AcDbLine
 62
7
  6
CONTINUOUS
 10
13.975432817
 20
44.5089694795
 11
22.7789488951
 21
39.4263720858
  0
LINE
  5
23B
100
AcDbEntity
  8
0
100
AcDbLine
 62
7
  6
CONTINUOUS
 10
24.1313547587
 20
39.0144976714
 11
25.2082492519
 21
38.3927664113
  0
LINE
  5
23C
100
AcDbEntity
  8
0
100
AcDbLine
 62
7
  6
CONTINUOUS
 10
24.4446597086
 20
39.0027120087
 11
24.4141505787
 21
39.0203260645
  0
LINE
  5
23D
100
AcDbEntity
  8
0
100
AcDbLine
 62
7
  6
CONTINUOUS
 10
14.5513772796
 20
44.8240127072
 11
14.590012085
 21
44.8017073965
  0
LINE
  5
23E
100
AcDbEntity
  8
0
100
AcDbLine
 62
7
  6
CONTINUOUS
 10
25.5080424708
 20
38.4983222159
 11
38.5153258649
 21
30.9887335365
  0
LINE
  5
23F
100
AcDbEntity
  8
0
100
AcDbLine
 62
7
  6
CONTINUOUS
 10
24.4446597086
 20
39.0027120087
 11
24.4153490259
 21
39.0224018829
  0
LINE
  5
240
100
AcDbEntity
  8
0
100
AcDbLine
 62
7
  6
CONTINUOUS
 10
25.2082492519
 20
38.3927664113
 11
24.4446597086
 21
39.0027120087
  0
LINE
  5
241
100
AcDbEntity
  8
0
100
AcDbLine
 62
7
  6
CONTINUOUS
 10
14.7879548967
 20
59.157221429
 11
14.7879548968
 21
56.779135383
  0
LINE
  5
242
100
AcDbEntity
  8
0
100
AcDbLine
 62
7
  6
CONTINUOUS
 10
15.4950705098
 20
58.7489772751
 11
15.4950705099
 21
56.776476991
  0
LINE
  5
243
100
AcDbEntity
  8
0
100
AcDbLine
 62
7
  6
CONTINUOUS
 10
11.5373522032
 20
37.8977972473
 11
11.5331446329
 21
37.8398346691
  0
LINE
  5
244
100
AcDbEntity
  8
0
100
AcDbLine
 62
7
  6
CONTINUOUS
 10
11.8100627544
 20
37.679959534
 11
11.8058551841
 21
37.6219969558
  0
LINE
  5
245
100
AcDbEntity
  8
0
100
AcDbLine
 62
7
  6
CONTINUOUS
 10
12.0827733056
 20
37.4621218206
 11
12.0785657353
 21
37.4041592424
  0
LINE
  5
246
100
AcDbEntity
  8
0
100
AcDbLine
 62
7
  6
CONTINUOUS
 10
12.3554838568
 20
37.2442841073
 11
12.3512762865
 21
37.186321529
  0
LINE
  5
247
100
AcDbEntity
  8
0
100
AcDbLine
 62
7
  6
CONTINUOUS
 10
12.628194408
 20
37.0264463939
 11
12.6239868377
 21
36.9684838157
  0
LINE
  5
248
100
AcDbEntity
  8
0
100
AcDbLine
 62
7
  6
CONTINUOUS
 10
37.0755957821
 20
104.8871865084
 11
36.2839115481
 21
104.185159406
  0
LINE
  5
249
100
AcDbEntity
  8
0
100
AcDbLine
 62
7
  6
CONTINUOUS
 10
58.2713141687
 20
115.6588664326
 11
60.6754672152
 21
117.0468965558
  0
LINE
  5
24A
100
AcDbEntity
  8
0
100
AcDbLine
 62
7
  6
CONTINUOUS
 10
61.0932461212
 20
117.1031574761
 11
63.426688784
 21
118.4503631839
  0
LINE
  5
24B
100
AcDbEntity
  8
0
100
AcDbLine
 62
7
  6
CONTINUOUS
 10
51.203814878
 20
111.3294434703
 11
47.6682956919
 21
109.2882227009
  0
LINE
  5
24C
100
AcDbEntity
  8
0
100
AcDbLine
 62
7
  6
CONTINUOUS
 10
64.4266843071
 20
118.3513146259
 11
62.0932416443
 21
117.0041089181
  0
LINE
  5
24D
100
AcDbEntity
  8
0
100
AcDbLine
 62
7
  6
CONTINUOUS
 10
60.197230856
 20
114.5469630694
 11
60.679022194
 21
114.8251237677
  0
LINE
  5
24E
100
AcDbEntity
  8
0
100
AcDbLine
 62
7
  6
CONTINUOUS
 10
60.4315435435
 20
114.4116856366
 11
60.6790283036
 21
114.5545701765
  0
LINE
  5
24F
100
AcDbEntity
  8
0
100
AcDbLine
 62
7
  6
CONTINUOUS
 10
62.4468082828
 20
115.167018724
 11
63.8610159572
 21
115.9835070318
  0
LINE
  5
250
100
AcDbEntity
  8
0
100
AcDbLine
 62
7
  6
CONTINUOUS
 10
42.184794607
 20
102.4932012133
 11
63.737591629
 21
114.9366400984
  0
LINE
  5
251
100
AcDbEntity
  8
0
100
AcDbLine
 62
7
  6
CONTINUOUS
 10
15.882085362
 20
45.4171509355
 11
23.9632028491
 21
40.7516211274
  0
LINE
  5
252
100
AcDbEntity
  8
0
100
AcDbLine
 62
7
  6
CONTINUOUS
 10
23.6233203522
 20
42.664176161
 11
36.6306037462
 21
35.1545874816
  0
LINE
  5
253
100
AcDbEntity
  8
0
100
AcDbLine
 62
7
  6
CONTINUOUS
 10
49.1816765434
 20
29.3613172061
 11
47.7886041566
 21
30.1655897286
  0
LINE
  5
254
100
AcDbEntity
  8
0
100
AcDbLine
 62
7
  6
CONTINUOUS
 10
17.4363149363
 20
47.8204041814
 11
23.6233203522
 21
44.248421994
  0
LINE
  5
255
100
AcDbEntity
  8
0
100
AcDbLine
 62
7
  6
CONTINUOUS
 10
17.1885983016
 20
55.798740384
 11
17.1885983016
 21
53.8058959014
  0
LINE
  5
256
100
AcDbEntity
  8
0
100
AcDbLine
 62
7
  6
CONTINUOUS
 10
16.9820970869
 20
34.7543434375
 11
16.9778895166
 21
34.6963808593
  0
LINE
  5
257
100
AcDbEntity
  8
0
100
AcDbLine
 62
7
  6
CONTINUOUS
 10
17.2548076381
 20
34.5365057242
 11
17.2506000678
 21
34.4785431459
  0
LINE
  5
258
100
AcDbEntity
  8
0
100
AcDbLine
 62
7
  6
CONTINUOUS
 10
65.1755147196
 20
114.7828567773
 11
65.5580792976
 21
115.0037292209
  0
LINE
  5
259
100
AcDbEntity
  8
0
100
AcDbLine
 62
7
  6
CONTINUOUS
 10
43.1747482222
 20
101.921664157
 11
64.7275452442
 21
114.3651030421
  0
LINE
  5
25A
100
AcDbEntity
  8
0
100
AcDbLine
 62
7
  6
CONTINUOUS
 10
67.3258536104
 20
113.9831273346
 11
69.6592962732
 21
115.3303330424
  0
LINE
  5
25B
100
AcDbEntity
  8
0
100
AcDbLine
 62
7
  6
CONTINUOUS
 10
23.6233203522
 20
42.664176161
 11
23.6233203522
 21
54.0562362046
  0
LINE
  5
25C
100
AcDbEntity
  8
0
100
AcDbLine
 62
7
  6
CONTINUOUS
 10
17.5275181893
 20
34.3186680108
 11
17.523310619
 21
34.2607054326
  0
LINE
  5
25D
100
AcDbEntity
  8
0
100
AcDbLine
 62
7
  6
CONTINUOUS
 10
17.8002287405
 20
34.1008302975
 11
17.7960211701
 21
34.0428677192
  0
LINE
  5
25E
100
AcDbEntity
  8
0
100
AcDbLine
 62
7
  6
CONTINUOUS
 10
18.0729392916
 20
33.8829925841
 11
18.0687317213
 21
33.8250300059
  0
LINE
  5
25F
100
AcDbEntity
  8
0
100
AcDbLine
 62
7
  6
CONTINUOUS
 10
20.336660711
 20
32.7572372753
 11
20.362807325
 21
33.1174273728
  0
LINE
  5
260
100
AcDbEntity
  8
0
100
AcDbLine
 62
7
  6
CONTINUOUS
 10
20.6093712622
 20
32.539399562
 11
20.6355178762
 21
32.8995896594
  0
LINE
  5
261
100
AcDbEntity
  8
0
100
AcDbLine
 62
7
  6
CONTINUOUS
 10
20.8820818134
 20
32.3215618486
 11
20.9082284274
 21
32.681751946
  0
LINE
  5
262
100
AcDbEntity
  8
0
100
AcDbLine
 62
7
  6
CONTINUOUS
 10
21.1547923646
 20
32.1037241353
 11
21.1809389786
 21
32.4639142327
  0
LINE
  5
263
100
AcDbEntity
  8
0
100
AcDbLine
 62
7
  6
CONTINUOUS
 10
21.4275029158
 20
31.8858864219
 11
21.4536495298
 21
32.2460765193
  0
LINE
  5
264
100
AcDbEntity
  8
0
100
AcDbLine
 62
7
  6
CONTINUOUS
 10
71.0735157235
 20
112.8808466991
 11
68.7400730607
 21
111.5336409913
  0
LINE
  5
265
100
AcDbEntity
  8
0
100
AcDbLine
 62
7
  6
CONTINUOUS
 10
67.1137304461
 20
110.5538105064
 11
67.3612152062
 21
110.6966950463
  0
LINE
  5
266
100
AcDbEntity
  8
0
100
AcDbLine
 62
7
  6
CONTINUOUS
 10
68.7400730607
 20
109.9006361571
 11
71.0735157235
 21
111.2478418649
  0
LINE
  5
267
100
AcDbEntity
  8
0
100
AcDbLine
 62
7
  6
CONTINUOUS
 10
26.2430370596
 20
83.7726991545
 11
12.6666433851
 21
75.9344114001
  0
LINE
  5
268
100
AcDbEntity
  8
0
100
AcDbLine
 62
7
  6
CONTINUOUS
 10
69.9068138607
 20
108.9412595259
 11
71.7806254489
 21
110.0230986931
  0
LINE
  5
269
100
AcDbEntity
  8
0
100
AcDbLine
 62
7
  6
CONTINUOUS
 10
17.1885983016
 20
53.8058959014
 11
23.6233203522
 21
50.090891438
  0
LINE
  5
26A
100
AcDbEntity
  8
0
100
AcDbLine
 62
7
  6
CONTINUOUS
 10
36.6306037462
 20
43.3196116529
 11
24.6097384187
 21
50.2597044798
  0
LINE
  5
26B
100
AcDbEntity
  8
0
100
AcDbLine
 62
7
  6
CONTINUOUS
 10
36.8427348974
 20
43.4420848991
 11
24.8218695699
 21
50.3821777259
  0
LINE
  5
26C
100
AcDbEntity
  8
0
100
AcDbLine
 62
7
  6
CONTINUOUS
 10
14.7879548968
 20
56.779135383
 11
15.3194487098
 21
56.4722842288
  0
LINE
  5
26D
100
AcDbEntity
  8
0
100
AcDbLine
 62
7
  6
CONTINUOUS
 10
15.4950705099
 20
56.776476991
 11
17.1885983016
 21
55.798740384
  0
LINE
  5
26E
100
AcDbEntity
  8
0
100
AcDbLine
 62
7
  6
CONTINUOUS
 10
11.2524357107
 20
61.1984082049
 11
23.6233203522
 21
54.0562362046
  0
LINE
  5
26F
100
AcDbEntity
  8
0
100
AcDbLine
 62
7
  6
CONTINUOUS
 10
24.6097384187
 20
57.608226234
 11
24.8218695699
 21
50.3821777259
  0
LINE
  5
270
100
AcDbEntity
  8
0
100
AcDbLine
 62
7
  6
CONTINUOUS
 10
24.6097384187
 20
50.2597044798
 11
24.6097384187
 21
57.608226234
  0
LINE
  5
271
100
AcDbEntity
  8
0
100
AcDbLine
 62
7
  6
CONTINUOUS
 10
26.2430370596
 20
98.3880924211
 11
26.2430370596
 21
83.7726991545
  0
LINE
  5
272
100
AcDbEntity
  8
0
100
AcDbLine
 62
7
  6
CONTINUOUS
 10
26.2430370596
 20
34.7596697733
 11
26.2430370596
 21
32.414697117
  0
LINE
  5
273
100
AcDbEntity
  8
0
100
AcDbLine
 62
7
  6
CONTINUOUS
 10
27.1588395382
 20
37.5452556459
 11
27.1588395382
 21
35.1916017511
  0
LINE
  5
274
100
AcDbEntity
  8
0
100
AcDbLine
 62
7
  6
CONTINUOUS
 10
26.0676472518
 20
38.175241554
 11
25.9321000625
 21
36.3079727996
  0
LINE
  5
275
100
AcDbEntity
  8
0
100
AcDbLine
 62
7
  6
CONTINUOUS
 10
50.2596566075
 20
97.2755376404
 11
49.4679723734
 21
96.573510538
  0
LINE
  5
276
100
AcDbEntity
  8
0
100
AcDbLine
 62
7
  6
CONTINUOUS
 10
50.2596566075
 20
97.2755376404
 11
66.1417529186
 21
106.4450154865
  0
LINE
  5
277
100
AcDbEntity
  8
0
100
AcDbLine
 62
7
  6
CONTINUOUS
 10
41.7605405478
 20
92.1236492608
 11
49.4679723734
 21
96.573510538
  0
LINE
  5
278
100
AcDbEntity
  8
0
100
AcDbLine
 62
7
  6
CONTINUOUS
 10
70.9992892214
 20
108.3105328513
 11
73.4034422679
 21
109.6985629744
  0
LINE
  5
279
100
AcDbEntity
  8
0
100
AcDbLine
 62
7
  6
CONTINUOUS
 10
63.7832968883
 20
104.0668404473
 11
60.2477777023
 21
102.025619678
  0
LINE
  5
27A
100
AcDbEntity
  8
0
100
AcDbLine
 62
7
  6
CONTINUOUS
 10
36.6306037462
 20
50.6681334072
 11
24.6097384187
 21
57.608226234
  0
LINE
  5
27B
100
AcDbEntity
  8
0
100
AcDbLine
 62
7
  6
CONTINUOUS
 10
13.975432817
 20
44.5089694795
 11
12.8068262261
 21
42.7019921648
  0
LINE
  5
27C
100
AcDbEntity
  8
0
100
AcDbLine
 62
7
  6
CONTINUOUS
 10
64.066170218
 20
99.8211196036
 11
67.6016894041
 21
101.8623403729
  0
LINE
  5
27D
100
AcDbEntity
  8
0
100
AcDbLine
 62
7
  6
CONTINUOUS
 10
66.258210366
 20
98.5555732646
 11
62.7226911799
 21
96.5143524952
  0
LINE
  5
27E
100
AcDbEntity
  8
0
100
AcDbLine
 62
7
  6
CONTINUOUS
 10
16.1911368072
 20
69.1476590074
 11
14.6715485448
 21
68.270329552
  0
LINE
  5
27F
100
AcDbEntity
  8
0
100
AcDbLine
 62
7
  6
CONTINUOUS
 10
16.4572797162
 20
69.2178588407
 11
14.7547195648
 21
68.2348911465
  0
LINE
  5
280
100
AcDbEntity
  8
0
100
AcDbLine
 62
7
  6
CONTINUOUS
 10
36.8427348974
 20
43.4420848991
 11
36.6306037462
 21
50.6681334072
  0
LINE
  5
281
100
AcDbEntity
  8
0
100
AcDbLine
 62
7
  6
CONTINUOUS
 10
36.6306037462
 20
58.8331575784
 11
36.6306037462
 21
50.6681334072
  0
LINE
  5
282
100
AcDbEntity
  8
0
100
AcDbLine
 62
7
  6
CONTINUOUS
 10
36.6306037462
 20
43.3196116529
 11
36.6306037462
 21
35.1545874816
  0
LINE
  5
283
100
AcDbEntity
  8
0
100
AcDbLine
 62
7
  6
CONTINUOUS
 10
17.4363189109
 20
47.8204103272
 11
15.882085362
 21
45.4171509355
  0
LINE
  5
284
100
AcDbEntity
  8
0
100
AcDbLine
 62
7
  6
CONTINUOUS
 10
15.2505224886
 20
67.4767731723
 11
15.1222678327
 21
67.4027267246
  0
LINE
  5
285
100
AcDbEntity
  8
0
100
AcDbLine
 62
7
  6
CONTINUOUS
 10
66.5410836957
 20
94.3098524208
 11
70.0766028818
 21
96.3510731901
  0
LINE
  5
286
100
AcDbEntity
  8
0
100
AcDbLine
 62
7
  6
CONTINUOUS
 10
18.2203833342
 20
65.7621620033
 11
18.0921275894
 21
65.6881152139
  0
LINE
  5
287
100
AcDbEntity
  8
0
100
AcDbLine
 62
7
  6
CONTINUOUS
 10
18.1287450576
 20
64.7294520349
 11
18.0104693269
 21
64.6611710591
  0
LINE
  5
288
100
AcDbEntity
  8
0
100
AcDbLine
 62
7
  6
CONTINUOUS
 10
78.3358601288
 20
99.4049036748
 11
62.4537638176
 21
90.2354258287
  0
LINE
  5
289
100
AcDbEntity
  8
0
100
AcDbLine
 62
7
  6
CONTINUOUS
 10
86.4814242698
 20
103.8627685272
 11
79.1275443628
 21
99.6170293269
  0
LINE
  5
28A
100
AcDbEntity
  8
0
100
AcDbLine
 62
7
  6
CONTINUOUS
 10
61.6620795836
 20
89.5333987263
 11
51.6212050952
 21
83.7363317413
  0
LINE
  5
28B
100
AcDbEntity
  8
0
100
AcDbLine
 62
7
  6
CONTINUOUS
 10
21.5262235886
 20
66.2913689375
 11
19.8236634372
 21
65.3084012433
  0
LINE
  5
28C
100
AcDbEntity
  8
0
100
AcDbLine
 62
7
  6
CONTINUOUS
 10
17.0649365125
 20
63.7069931786
 11
16.9469575491
 21
63.6388783388
  0
LINE
  5
28D
100
AcDbEntity
  8
0
100
AcDbLine
 62
7
  6
CONTINUOUS
 10
14.7547195648
 20
68.2348911465
 11
14.6714507815
 21
68.2702731076
  0
LINE
  5
28E
100
AcDbEntity
  8
0
100
AcDbLine
 62
7
  6
CONTINUOUS
 10
36.6306037462
 20
58.8331575784
 11
11.2524357107
 21
73.4849182581
  0
LINE
  5
28F
100
AcDbEntity
  8
0
100
AcDbLine
 62
7
  6
CONTINUOUS
 10
40.1661229323
 20
30.5625112567
 11
40.1661229323
 21
27.3977792454
  0
LINE
  5
290
100
AcDbEntity
  8
0
100
AcDbLine
 62
7
  6
CONTINUOUS
 10
40.7705869326
 20
92.6951863171
 11
40.7705869326
 21
100.0437080713
  0
LINE
  5
291
100
AcDbEntity
  8
0
100
AcDbLine
 62
7
  6
CONTINUOUS
 10
21.7923664977
 20
64.1817825427
 11
20.3895787
 21
63.3718874645
  0
LINE
  5
292
100
AcDbEntity
  8
0
100
AcDbLine
 62
7
  6
CONTINUOUS
 10
12.6666433851
 20
75.9344114001
 11
38.0448114207
 21
61.2826507204
  0
LINE
  5
293
100
AcDbEntity
  8
0
100
AcDbLine
 62
7
  6
CONTINUOUS
 10
41.7605405478
 20
92.1236492608
 11
41.7605405478
 21
99.472171015
  0
LINE
  5
294
100
AcDbEntity
  8
0
100
AcDbLine
 62
7
  6
CONTINUOUS
 10
22.7789488951
 20
39.4263720858
 11
21.6103423042
 21
37.619394771
  0
LINE
  5
295
100
AcDbEntity
  8
0
100
AcDbLine
 62
7
  6
CONTINUOUS
 10
23.7473263232
 20
38.6705564458
 11
21.1472960902
 21
34.6502165938
  0
LINE
  5
296
100
AcDbEntity
  8
0
100
AcDbLine
 62
7
  6
CONTINUOUS
 10
61.6620795836
 20
89.5333987263
 11
62.4537638176
 21
90.2354258287
  0
LINE
  5
297
100
AcDbEntity
  8
0
100
AcDbLine
 62
7
  6
CONTINUOUS
 10
19.9629087396
 20
63.2090078481
 11
20.3895004034
 21
63.3718422619
  0
LINE
  5
298
100
AcDbEntity
  8
0
100
AcDbLine
 62
7
  6
CONTINUOUS
 10
47.6682956919
 20
109.2882227009
 11
47.6682998134
 21
108.716683265
  0
LINE
  5
299
100
AcDbEntity
  8
0
100
AcDbLine
 62
7
  6
CONTINUOUS
 10
49.1816765434
 20
29.3613172061
 11
49.1816765434
 21
30.9698756452
  0
LINE
  5
29A
100
AcDbEntity
  8
0
100
AcDbLine
 62
7
  6
CONTINUOUS
 10
22.547210253
 20
33.5319829985
 11
25.147240486
 21
37.5523228506
  0
LINE
  5
29B
100
AcDbEntity
  8
0
100
AcDbLine
 62
7
  6
CONTINUOUS
 10
25.2279252078
 20
35.2191307563
 11
25.9321000626
 21
36.3079727996
  0
LINE
  5
29C
100
AcDbEntity
  8
0
100
AcDbLine
 62
7
  6
CONTINUOUS
 10
51.6212050952
 20
69.1209384747
 11
38.0448114207
 21
61.2826507204
  0
LINE
  5
29D
100
AcDbEntity
  8
0
100
AcDbLine
 62
7
  6
CONTINUOUS
 10
51.203814878
 20
107.7003039123
 11
51.203814878
 21
111.3294434703
  0
LINE
  5
29E
100
AcDbEntity
  8
0
100
AcDbLine
 62
7
  6
CONTINUOUS
 10
51.6212050952
 20
83.7363317413
 11
51.6212050952
 21
69.1209384747
  0
LINE
  5
29F
100
AcDbEntity
  8
0
100
AcDbLine
 62
7
  6
CONTINUOUS
 10
51.6212050952
 20
32.3783297039
 11
51.6212050952
 21
17.7629364373
  0
LINE
  5
2A0
100
AcDbEntity
  8
0
100
AcDbLine
 62
7
  6
CONTINUOUS
 10
53.4665565777
 20
111.3294489092
 11
53.4665565777
 21
109.0066906437
  0
LINE
  5
2A1
100
AcDbEntity
  8
0
100
AcDbLine
 62
7
  6
CONTINUOUS
 10
24.6097384187
 20
50.2597044798
 11
24.8218695699
 21
50.3821777259
  0
LINE
  5
2A2
100
AcDbEntity
  8
0
100
AcDbLine
 62
7
  6
CONTINUOUS
 10
82.5923531651
 20
82.8378700869
 11
86.4814242698
 21
85.0832129332
  0
LINE
  5
2A3
100
AcDbEntity
  8
0
100
AcDbLine
 62
7
  6
CONTINUOUS
 10
26.2430370596
 20
83.7726991545
 11
51.6212050952
 21
69.1209384747
  0
LINE
  5
2A4
100
AcDbEntity
  8
0
100
AcDbLine
 62
7
  6
CONTINUOUS
 10
83.653008921
 20
53.3212657636
 11
84.7136646768
 21
52.7089097308
  0
LINE
  5
2A5
100
AcDbEntity
  8
0
100
AcDbLine
 62
7
  6
CONTINUOUS
 10
55.0221979731
 20
109.9048352609
 11
55.0221979731
 21
110.4313192493
  0
LINE
  5
2A6
100
AcDbEntity
  8
0
100
AcDbLine
 62
7
  6
CONTINUOUS
 10
15.882085362
 20
45.4171509355
 11
13.975432817
 21
44.5089694795
  0
LINE
  5
2A7
100
AcDbEntity
  8
0
100
AcDbLine
 62
7
  6
CONTINUOUS
 10
82.5923531651
 20
54.7501555756
 11
83.653008921
 21
54.1377995428
  0
LINE
  5
2A8
100
AcDbEntity
  8
0
100
AcDbLine
 62
7
  6
CONTINUOUS
 10
82.5923531651
 20
55.374327001
 11
84.9006869038
 21
54.041640045
  0
LINE
  5
2A9
100
AcDbEntity
  8
0
100
AcDbLine
 62
7
  6
CONTINUOUS
 10
82.5923531651
 20
55.9748569311
 11
86.4814242698
 21
53.7295201154
  0
LINE
  5
2AA
100
AcDbEntity
  8
0
100
AcDbLine
 62
7
  6
CONTINUOUS
 10
60.2477777023
 20
102.025619678
 11
60.2477818238
 21
101.4540802421
  0
LINE
  5
2AB
100
AcDbEntity
  8
0
100
AcDbLine
 62
7
  6
CONTINUOUS
 10
60.679022194
 20
114.5545807586
 11
60.6754672152
 21
117.0468965558
  0
LINE
  5
2AC
100
AcDbEntity
  8
0
100
AcDbLine
 62
7
  6
CONTINUOUS
 10
16.4572797163
 20
69.2178588407
 11
16.1911347257
 21
69.1476626099
  0
LINE
  5
2AD
100
AcDbEntity
  8
0
100
AcDbLine
 62
7
  6
CONTINUOUS
 10
62.4468082828
 20
114.1914104344
 11
62.4468082828
 21
115.167018724
  0
LINE
  5
2AE
100
AcDbEntity
  8
0
100
AcDbLine
 62
7
  6
CONTINUOUS
 10
62.7226911799
 20
96.5143524952
 11
62.7226953015
 21
95.9428130593
  0
LINE
  5
2AF
100
AcDbEntity
  8
0
100
AcDbLine
 62
7
  6
CONTINUOUS
 10
63.7832968883
 20
99.8211189236
 11
63.7832968883
 21
104.0668404473
  0
LINE
  5
2B0
100
AcDbEntity
  8
0
100
AcDbLine
 62
7
  6
CONTINUOUS
 10
65.5580792976
 20
115.0037292209
 11
65.5580792976
 21
114.561988012
  0
LINE
  5
2B1
100
AcDbEntity
  8
0
100
AcDbLine
 62
7
  6
CONTINUOUS
 10
66.0460385881
 20
104.0668458863
 11
66.0460385881
 21
100.9641903168
  0
LINE
  5
2B2
100
AcDbEntity
  8
0
100
AcDbLine
 62
7
  6
CONTINUOUS
 10
66.1417529186
 20
113.5485865156
 11
66.1417529186
 21
106.4450154865
  0
LINE
  5
2B3
100
AcDbEntity
  8
0
100
AcDbLine
 62
7
  6
CONTINUOUS
 10
36.6306037462
 20
43.3196116529
 11
36.8427348974
 21
43.4420848991
  0
LINE
  5
2B4
100
AcDbEntity
  8
0
100
AcDbLine
 62
7
  6
CONTINUOUS
 10
22.7789488951
 20
39.4263720858
 11
24.1702443714
 21
40.0890773882
  0
LINE
  5
2B5
100
AcDbEntity
  8
0
100
AcDbLine
 62
7
  6
CONTINUOUS
 10
26.2430370596
 20
98.3880924211
 11
51.6212050952
 21
83.7363317413
  0
LINE
  5
2B6
100
AcDbEntity
  8
0
100
AcDbLine
 62
7
  6
CONTINUOUS
 10
40.7705869326
 20
92.6951863171
 11
41.7605405478
 21
92.1236492608
  0
LINE
  5
2B7
100
AcDbEntity
  8
0
100
AcDbLine
 62
7
  6
CONTINUOUS
 10
66.258210366
 20
94.3098517408
 11
66.258210366
 21
98.5555732646
  0
LINE
  5
2B8
100
AcDbEntity
  8
0
100
AcDbLine
 62
7
  6
CONTINUOUS
 10
67.6016799834
 20
101.8623403729
 11
67.6016799834
 21
103.1687162264
  0
LINE
  5
2B9
100
AcDbEntity
  8
0
100
AcDbLine
 62
7
  6
CONTINUOUS
 10
68.5209520658
 20
98.5555787035
 11
68.5209520658
 21
95.452923134
  0
LINE
  5
2BA
100
AcDbEntity
  8
0
100
AcDbLine
 62
7
  6
CONTINUOUS
 10
68.7400730607
 20
111.5336409913
 11
68.7400730607
 21
109.9006361571
  0
LINE
  5
2BB
100
AcDbEntity
  8
0
100
AcDbLine
 62
7
  6
CONTINUOUS
 10
70.0765934611
 20
96.3510731901
 11
70.0765934611
 21
97.6574490436
  0
LINE
  5
2BC
100
AcDbEntity
  8
0
100
AcDbLine
 62
7
  6
CONTINUOUS
 10
20.362807325
 20
33.1174273728
 11
20.0639501598
 21
32.9750749887
  0
LINE
  5
2BD
100
AcDbEntity
  8
0
100
AcDbLine
 62
7
  6
CONTINUOUS
 10
20.6355178762
 20
32.8995896594
 11
20.336660711
 21
32.7572372753
  0
LINE
  5
2BE
100
AcDbEntity
  8
0
100
AcDbLine
 62
7
  6
CONTINUOUS
 10
20.9082284274
 20
32.681751946
 11
20.6093712622
 21
32.539399562
  0
LINE
  5
2BF
100
AcDbEntity
  8
0
100
AcDbLine
 62
7
  6
CONTINUOUS
 10
21.1809389786
 20
32.4639142327
 11
20.8820818134
 21
32.3215618486
  0
LINE
  5
2C0
100
AcDbEntity
  8
0
100
AcDbLine
 62
7
  6
CONTINUOUS
 10
21.4536495298
 20
32.2460765193
 11
21.1547923646
 21
32.1037241353
  0
LINE
  5
2C1
100
AcDbEntity
  8
0
100
AcDbLine
 62
7
  6
CONTINUOUS
 10
71.0735157235
 20
112.8808466991
 11
71.0735157235
 21
111.2478418649
  0
LINE
  5
2C2
100
AcDbEntity
  8
0
100
AcDbLine
 62
7
  6
CONTINUOUS
 10
78.3358601288
 20
99.4049036748
 11
79.1275443628
 21
99.6170293269
  0
LINE
  5
2C3
100
AcDbEntity
  8
0
100
AcDbLine
 62
7
  6
CONTINUOUS
 10
41.7605405478
 20
99.472171015
 11
40.7705869326
 21
100.0437080713
  0
LINE
  5
2C4
100
AcDbEntity
  8
0
100
AcDbLine
 62
7
  6
CONTINUOUS
 10
36.2839115481
 20
104.185159406
 11
41.1832748832
 21
101.3565746568
  0
LINE
  5
2C5
100
AcDbEntity
  8
0
100
AcDbLine
 62
7
  6
CONTINUOUS
 10
49.4679723734
 20
96.573510538
 11
61.6620795836
 21
89.5333987263
  0
LINE
  5
2C6
100
AcDbEntity
  8
0
100
AcDbLine
 62
7
  6
CONTINUOUS
 10
83.653008921
 20
54.1377995428
 11
82.5923531651
 21
53.525433312
  0
LINE
  5
2C7
100
AcDbEntity
  8
0
100
AcDbLine
 62
7
  6
CONTINUOUS
 10
65.5511342021
 20
94.3098500412
 11
66.5410836957
 21
94.3098524208
  0
LINE
  5
2C8
100
AcDbEntity
  8
0
100
AcDbLine
 62
7
  6
CONTINUOUS
 10
37.0755957821
 20
104.8871865084
 11
41.8053047117
 21
102.15654956
  0
LINE
  5
2C9
100
AcDbEntity
  8
0
100
AcDbLine
 62
7
  6
CONTINUOUS
 10
50.2596566075
 20
97.2755376404
 11
62.4537638176
 21
90.2354258287
  0
LINE
  5
2CA
100
AcDbEntity
  8
0
100
AcDbLine
 62
7
  6
CONTINUOUS
 10
42.184794607
 20
102.4932012133
 11
43.1747482222
 21
101.921664157
  0
LINE
  5
2CB
100
AcDbEntity
  8
0
100
AcDbLine
 62
7
  6
CONTINUOUS
 10
82.5923531651
 20
53.525433312
 11
82.5923531651
 21
82.8378700869
  0
LINE
  5
2CC
100
AcDbEntity
  8
0
100
AcDbLine
 62
7
  6
CONTINUOUS
 10
85.420768514
 20
54.3419075103
 11
84.9006869038
 21
54.041640045
  0
LINE
  5
2CD
100
AcDbEntity
  8
0
100
AcDbLine
 62
7
  6
CONTINUOUS
 10
84.7136646768
 20
52.7089097308
 11
83.653008921
 21
52.0965435
  0
LINE
  5
2CE
100
AcDbEntity
  8
0
100
AcDbLine
 62
7
  6
CONTINUOUS
 10
41.5803306067
 20
26.5812627189
 11
51.6212050952
 21
32.3783297039
  0
LINE
  5
2CF
100
AcDbEntity
  8
0
100
AcDbLine
 62
7
  6
CONTINUOUS
 10
63.0762207244
 20
99.821117224
 11
64.066170218
 21
99.8211196036
  0
LINE
  5
2D0
100
AcDbEntity
  8
0
100
AcDbLine
 62
7
  6
CONTINUOUS
 10
62.7226953015
 20
95.9428130593
 11
65.5511342021
 21
94.3098500412
  0
LINE
  5
2D1
100
AcDbEntity
  8
0
100
AcDbLine
 62
7
  6
CONTINUOUS
 10
83.653008921
 20
52.0965435
 11
83.653008921
 21
54.1377995428
  0
LINE
  5
2D2
100
AcDbEntity
  8
0
100
AcDbLine
 62
7
  6
CONTINUOUS
 10
86.4814242698
 20
37.8893732231
 11
86.4814242698
 21
53.7295201154
  0
LINE
  5
2D3
100
AcDbEntity
  8
0
100
AcDbLine
 62
7
  6
CONTINUOUS
 10
86.4814242698
 20
85.0832129332
 11
86.4814242698
 21
103.8627685272
  0
LINE
  5
2D4
100
AcDbEntity
  8
0
100
AcDbLine
 62
7
  6
CONTINUOUS
 10
84.7136646768
 20
52.7089097308
 11
84.9006869038
 21
54.041640045
  0
LINE
  5
2D5
100
AcDbEntity
  8
0
100
AcDbLine
 62
7
  6
CONTINUOUS
 10
47.6682998134
 20
108.716683265
 11
50.3162949883
 21
107.1878971238
  0
LINE
  5
2D6
100
AcDbEntity
  8
0
100
AcDbLine
 62
7
  6
CONTINUOUS
 10
60.2477818238
 20
101.4540802421
 11
63.0762207244
 21
99.821117224
  0
LINE
  5
2D7
100
AcDbEntity
  8
0
100
AcDbLine
 62
7
  6
CONTINUOUS
 10
70.0765934611
 20
97.6574490436
 11
68.5209520658
 21
98.5555787035
  0
LINE
  5
2D8
100
AcDbEntity
  8
0
100
AcDbLine
 62
7
  6
CONTINUOUS
 10
67.6016799834
 20
103.1687162264
 11
66.0460385881
 21
104.0668458863
  0
LINE
  5
2D9
100
AcDbEntity
  8
0
100
AcDbLine
 62
7
  6
CONTINUOUS
 10
55.0221979731
 20
110.4313192493
 11
53.4665565777
 21
111.3294489092
  0
LINE
  5
2DA
100
AcDbEntity
  8
0
100
AcDbLine
 62
7
  6
CONTINUOUS
 10
52.9576920933
 20
114.0566643546
 11
57.5855944985
 21
111.3848041007
  0
LINE
  5
2DB
100
AcDbEntity
  8
0
100
AcDbLine
 62
7
  6
CONTINUOUS
 10
66.1417529186
 20
106.4450154865
 11
78.3358601288
 21
99.4049036748
  0
LINE
  5
2DC
100
AcDbEntity
  8
0
100
AcDbLine
 62
7
  6
CONTINUOUS
 10
53.7493763273
 20
114.2687900067
 11
58.1651421492
 21
111.7194040955
  0
LINE
  5
2DD
100
AcDbEntity
  8
0
100
AcDbLine
 62
7
  6
CONTINUOUS
 10
66.1417529186
 20
107.114209904
 11
79.1275443628
 21
99.6170293269
  0
LINE
  5
2DE
100
AcDbEntity
  8
0
100
AcDbLine
 62
7
  6
CONTINUOUS
 10
79.1275443628
 20
33.6436340229
 11
78.3358601288
 21
32.9416069205
  0
LINE
  5
2DF
100
AcDbEntity
  8
0
100
AcDbLine
 62
7
  6
CONTINUOUS
 10
51.6212050952
 20
17.7629364373
 11
61.6620795836
 21
23.5600034222
  0
LINE
  5
2E0
100
AcDbEntity
  8
0
100
AcDbLine
 62
7
  6
CONTINUOUS
 10
79.1275443628
 20
33.6436340229
 11
86.4814242698
 21
37.8893732231
  0
LINE
  5
2E1
100
AcDbEntity
  8
0
100
AcDbLine
 62
7
  6
CONTINUOUS
 10
62.4398938045
 20
23.7641212664
 11
78.3358601288
 21
32.9416069205
  0
LINE
  5
2E2
100
AcDbEntity
  8
0
100
AcDbLine
 62
7
  6
CONTINUOUS
 10
53.7493763273
 20
114.2687900067
 11
52.9576920933
 21
114.0566643546
  0
LINE
  5
2E3
100
AcDbEntity
  8
0
100
AcDbLine
 62
7
  6
CONTINUOUS
 10
70.9992892214
 20
108.3105328513
 11
66.1417529186
 21
111.1149692984
  0
LINE
  5
2E4
100
AcDbEntity
  8
0
100
AcDbLine
 62
7
  6
CONTINUOUS
 10
61.6299509515
 20
113.7198004495
 11
58.2713141687
 21
115.6588664326
  0
LINE
  5
2E5
100
AcDbEntity
  8
0
100
AcDbLine
 62
7
  6
CONTINUOUS
 10
66.6540993715
 20
111.9214488
 11
66.1417529186
 21
112.2172454707
  0
LINE
  5
2E6
100
AcDbEntity
  8
0
100
AcDbLine
 62
7
  6
CONTINUOUS
 10
62.4468082828
 20
115.167018724
 11
63.2917219245
 21
114.6792186411
  0
LINE
  5
2E7
100
AcDbEntity
  8
0
100
AcDbLine
 62
7
  6
CONTINUOUS
 10
64.7275452442
 20
114.3651030421
 11
63.737591629
 21
114.9366400984
  0
LINE
  5
2E8
100
AcDbEntity
  8
0
100
AcDbLine
 62
7
  6
CONTINUOUS
 10
73.4034422679
 20
109.6985629744
 11
71.0959694013
 21
111.0307529169
  0
LINE
  5
2E9
100
AcDbEntity
  8
0
100
AcDbLine
 62
7
  6
CONTINUOUS
 10
60.8954649396
 20
116.9198836838
 11
60.6754672152
 21
117.0468965558
  0
LINE
  5
2EA
100
AcDbEntity
  8
0
100
AcDbLine
 62
7
  6
CONTINUOUS
 10
64.737574662
 20
115.0356958675
 11
65.7275282772
 21
114.4641588112
  0
LINE
  5
2EB
100
AcDbEntity
  8
0
100
AcDbLine
 62
7
  6
CONTINUOUS
 10
62.0932416443
 20
117.0041089181
 11
63.8610159572
 21
115.9835070318
  0
LINE
  5
2EC
100
AcDbEntity
  8
0
100
AcDbLine
 62
7
  6
CONTINUOUS
 10
65.5580792976
 20
115.0037292209
 11
67.3258536104
 21
113.9831273346
  0
LINE
  5
2ED
100
AcDbEntity
  8
0
100
AcDbLine
 62
7
  6
CONTINUOUS
 10
61.1032562343
 20
118.5145292069
 11
62.320552383
 21
117.8117388471
  0
LINE
  5
2EE
100
AcDbEntity
  8
0
100
AcDbLine
 62
7
  6
CONTINUOUS
 10
71.0735157235
 20
112.7583274296
 11
86.4814242698
 21
103.8627685272
  0
LINE
  5
2EF
100
AcDbEntity
  8
0
100
AcDbLine
 62
7
  6
CONTINUOUS
 10
69.6592962732
 20
115.3303330424
 11
64.4266843071
 21
118.3513146259
  0
ARC
  5
2F0
100
AcDbEntity
  8
0
100
AcDbCircle
 62
7
  6
CONTINUOUS
 10
20.618090478
 20
67.8812931508
 40
6.0
100
AcDbArc
 50
178.2162756733
 51
204.0183249781
  0
ARC
  5
2F1
100
AcDbEntity
  8
0
100
AcDbCircle
 62
7
  6
CONTINUOUS
 10
18.7091031349
 20
66.9152144401
 40
3.849373224
100
AcDbArc
 50
221.766850426
 51
233.1028345939
  0
ARC
  5
2F2
100
AcDbEntity
  8
0
100
AcDbCircle
 62
7
  6
CONTINUOUS
 10
18.6538807872
 20
66.8432605797
 40
3.7586763819
100
AcDbArc
 50
233.1175050126
 51
241.8485646659
  0
ARC
  5
2F3
100
AcDbEntity
  8
0
100
AcDbCircle
 62
7
  6
CONTINUOUS
 10
18.6476487554
 20
66.8330145266
 40
3.7467021625
100
AcDbArc
 50
241.8586680083
 51
242.8536793991
  0
ARC
  5
2F4
100
AcDbEntity
  8
0
100
AcDbCircle
 62
7
  6
CONTINUOUS
 10
19.4020826463
 20
48.9150715069
 40
2.4085845202
100
AcDbArc
 50
208.6787182141
 51
211.0772308086
  0
ARC
  5
2F5
100
AcDbEntity
  8
0
100
AcDbCircle
 62
7
  6
CONTINUOUS
 10
19.3464320566
 20
48.8819595189
 40
2.3438291844
100
AcDbArc
 50
211.0862009237
 51
211.5564452295
  0
SPLINE
  5
2F6
100
AcDbEntity
  8
0
100
AcDbSpline
 62
7
  6
CONTINUOUS
 70
0
 71
3
 72
11
 73
7
 74
0
 42
0.0000001
 43
0.0000001
 44
0.0000000001
 40
0.0
 40
0.0
 40
0.0
 40
0.0
 40
0.2630877767
 40
0.5238275584
 40
0.7722604334
 40
1.0
 40
1.0
 40
1.0
 40
1.0
 10
14.7879548968
 20
56.779135383
 30
0.0
 10
14.4383780699
 20
56.3032939302
 30
0.0
 10
13.8097334193
 20
55.3044934385
 30
0.0
 10
13.0960322941
 20
53.7188649968
 30
0.0
 10
12.6425500944
 20
52.1221470236
 30
0.0
 10
12.5252226177
 20
51.0523037873
 30
0.0
 10
12.5252226177
 20
50.5411876383
 30
0.0
  0
SPLINE
  5
2F7
100
AcDbEntity
  8
0
100
AcDbSpline
 62
7
  6
CONTINUOUS
 70
0
 71
3
 72
9
 73
5
 74
0
 42
0.0000001
 43
0.0000001
 44
0.0000000001
 40
0.0
 40
0.0
 40
0.0
 40
0.0
 40
0.2607146061
 40
1.0
 40
1.0
 40
1.0
 40
1.0
 10
12.5252226177
 20
50.5411876383
 30
0.0
 10
12.5252226177
 20
50.4374161905
 30
0.0
 10
12.5342866054
 20
50.0395140005
 30
0.0
 10
12.580611264
 20
49.6418997138
 30
0.0
 10
12.6407581594
 20
49.3538568865
 30
0.0
  0
SPLINE
  5
2F8
100
AcDbEntity
  8
0
100
AcDbSpline
 62
7
  6
CONTINUOUS
 70
0
 71
3
 72
13
 73
9
 74
0
 42
0.0000001
 43
0.0000001
 44
0.0000000001
 40
0.0
 40
0.0
 40
0.0
 40
0.0
 40
0.0921567101
 40
0.190152335
 40
0.2981575995
 40
0.4182868297
 40
0.6927582143
 40
1.0
 40
1.0
 40
1.0
 40
1.0
 10
24.4154702021
 20
39.0226119212
 30
0.0
 10
24.3936549917
 20
39.0351796269
 30
0.0
 10
24.3440525867
 20
39.0538094677
 30
0.0
 10
24.2616771211
 20
39.0580294426
 30
0.0
 10
24.1736363681
 20
39.0399546127
 30
0.0
 10
24.0468872121
 20
38.9852663661
 30
0.0
 10
23.8931509723
 20
38.8660277943
 30
0.0
 10
23.7929076232
 20
38.7410372865
 30
0.0
 10
23.7473263232
 20
38.6705564458
 30
0.0
  0
SPLINE
  5
2F9
100
AcDbEntity
  8
0
100
AcDbSpline
 62
7
  6
CONTINUOUS
 70
0
 71
3
 72
11
 73
7
 74
0
 42
0.0000001
 43
0.0000001
 44
0.0000000001
 40
0.0
 40
0.0
 40
0.0
 40
0.0
 40
0.1379337718
 40
0.3401173581
 40
0.6250815737
 40
1.0
 40
1.0
 40
1.0
 40
1.0
 10
14.671548016
 20
68.2703367053
 30
0.0
 10
14.6630222245
 20
68.2654423088
 30
0.0
 10
14.6473494897
 20
68.2451918569
 30
0.0
 10
14.633893611
 20
68.2026137047
 30
0.0
 10
14.6244816172
 20
68.1416818725
 30
0.0
 10
14.6218510023
 20
68.0946959839
 30
0.0
 10
14.6210132422
 20
68.0679880306
 30
0.0
  0
SPLINE
  5
2FA
100
AcDbEntity
  8
0
100
AcDbSpline
 62
7
  6
CONTINUOUS
 70
0
 71
3
 72
13
 73
9
 74
0
 42
0.0000001
 43
0.0000001
 44
0.0000000001
 40
0.0
 40
0.0
 40
0.0
 40
0.0
 40
0.1142247162
 40
0.2375579183
 40
0.4999983243
 40
0.7624396433
 40
0.8857739388
 40
1.0
 40
1.0
 40
1.0
 40
1.0
 10
12.6666433851
 20
75.9344114001
 30
0.0
 10
12.5698565025
 20
75.8785318009
 30
0.0
 10
12.3786164905
 20
75.7444437056
 30
0.0
 10
12.0205577879
 20
75.4093814922
 30
0.0
 10
11.6423873327
 20
74.8927766716
 30
0.0
 10
11.3840822568
 20
74.3069668403
 30
0.0
 10
11.2729396984
 20
73.8293443582
 30
0.0
 10
11.2524357107
 20
73.5966792729
 30
0.0
 10
11.2524357107
 20
73.4849182581
 30
0.0
  0
SPLINE
  5
2FB
100
AcDbEntity
  8
0
100
AcDbSpline
 62
7
  6
CONTINUOUS
 70
0
 71
3
 72
11
 73
7
 74
0
 42
0.0000001
 43
0.0000001
 44
0.0000000001
 40
0.0
 40
0.0
 40
0.0
 40
0.0
 40
0.2177839466
 40
0.4509170841
 40
0.710307871
 40
1.0
 40
1.0
 40
1.0
 40
1.0
 10
49.8520636376
 20
77.6556980506
 30
0.0
 10
49.9592620578
 20
77.7176082316
 30
0.0
 10
50.1598576439
 20
77.8862138009
 30
0.0
 10
50.3733966342
 20
78.2353773051
 30
0.0
 10
50.5002193629
 20
78.6656570067
 30
0.0
 10
50.5251850212
 20
78.9788241101
 30
0.0
 10
50.5251850212
 20
79.1434894412
 30
0.0
  0
SPLINE
  5
2FC
100
AcDbEntity
  8
0
100
AcDbSpline
 62
7
  6
CONTINUOUS
 70
0
 71
3
 72
11
 73
7
 74
0
 42
0.0000001
 43
0.0000001
 44
0.0000000001
 40
0.0
 40
0.0
 40
0.0
 40
0.0
 40
0.2177839466
 40
0.4509170841
 40
0.710307871
 40
1.0
 40
1.0
 40
1.0
 40
1.0
 10
43.8416309739
 20
81.125744464
 30
0.0
 10
43.9488293941
 20
81.187654645
 30
0.0
 10
44.1494249802
 20
81.3562602143
 30
0.0
 10
44.3629639704
 20
81.7054237185
 30
0.0
 10
44.4897866992
 20
82.1357034201
 30
0.0
 10
44.5147523574
 20
82.4488705235
 30
0.0
 10
44.5147523574
 20
82.6135358546
 30
0.0
  0
SPLINE
  5
2FD
100
AcDbEntity
  8
0
100
AcDbSpline
 62
7
  6
CONTINUOUS
 70
0
 71
3
 72
12
 73
8
 74
0
 42
0.0000001
 43
0.0000001
 44
0.0000000001
 40
0.0
 40
0.0
 40
0.0
 40
0.0
 40
0.2629881296
 40
0.5236718857
 40
0.772062705
 40
0.889075705
 40
1.0
 40
1.0
 40
1.0
 40
1.0
 10
15.4950705099
 20
56.776476991
 30
0.0
 10
15.0581634528
 20
56.1828333663
 30
0.0
 10
14.2723731158
 20
54.9362797466
 30
0.0
 10
13.3804559045
 20
52.9576994727
 30
0.0
 10
12.8981039342
 20
51.2618871281
 30
0.0
 10
12.7013353356
 20
49.9399585557
 30
0.0
 10
12.666655161
 20
49.3007594027
 30
0.0
 10
12.666655161
 20
48.9898666523
 30
0.0
  0
SPLINE
  5
2FE
100
AcDbEntity
  8
0
100
AcDbSpline
 62
7
  6
CONTINUOUS
 70
0
 71
3
 72
14
 73
10
 74
0
 42
0.0000001
 43
0.0000001
 44
0.0000000001
 40
0.0
 40
0.0
 40
0.0
 40
0.0
 40
0.2892818301
 40
0.4225547783
 40
0.5485004692
 40
0.6678961341
 40
0.7818760519
 40
0.8919622416
 40
1.0
 40
1.0
 40
1.0
 40
1.0
 10
12.666655161
 20
48.9898666523
 30
0.0
 10
12.666655161
 20
48.5286097881
 30
0.0
 10
12.7205014387
 20
47.8515362892
 30
0.0
 10
12.9286674279
 20
47.0005557838
 30
0.0
 10
13.140426396
 20
46.4334997899
 30
0.0
 10
13.410349874
 20
45.9260831429
 30
0.0
 10
13.7363142319
 20
45.4833252063
 30
0.0
 10
14.1153717386
 20
45.1103411248
 30
0.0
 10
14.402192971
 20
44.9101481324
 30
0.0
 10
14.5513811215
 20
44.8240194285
 30
0.0
  0
SPLINE
  5
2FF
100
AcDbEntity
  8
0
100
AcDbSpline
 62
7
  6
CONTINUOUS
 70
0
 71
3
 72
11
 73
7
 74
0
 42
0.0000001
 43
0.0000001
 44
0.0000000001
 40
0.0
 40
0.0
 40
0.0
 40
0.0
 40
0.2177839466
 40
0.4509170841
 40
0.710307871
 40
1.0
 40
1.0
 40
1.0
 40
1.0
 10
37.2725816273
 20
84.9183010735
 30
0.0
 10
37.3797800475
 20
84.9802112545
 30
0.0
 10
37.5803756336
 20
85.1488168238
 30
0.0
 10
37.7939146238
 20
85.497980328
 30
0.0
 10
37.9207373526
 20
85.9282600296
 30
0.0
 10
37.9457030108
 20
86.241427133
 30
0.0
 10
37.9457030108
 20
86.4060924641
 30
0.0
  0
SPLINE
  5
300
100
AcDbEntity
  8
0
100
AcDbSpline
 62
7
  6
CONTINUOUS
 70
0
 71
3
 72
11
 73
7
 74
0
 42
0.0000001
 43
0.0000001
 44
0.0000000001
 40
0.0
 40
0.0
 40
0.0
 40
0.0
 40
0.2177839466
 40
0.4509170841
 40
0.710307871
 40
1.0
 40
1.0
 40
1.0
 40
1.0
 10
31.2621489635
 20
88.3883474869
 30
0.0
 10
31.3693473837
 20
88.4502576679
 30
0.0
 10
31.5699429698
 20
88.6188632372
 30
0.0
 10
31.7834819601
 20
88.9680267415
 30
0.0
 10
31.9103046888
 20
89.3983064431
 30
0.0
 10
31.9352703471
 20
89.7114735464
 30
0.0
 10
31.9352703471
 20
89.8761388776
 30
0.0
  0
SPLINE
  5
301
100
AcDbEntity
  8
0
100
AcDbSpline
 62
7
  6
CONTINUOUS
 70
0
 71
3
 72
14
 73
10
 74
0
 42
0.0000001
 43
0.0000001
 44
0.0000000001
 40
0.0
 40
0.0
 40
0.0
 40
0.0
 40
0.2892818301
 40
0.4225547783
 40
0.5485004692
 40
0.6678961341
 40
0.7818760519
 40
0.8919622416
 40
1.0
 40
1.0
 40
1.0
 40
1.0
 10
23.6233203522
 20
42.664176161
 30
0.0
 10
23.6233203522
 20
42.2029192968
 30
0.0
 10
23.6771666299
 20
41.5258457979
 30
0.0
 10
23.8853326191
 20
40.6748652925
 30
0.0
 10
24.0970915872
 20
40.1078092986
 30
0.0
 10
24.3670150652
 20
39.6003926516
 30
0.0
 10
24.692979423
 20
39.157634715
 30
0.0
 10
25.0720369298
 20
38.7846506335
 30
0.0
 10
25.3588581621
 20
38.5844576411
 30
0.0
 10
25.5080463126
 20
38.4983289372
 30
0.0
  0
SPLINE
  5
302
100
AcDbEntity
  8
0
100
AcDbSpline
 62
7
  6
CONTINUOUS
 70
0
 71
3
 72
9
 73
5
 74
0
 42
0.0000001
 43
0.0000001
 44
0.0000000001
 40
0.0
 40
0.0
 40
0.0
 40
0.0
 40
0.2310934929
 40
1.0
 40
1.0
 40
1.0
 40
1.0
 10
67.3117749755
 20
110.4253114101
 30
0.0
 10
67.3201403035
 20
110.4449366575
 30
0.0
 10
67.3508779116
 20
110.5321910402
 30
0.0
 10
67.3612090967
 20
110.6257228334
 30
0.0
 10
67.3612090967
 20
110.6967056284
 30
0.0
  0
SPLINE
  5
303
100
AcDbEntity
  8
0
100
AcDbSpline
 62
7
  6
CONTINUOUS
 70
0
 71
3
 72
11
 73
7
 74
0
 42
0.0000001
 43
0.0000001
 44
0.0000000001
 40
0.0
 40
0.0
 40
0.0
 40
0.0
 40
0.289702809
 40
0.549088757
 40
0.7822160314
 40
1.0
 40
1.0
 40
1.0
 40
1.0
 10
41.5803306067
 20
26.5812627189
 30
0.0
 10
41.4925742041
 20
26.5305968386
 30
0.0
 10
41.3179984453
 20
26.4475460804
 30
0.0
 10
41.0496717407
 20
26.3827476105
 30
0.0
 10
40.797902508
 20
26.3891202099
 30
0.0
 10
40.6463236748
 20
26.4441280077
 30
0.0
 10
40.5803525636
 20
26.4822155925
 30
0.0
  0
SPLINE
  5
304
100
AcDbEntity
  8
0
100
AcDbSpline
 62
7
  6
CONTINUOUS
 70
0
 71
3
 72
18
 73
14
 74
0
 42
0.0000001
 43
0.0000001
 44
0.0000000001
 40
0.0
 40
0.0
 40
0.0
 40
0.0
 40
0.1286589694
 40
0.2702080477
 40
0.4173270892
 40
0.5616299652
 40
0.695263725
 40
0.7562692232
 40
0.8127606992
 40
0.8647096812
 40
0.9125330127
 40
0.9571493498
 40
1.0
 40
1.0
 40
1.0
 40
1.0
 10
31.9352703471
 20
89.8761388776
 30
0.0
 10
31.9352703471
 20
90.1539416798
 30
0.0
 10
31.8575568912
 20
90.7380532644
 30
0.0
 10
31.5674929024
 20
91.5956529328
 30
0.0
 10
31.1204180878
 20
92.4219208203
 30
0.0
 10
30.5528726627
 20
93.1485079919
 30
0.0
 10
30.0006244997
 20
93.6376069991
 30
0.0
 10
29.5370543145
 20
93.9213725845
 30
0.0
 10
29.2012315681
 20
94.0697761241
 30
0.0
 10
28.8735750784
 20
94.1567978128
 30
0.0
 10
28.5604936036
 20
94.1799126552
 30
0.0
 10
28.2689528323
 20
94.1371045353
 30
0.0
 10
28.0923003757
 20
94.0637678578
 30
0.0
 10
28.0121785172
 20
94.0174951725
 30
0.0
  0
SPLINE
  5
305
100
AcDbEntity
  8
0
100
AcDbSpline
 62
7
  6
CONTINUOUS
 70
0
 71
3
 72
18
 73
14
 74
0
 42
0.0000001
 43
0.0000001
 44
0.0000000001
 40
0.0
 40
0.0
 40
0.0
 40
0.0
 40
0.1286589694
 40
0.2702080477
 40
0.4173270892
 40
0.5616299652
 40
0.695263725
 40
0.7562692232
 40
0.8127606992
 40
0.8647096812
 40
0.9125330127
 40
0.9571493498
 40
1.0
 40
1.0
 40
1.0
 40
1.0
 10
37.9457030108
 20
86.4060924641
 30
0.0
 10
37.9457030108
 20
86.6838952664
 30
0.0
 10
37.8679895549
 20
87.268006851
 30
0.0
 10
37.5779255661
 20
88.1256065194
 30
0.0
 10
37.1308507516
 20
88.9518744069
 30
0.0
 10
36.5633053264
 20
89.6784615785
 30
0.0
 10
36.0110571635
 20
90.1675605857
 30
0.0
 10
35.5474869783
 20
90.4513261711
 30
0.0
 10
35.2116642318
 20
90.5997297106
 30
0.0
 10
34.8840077421
 20
90.6867513994
 30
0.0
 10
34.5709262673
 20
90.7098662418
 30
0.0
 10
34.279385496
 20
90.6670581218
 30
0.0
 10
34.1027330394
 20
90.5937214444
 30
0.0
 10
34.0226111809
 20
90.5474487591
 30
0.0
  0
SPLINE
  5
306
100
AcDbEntity
  8
0
100
AcDbSpline
 62
7
  6
CONTINUOUS
 70
0
 71
3
 72
18
 73
14
 74
0
 42
0.0000001
 43
0.0000001
 44
0.0000000001
 40
0.0
 40
0.0
 40
0.0
 40
0.0
 40
0.1286589694
 40
0.2702080477
 40
0.4173270892
 40
0.5616299652
 40
0.695263725
 40
0.7562692232
 40
0.8127606992
 40
0.8647096812
 40
0.9125330127
 40
0.9571493498
 40
1.0
 40
1.0
 40
1.0
 40
1.0
 10
44.5147523574
 20
82.6135358546
 30
0.0
 10
44.5147523574
 20
82.8913386569
 30
0.0
 10
44.4370389015
 20
83.4754502415
 30
0.0
 10
44.1469749127
 20
84.3330499099
 30
0.0
 10
43.6999000982
 20
85.1593177974
 30
0.0
 10
43.132354673
 20
85.885904969
 30
0.0
 10
42.5801065101
 20
86.3750039762
 30
0.0
 10
42.1165363249
 20
86.6587695616
 30
0.0
 10
41.7807135784
 20
86.8071731011
 30
0.0
 10
41.4530570887
 20
86.8941947899
 30
0.0
 10
41.139975614
 20
86.9173096323
 30
0.0
 10
40.8484348426
 20
86.8745015123
 30
0.0
 10
40.671782386
 20
86.8011648349
 30
0.0
 10
40.5916605275
 20
86.7548921496
 30
0.0
  0
SPLINE
  5
307
100
AcDbEntity
  8
0
100
AcDbSpline
 62
7
  6
CONTINUOUS
 70
0
 71
3
 72
18
 73
14
 74
0
 42
0.0000001
 43
0.0000001
 44
0.0000000001
 40
0.0
 40
0.0
 40
0.0
 40
0.0
 40
0.1286589694
 40
0.2702080477
 40
0.4173270892
 40
0.5616299652
 40
0.695263725
 40
0.7562692232
 40
0.8127606992
 40
0.8647096812
 40
0.9125330127
 40
0.9571493498
 40
1.0
 40
1.0
 40
1.0
 40
1.0
 10
50.5251850212
 20
79.1434894412
 30
0.0
 10
50.5251850212
 20
79.4212922435
 30
0.0
 10
50.4474715653
 20
80.0054038281
 30
0.0
 10
50.1574075765
 20
80.8630034964
 30
0.0
 10
49.710332762
 20
81.689271384
 30
0.0
 10
49.1427873368
 20
82.4158585556
 30
0.0
 10
48.5905391739
 20
82.9049575628
 30
0.0
 10
48.1269689886
 20
83.1887231481
 30
0.0
 10
47.7911462422
 20
83.3371266877
 30
0.0
 10
47.4634897525
 20
83.4241483765
 30
0.0
 10
47.1504082777
 20
83.4472632189
 30
0.0
 10
46.8588675064
 20
83.4044550989
 30
0.0
 10
46.6822150498
 20
83.3311184215
 30
0.0
 10
46.6020931913
 20
83.2848457362
 30
0.0
  0
SPLINE
  5
308
100
AcDbEntity
  8
0
100
AcDbSpline
 62
7
  6
CONTINUOUS
 70
0
 71
3
 72
11
 73
7
 74
0
 42
0.0000001
 43
0.0000001
 44
0.0000000001
 40
0.0
 40
0.0
 40
0.0
 40
0.0
 40
0.2895416688
 40
0.549118971
 40
0.7822562702
 40
1.0
 40
1.0
 40
1.0
 40
1.0
 10
67.6016894041
 20
101.8623403729
 30
0.0
 10
67.6718542782
 20
101.9028498401
 30
0.0
 10
67.7991803247
 20
101.9906455002
 30
0.0
 10
67.9514874494
 20
102.1505426685
 30
0.0
 10
68.0478500923
 20
102.3275658125
 30
0.0
 10
68.0702243381
 20
102.4545967191
 30
0.0
 10
68.0702243192
 20
102.5155255795
 30
0.0
  0
SPLINE
  5
309
100
AcDbEntity
  8
0
100
AcDbSpline
 62
7
  6
CONTINUOUS
 70
0
 71
3
 72
11
 73
7
 74
0
 42
0.0000001
 43
0.0000001
 44
0.0000000001
 40
0.0
 40
0.0
 40
0.0
 40
0.0
 40
0.2895416688
 40
0.549118971
 40
0.7822562702
 40
1.0
 40
1.0
 40
1.0
 40
1.0
 10
70.0766028818
 20
96.3510731901
 30
0.0
 10
70.1467677559
 20
96.3915826573
 30
0.0
 10
70.2740938023
 20
96.4793783174
 30
0.0
 10
70.4264009271
 20
96.6392754857
 30
0.0
 10
70.5227635699
 20
96.8162986297
 30
0.0
 10
70.5451378158
 20
96.9433295363
 30
0.0
 10
70.5451377968
 20
97.0042583967
 30
0.0
  0
SPLINE
  5
30A
100
AcDbEntity
  8
0
100
AcDbSpline
 62
7
  6
CONTINUOUS
 70
0
 71
3
 72
13
 73
9
 74
0
 42
0.0000001
 43
0.0000001
 44
0.0000000001
 40
0.0
 40
0.0
 40
0.0
 40
0.0
 40
0.1142247162
 40
0.2375579183
 40
0.4999983243
 40
0.7624396433
 40
0.8857739388
 40
1.0
 40
1.0
 40
1.0
 40
1.0
 10
42.184794607
 20
102.4932012133
 30
0.0
 10
42.0880077244
 20
102.4373216141
 30
0.0
 10
41.8967677124
 20
102.3032335188
 30
0.0
 10
41.5387090098
 20
101.9681713054
 30
0.0
 10
41.1605385546
 20
101.4515664848
 30
0.0
 10
40.9022334787
 20
100.8657566535
 30
0.0
 10
40.7910909203
 20
100.3881341714
 30
0.0
 10
40.7705869326
 20
100.1554690861
 30
0.0
 10
40.7705869326
 20
100.0437080713
 30
0.0
  0
SPLINE
  5
30B
100
AcDbEntity
  8
0
100
AcDbSpline
 62
7
  6
CONTINUOUS
 70
0
 71
3
 72
9
 73
5
 74
0
 42
0.0000001
 43
0.0000001
 44
0.0000000001
 40
0.0
 40
0.0
 40
0.0
 40
0.0
 40
0.2310934929
 40
1.0
 40
1.0
 40
1.0
 40
1.0
 10
60.6295880729
 20
114.2831865403
 30
0.0
 10
60.6379534008
 20
114.3028117877
 30
0.0
 10
60.668691009
 20
114.3900661704
 30
0.0
 10
60.679022194
 20
114.4835979636
 30
0.0
 10
60.679022194
 20
114.5545807586
 30
0.0
  0
SPLINE
  5
30C
100
AcDbEntity
  8
0
100
AcDbSpline
 62
7
  6
CONTINUOUS
 70
0
 71
3
 72
11
 73
7
 74
0
 42
0.0000001
 43
0.0000001
 44
0.0000000001
 40
0.0
 40
0.0
 40
0.0
 40
0.0
 40
0.2177825102
 40
0.4509091639
 40
0.7102957096
 40
1.0
 40
1.0
 40
1.0
 40
1.0
 10
65.7275232874
 20
114.4641501685
 30
0.0
 10
65.79349657
 20
114.42606133
 30
0.0
 10
65.916930041
 20
114.3222920234
 30
0.0
 10
66.0483394256
 20
114.107432133
 30
0.0
 10
66.1263888277
 20
113.8426440943
 30
0.0
 10
66.1417529186
 20
113.6499232618
 30
0.0
 10
66.1417529186
 20
113.5485865156
 30
0.0
  0
SPLINE
  5
30D
100
AcDbEntity
  8
0
100
AcDbSpline
 62
7
  6
CONTINUOUS
 70
0
 71
3
 72
11
 73
7
 74
0
 42
0.0000001
 43
0.0000001
 44
0.0000000001
 40
0.0
 40
0.0
 40
0.0
 40
0.0
 40
0.2177839237
 40
0.4509111717
 40
0.7102971901
 40
1.0
 40
1.0
 40
1.0
 40
1.0
 10
64.7375696722
 20
115.0356872248
 30
0.0
 10
64.671598557
 20
115.0737747709
 30
0.0
 10
64.5200197805
 20
115.1287826157
 30
0.0
 10
64.2682505346
 20
115.1351552127
 30
0.0
 10
63.9999238264
 20
115.0703567178
 30
0.0
 10
63.8253480316
 20
114.9873059787
 30
0.0
 10
63.737591629
 20
114.9366400984
 30
0.0
  0
SPLINE
  5
30E
100
AcDbEntity
  8
0
100
AcDbSpline
 62
7
  6
CONTINUOUS
 70
0
 71
3
 72
11
 73
7
 74
0
 42
0.0000001
 43
0.0000001
 44
0.0000000001
 40
0.0
 40
0.0
 40
0.0
 40
0.0
 40
0.2897033281
 40
0.5490895198
 40
0.7822165953
 40
1.0
 40
1.0
 40
1.0
 40
1.0
 10
60.679022194
 20
116.1875855929
 30
0.0
 10
60.679022194
 20
116.2889218817
 30
0.0
 10
60.6943862663
 20
116.4816420257
 30
0.0
 10
60.7724356125
 20
116.7464294043
 30
0.0
 10
60.9038447902
 20
116.9612893879
 30
0.0
 10
61.0272778948
 20
117.0650594358
 30
0.0
 10
61.093251111
 20
117.1031488334
 30
0.0
  0
SPLINE
  5
30F
100
AcDbEntity
  8
0
100
AcDbSpline
 62
7
  6
CONTINUOUS
 70
0
 71
3
 72
9
 73
5
 74
0
 42
0.0000001
 43
0.0000001
 44
0.0000000001
 40
0.0
 40
0.0
 40
0.0
 40
0.0
 40
0.5104201018
 40
1.0
 40
1.0
 40
1.0
 40
1.0
 10
62.4352659285
 20
114.2629282897
 30
0.0
 10
62.4050135648
 20
114.2619789471
 30
0.0
 10
62.3456594212
 20
114.2537371036
 30
0.0
 10
62.2901681111
 20
114.2307644455
 30
0.0
 10
62.2650260984
 20
114.2162487724
 30
0.0
  0
SPLINE
  5
310
100
AcDbEntity
  8
0
100
AcDbSpline
 62
7
  6
CONTINUOUS
 70
0
 71
3
 72
11
 73
7
 74
0
 42
0.0000001
 43
0.0000001
 44
0.0000000001
 40
0.0
 40
0.0
 40
0.0
 40
0.0
 40
0.2372539654
 40
0.5000012591
 40
0.7627478695
 40
1.0
 40
1.0
 40
1.0
 40
1.0
 10
67.3612090967
 20
110.6967056284
 30
0.0
 10
67.3612090967
 20
110.8126315115
 30
0.0
 10
67.317744831
 20
111.0571045361
 30
0.0
 10
67.1661390758
 20
111.4005808345
 30
0.0
 10
66.9444818377
 20
111.7036116339
 30
0.0
 10
66.7544939226
 20
111.8634872902
 30
0.0
 10
66.6540993715
 20
111.9214488
 30
0.0
  0
SPLINE
  5
311
100
AcDbEntity
  8
0
100
AcDbSpline
 62
7
  6
CONTINUOUS
 70
0
 71
3
 72
9
 73
5
 74
0
 42
0.0000001
 43
0.0000001
 44
0.0000000001
 40
0.0
 40
0.0
 40
0.0
 40
0.0
 40
0.2601118122
 40
1.0
 40
1.0
 40
1.0
 40
1.0
 10
71.0959694013
 20
111.0307529169
 30
0.0
 10
71.0922901278
 20
111.0493313588
 30
0.0
 10
71.0797050908
 20
111.1210447155
 30
0.0
 10
71.0735157235
 20
111.1939691308
 30
0.0
 10
71.0735157235
 20
111.2478418649
 30
0.0
  0
SPLINE
  5
312
100
AcDbEntity
  8
0
100
AcDbSpline
 62
7
  6
CONTINUOUS
 70
0
 71
3
 72
13
 73
9
 74
0
 42
0.0000001
 43
0.0000001
 44
0.0000000001
 40
0.0
 40
0.0
 40
0.0
 40
0.0
 40
0.1142259181
 40
0.2375599982
 40
0.5000010158
 40
0.7624414734
 40
0.8857749255
 40
1.0
 40
1.0
 40
1.0
 40
1.0
 10
71.0735157235
 20
112.8808466991
 30
0.0
 10
71.0735157235
 20
112.9926076391
 30
0.0
 10
71.0530116188
 20
113.2252725174
 30
0.0
 10
70.94186814
 20
113.7028944406
 30
0.0
 10
70.6835608339
 20
114.2887033155
 30
0.0
 10
70.3053871583
 20
114.8053063506
 30
0.0
 10
69.9473254874
 20
115.1403667716
 30
0.0
 10
69.756083919
 20
115.2744539332
 30
0.0
 10
69.6592962732
 20
115.3303330424
 30
0.0
  0
SPLINE
  5
313
100
AcDbEntity
  8
0
100
AcDbSpline
 62
7
  6
CONTINUOUS
 70
0
 71
3
 72
11
 73
7
 74
0
 42
0.0000001
 43
0.0000001
 44
0.0000000001
 40
0.0
 40
0.0
 40
0.0
 40
0.0
 40
0.289702329
 40
0.5490881649
 40
0.7822156415
 40
1.0
 40
1.0
 40
1.0
 40
1.0
 10
64.4266843071
 20
118.3513146259
 30
0.0
 10
64.338926659
 20
118.4019803814
 30
0.0
 10
64.1643483989
 20
118.4850306823
 30
0.0
 10
63.8960181393
 20
118.5498276324
 30
0.0
 10
63.6442458556
 20
118.5434528039
 30
0.0
 10
63.4926654977
 20
118.4884431182
 30
0.0
 10
63.4266937739
 20
118.4503545412
 30
0.0
  0
SPLINE
  5
314
100
AcDbEntity
  8
0
100
AcDbSpline
 62
7
  6
CONTINUOUS
 70
0
 71
3
 72
13
 73
9
 74
0
 42
0.0000001
 43
0.0000001
 44
0.0000000001
 40
0.0
 40
0.0
 40
0.0
 40
0.0
 40
0.3002440621
 40
0.577367336
 40
0.7003354699
 40
0.8108124737
 40
0.909715683
 40
1.0
 40
1.0
 40
1.0
 40
1.0
 10
21.1472960902
 20
34.6502165938
 30
0.0
 10
21.0980448216
 20
34.5740610031
 30
0.0
 10
21.0193248749
 20
34.416699193
 30
0.0
 10
20.9697112244
 20
34.2082067697
 30
0.0
 10
20.9697328798
 20
34.0532878861
 30
0.0
 10
20.988707381
 20
33.9539299456
 30
0.0
 10
21.0264695201
 20
33.8705748592
 30
0.0
 10
21.0649789489
 20
33.8267938918
 30
0.0
 10
21.0862873243
 20
33.809773033
 30
0.0
  0
SPLINE
  5
315
100
AcDbEntity
  8
0
100
AcDbSpline
 62
7
  6
CONTINUOUS
 70
0
 71
3
 72
9
 73
5
 74
0
 42
0.0000001
 43
0.0000001
 44
0.0000000001
 40
0.0
 40
0.0
 40
0.0
 40
0.0
 40
0.4813168411
 40
1.0
 40
1.0
 40
1.0
 40
1.0
 10
25.2279252078
 20
35.2191307563
 30
0.0
 10
24.5491119446
 20
34.7773284082
 30
0.0
 10
23.2262640276
 20
33.7222609038
 30
0.0
 10
22.0817880914
 20
32.4803131558
 30
0.0
 10
21.5343958159
 20
31.8005017354
 30
0.0
  0
SPLINE
  5
316
100
AcDbEntity
  8
0
100
AcDbSpline
 62
7
  6
CONTINUOUS
 70
0
 71
3
 72
9
 73
5
 74
0
 42
0.0000001
 43
0.0000001
 44
0.0000000001
 40
0.0
 40
0.0
 40
0.0
 40
0.0
 40
0.4895878982
 40
1.0
 40
1.0
 40
1.0
 40
1.0
 10
12.8068262261
 20
42.7019921648
 30
0.0
 10
12.6394878169
 20
41.9267923649
 30
0.0
 10
12.1811685243
 20
40.367268425
 30
0.0
 10
11.5296989574
 20
38.8793196789
 30
0.0
 10
11.1535411817
 20
38.143057069
 30
0.0
  0
SPLINE
  5
317
100
AcDbEntity
  8
0
100
AcDbSpline
 62
7
  6
CONTINUOUS
 70
0
 71
3
 72
9
 73
5
 74
0
 42
0.0000001
 43
0.0000001
 44
0.0000000001
 40
0.0
 40
0.0
 40
0.0
 40
0.0
 40
0.2419623222
 40
1.0
 40
1.0
 40
1.0
 40
1.0
 10
15.0406084813
 20
66.3757822281
 30
0.0
 10
15.0406087149
 20
66.4589164062
 30
0.0
 10
15.0479516075
 20
66.8024904528
 30
0.0
 10
15.083248155
 20
67.1452172402
 30
0.0
 10
15.1222678327
 20
67.4027267246
 30
0.0
  0
SPLINE
  5
318
100
AcDbEntity
  8
0
100
AcDbSpline
 62
7
  6
CONTINUOUS
 70
0
 71
3
 72
9
 73
5
 74
0
 42
0.0000001
 43
0.0000001
 44
0.0000000001
 40
0.0
 40
0.0
 40
0.0
 40
0.0
 40
0.4792207035
 40
1.0
 40
1.0
 40
1.0
 40
1.0
 10
16.0984261922
 20
64.1287662928
 30
0.0
 10
16.0218823801
 20
64.3584690336
 30
0.0
 10
15.90140664
 20
64.8510750885
 30
0.0
 10
15.8525256024
 20
65.3566848282
 30
0.0
 10
15.8525253258
 20
65.6198022355
 30
0.0
  0
SPLINE
  5
319
100
AcDbEntity
  8
0
100
AcDbSpline
 62
7
  6
CONTINUOUS
 70
0
 71
3
 72
9
 73
5
 74
0
 42
0.0000001
 43
0.0000001
 44
0.0000000001
 40
0.0
 40
0.0
 40
0.0
 40
0.0
 40
0.240966383
 40
1.0
 40
1.0
 40
1.0
 40
1.0
 10
16.0984358895
 20
64.1287727075
 30
0.0
 10
16.1629189533
 20
64.0835634489
 30
0.0
 10
16.4348112276
 20
63.9020857465
 30
0.0
 10
16.72293019
 20
63.7453954802
 30
0.0
 10
16.9469667791
 20
63.6388840669
 30
0.0
  0
SPLINE
  5
31A
100
AcDbEntity
  8
0
100
AcDbSpline
 62
7
  6
CONTINUOUS
 70
0
 71
3
 72
9
 73
5
 74
0
 42
0.0000001
 43
0.0000001
 44
0.0000000001
 40
0.0
 40
0.0
 40
0.0
 40
0.0
 40
0.2433232391
 40
1.0
 40
1.0
 40
1.0
 40
1.0
 10
16.701059034
 20
65.1299121534
 30
0.0
 10
16.8043552303
 20
65.0844619766
 30
0.0
 10
17.2323291785
 20
64.9055662117
 30
0.0
 10
17.6729798234
 20
64.757427023
 30
0.0
 10
18.0104664484
 20
64.6611675795
 30
0.0
  0
SPLINE
  5
31B
100
AcDbEntity
  8
0
100
AcDbSpline
 62
7
  6
CONTINUOUS
 70
0
 71
3
 72
9
 73
5
 74
0
 42
0.0000001
 43
0.0000001
 44
0.0000000001
 40
0.0
 40
0.0
 40
0.0
 40
0.0
 40
0.2398920902
 40
1.0
 40
1.0
 40
1.0
 40
1.0
 10
15.0406113599
 20
66.3757754246
 30
0.0
 10
15.098351088
 20
66.3083000701
 30
0.0
 10
15.347555466
 20
66.0343405201
 30
0.0
 10
15.6282254942
 20
65.7897187488
 30
0.0
 10
15.8525232876
 20
65.6198034121
 30
0.0
  0
SPLINE
  5
31C
100
AcDbEntity
  8
0
100
AcDbSpline
 62
7
  6
CONTINUOUS
 70
0
 71
3
 72
11
 73
7
 74
0
 42
0.0000001
 43
0.0000001
 44
0.0000000001
 40
0.0
 40
0.0
 40
0.0
 40
0.0
 40
0.2623808121
 40
0.514643823
 40
0.7593727118
 40
1.0
 40
1.0
 40
1.0
 40
1.0
 10
19.9629087396
 20
63.2090078481
 30
0.0
 10
19.6986009505
 20
63.1491268324
 30
0.0
 10
19.1715733404
 20
63.0649864558
 30
0.0
 10
18.3835324941
 20
63.0646599254
 30
0.0
 10
17.6296248349
 20
63.2011835046
 30
0.0
 10
17.1593214191
 20
63.3856343276
 30
0.0
 10
16.9381617608
 20
63.4990332264
 30
0.0
  0
SPLINE
  5
31D
100
AcDbEntity
  8
0
100
AcDbSpline
 62
7
  6
CONTINUOUS
 70
0
 71
3
 72
9
 73
5
 74
0
 42
0.0000001
 43
0.0000001
 44
0.0000000001
 40
0.0
 40
0.0
 40
0.0
 40
0.0
 40
0.496005629
 40
1.0
 40
1.0
 40
1.0
 40
1.0
 10
15.8380038093
 20
64.3511428967
 30
0.0
 10
15.6948795629
 20
64.5110183916
 30
0.0
 10
15.4321603942
 20
64.8573157776
 30
0.0
 10
15.2263512585
 20
65.2399659817
 30
0.0
 10
15.1375976089
 20
65.4391208572
 30
0.0
  0
SPLINE
  5
31E
100
AcDbEntity
  8
0
100
AcDbSpline
 62
7
  6
CONTINUOUS
 70
0
 71
3
 72
13
 73
9
 74
0
 42
0.0000001
 43
0.0000001
 44
0.0000000001
 40
0.0
 40
0.0
 40
0.0
 40
0.0
 40
0.2881882296
 40
0.4267780924
 40
0.5589897248
 40
0.6832083502
 40
0.7983654465
 40
1.0
 40
1.0
 40
1.0
 40
1.0
 10
18.0433905508
 20
53.3123839105
 30
0.0
 10
17.7644238696
 20
52.8287747368
 30
0.0
 10
17.4119601377
 20
52.0742150651
 30
0.0
 10
17.0965257224
 20
51.0368794789
 30
0.0
 10
16.9489828567
 20
50.2845682392
 30
0.0
 10
16.8914119872
 20
49.5646738155
 30
0.0
 10
16.9337672776
 20
48.7111353522
 30
0.0
 10
17.1014595514
 20
48.1018705385
 30
0.0
 10
17.288972494
 20
47.7591974328
 30
0.0
  0
SPLINE
  5
31F
100
AcDbEntity
  8
0
100
AcDbSpline
 62
7
  6
CONTINUOUS
 70
0
 71
3
 72
9
 73
5
 74
0
 42
0.0000001
 43
0.0000001
 44
0.0000000001
 40
0.0
 40
0.0
 40
0.0
 40
0.0
 40
0.2282281914
 40
1.0
 40
1.0
 40
1.0
 40
1.0
 10
55.3932026532
 20
110.0958626501
 30
0.0
 10
55.3727046944
 20
110.1281784852
 30
0.0
 10
55.2717151
 20
110.2627286922
 30
0.0
 10
55.1342692603
 20
110.3666163252
 30
0.0
 10
55.0221979731
 20
110.4313192493
 30
0.0
  0
SPLINE
  5
320
100
AcDbEntity
  8
0
100
AcDbSpline
 62
7
  6
CONTINUOUS
 70
0
 71
3
 72
18
 73
14
 74
0
 42
0.0000001
 43
0.0000001
 44
0.0000000001
 40
0.0
 40
0.0
 40
0.0
 40
0.0
 40
0.1286589694
 40
0.2702080477
 40
0.4173270892
 40
0.5616299652
 40
0.695263725
 40
0.7562692232
 40
0.8127606992
 40
0.8647096812
 40
0.9125330127
 40
0.9571493498
 40
1.0
 40
1.0
 40
1.0
 40
1.0
 10
27.3390571336
 20
92.5297037819
 30
0.0
 10
27.3390571336
 20
92.2519009796
 30
0.0
 10
27.4167705895
 20
91.6677893951
 30
0.0
 10
27.7068345783
 20
90.8101897267
 30
0.0
 10
28.1539093929
 20
89.9839218391
 30
0.0
 10
28.721454818
 20
89.2573346676
 30
0.0
 10
29.273702981
 20
88.7682356604
 30
0.0
 10
29.7372731662
 20
88.484470075
 30
0.0
 10
30.0730959126
 20
88.3360665354
 30
0.0
 10
30.4007524023
 20
88.2490448467
 30
0.0
 10
30.7138338771
 20
88.2259300043
 30
0.0
 10
31.0053746484
 20
88.2687381242
 30
0.0
 10
31.182027105
 20
88.3420748017
 30
0.0
 10
31.2621489635
 20
88.3883474869
 30
0.0
  0
SPLINE
  5
321
100
AcDbEntity
  8
0
100
AcDbSpline
 62
7
  6
CONTINUOUS
 70
0
 71
3
 72
11
 73
7
 74
0
 42
0.0000001
 43
0.0000001
 44
0.0000000001
 40
0.0
 40
0.0
 40
0.0
 40
0.0
 40
0.2251285599
 40
0.4659289819
 40
0.7241741811
 40
1.0
 40
1.0
 40
1.0
 40
1.0
 10
15.0971978987
 20
44.9848170504
 30
0.0
 10
14.9731081787
 20
45.1862277359
 30
0.0
 10
14.7541840198
 20
45.6272135499
 30
0.0
 10
14.5254966781
 20
46.3556461126
 30
0.0
 10
14.388582188
 20
47.1604734377
 30
0.0
 10
14.3601829527
 20
47.7222884405
 30
0.0
 10
14.3601829527
 20
48.0121300452
 30
0.0
  0
SPLINE
  5
322
100
AcDbEntity
  8
0
100
AcDbSpline
 62
7
  6
CONTINUOUS
 70
0
 71
3
 72
18
 73
14
 74
0
 42
0.0000001
 43
0.0000001
 44
0.0000000001
 40
0.0
 40
0.0
 40
0.0
 40
0.0
 40
0.1286589694
 40
0.2702080477
 40
0.4173270892
 40
0.5616299652
 40
0.695263725
 40
0.7562692232
 40
0.8127606992
 40
0.8647096812
 40
0.9125330127
 40
0.9571493498
 40
1.0
 40
1.0
 40
1.0
 40
1.0
 10
33.3494897974
 20
89.0596573685
 30
0.0
 10
33.3494897974
 20
88.7818545662
 30
0.0
 10
33.4272032533
 20
88.1977429817
 30
0.0
 10
33.7172672421
 20
87.3401433133
 30
0.0
 10
34.1643420566
 20
86.5138754257
 30
0.0
 10
34.7318874818
 20
85.7872882541
 30
0.0
 10
35.2841356447
 20
85.298189247
 30
0.0
 10
35.7477058299
 20
85.0144236616
 30
0.0
 10
36.0835285764
 20
84.866020122
 30
0.0
 10
36.4111850661
 20
84.7789984333
 30
0.0
 10
36.7242665409
 20
84.7558835908
 30
0.0
 10
37.0158073122
 20
84.7986917108
 30
0.0
 10
37.1924597688
 20
84.8720283882
 30
0.0
 10
37.2725816273
 20
84.9183010735
 30
0.0
  0
SPLINE
  5
323
100
AcDbEntity
  8
0
100
AcDbSpline
 62
7
  6
CONTINUOUS
 70
0
 71
3
 72
9
 73
5
 74
0
 42
0.0000001
 43
0.0000001
 44
0.0000000001
 40
0.0
 40
0.0
 40
0.0
 40
0.0
 40
0.2578918402
 40
1.0
 40
1.0
 40
1.0
 40
1.0
 10
18.0921286783
 20
65.6881155556
 30
0.0
 10
18.0788542856
 20
65.6005114998
 30
0.0
 10
18.0329488365
 20
65.2600311246
 30
0.0
 10
18.0104702239
 20
64.9161376316
 30
0.0
 10
18.0104693269
 20
64.6611710591
 30
0.0
  0
SPLINE
  5
324
100
AcDbEntity
  8
0
100
AcDbSpline
 62
7
  6
CONTINUOUS
 70
0
 71
3
 72
12
 73
8
 74
0
 42
0.0000001
 43
0.0000001
 44
0.0000000001
 40
0.0
 40
0.0
 40
0.0
 40
0.0
 40
0.2187533246
 40
0.3356693519
 40
0.4582850776
 40
0.7203486391
 40
1.0
 40
1.0
 40
1.0
 40
1.0
 10
15.1222689216
 20
67.4027251255
 30
0.0
 10
15.2877920798
 20
67.2106431118
 30
0.0
 10
15.5690507749
 20
66.9383431656
 30
0.0
 10
15.9925157661
 20
66.6170198634
 30
0.0
 10
16.4844805768
 20
66.3057203865
 30
0.0
 10
17.1844820626
 20
65.9781660743
 30
0.0
 10
17.7805749796
 20
65.7776023723
 30
0.0
 10
18.0921275894
 20
65.6881152139
 30
0.0
  0
SPLINE
  5
325
100
AcDbEntity
  8
0
100
AcDbSpline
 62
7
  6
CONTINUOUS
 70
0
 71
3
 72
9
 73
5
 74
0
 42
0.0000001
 43
0.0000001
 44
0.0000000001
 40
0.0
 40
0.0
 40
0.0
 40
0.0
 40
0.520779897
 40
1.0
 40
1.0
 40
1.0
 40
1.0
 10
16.7010569959
 20
65.1299133301
 30
0.0
 10
16.7010575494
 20
64.8667957917
 30
0.0
 10
16.7499380212
 20
64.3611863466
 30
0.0
 10
16.8704140584
 20
63.8685806997
 30
0.0
 10
16.9469575491
 20
63.6388783388
 30
0.0
  0
SPLINE
  5
326
100
AcDbEntity
  8
0
100
AcDbSpline
 62
7
  6
CONTINUOUS
 70
0
 71
3
 72
18
 73
14
 74
0
 42
0.0000001
 43
0.0000001
 44
0.0000000001
 40
0.0
 40
0.0
 40
0.0
 40
0.0
 40
0.1286589694
 40
0.2702080477
 40
0.4173270892
 40
0.5616299652
 40
0.695263725
 40
0.7562692232
 40
0.8127606992
 40
0.8647096812
 40
0.9125330127
 40
0.9571493498
 40
1.0
 40
1.0
 40
1.0
 40
1.0
 10
39.918539144
 20
85.267100759
 30
0.0
 10
39.918539144
 20
84.9892979567
 30
0.0
 10
39.9962525999
 20
84.4051863722
 30
0.0
 10
40.2863165887
 20
83.5475867038
 30
0.0
 10
40.7333914032
 20
82.7213188162
 30
0.0
 10
41.3009368284
 20
81.9947316446
 30
0.0
 10
41.8531849913
 20
81.5056326375
 30
0.0
 10
42.3167551765
 20
81.2218670521
 30
0.0
 10
42.652577923
 20
81.0734635125
 30
0.0
 10
42.9802344127
 20
80.9864418238
 30
0.0
 10
43.2933158875
 20
80.9633269813
 30
0.0
 10
43.5848566588
 20
81.0061351013
 30
0.0
 10
43.7615091154
 20
81.0794717787
 30
0.0
 10
43.8416309739
 20
81.125744464
 30
0.0
  0
SPLINE
  5
327
100
AcDbEntity
  8
0
100
AcDbSpline
 62
7
  6
CONTINUOUS
 70
0
 71
3
 72
9
 73
5
 74
0
 42
0.0000001
 43
0.0000001
 44
0.0000000001
 40
0.0
 40
0.0
 40
0.0
 40
0.0
 40
0.2672791862
 40
1.0
 40
1.0
 40
1.0
 40
1.0
 10
16.822386132
 20
65.075138916
 30
0.0
 10
16.8251774606
 20
64.9510672482
 30
0.0
 10
16.8514735897
 20
64.4877035045
 30
0.0
 10
16.9456190812
 20
64.0256009196
 30
0.0
 10
17.0649365125
 20
63.7069931786
 30
0.0
  0
SPLINE
  5
328
100
AcDbEntity
  8
0
100
AcDbSpline
 62
7
  6
CONTINUOUS
 70
0
 71
3
 72
18
 73
14
 74
0
 42
0.0000001
 43
0.0000001
 44
0.0000000001
 40
0.0
 40
0.0
 40
0.0
 40
0.0
 40
0.1286589694
 40
0.2702080477
 40
0.4173270892
 40
0.5616299652
 40
0.695263725
 40
0.7562692232
 40
0.8127606992
 40
0.8647096812
 40
0.9125330127
 40
0.9571493498
 40
1.0
 40
1.0
 40
1.0
 40
1.0
 10
45.9289718077
 20
81.7970543456
 30
0.0
 10
45.9289718077
 20
81.5192515433
 30
0.0
 10
46.0066852637
 20
80.9351399588
 30
0.0
 10
46.2967492525
 20
80.0775402904
 30
0.0
 10
46.743824067
 20
79.2512724028
 30
0.0
 10
47.3113694921
 20
78.5246852312
 30
0.0
 10
47.8636176551
 20
78.0355862241
 30
0.0
 10
48.3271878403
 20
77.7518206387
 30
0.0
 10
48.6630105868
 20
77.6034170991
 30
0.0
 10
48.9906670764
 20
77.5163954103
 30
0.0
 10
49.3037485512
 20
77.4932805679
 30
0.0
 10
49.5952893225
 20
77.5360886879
 30
0.0
 10
49.7719417791
 20
77.6094253653
 30
0.0
 10
49.8520636376
 20
77.6556980506
 30
0.0
  0
SPLINE
  5
329
100
AcDbEntity
  8
0
100
AcDbSpline
 62
7
  6
CONTINUOUS
 70
0
 71
3
 72
11
 73
7
 74
0
 42
0.0000001
 43
0.0000001
 44
0.0000000001
 40
0.0
 40
0.0
 40
0.0
 40
0.0
 40
0.2648743523
 40
0.5229078148
 40
0.7692246969
 40
1.0
 40
1.0
 40
1.0
 40
1.0
 10
19.8236634372
 20
65.3084012433
 30
0.0
 10
19.9301525587
 20
65.2573635261
 30
0.0
 10
20.1343940321
 20
65.1434457059
 30
0.0
 10
20.4094530699
 20
64.936482517
 30
0.0
 10
20.6363285212
 20
64.6976936411
 30
0.0
 10
20.7481917857
 20
64.5135657829
 30
0.0
 10
20.7878433408
 20
64.4186277278
 30
0.0
  0
SPLINE
  5
32A
100
AcDbEntity
  8
0
100
AcDbSpline
 62
7
  6
CONTINUOUS
 70
0
 71
3
 72
17
 73
13
 74
0
 42
0.0000001
 43
0.0000001
 44
0.0000000001
 40
0.0
 40
0.0
 40
0.0
 40
0.0
 40
0.0255671383
 40
0.0571742372
 40
0.0949598321
 40
0.1388790295
 40
0.2442771234
 40
0.3707251168
 40
0.5143443718
 40
0.6704415507
 40
0.8339702557
 40
1.0
 40
1.0
 40
1.0
 40
1.0
 10
14.7547195648
 20
68.2348911465
 30
0.0
 10
14.7892606372
 20
68.1988131471
 30
0.0
 10
14.8733156717
 20
68.124751183
 30
0.0
 10
15.022310625
 20
68.0141403181
 30
0.0
 10
15.2063508011
 20
67.8910079644
 30
0.0
 10
15.5159234441
 20
67.696634216
 30
0.0
 10
15.9793252082
 20
67.4217835147
 30
0.0
 10
16.613691193
 20
67.0535731396
 30
0.0
 10
17.3357890371
 20
66.6391952677
 30
0.0
 10
18.1239328979
 20
66.1943924384
 30
0.0
 10
18.9571815221
 20
65.740604392
 30
0.0
 10
19.531172105
 20
65.4485854206
 30
0.0
 10
19.8236634372
 20
65.3084012433
 30
0.0
  0
SPLINE
  5
32B
100
AcDbEntity
  8
0
100
AcDbSpline
 62
7
  6
CONTINUOUS
 70
0
 71
3
 72
11
 73
7
 74
0
 42
0.0000001
 43
0.0000001
 44
0.0000000001
 40
0.0
 40
0.0
 40
0.0
 40
0.0
 40
0.2820166833
 40
0.5443764769
 40
0.7839248881
 40
1.0
 40
1.0
 40
1.0
 40
1.0
 10
18.2203833342
 20
65.7621620033
 30
0.0
 10
17.9031638483
 20
65.8439726807
 30
0.0
 10
17.299042133
 20
66.0371097626
 30
0.0
 10
16.4731455322
 20
66.428005186
 30
0.0
 10
15.7806506448
 20
66.8994214618
 30
0.0
 10
15.4041209529
 20
67.2782581582
 30
0.0
 10
15.2505224886
 20
67.4767731723
 30
0.0
  0
SPLINE
  5
32C
100
AcDbEntity
  8
0
100
AcDbSpline
 62
7
  6
CONTINUOUS
 70
0
 71
3
 72
9
 73
5
 74
0
 42
0.0000001
 43
0.0000001
 44
0.0000000001
 40
0.0
 40
0.0
 40
0.0
 40
0.0
 40
0.2588548134
 40
1.0
 40
1.0
 40
1.0
 40
1.0
 10
18.2203833343
 20
65.7621620033
 30
0.0
 10
18.2053278802
 20
65.6739215495
 30
0.0
 10
18.153682121
 20
65.3319893488
 30
0.0
 10
18.1287450576
 20
64.9857503916
 30
0.0
 10
18.1287450576
 20
64.7294520349
 30
0.0
  0
SPLINE
  5
32D
100
AcDbEntity
  8
0
100
AcDbSpline
 62
7
  6
CONTINUOUS
 70
0
 71
3
 72
9
 73
5
 74
0
 42
0.0000001
 43
0.0000001
 44
0.0000000001
 40
0.0
 40
0.0
 40
0.0
 40
0.0
 40
0.2565696271
 40
1.0
 40
1.0
 40
1.0
 40
1.0
 10
20.7878433408
 20
64.4186277278
 30
0.0
 10
20.7970583797
 20
64.3965640819
 30
0.0
 10
20.8299596737
 20
64.3093736263
 30
0.0
 10
20.8497518419
 20
64.2169839294
 30
0.0
 10
20.8549744012
 20
64.1478979522
 30
0.0
  0
SPLINE
  5
32E
100
AcDbEntity
  8
0
100
AcDbSpline
 62
7
  6
CONTINUOUS
 70
0
 71
3
 72
13
 73
9
 74
0
 42
0.0000001
 43
0.0000001
 44
0.0000000001
 40
0.0
 40
0.0
 40
0.0
 40
0.0
 40
0.1142260229
 40
0.2375602528
 40
0.5000015383
 40
0.7624419778
 40
0.8857752456
 40
1.0
 40
1.0
 40
1.0
 40
1.0
 10
41.7605405478
 20
99.472171015
 30
0.0
 10
41.7605405478
 20
99.5839319923
 30
0.0
 10
41.7810444919
 20
99.8165969787
 30
0.0
 10
41.8921870237
 20
100.2942193302
 30
0.0
 10
42.1504919958
 20
100.8800291272
 30
0.0
 10
42.5286624288
 20
101.3966340547
 30
0.0
 10
42.8867212313
 20
101.7316963565
 30
0.0
 10
43.0779613072
 20
101.8657845391
 30
0.0
 10
43.1747482222
 20
101.921664157
 30
0.0
  0
SPLINE
  5
32F
100
AcDbEntity
  8
0
100
AcDbSpline
 62
7
  6
CONTINUOUS
 70
0
 71
3
 72
11
 73
7
 74
0
 42
0.0000001
 43
0.0000001
 44
0.0000000001
 40
0.0
 40
0.0
 40
0.0
 40
0.0
 40
0.289702809
 40
0.549088757
 40
0.7822160314
 40
1.0
 40
1.0
 40
1.0
 40
1.0
 10
64.7275452442
 20
114.3651030421
 30
0.0
 10
64.8153016469
 20
114.4157689224
 30
0.0
 10
64.9898774057
 20
114.4988196806
 30
0.0
 10
65.2582041103
 20
114.5636181505
 30
0.0
 10
65.5099733429
 20
114.5572455511
 30
0.0
 10
65.6615521761
 20
114.5022377533
 30
0.0
 10
65.7275232874
 20
114.4641501685
 30
0.0
  0
SPLINE
  5
330
100
AcDbEntity
  8
0
100
AcDbSpline
 62
7
  6
CONTINUOUS
 70
0
 71
3
 72
11
 73
7
 74
0
 42
0.0000001
 43
0.0000001
 44
0.0000000001
 40
0.0
 40
0.0
 40
0.0
 40
0.0
 40
0.2177839466
 40
0.4509170841
 40
0.710307871
 40
1.0
 40
1.0
 40
1.0
 40
1.0
 10
46.6020931913
 20
83.2848457362
 30
0.0
 10
46.4948947711
 20
83.2229355552
 30
0.0
 10
46.294299185
 20
83.0543299859
 30
0.0
 10
46.0807601948
 20
82.7051664817
 30
0.0
 10
45.953937466
 20
82.2748867801
 30
0.0
 10
45.9289718077
 20
81.9617196768
 30
0.0
 10
45.9289718077
 20
81.7970543456
 30
0.0
  0
SPLINE
  5
331
100
AcDbEntity
  8
0
100
AcDbSpline
 62
7
  6
CONTINUOUS
 70
0
 71
3
 72
12
 73
8
 74
0
 42
0.0000001
 43
0.0000001
 44
0.0000000001
 40
0.0
 40
0.0
 40
0.0
 40
0.0
 40
0.110924295
 40
0.227937295
 40
0.4763281143
 40
0.7370118704
 40
1.0
 40
1.0
 40
1.0
 40
1.0
 10
14.3601829527
 20
48.0121300452
 30
0.0
 10
14.3601829527
 20
48.3230227956
 30
0.0
 10
14.3948631273
 20
48.9622219486
 30
0.0
 10
14.5916317259
 20
50.284150521
 30
0.0
 10
15.0739836963
 20
51.9799628656
 30
0.0
 10
15.9659009076
 20
53.9585431396
 30
0.0
 10
16.7516912445
 20
55.2050967593
 30
0.0
 10
17.1885983016
 20
55.798740384
 30
0.0
  0
SPLINE
  5
332
100
AcDbEntity
  8
0
100
AcDbSpline
 62
7
  6
CONTINUOUS
 70
0
 71
3
 72
11
 73
7
 74
0
 42
0.0000001
 43
0.0000001
 44
0.0000000001
 40
0.0
 40
0.0
 40
0.0
 40
0.0
 40
0.2177839466
 40
0.4509170841
 40
0.710307871
 40
1.0
 40
1.0
 40
1.0
 40
1.0
 10
28.0121785172
 20
94.0174951725
 30
0.0
 10
27.904980097
 20
93.9555849916
 30
0.0
 10
27.7043845109
 20
93.7869794223
 30
0.0
 10
27.4908455206
 20
93.437815918
 30
0.0
 10
27.3640227919
 20
93.0075362164
 30
0.0
 10
27.3390571336
 20
92.6943691131
 30
0.0
 10
27.3390571336
 20
92.5297037819
 30
0.0
  0
SPLINE
  5
333
100
AcDbEntity
  8
0
100
AcDbSpline
 62
7
  6
CONTINUOUS
 70
0
 71
3
 72
11
 73
7
 74
0
 42
0.0000001
 43
0.0000001
 44
0.0000000001
 40
0.0
 40
0.0
 40
0.0
 40
0.0
 40
0.2177434119
 40
0.4508805377
 40
0.710457812
 40
1.0
 40
1.0
 40
1.0
 40
1.0
 10
70.5451377968
 20
97.0042583967
 30
0.0
 10
70.5451377779
 20
97.065187954
 30
0.0
 10
70.5227630623
 20
97.1922203811
 30
0.0
 10
70.4263982483
 20
97.3692451866
 30
0.0
 10
70.2740881485
 20
97.5291435893
 30
0.0
 10
70.1467596581
 20
97.6169394873
 30
0.0
 10
70.0765934611
 20
97.6574490436
 30
0.0
  0
SPLINE
  5
334
100
AcDbEntity
  8
0
100
AcDbSpline
 62
7
  6
CONTINUOUS
 70
0
 71
3
 72
13
 73
9
 74
0
 42
0.0000001
 43
0.0000001
 44
0.0000000001
 40
0.0
 40
0.0
 40
0.0
 40
0.0
 40
0.1141762243
 40
0.2375705078
 40
0.5000006893
 40
0.7624304955
 40
0.8858242827
 40
1.0
 40
1.0
 40
1.0
 40
1.0
 10
66.0460385881
 20
104.0668458863
 30
0.0
 10
65.9686423677
 20
104.1115296041
 30
0.0
 10
65.7992134969
 20
104.1903276644
 30
0.0
 10
65.4238959594
 20
104.3045139098
 30
0.0
 10
64.9146656321
 20
104.3596866312
 30
0.0
 10
64.4054359636
 20
104.3045113989
 30
0.0
 10
64.0301200656
 20
104.1903234292
 30
0.0
 10
63.8606924429
 20
104.1115245249
 30
0.0
 10
63.7832968883
 20
104.0668404473
 30
0.0
  0
SPLINE
  5
335
100
AcDbEntity
  8
0
100
AcDbSpline
 62
7
  6
CONTINUOUS
 70
0
 71
3
 72
11
 73
7
 74
0
 42
0.0000001
 43
0.0000001
 44
0.0000000001
 40
0.0
 40
0.0
 40
0.0
 40
0.0
 40
0.2177434119
 40
0.4508805377
 40
0.710457812
 40
1.0
 40
1.0
 40
1.0
 40
1.0
 10
68.0702243192
 20
102.5155255795
 30
0.0
 10
68.0702243002
 20
102.5764551368
 30
0.0
 10
68.0478495846
 20
102.7034875639
 30
0.0
 10
67.9514847707
 20
102.8805123694
 30
0.0
 10
67.7991746709
 20
103.0404107721
 30
0.0
 10
67.6718461804
 20
103.1282066701
 30
0.0
 10
67.6016799834
 20
103.1687162264
 30
0.0
  0
SPLINE
  5
336
100
AcDbEntity
  8
0
100
AcDbSpline
 62
7
  6
CONTINUOUS
 70
0
 71
3
 72
11
 73
7
 74
0
 42
0.0000001
 43
0.0000001
 44
0.0000000001
 40
0.0
 40
0.0
 40
0.0
 40
0.0
 40
0.2177843137
 40
0.4509117637
 40
0.7102976701
 40
1.0
 40
1.0
 40
1.0
 40
1.0
 10
61.093251111
 20
117.1031488334
 30
0.0
 10
61.1592228389
 20
117.1412373717
 30
0.0
 10
61.31080314
 20
117.1962471044
 30
0.0
 10
61.562575437
 20
117.2026219304
 30
0.0
 10
61.8309057001
 20
117.1378249555
 30
0.0
 10
62.0054839962
 20
117.0547746736
 30
0.0
 10
62.0932416443
 20
117.0041089181
 30
0.0
  0
SPLINE
  5
337
100
AcDbEntity
  8
0
100
AcDbSpline
 62
7
  6
CONTINUOUS
 70
0
 71
3
 72
11
 73
7
 74
0
 42
0.0000001
 43
0.0000001
 44
0.0000000001
 40
0.0
 40
0.0
 40
0.0
 40
0.0
 40
0.2628197257
 40
0.5135791788
 40
0.7566017467
 40
1.0
 40
1.0
 40
1.0
 40
1.0
 10
20.3895770791
 20
63.3718877271
 30
0.0
 10
20.4619288517
 20
63.4136649977
 30
0.0
 10
20.5959916975
 20
63.5094807967
 30
0.0
 10
20.7537363764
 20
63.6948594217
 30
0.0
 10
20.8484890301
 20
63.9133882531
 30
0.0
 10
20.8608067974
 20
64.0707448234
 30
0.0
 10
20.8549744012
 20
64.1478979522
 30
0.0
  0
SPLINE
  5
338
100
AcDbEntity
  8
0
100
AcDbSpline
 62
7
  6
CONTINUOUS
 70
0
 71
3
 72
9
 73
5
 74
0
 42
0.0000001
 43
0.0000001
 44
0.0000000001
 40
0.0
 40
0.0
 40
0.0
 40
0.0
 40
0.4840352405
 40
1.0
 40
1.0
 40
1.0
 40
1.0
 10
62.2650260984
 20
114.2162487724
 30
0.0
 10
62.2332673138
 20
114.1979129239
 30
0.0
 10
62.1736928778
 20
114.1486614243
 30
0.0
 10
62.1324804764
 20
114.0837302545
 30
0.0
 10
62.1156738944
 20
114.0484366607
 30
0.0
  0
SPLINE
  5
339
100
AcDbEntity
  8
0
100
AcDbSpline
 62
7
  6
CONTINUOUS
 70
0
 71
3
 72
13
 73
9
 74
0
 42
0.0000001
 43
0.0000001
 44
0.0000000001
 40
0.0
 40
0.0
 40
0.0
 40
0.0
 40
0.1142250362
 40
0.2375584228
 40
0.4999988469
 40
0.762439898
 40
0.8857740437
 40
1.0
 40
1.0
 40
1.0
 40
1.0
 10
67.3258536104
 20
113.9831273346
 30
0.0
 10
67.4226412238
 20
113.9272482442
 30
0.0
 10
67.6138827284
 20
113.7931611697
 30
0.0
 10
67.9719442993
 20
113.4581008371
 30
0.0
 10
68.3501179971
 20
112.9414979091
 30
0.0
 10
68.608425407
 20
112.3556889998
 30
0.0
 10
68.7195689124
 20
111.878066946
 30
0.0
 10
68.7400730607
 20
111.6454019688
 30
0.0
 10
68.7400730607
 20
111.5336409913
 30
0.0
  0
SPLINE
  5
33A
100
AcDbEntity
  8
0
100
AcDbSpline
 62
7
  6
CONTINUOUS
 70
0
 71
3
 72
9
 73
5
 74
0
 42
0.0000001
 43
0.0000001
 44
0.0000000001
 40
0.0
 40
0.0
 40
0.0
 40
0.0
 40
0.2354648223
 40
1.0
 40
1.0
 40
1.0
 40
1.0
 10
68.7400730607
 20
109.9006361571
 30
0.0
 10
68.7400730607
 20
109.8745161102
 30
0.0
 10
68.7447610488
 20
109.7635993907
 30
0.0
 10
68.7662133687
 20
109.6537053685
 30
0.0
 10
68.789508311
 20
109.5721576745
 30
0.0
  0
SPLINE
  5
33B
100
AcDbEntity
  8
0
100
AcDbSpline
 62
7
  6
CONTINUOUS
 70
0
 71
3
 72
13
 73
9
 74
0
 42
0.0000001
 43
0.0000001
 44
0.0000000001
 40
0.0
 40
0.0
 40
0.0
 40
0.0
 40
0.1141762243
 40
0.2375705078
 40
0.5000006893
 40
0.7624304955
 40
0.8858242827
 40
1.0
 40
1.0
 40
1.0
 40
1.0
 10
68.5209520658
 20
98.5555787035
 30
0.0
 10
68.4435558454
 20
98.6002624213
 30
0.0
 10
68.2741269745
 20
98.6790604816
 30
0.0
 10
67.8988094371
 20
98.793246727
 30
0.0
 10
67.3895791098
 20
98.8484194484
 30
0.0
 10
66.8803494413
 20
98.7932442161
 30
0.0
 10
66.5050335433
 20
98.6790562464
 30
0.0
 10
66.3356059205
 20
98.6002573421
 30
0.0
 10
66.258210366
 20
98.5555732646
 30
0.0
  0
SPLINE
  5
33C
100
AcDbEntity
  8
0
100
AcDbSpline
 62
7
  6
CONTINUOUS
 70
0
 71
3
 72
14
 73
10
 74
0
 42
0.0000001
 43
0.0000001
 44
0.0000000001
 40
0.0
 40
0.0
 40
0.0
 40
0.0
 40
0.1080377515
 40
0.2181239347
 40
0.3321038486
 40
0.4514995088
 40
0.5774451984
 40
0.7107181545
 40
1.0
 40
1.0
 40
1.0
 40
1.0
 10
38.5153297048
 20
30.9887402546
 30
0.0
 10
38.3661415635
 20
31.0748689522
 30
0.0
 10
38.0793203571
 20
31.2750619418
 30
0.0
 10
37.7002628426
 20
31.648045977
 30
0.0
 10
37.374298522
 20
32.0908039114
 30
0.0
 10
37.104375014
 20
32.5982205224
 30
0.0
 10
36.8926160458
 20
33.1652765213
 30
0.0
 10
36.6844500318
 20
34.0162570557
 30
0.0
 10
36.6306037462
 20
34.6933305929
 30
0.0
 10
36.6306037462
 20
35.1545874816
 30
0.0
  0
SPLINE
  5
33D
100
AcDbEntity
  8
0
100
AcDbSpline
 62
7
  6
CONTINUOUS
 70
0
 71
3
 72
13
 73
9
 74
0
 42
0.0000001
 43
0.0000001
 44
0.0000000001
 40
0.0
 40
0.0
 40
0.0
 40
0.0
 40
0.0921567101
 40
0.190152335
 40
0.2981575996
 40
0.4182868297
 40
0.6927582143
 40
1.0
 40
1.0
 40
1.0
 40
1.0
 10
21.8790663742
 20
33.1799275231
 30
0.0
 10
21.9008815845
 20
33.1673598174
 30
0.0
 10
21.9504839895
 20
33.1487299766
 30
0.0
 10
22.0328594551
 20
33.1445100017
 30
0.0
 10
22.1209002081
 20
33.1625848316
 30
0.0
 10
22.2476493641
 20
33.2172730782
 30
0.0
 10
22.401385604
 20
33.33651165
 30
0.0
 10
22.5016289531
 20
33.4615021578
 30
0.0
 10
22.547210253
 20
33.5319829985
 30
0.0
  0
SPLINE
  5
33E
100
AcDbEntity
  8
0
100
AcDbSpline
 62
7
  6
CONTINUOUS
 70
0
 71
3
 72
11
 73
7
 74
0
 42
0.0000001
 43
0.0000001
 44
0.0000000001
 40
0.0
 40
0.0
 40
0.0
 40
0.0
 40
0.2177825102
 40
0.4509091639
 40
0.7102957096
 40
1.0
 40
1.0
 40
1.0
 40
1.0
 10
40.5803525636
 20
26.4822155925
 30
0.0
 10
40.5143792809
 20
26.520304431
 30
0.0
 10
40.3909458099
 20
26.6240737376
 30
0.0
 10
40.2595364253
 20
26.838933628
 30
0.0
 10
40.1814870233
 20
27.1037216667
 30
0.0
 10
40.1661229323
 20
27.2964424992
 30
0.0
 10
40.1661229323
 20
27.3977792454
 30
0.0
  0
SPLINE
  5
33F
100
AcDbEntity
  8
0
100
AcDbSpline
 62
7
  6
CONTINUOUS
 70
0
 71
3
 72
11
 73
7
 74
0
 42
0.0000001
 43
0.0000001
 44
0.0000000001
 40
0.0
 40
0.0
 40
0.0
 40
0.0
 40
0.2177839466
 40
0.4509170841
 40
0.710307871
 40
1.0
 40
1.0
 40
1.0
 40
1.0
 10
40.5916605275
 20
86.7548921496
 30
0.0
 10
40.4844621074
 20
86.6929819686
 30
0.0
 10
40.2838665212
 20
86.5243763993
 30
0.0
 10
40.070327531
 20
86.1752128951
 30
0.0
 10
39.9435048022
 20
85.7449331935
 30
0.0
 10
39.918539144
 20
85.4317660902
 30
0.0
 10
39.918539144
 20
85.267100759
 30
0.0
  0
SPLINE
  5
340
100
AcDbEntity
  8
0
100
AcDbSpline
 62
7
  6
CONTINUOUS
 70
0
 71
3
 72
11
 73
7
 74
0
 42
0.0000001
 43
0.0000001
 44
0.0000000001
 40
0.0
 40
0.0
 40
0.0
 40
0.0
 40
0.2177714129
 40
0.4508831729
 40
0.7103187758
 40
1.0
 40
1.0
 40
1.0
 40
1.0
 10
21.7923657876
 20
64.1817837751
 30
0.0
 10
21.8418412076
 20
64.2103524434
 30
0.0
 10
21.9344236891
 20
64.2881604353
 30
0.0
 10
22.0329597481
 20
64.4493285562
 30
0.0
 10
22.0915031155
 20
64.6479170835
 30
0.0
 10
22.1030344431
 20
64.7924649499
 30
0.0
 10
22.1030344431
 20
64.8684614552
 30
0.0
  0
SPLINE
  5
341
100
AcDbEntity
  8
0
100
AcDbSpline
 62
7
  6
CONTINUOUS
 70
0
 71
3
 72
11
 73
7
 74
0
 42
0.0000001
 43
0.0000001
 44
0.0000000001
 40
0.0
 40
0.0
 40
0.0
 40
0.0
 40
0.2282954953
 40
0.4787372385
 40
0.7402545554
 40
1.0
 40
1.0
 40
1.0
 40
1.0
 10
22.1030344431
 20
64.8684614552
 30
0.0
 10
22.1030344431
 20
64.9874048764
 30
0.0
 10
22.0721261783
 20
65.2371107739
 30
0.0
 10
21.9551673942
 20
65.6063759412
 30
0.0
 10
21.7733591534
 20
65.9667764762
 30
0.0
 10
21.6141814192
 20
66.1885225909
 30
0.0
 10
21.5262235886
 20
66.2913689376
 30
0.0
  0
SPLINE
  5
342
100
AcDbEntity
  8
0
100
AcDbSpline
 62
7
  6
CONTINUOUS
 70
0
 71
3
 72
12
 73
8
 74
0
 42
0.0000001
 43
0.0000001
 44
0.0000000001
 40
0.0
 40
0.0
 40
0.0
 40
0.0
 40
0.2900374441
 40
0.5562347084
 40
0.6785994592
 40
0.7932454721
 40
1.0
 40
1.0
 40
1.0
 40
1.0
 10
21.5262235886
 20
66.2913689376
 30
0.0
 10
21.1480013522
 20
66.7336123966
 30
0.0
 10
20.3619621543
 20
67.5324949704
 30
0.0
 10
19.2551673241
 20
68.339326032
 30
0.0
 10
18.3548984511
 20
68.8014217683
 30
0.0
 10
17.5206796865
 20
69.1144228664
 30
0.0
 10
16.8720601735
 20
69.2239123043
 30
0.0
 10
16.4572797163
 20
69.2178588407
 30
0.0
  0
SPLINE
  5
343
100
AcDbEntity
  8
0
100
AcDbSpline
 62
7
  6
CONTINUOUS
 70
0
 71
3
 72
13
 73
9
 74
0
 42
0.0000001
 43
0.0000001
 44
0.0000000001
 40
0.0
 40
0.0
 40
0.0
 40
0.0
 40
0.1141762243
 40
0.2375705078
 40
0.5000006893
 40
0.7624304955
 40
0.8858242827
 40
1.0
 40
1.0
 40
1.0
 40
1.0
 10
53.4665565777
 20
111.3294489092
 30
0.0
 10
53.3891603573
 20
111.374132627
 30
0.0
 10
53.2197314865
 20
111.4529306873
 30
0.0
 10
52.8444139491
 20
111.5671169327
 30
0.0
 10
52.3351836218
 20
111.6222896541
 30
0.0
 10
51.8259539532
 20
111.5671144218
 30
0.0
 10
51.4506380553
 20
111.4529264521
 30
0.0
 10
51.2812104325
 20
111.3741275478
 30
0.0
 10
51.203814878
 20
111.3294434703
 30
0.0
  0
SPLINE
  5
344
100
AcDbEntity
  8
0
100
AcDbSpline
 62
7
  6
CONTINUOUS
 70
0
 71
3
 72
11
 73
7
 74
0
 42
0.0000001
 43
0.0000001
 44
0.0000000001
 40
0.0
 40
0.0
 40
0.0
 40
0.0
 40
0.2405331326
 40
0.5032854862
 40
0.7642885827
 40
1.0
 40
1.0
 40
1.0
 40
1.0
 10
72.3455167418
 20
109.0782057429
 30
0.0
 10
72.3414161196
 20
109.16936572
 30
0.0
 10
72.3019420549
 20
109.3589389533
 30
0.0
 10
72.1791946411
 20
109.623868809
 30
0.0
 10
72.0051945835
 20
109.8560384063
 30
0.0
 10
71.8580684108
 20
109.9783879896
 30
0.0
 10
71.7806254501
 20
110.0230986924
 30
0.0
  0
SPLINE
  5
345
100
AcDbEntity
  8
0
100
AcDbSpline
 62
7
  6
CONTINUOUS
 70
0
 71
3
 72
11
 73
7
 74
0
 42
0.0000001
 43
0.0000001
 44
0.0000000001
 40
0.0
 40
0.0
 40
0.0
 40
0.0
 40
0.2311462685
 40
0.4864512094
 40
0.7489394169
 40
1.0
 40
1.0
 40
1.0
 40
1.0
 10
71.7806254501
 20
110.0230986924
 30
0.0
 10
71.6972803902
 20
110.0712168965
 30
0.0
 10
71.5368145223
 20
110.1987694174
 30
0.0
 10
71.3375951226
 20
110.4409407555
 30
0.0
 10
71.1826106527
 20
110.7230273324
 30
0.0
 10
71.1162760144
 20
110.9282149478
 30
0.0
 10
71.0959694013
 20
111.0307529169
 30
0.0
  0
SPLINE
  5
346
100
AcDbEntity
  8
0
100
AcDbSpline
 62
7
  6
CONTINUOUS
 70
0
 71
3
 72
13
 73
9
 74
0
 42
0.0000001
 43
0.0000001
 44
0.0000000001
 40
0.0
 40
0.0
 40
0.0
 40
0.0
 40
0.3002440621
 40
0.577367336
 40
0.7003354699
 40
0.8108124737
 40
0.909715683
 40
1.0
 40
1.0
 40
1.0
 40
1.0
 10
25.147240486
 20
37.5523228506
 30
0.0
 10
25.1964917547
 20
37.6284784413
 30
0.0
 10
25.2752117013
 20
37.7858402514
 30
0.0
 10
25.3248253518
 20
37.9943326746
 30
0.0
 10
25.3248036964
 20
38.1492515582
 30
0.0
 10
25.3058291952
 20
38.2486094987
 30
0.0
 10
25.2680670561
 20
38.3319645851
 30
0.0
 10
25.2295576273
 20
38.3757455525
 30
0.0
 10
25.2082492519
 20
38.3927664113
 30
0.0
  0
SPLINE
  5
347
100
AcDbEntity
  8
0
100
AcDbSpline
 62
7
  6
CONTINUOUS
 70
0
 71
3
 72
13
 73
9
 74
0
 42
0.0000001
 43
0.0000001
 44
0.0000000001
 40
0.0
 40
0.0
 40
0.0
 40
0.0
 40
0.1142260229
 40
0.2375602528
 40
0.5000015383
 40
0.7624419778
 40
0.8857752456
 40
1.0
 40
1.0
 40
1.0
 40
1.0
 10
36.6306037462
 20
58.8331575784
 30
0.0
 10
36.6306037462
 20
58.9449185557
 30
0.0
 10
36.6511076903
 20
59.1775835421
 30
0.0
 10
36.7622502221
 20
59.6552058936
 30
0.0
 10
37.0205551942
 20
60.2410156906
 30
0.0
 10
37.3987256273
 20
60.7576206181
 30
0.0
 10
37.7567844297
 20
61.0926829199
 30
0.0
 10
37.9480245056
 20
61.2267711025
 30
0.0
 10
38.0448114207
 20
61.2826507204
 30
0.0
  0
SPLINE
  5
348
100
AcDbEntity
  8
0
100
AcDbSpline
 62
7
  6
CONTINUOUS
 70
0
 71
3
 72
9
 73
5
 74
0
 42
0.0000001
 43
0.0000001
 44
0.0000000001
 40
0.0
 40
0.0
 40
0.0
 40
0.0
 40
0.5104121018
 40
1.0
 40
1.0
 40
1.0
 40
1.0
 10
19.9570572598
 20
33.0604596752
 30
0.0
 10
20.3332150355
 20
33.7967222851
 30
0.0
 10
20.9846846023
 20
35.2846710312
 30
0.0
 10
21.443003895
 20
36.8441949711
 30
0.0
 10
21.6103423042
 20
37.619394771
 30
0.0
  0
SPLINE
  5
349
100
AcDbEntity
  8
0
100
AcDbSpline
 62
7
  6
CONTINUOUS
 70
0
 71
3
 72
11
 73
7
 74
0
 42
0.0000001
 43
0.0000001
 44
0.0000000001
 40
0.0
 40
0.0
 40
0.0
 40
0.0
 40
0.2177839466
 40
0.4509170841
 40
0.710307871
 40
1.0
 40
1.0
 40
1.0
 40
1.0
 10
34.0226111809
 20
90.5474487591
 30
0.0
 10
33.9154127607
 20
90.4855385781
 30
0.0
 10
33.7148171746
 20
90.3169330088
 30
0.0
 10
33.5012781844
 20
89.9677695046
 30
0.0
 10
33.3744554556
 20
89.537489803
 30
0.0
 10
33.3494897974
 20
89.2243226997
 30
0.0
 10
33.3494897974
 20
89.0596573685
 30
0.0
  0
ENDSEC
  0
SECTION
  2
OBJECTS
  0
DICTIONARY
  5
C
100
AcDbDictionary
280
0
281
1
  3
ACAD_GROUP
350
D
  3
ACAD_MLINESTYLE
350
17
  3
ACAD_LAYOUT
350
1A
  3
ACAD_PLOTSETTINGS
350
19
  3
ACAD_PLOTSTYLENAME
350
E
  0
DICTIONARY
  5
D
102
{ACAD_REACTORS
330
C
102
}
100
AcDbDictionary
280
0
281
1
  0
ACDBDICTIONARYWDFLT
  5
E
102
{ACAD_REACTORS
330
C
102
}
100
AcDbDictionary
281
1
  3
Normal
350
F
100
AcDbDictionaryWithDefault
340
F
  0
DICTIONARY
  5
17
102
{ACAD_REACTORS
330
C
102
}
100
AcDbDictionary
280
0
281
1
  3
Standard
350
18
  0
DICTIONARY
  5
19
102
{ACAD_REACTORS
330
C
102
}
100
AcDbDictionary
281
1
  0
DICTIONARY
  5
1A
102
{ACAD_REACTORS
330
C
102
}
100
AcDbDictionary
281
1
  3
Model
350
34A
  3
Layout1
350
34B
  0
ACDBPLACEHOLDER
  5
F
102
{ACAD_REACTORS
330
E
102
}
  0
MLINESTYLE
  5
18
102
{ACAD_REACTORS
330
17
102
}
100
AcDbMlineStyle
  2
STANDARD
 70
0
  3

 62
256
 51
90.0
 52
90.0
 71
2
 49
0.5
 62
256
  6
BYLAYER
 49
-0.5
 62
256
  6
BYLAYER
  0
LAYOUT
  5
34A
102
{ACAD_REACTORS
330
1A
102
}
100
AcDbPlotSettings
  1

  2
none_device
  4

  6

 40
0.0
 41
0.0
 42
0.0
 43
0.0
 44
210.0
 45
297.0
 46
0.0
 47
0.0
 48
0.0
 49
0.0
140
0.0
141
0.0
142
1.0
143
1.0
 70
1024
 72
1
 73
0
 74
0
  7

 75
0
147
1.0
148
0.0
149
0.0
100
AcDbLayout
  1
Model
 70
0
 71
0
 10
0.0
 20
0.0
 11
210.0
 21
297.0
 12
0.0
 22
0.0
 32
0.0
 14
0.0
 24
0.0
 34
0.0
 15
0.0
 25
0.0
 35
0.0
146
0.0
 13
0.0
 23
0.0
 33
0.0
 16
1.0
 26
0.0
 36
0.0
 17
0.0
 27
1.0
 37
0.0
 76
0
330
210
345
0
346
0
  0
LAYOUT
  5
34B
102
{ACAD_REACTORS
330
1A
102
}
100
AcDbPlotSettings
  1

  2
none_device
  4

  6

 40
0.0
 41
0.0
 42
0.0
 43
0.0
 44
210.0
 45
297.0
 46
0.0
 47
0.0
 48
0.0
 49
0.0
140
0.0
141
0.0
142
1.0
143
1.0
 70
0
 72
1
 73
0
 74
0
  7

 75
0
147
1.0
148
0.0
149
0.0
100
AcDbLayout
  1
Layout1
 70
0
 71
1
 10
0.0
 20
0.0
 11
210.0
 21
297.0
 12
0.0
 22
0.0
 32
0.0
 14
0.0
 24
0.0
 34
0.0
 15
0.0
 25
0.0
 35
0.0
146
0.0
 13
0.0
 23
0.0
 33
0.0
 16
1.0
 26
0.0
 36
0.0
 17
0.0
 27
1.0
 37
0.0
 76
0
330
211
345
0
346
0
  0
ENDSEC
  0
EOF
