999
DXF file: C:\Users\sesa63760\OneDrive - Schneider Electric\Documents\7-Dev\_Creo\CAD\MCADPP0000311_3D-CAD\drw0001_7.dxf
999
Pro/ENGINEER 2019471 by Parametric Technology Corporation
  0
SECTION
  2
HEADER
  9
$ACADVER
  1
AC1024
  9
$DWGCODEPAGE
  3
ANSI_1252
  9
$EXTMAX
 10
474.8318298842
 20
671.5478736934
 30
0.0
  9
$EXTMIN
 10
0.0
 20
0.0
 30
0.0
  9
$LIMMIN
 10
0.0
 20
0.0
  9
$LIMMAX
 10
474.8318298842
 20
671.5478736934
  9
$VIEWCTR
 10
237.4159149421
 20
335.7739368467
  9
$VIEWSIZE
 40
671.5478736934
  9
$CLAYER
  8
0
  9
$LTSCALE
 40
43.7749725074
  9
$CELTYPE
  6
BYLAYER
  9
$DIMSCALE
 40
1.0
  9
$DIMASZ
 40
5.6527598796
  9
$DIMEXO
 40
1.0
  9
$DIMDLI
 40
30.2445264597
  9
$DIMEXE
 40
1.0
  9
$DIMCEN
 40
7.1631773194
  9
$DIMLFAC
 40
1.0
  9
$DIMBLK
  1
_FILLED
  9
$DIMALT
 70
0
  9
$DIMALTF
 40
0.0393700787
  9
$DIMTXT
 40
7.9138638314
  9
$DIMTOL
 70
1
  9
$DIMLIM
 70
0
  9
$DIMTFAC
 40
1.0
  9
$DIMTP
 40
0.01
  9
$DIMTM
 40
0.01
  9
$DIMGAP
 40
0.625
  9
$DIMDSEP
 70
46
  9
$AUNITS
 70
0
  9
$PDMODE
 70
3
  9
$PDSIZE
 40
0.3125
  9
$HANDSEED
  5
309
  9
$TILEMODE
 70
1
  9
$MEASUREMENT
 70
1
  9
$INSUNITS
 70
4
  0
ENDSEC
  0
SECTION
  2
CLASSES
  0
CLASS
  1
ACDBDICTIONARYWDFLT
  2
AcDbDictionaryWithDefault
  3
AutoCAD 2000
 90
0
 91
1
280
0
281
0
  0
CLASS
  1
ACDBPLACEHOLDER
  2
AcDbPlaceHolder
  3
AutoCAD 2000
 90
0
 91
1
280
0
281
0
  0
CLASS
  1
LAYOUT
  2
AcDbLayout
  3
AutoCAD 2000
 90
0
 91
0
280
0
281
0
  0
ENDSEC
  0
SECTION
  2
TABLES
  0
TABLE
  2
VPORT
  5
8
100
AcDbSymbolTable
 70
2
  0
VPORT
  5
1F4
100
AcDbSymbolTableRecord
100
AcDbViewportTableRecord
  2
*ACTIVE
 70
0
 10
0.0
 20
0.0
 11
1.0
 21
1.0
 12
237.4159149421
 22
335.7739368467
 13
0.0
 23
0.0
 14
1.0
 24
1.0
 15
0.0
 25
0.0
 16
0.0
 26
0.0
 36
1.0
 17
0.0
 27
0.0
 37
0.0
 40
671.5478736934
 41
0.7070707071
 42
50.0
 43
0.0
 44
0.0
 50
0.0
 51
0.0
 71
0
 72
100
 73
1
 74
1
 75
0
 76
0
 77
0
 78
0
  0
ENDTAB
  0
TABLE
  2
LTYPE
  5
5
100
AcDbSymbolTable
 70
6
  0
LTYPE
  5
14
100
AcDbSymbolTableRecord
100
AcDbLinetypeTableRecord
  2
BYBLOCK
 70
0
  3

 72
65
 73
0
 40
0.0
  0
LTYPE
  5
15
100
AcDbSymbolTableRecord
100
AcDbLinetypeTableRecord
  2
BYLAYER
 70
0
  3

 72
65
 73
0
 40
0.0
  0
LTYPE
  5
16
100
AcDbSymbolTableRecord
100
AcDbLinetypeTableRecord
  2
CONTINUOUS
 70
64
  3
Solid line
 72
65
 73
0
 40
0.0
  0
LTYPE
  5
1F5
100
AcDbSymbolTableRecord
100
AcDbLinetypeTableRecord
  2
CENTER
 70
64
  3
____ _ ____ _ ____ _ ____ _ ____ _ ____ _ ____
 72
65
 73
4
 40
0.6
 49
0.375
 74
0
 49
-0.075
 74
0
 49
0.075
 74
0
 49
-0.075
 74
0
  0
LTYPE
  5
1F6
100
AcDbSymbolTableRecord
100
AcDbLinetypeTableRecord
  2
HIDDEN
 70
64
  3
- - - - - - - - - - - - - - - - - - - -
 72
65
 73
2
 40
0.2
 49
0.1
 74
0
 49
-0.1
 74
0
  0
LTYPE
  5
1F7
100
AcDbSymbolTableRecord
100
AcDbLinetypeTableRecord
  2
PHANTOM
 70
64
  3
_____ _ _ _____ _ _ _____ _ _ _____
 72
65
 73
6
 40
0.8
 49
0.45
 74
0
 49
-0.05
 74
0
 49
0.1
 74
0
 49
-0.05
 74
0
 49
0.1
 74
0
 49
-0.05
 74
0
  0
LTYPE
  5
1F8
100
AcDbSymbolTableRecord
100
AcDbLinetypeTableRecord
  2
DOT
 70
64
  3
. . . . . . . . . . . . . . . . . . . .
 72
65
 73
2
 40
0.2
 49
0.1
 74
0
 49
-0.1
 74
0
  0
LTYPE
  5
1F9
100
AcDbSymbolTableRecord
100
AcDbLinetypeTableRecord
  2
DASHED
 70
64
  3
- - - - - - - - - - - - - - - - - - - -
 72
65
 73
2
 40
0.2
 49
0.1
 74
0
 49
-0.1
 74
0
  0
ENDTAB
  0
TABLE
  2
LAYER
  5
2
100
AcDbSymbolTable
 70
36
  0
LAYER
  5
10
100
AcDbSymbolTableRecord
100
AcDbLayerTableRecord
  2
0
 70
0
 62
7
  6
CONTINUOUS
370
-3
390
F
  0
LAYER
  5
1FA
100
AcDbSymbolTableRecord
100
AcDbLayerTableRecord
  2
DEFAULT_1
 70
0
 62
7
  6
CENTER
370
-3
390
F
  0
LAYER
  5
1FB
100
AcDbSymbolTableRecord
100
AcDbLayerTableRecord
  2
DEFAULT_2
 70
0
 62
8
  6
HIDDEN
370
-3
390
F
  0
LAYER
  5
1FC
100
AcDbSymbolTableRecord
100
AcDbLayerTableRecord
  2
DEFAULT_3
 70
0
 62
7
  6
PHANTOM
370
-3
390
F
  0
LAYER
  5
1FD
100
AcDbSymbolTableRecord
100
AcDbLayerTableRecord
  2
00_COMPONENTS
 70
0
 62
7
  6
CONTINUOUS
370
-3
390
F
  0
LAYER
  5
1FE
100
AcDbSymbolTableRecord
100
AcDbLayerTableRecord
  2
01_1_DEFAULT_DATUMS
 70
0
 62
7
  6
CONTINUOUS
370
-3
390
F
  0
LAYER
  5
1FF
100
AcDbSymbolTableRecord
100
AcDbLayerTableRecord
  2
01_PLANES
 70
0
 62
7
  6
CONTINUOUS
370
-3
390
F
  0
LAYER
  5
200
100
AcDbSymbolTableRecord
100
AcDbLayerTableRecord
  2
02_COORD_SYS
 70
0
 62
7
  6
CONTINUOUS
370
-3
390
F
  0
LAYER
  5
201
100
AcDbSymbolTableRecord
100
AcDbLayerTableRecord
  2
03_AXES
 70
0
 62
7
  6
CONTINUOUS
370
-3
390
F
  0
LAYER
  5
202
100
AcDbSymbolTableRecord
100
AcDbLayerTableRecord
  2
04_POINTS
 70
0
 62
7
  6
CONTINUOUS
370
-3
390
F
  0
LAYER
  5
203
100
AcDbSymbolTableRecord
100
AcDbLayerTableRecord
  2
05_CURVES
 70
0
 62
7
  6
CONTINUOUS
370
-3
390
F
  0
LAYER
  5
204
100
AcDbSymbolTableRecord
100
AcDbLayerTableRecord
  2
06_SURFS
 70
0
 62
7
  6
CONTINUOUS
370
-3
390
F
  0
LAYER
  5
205
100
AcDbSymbolTableRecord
100
AcDbLayerTableRecord
  2
07_COSMETICS
 70
0
 62
7
  6
CONTINUOUS
370
-3
390
F
  0
LAYER
  5
206
100
AcDbSymbolTableRecord
100
AcDbLayerTableRecord
  2
10_NOTES
 70
0
 62
7
  6
CONTINUOUS
370
-3
390
F
  0
LAYER
  5
207
100
AcDbSymbolTableRecord
100
AcDbLayerTableRecord
  2
11_NOTES_PUB
 70
0
 62
7
  6
CONTINUOUS
370
-3
390
F
  0
LAYER
  5
208
100
AcDbSymbolTableRecord
100
AcDbLayerTableRecord
  2
13_REF_GTOL
 70
0
 62
7
  6
CONTINUOUS
370
-3
390
F
  0
LAYER
  5
209
100
AcDbSymbolTableRecord
100
AcDbLayerTableRecord
  2
16_MISC
 70
0
 62
7
  6
CONTINUOUS
370
-3
390
F
  0
LAYER
  5
20A
100
AcDbSymbolTableRecord
100
AcDbLayerTableRecord
  2
17_NO_PRINT
 70
0
 62
7
  6
CONTINUOUS
370
-3
390
F
  0
LAYER
  5
20B
100
AcDbSymbolTableRecord
100
AcDbLayerTableRecord
  2
18_DATUM_CAMS_JOINTS
 70
0
 62
7
  6
CONTINUOUS
370
-3
390
F
  0
LAYER
  5
20C
100
AcDbSymbolTableRecord
100
AcDbLayerTableRecord
  2
19_DATUM_FUNCTIONAL
 70
0
 62
7
  6
CONTINUOUS
370
-3
390
F
  0
LAYER
  5
20D
100
AcDbSymbolTableRecord
100
AcDbLayerTableRecord
  2
20_DATUM_KINEMATIC_SCHEME
 70
0
 62
7
  6
CONTINUOUS
370
-3
390
F
  0
ENDTAB
  0
TABLE
  2
STYLE
  5
3
100
AcDbSymbolTable
 70
1
  0
STYLE
  5
11
100
AcDbSymbolTableRecord
100
AcDbTextStyleTableRecord
  2
STANDARD
 70
0
 40
0.0
 41
0.8
 50
0.0
 71
0
 42
0.2
  3
txt
  4

  0
STYLE
  5
20E
100
AcDbSymbolTableRecord
100
AcDbTextStyleTableRecord
  2
TEXTSTYLE_1
 70
0
 40
0.0
 41
0.8
 50
0.0
 71
0
 42
0.2
  3
gdt
  4

  0
ENDTAB
  0
TABLE
  2
VIEW
  5
6
100
AcDbSymbolTable
 70
0
  0
ENDTAB
  0
TABLE
  2
UCS
  5
7
100
AcDbSymbolTable
 70
0
  0
ENDTAB
  0
TABLE
  2
APPID
  5
9
100
AcDbSymbolTable
 70
1
  0
APPID
  5
20F
100
AcDbSymbolTableRecord
100
AcDbRegAppTableRecord
  2
ACAD
 70
0
  0
ENDTAB
  0
TABLE
  2
BLOCK_RECORD
  5
1
100
AcDbSymbolTable
 70
0
  0
BLOCK_RECORD
  5
210
100
AcDbSymbolTableRecord
100
AcDbBlockTableRecord
  2
*Model_Space
  0
BLOCK_RECORD
  5
211
100
AcDbSymbolTableRecord
100
AcDbBlockTableRecord
  2
*Paper_Space
  0
BLOCK_RECORD
  5
212
100
AcDbSymbolTableRecord
100
AcDbBlockTableRecord
  2
_FILLED
  0
ENDTAB
  0
TABLE
  2
DIMSTYLE
  5
A
100
AcDbSymbolTable
 70
1
100
AcDbDimStyleTable
 71
0
  0
DIMSTYLE
105
213
100
AcDbSymbolTableRecord
100
AcDbDimStyleTableRecord
  2
STANDARD
 70
0
  3

  4

 40
1.0
 41
5.6527598796
 42
1.0
 43
0.38
 44
1.0
 45
0.0
 46
0.0
 47
0.01
 48
0.01
140
7.9138638314
141
0.09
142
0.0
143
25.4
144
1.0
145
0.0
146
1.0
147
0.625
 71
1
 72
0
 73
0
 74
0
 75
0
 76
0
 77
1
 78
8
 79
2
170
0
171
1
172
0
173
0
174
0
175
0
176
0
177
0
178
0
270
2
179
2
271
2
272
2
273
2
274
2
275
0
280
0
281
0
282
0
283
1
284
8
285
0
286
0
287
3
288
0
340
11
278
46
341
212
342
212
343
212
344
212
  0
ENDTAB
  0
ENDSEC
  0
SECTION
  2
BLOCKS
  0
BLOCK
  5
20
100
AcDbEntity
  8
0
100
AcDbBlockBegin
  2
*Model_Space
 70
0
 10
0.0
 20
0.0
 30
0.0
  3
*Model_Space
  1

  0
ENDBLK
  5
21
100
AcDbEntity
  8
0
100
AcDbBlockEnd
  0
BLOCK
  5
1C
100
AcDbEntity
  8
0
100
AcDbBlockBegin
  2
*Paper_Space
 70
0
 10
0.0
 20
0.0
 30
0.0
  3
*Paper_Space
  1

  0
ENDBLK
  5
1D
100
AcDbEntity
  8
0
100
AcDbBlockEnd
  0
BLOCK
  5
214
100
AcDbEntity
  8
0
100
AcDbBlockBegin
  2
_FILLED
 70
64
 10
0.0
 20
0.0
  3
_FILLED
  1

  0
SOLID
  5
215
100
AcDbEntity
  8
0
  6
BYBLOCK
 62
0
100
AcDbTrace
 10
0.0
 20
0.0
 11
-1.0
 21
0.25
 12
-1.0
 22
-0.25
 13
-1.0
 23
-0.25
  0
ENDBLK
  5
216
100
AcDbEntity
  8
0
  6
BYBLOCK
 62
0
100
AcDbBlockEnd
  0
ENDSEC
  0
SECTION
  2
ENTITIES
  0
LINE
  5
217
100
AcDbEntity
  8
0
100
AcDbLine
 62
7
  6
CONTINUOUS
 10
245.0955432953
 20
61.4129345197
 11
245.0580431561
 21
61.4129309017
  0
LINE
  5
218
100
AcDbEntity
  8
0
100
AcDbLine
 62
7
  6
CONTINUOUS
 10
236.9105543382
 20
61.4834284844
 11
236.873054199
 21
61.4834248665
  0
LINE
  5
219
100
AcDbEntity
  8
0
100
AcDbLine
 62
7
  6
CONTINUOUS
 10
228.7255653812
 20
61.5539224492
 11
228.6880652419
 21
61.5539188313
  0
LINE
  5
21A
100
AcDbEntity
  8
0
100
AcDbLine
 62
7
  6
CONTINUOUS
 10
245.5746490299
 20
52.9174944204
 11
245.6122364184
 21
52.9174901157
  0
LINE
  5
21B
100
AcDbEntity
  8
0
100
AcDbLine
 62
7
  6
CONTINUOUS
 10
237.3896600728
 20
52.9879883852
 11
237.4272474613
 21
52.9879840805
  0
LINE
  5
21C
100
AcDbEntity
  8
0
100
AcDbLine
 62
7
  6
CONTINUOUS
 10
229.2046711158
 20
53.0584823499
 11
229.2422585042
 21
53.0584780452
  0
LINE
  5
21D
100
AcDbEntity
  8
0
100
AcDbLine
 62
7
  6
CONTINUOUS
 10
268.0972936131
 20
50.6009635692
 11
268.1531161161
 21
50.600892397
  0
LINE
  5
21E
100
AcDbEntity
  8
0
100
AcDbLine
 62
7
  6
CONTINUOUS
 10
261.4608882063
 20
49.7290653102
 11
213.1209411403
 21
50.1453975183
  0
LINE
  5
21F
100
AcDbEntity
  8
0
100
AcDbLine
 62
7
  6
CONTINUOUS
 10
268.0316293834
 20
52.0821058695
 11
271.2344511492
 21
52.0545212746
  0
LINE
  5
220
100
AcDbEntity
  8
0
100
AcDbLine
 62
7
  6
CONTINUOUS
 10
261.5874918764
 20
52.8567342496
 11
246.1507462739
 21
52.9896846307
  0
LINE
  5
221
100
AcDbEntity
  8
0
100
AcDbLine
 62
7
  6
CONTINUOUS
 10
245.0035448234
 20
52.9995650079
 11
237.9657573169
 21
53.0601785955
  0
LINE
  5
222
100
AcDbEntity
  8
0
100
AcDbLine
 62
7
  6
CONTINUOUS
 10
236.8185558664
 20
53.0700589727
 11
229.7807683598
 21
53.1306725602
  0
LINE
  5
223
100
AcDbEntity
  8
0
100
AcDbLine
 62
7
  6
CONTINUOUS
 10
228.6335669093
 20
53.1405529375
 11
213.1968213068
 21
53.2735033185
  0
LINE
  5
224
100
AcDbEntity
  8
0
100
AcDbLine
 62
7
  6
CONTINUOUS
 10
270.8723922771
 20
60.5307709569
 11
271.7085169178
 21
60.5235697571
  0
LINE
  5
225
100
AcDbEntity
  8
0
100
AcDbLine
 62
7
  6
CONTINUOUS
 10
273.489101606
 20
62.9956735453
 11
273.127379085
 21
62.9987889135
  0
LINE
  5
226
100
AcDbEntity
  8
0
100
AcDbLine
 62
7
  6
CONTINUOUS
 10
217.2421453067
 20
69.5028580864
 11
217.2673205173
 21
69.5031078467
  0
LINE
  5
227
100
AcDbEntity
  8
0
100
AcDbLine
 62
7
  6
CONTINUOUS
 10
217.2006650212
 20
69.5031831184
 11
217.2261862383
 21
69.5034308747
  0
LINE
  5
228
100
AcDbEntity
  8
0
100
AcDbLine
 62
7
  6
CONTINUOUS
 10
268.1531125375
 20
67.5746287235
 11
268.2433411151
 21
67.5746408501
  0
LINE
  5
229
100
AcDbEntity
  8
0
100
AcDbLine
 62
7
  6
CONTINUOUS
 10
280.7422801598
 20
79.8014605915
 11
237.457843735
 21
79.8014605915
  0
LINE
  5
22A
100
AcDbEntity
  8
0
100
AcDbLine
 62
7
  6
CONTINUOUS
 10
237.457843735
 20
82.861344076
 11
205.7422801598
 21
82.861344076
  0
LINE
  5
22B
100
AcDbEntity
  8
0
100
AcDbLine
 62
7
  6
CONTINUOUS
 10
264.9080688905
 20
63.8325137819
 11
262.0307978603
 21
63.8572945414
  0
LINE
  5
22C
100
AcDbEntity
  8
0
100
AcDbLine
 62
7
  6
CONTINUOUS
 10
267.0040370716
 20
66.1217056814
 11
264.3963715301
 21
66.1441644389
  0
LINE
  5
22D
100
AcDbEntity
  8
0
100
AcDbLine
 62
7
  6
CONTINUOUS
 10
211.4942588441
 20
69.4276866423
 11
217.268562145
 21
69.3779549278
  0
LINE
  5
22E
100
AcDbEntity
  8
0
100
AcDbLine
 62
7
  6
CONTINUOUS
 10
252.6170139812
 20
69.0735131587
 11
258.3913172821
 21
69.0237814443
  0
LINE
  5
22F
100
AcDbEntity
  8
0
100
AcDbLine
 62
7
  6
CONTINUOUS
 10
274.999795164
 20
69.1707281259
 11
269.2237180496
 21
69.2204751174
  0
LINE
  5
230
100
AcDbEntity
  8
0
100
AcDbLine
 62
7
  6
CONTINUOUS
 10
280.7422801598
 20
96.2561340241
 11
205.7422801598
 21
96.2561340241
  0
LINE
  5
231
100
AcDbEntity
  8
0
100
AcDbLine
 62
7
  6
CONTINUOUS
 10
205.7422801598
 20
96.9106241864
 11
213.3922801598
 21
96.9106241864
  0
LINE
  5
232
100
AcDbEntity
  8
0
100
AcDbLine
 62
7
  6
CONTINUOUS
 10
273.0922801598
 20
96.9106241864
 11
280.7422801598
 21
96.9106241864
  0
LINE
  5
233
100
AcDbEntity
  8
0
100
AcDbLine
 62
7
  6
CONTINUOUS
 10
248.2378829636
 20
104.1397513444
 11
245.6057757478
 21
104.1397513444
  0
LINE
  5
234
100
AcDbEntity
  8
0
100
AcDbLine
 62
7
  6
CONTINUOUS
 10
240.8787845717
 20
104.1397513444
 11
238.2378829636
 21
104.1397513444
  0
LINE
  5
235
100
AcDbEntity
  8
0
100
AcDbLine
 62
7
  6
CONTINUOUS
 10
261.8363106148
 20
63.6160940247
 11
263.1043221325
 21
61.2554035788
  0
LINE
  5
236
100
AcDbEntity
  8
0
100
AcDbLine
 62
7
  6
CONTINUOUS
 10
263.7864437142
 20
59.985479861
 11
268.0316293834
 21
52.0821058695
  0
LINE
  5
237
100
AcDbEntity
  8
0
100
AcDbLine
 62
7
  6
CONTINUOUS
 10
271.2344511492
 20
52.0545212746
 11
264.9080688905
 21
63.8325137819
  0
LINE
  5
238
100
AcDbEntity
  8
0
100
AcDbLine
 62
7
  6
CONTINUOUS
 10
267.0040370716
 20
66.1217056814
 11
273.3305014862
 21
54.3435597052
  0
LINE
  5
239
100
AcDbEntity
  8
0
100
AcDbLine
 62
7
  6
CONTINUOUS
 10
168.3878829638
 20
609.402247211
 11
168.3878829638
 21
625.1066804698
  0
LINE
  5
23A
100
AcDbEntity
  8
0
100
AcDbLine
 62
7
  6
CONTINUOUS
 10
175.4878829638
 20
614.3135380412
 11
175.4878829638
 21
623.8546273539
  0
LINE
  5
23B
100
AcDbEntity
  8
0
100
AcDbLine
 62
7
  6
CONTINUOUS
 10
176.7378829638
 20
609.402247211
 11
176.7378829638
 21
574.4669503119
  0
LINE
  5
23C
100
AcDbEntity
  8
0
100
AcDbLine
 62
7
  6
CONTINUOUS
 10
205.7422801598
 20
82.861344076
 11
205.7422801598
 21
96.9106241864
  0
LINE
  5
23D
100
AcDbEntity
  8
0
100
AcDbLine
 62
7
  6
CONTINUOUS
 10
210.9878829638
 20
614.3135380412
 11
210.9878829638
 21
623.8546273539
  0
LINE
  5
23E
100
AcDbEntity
  8
0
100
AcDbLine
 62
7
  6
CONTINUOUS
 10
213.3922801598
 20
96.5833791052
 11
213.3922801598
 21
98.5633037129
  0
LINE
  5
23F
100
AcDbEntity
  8
0
100
AcDbLine
 62
7
  6
CONTINUOUS
 10
215.7422801598
 20
82.861344076
 11
215.7422801598
 21
76.7998987378
  0
LINE
  5
240
100
AcDbEntity
  8
0
100
AcDbLine
 62
7
  6
CONTINUOUS
 10
218.7422801598
 20
98.5633037129
 11
218.7422801598
 21
104.1830897205
  0
LINE
  5
241
100
AcDbEntity
  8
0
100
AcDbLine
 62
7
  6
CONTINUOUS
 10
220.4878829638
 20
614.3135380412
 11
220.4878829638
 21
623.8546273539
  0
LINE
  5
242
100
AcDbEntity
  8
0
100
AcDbLine
 62
7
  6
CONTINUOUS
 10
225.2378829638
 20
570.0532292337
 11
225.2378829638
 21
571.5731713568
  0
LINE
  5
243
100
AcDbEntity
  8
0
100
AcDbLine
 62
7
  6
CONTINUOUS
 10
225.8573655422
 20
551.5753053511
 11
225.8573655422
 21
553.5752291972
  0
LINE
  5
244
100
AcDbEntity
  8
0
100
AcDbLine
 62
7
  6
CONTINUOUS
 10
228.8378829638
 20
560.5760053276
 11
228.8378829638
 21
569.9597995888
  0
LINE
  5
245
100
AcDbEntity
  8
0
100
AcDbLine
 62
7
  6
CONTINUOUS
 10
228.8726471495
 20
563.5671645613
 11
228.8726471495
 21
560.5672787921
  0
LINE
  5
246
100
AcDbEntity
  8
0
100
AcDbLine
 62
7
  6
CONTINUOUS
 10
230.7378829638
 20
571.5442563335
 11
230.7378829638
 21
574.4669503119
  0
LINE
  5
247
100
AcDbEntity
  8
0
100
AcDbLine
 62
7
  6
CONTINUOUS
 10
231.2796222207
 20
560.5672787921
 11
231.2796222207
 21
563.5077750649
  0
LINE
  5
248
100
AcDbEntity
  8
0
100
AcDbLine
 62
7
  6
CONTINUOUS
 10
231.3573655422
 20
539.5757622743
 11
231.3573655422
 21
551.4664980414
  0
LINE
  5
249
100
AcDbEntity
  8
0
100
AcDbLine
 62
7
  6
CONTINUOUS
 10
232.3730205249
 20
560.4935339047
 11
232.3730205249
 21
563.4934196739
  0
LINE
  5
24A
100
AcDbEntity
  8
0
100
AcDbLine
 62
7
  6
CONTINUOUS
 10
233.7872340873
 20
563.4810784891
 11
233.7872340873
 21
560.4811927199
  0
LINE
  5
24B
100
AcDbEntity
  8
0
100
AcDbLine
 62
7
  6
CONTINUOUS
 10
234.3573655422
 20
553.5752291972
 11
234.3573655422
 21
557.5750768895
  0
LINE
  5
24C
100
AcDbEntity
  8
0
100
AcDbLine
 62
7
  6
CONTINUOUS
 10
235.4892224823
 20
560.496045182
 11
235.4892224823
 21
563.4712065223
  0
LINE
  5
24D
100
AcDbEntity
  8
0
100
AcDbLine
 62
7
  6
CONTINUOUS
 10
236.0029319762
 20
79.8921243301
 11
236.0029319762
 21
82.861344076
  0
LINE
  5
24E
100
AcDbEntity
  8
0
100
AcDbLine
 62
7
  6
CONTINUOUS
 10
237.457843735
 20
82.861344076
 11
237.457843735
 21
79.8014605915
  0
LINE
  5
24F
100
AcDbEntity
  8
0
100
AcDbLine
 62
7
  6
CONTINUOUS
 10
238.2378829636
 20
104.1397513444
 11
238.2378829636
 21
539.4830526415
  0
LINE
  5
250
100
AcDbEntity
  8
0
100
AcDbLine
 62
7
  6
CONTINUOUS
 10
237.0451764648
 20
560.4871829699
 11
236.9434801872
 21
557.5750936288
  0
LINE
  5
251
100
AcDbEntity
  8
0
100
AcDbLine
 62
7
  6
CONTINUOUS
 10
249.4305894627
 20
560.4871829699
 11
249.5322857403
 21
557.5750936288
  0
LINE
  5
252
100
AcDbEntity
  8
0
100
AcDbLine
 62
7
  6
CONTINUOUS
 10
242.2378829638
 20
560.4506465874
 11
242.2378829638
 21
563.4505323566
  0
LINE
  5
253
100
AcDbEntity
  8
0
100
AcDbLine
 62
7
  6
CONTINUOUS
 10
244.2378829638
 20
563.4505323566
 11
244.2378829638
 21
560.4506465874
  0
LINE
  5
254
100
AcDbEntity
  8
0
100
AcDbLine
 62
7
  6
CONTINUOUS
 10
248.2378829636
 20
104.1397513444
 11
248.2378829636
 21
539.4830645556
  0
LINE
  5
255
100
AcDbEntity
  8
0
100
AcDbLine
 62
7
  6
CONTINUOUS
 10
250.9865434452
 20
563.4712065223
 11
250.9865434452
 21
560.496045182
  0
LINE
  5
256
100
AcDbEntity
  8
0
100
AcDbLine
 62
7
  6
CONTINUOUS
 10
252.1184003853
 20
553.5752291972
 11
252.1184003853
 21
557.5750768895
  0
LINE
  5
257
100
AcDbEntity
  8
0
100
AcDbLine
 62
7
  6
CONTINUOUS
 10
252.6885318402
 20
560.4811927199
 11
252.6885318402
 21
563.4810784891
  0
LINE
  5
258
100
AcDbEntity
  8
0
100
AcDbLine
 62
7
  6
CONTINUOUS
 10
254.1027454026
 20
563.4934196739
 11
254.1027454026
 21
560.4935339047
  0
LINE
  5
259
100
AcDbEntity
  8
0
100
AcDbLine
 62
7
  6
CONTINUOUS
 10
255.1184003853
 20
539.5757622743
 11
255.1184003853
 21
551.4664941057
  0
LINE
  5
25A
100
AcDbEntity
  8
0
100
AcDbLine
 62
7
  6
CONTINUOUS
 10
255.1961437069
 20
563.5077750649
 11
255.1961437069
 21
560.5672787921
  0
LINE
  5
25B
100
AcDbEntity
  8
0
100
AcDbLine
 62
7
  6
CONTINUOUS
 10
255.7378829638
 20
571.5443296497
 11
255.7378829638
 21
574.4669503119
  0
LINE
  5
25C
100
AcDbEntity
  8
0
100
AcDbLine
 62
7
  6
CONTINUOUS
 10
255.9878829638
 20
614.3135380412
 11
255.9878829638
 21
623.8546273539
  0
LINE
  5
25D
100
AcDbEntity
  8
0
100
AcDbLine
 62
7
  6
CONTINUOUS
 10
257.603118778
 20
560.5672787921
 11
257.603118778
 21
563.5671645613
  0
LINE
  5
25E
100
AcDbEntity
  8
0
100
AcDbLine
 62
7
  6
CONTINUOUS
 10
257.6378829638
 20
560.5760053276
 11
257.6378829638
 21
569.9597888976
  0
LINE
  5
25F
100
AcDbEntity
  8
0
100
AcDbLine
 62
7
  6
CONTINUOUS
 10
260.6184003853
 20
551.5753053511
 11
260.6184003853
 21
553.5752291972
  0
LINE
  5
260
100
AcDbEntity
  8
0
100
AcDbLine
 62
7
  6
CONTINUOUS
 10
261.2378829638
 20
570.0532292337
 11
261.2378829638
 21
571.5731713568
  0
LINE
  5
261
100
AcDbEntity
  8
0
100
AcDbLine
 62
7
  6
CONTINUOUS
 10
265.4878829638
 20
614.3135380412
 11
265.4878829638
 21
623.8546273539
  0
LINE
  5
262
100
AcDbEntity
  8
0
100
AcDbLine
 62
7
  6
CONTINUOUS
 10
267.7422801598
 20
98.5633037129
 11
267.7422801598
 21
104.1830897205
  0
LINE
  5
263
100
AcDbEntity
  8
0
100
AcDbLine
 62
7
  6
CONTINUOUS
 10
270.7422801598
 20
79.8014605915
 11
270.7422801598
 21
77.2714603979
  0
LINE
  5
264
100
AcDbEntity
  8
0
100
AcDbLine
 62
7
  6
CONTINUOUS
 10
273.0922801598
 20
96.5833791052
 11
273.0922801598
 21
98.5633037129
  0
LINE
  5
265
100
AcDbEntity
  8
0
100
AcDbLine
 62
7
  6
CONTINUOUS
 10
280.7422801598
 20
96.9106241864
 11
280.7422801598
 21
79.8014605915
  0
LINE
  5
266
100
AcDbEntity
  8
0
100
AcDbLine
 62
7
  6
CONTINUOUS
 10
299.7378829638
 20
574.4669503119
 11
299.7378829638
 21
609.402247211
  0
LINE
  5
267
100
AcDbEntity
  8
0
100
AcDbLine
 62
7
  6
CONTINUOUS
 10
300.9878829638
 20
614.3135380412
 11
300.9878829638
 21
623.8546273539
  0
LINE
  5
268
100
AcDbEntity
  8
0
100
AcDbLine
 62
7
  6
CONTINUOUS
 10
308.0878829638
 20
609.402247211
 11
308.0878829638
 21
625.1066804698
  0
LINE
  5
269
100
AcDbEntity
  8
0
100
AcDbLine
 62
7
  6
CONTINUOUS
 10
273.127379085
 20
62.9987889135
 11
270.8723922771
 21
60.5307709569
  0
LINE
  5
26A
100
AcDbEntity
  8
0
100
AcDbLine
 62
7
  6
CONTINUOUS
 10
264.9080688905
 20
63.8325137819
 11
267.0040370716
 21
66.1217056814
  0
LINE
  5
26B
100
AcDbEntity
  8
0
100
AcDbLine
 62
7
  6
CONTINUOUS
 10
272.74963866
 20
53.3144587502
 11
272.0835293168
 21
52.5869749067
  0
LINE
  5
26C
100
AcDbEntity
  8
0
100
AcDbLine
 62
7
  6
CONTINUOUS
 10
233.7872340873
 20
560.4811927199
 11
235.4892224823
 21
560.496045182
  0
LINE
  5
26D
100
AcDbEntity
  8
0
100
AcDbLine
 62
7
  6
CONTINUOUS
 10
257.603118778
 20
560.5672787921
 11
255.1961437069
 21
560.5672787921
  0
LINE
  5
26E
100
AcDbEntity
  8
0
100
AcDbLine
 62
7
  6
CONTINUOUS
 10
231.2796222207
 20
560.5672787921
 11
228.8726471495
 21
560.5672787921
  0
LINE
  5
26F
100
AcDbEntity
  8
0
100
AcDbLine
 62
7
  6
CONTINUOUS
 10
299.7378829638
 20
574.4669503119
 11
176.7378829638
 21
574.4669503119
  0
LINE
  5
270
100
AcDbEntity
  8
0
100
AcDbLine
 62
7
  6
CONTINUOUS
 10
250.9865434452
 20
560.496045182
 11
252.6885318402
 21
560.4811927199
  0
LINE
  5
271
100
AcDbEntity
  8
0
100
AcDbLine
 62
7
  6
CONTINUOUS
 10
308.0878829638
 20
609.402247211
 11
168.3878829638
 21
609.402247211
  0
LINE
  5
272
100
AcDbEntity
  8
0
100
AcDbLine
 62
7
  6
CONTINUOUS
 10
300.9878829638
 20
614.3135380412
 11
265.4878829638
 21
614.3135380412
  0
LINE
  5
273
100
AcDbEntity
  8
0
100
AcDbLine
 62
7
  6
CONTINUOUS
 10
255.9878829638
 20
614.3135380412
 11
220.4878829638
 21
614.3135380412
  0
LINE
  5
274
100
AcDbEntity
  8
0
100
AcDbLine
 62
7
  6
CONTINUOUS
 10
210.9878829638
 20
614.3135380412
 11
175.4878829638
 21
614.3135380412
  0
LINE
  5
275
100
AcDbEntity
  8
0
100
AcDbLine
 62
7
  6
CONTINUOUS
 10
265.4878829638
 20
614.3549890848
 11
255.9878829638
 21
614.3549890848
  0
LINE
  5
276
100
AcDbEntity
  8
0
100
AcDbLine
 62
7
  6
CONTINUOUS
 10
220.4878829638
 20
614.3549890848
 11
210.9878829638
 21
614.3549890848
  0
LINE
  5
277
100
AcDbEntity
  8
0
100
AcDbLine
 62
7
  6
CONTINUOUS
 10
175.4878829638
 20
614.3549890848
 11
168.3878829638
 21
614.3549890848
  0
LINE
  5
278
100
AcDbEntity
  8
0
100
AcDbLine
 62
7
  6
CONTINUOUS
 10
300.9878829638
 20
614.3549890848
 11
308.0878829638
 21
614.3549890848
  0
LINE
  5
279
100
AcDbEntity
  8
0
100
AcDbLine
 62
7
  6
CONTINUOUS
 10
300.9878829638
 20
623.8131763103
 11
265.4878829638
 21
623.8131763103
  0
LINE
  5
27A
100
AcDbEntity
  8
0
100
AcDbLine
 62
7
  6
CONTINUOUS
 10
255.9878829638
 20
623.8131763103
 11
220.4878829638
 21
623.8131763103
  0
LINE
  5
27B
100
AcDbEntity
  8
0
100
AcDbLine
 62
7
  6
CONTINUOUS
 10
210.9878829638
 20
623.8131763103
 11
175.4878829638
 21
623.8131763103
  0
LINE
  5
27C
100
AcDbEntity
  8
0
100
AcDbLine
 62
7
  6
CONTINUOUS
 10
265.4878829638
 20
623.8546273539
 11
255.9878829638
 21
623.8546273539
  0
LINE
  5
27D
100
AcDbEntity
  8
0
100
AcDbLine
 62
7
  6
CONTINUOUS
 10
220.4878829638
 20
623.8546273539
 11
210.9878829638
 21
623.8546273539
  0
LINE
  5
27E
100
AcDbEntity
  8
0
100
AcDbLine
 62
7
  6
CONTINUOUS
 10
175.4878829638
 20
623.8546273539
 11
168.3878829638
 21
623.8546273539
  0
LINE
  5
27F
100
AcDbEntity
  8
0
100
AcDbLine
 62
7
  6
CONTINUOUS
 10
300.9878829638
 20
623.8546273539
 11
308.0878829638
 21
623.8546273539
  0
LINE
  5
280
100
AcDbEntity
  8
0
100
AcDbLine
 62
7
  6
CONTINUOUS
 10
308.0878829638
 20
625.1066804698
 11
168.3878829638
 21
625.1066804698
  0
ARC
  5
281
100
AcDbEntity
  8
0
100
AcDbCircle
 62
7
  6
CONTINUOUS
 10
250.8912701813
 20
2063.6996330529
 40
2013.9983030179
100
AcDbArc
 50
270.3006940388
 51
270.4910843404
  0
ARC
  5
282
100
AcDbEntity
  8
0
100
AcDbCircle
 62
7
  6
CONTINUOUS
 10
250.7888260167
 20
2073.6741008061
 40
2004.664735259
100
AcDbArc
 50
270.2172890558
 51
270.4962989377
  0
ARC
  5
283
100
AcDbEntity
  8
0
100
AcDbCircle
 62
7
  6
CONTINUOUS
 10
242.4049306056
 20
1540.2131479671
 40
979.7415110673
100
AcDbArc
 50
269.5955625296
 51
269.9902309693
  0
ARC
  5
284
100
AcDbEntity
  8
0
100
AcDbCircle
 62
7
  6
CONTINUOUS
 10
259.7320819614
 20
1023.1510016312
 40
973.4121212324
100
AcDbArc
 50
270.4956746728
 51
270.8041910677
  0
ARC
  5
285
100
AcDbEntity
  8
0
100
AcDbCircle
 62
7
  6
CONTINUOUS
 10
248.1394322197
 20
1162.8118943536
 40
602.3478799148
100
AcDbArc
 50
270.4327178617
 51
270.5672440632
  0
ARC
  5
286
100
AcDbEntity
  8
0
100
AcDbCircle
 62
7
  6
CONTINUOUS
 10
243.2422801598
 20
696.0892803059
 40
591.9542473445
100
AcDbArc
 50
269.7712345464
 51
270.2287654536
  0
ARC
  5
287
100
AcDbEntity
  8
0
100
AcDbCircle
 62
7
  6
CONTINUOUS
 10
237.9825905283
 20
1122.2753974182
 40
561.8098694828
100
AcDbArc
 50
269.4279024911
 51
269.5721355839
  0
ARC
  5
288
100
AcDbEntity
  8
0
100
AcDbCircle
 62
7
  6
CONTINUOUS
 10
250.344217625
 20
940.6261726642
 40
377.1514813826
100
AcDbArc
 50
270.570994293
 51
270.7524544958
  0
ARC
  5
289
100
AcDbEntity
  8
0
100
AcDbCircle
 62
7
  6
CONTINUOUS
 10
235.7513548188
 20
907.7083693301
 40
344.2315277679
100
AcDbArc
 50
269.2388686883
 51
269.4376825229
  0
ARC
  5
28A
100
AcDbEntity
  8
0
100
AcDbCircle
 62
7
  6
CONTINUOUS
 10
347.0191015387
 20
53.7054930374
 40
73.6855404328
100
AcDbArc
 50
179.5037563093
 51
181.0966626776
  0
ARC
  5
28B
100
AcDbEntity
  8
0
100
AcDbCircle
 62
7
  6
CONTINUOUS
 10
271.1266831029
 20
57.0236717749
 40
11.4872463155
100
AcDbArc
 50
143.9812013086
 51
149.3055642493
  0
ARC
  5
28C
100
AcDbEntity
  8
0
100
AcDbCircle
 62
7
  6
CONTINUOUS
 10
260.9265289212
 20
57.1187180255
 40
11.3445688105
100
AcDbArc
 50
356.6045028789
 51
0.0011394115
  0
ARC
  5
28D
100
AcDbEntity
  8
0
100
AcDbCircle
 62
7
  6
CONTINUOUS
 10
267.0398623266
 20
62.2956703022
 40
5.2898917111
100
AcDbArc
 50
78.5270907997
 51
81.6551776716
  0
SPLINE
  5
28E
100
AcDbEntity
  8
0
100
AcDbSpline
 62
7
  6
CONTINUOUS
 70
0
 71
3
 72
23
 73
19
 74
0
 42
0.0000001
 43
0.0000001
 44
0.0000000001
 40
0.0
 40
0.0
 40
0.0
 40
0.0
 40
0.0012568666
 40
0.0044249823
 40
0.0096164204
 40
0.0168476463
 40
0.0261185444
 40
0.0374250376
 40
0.0661223375
 40
0.1028845812
 40
0.1476171841
 40
0.2002111705
 40
0.2605445343
 40
0.3284606308
 40
0.4037962746
 40
0.5759664237
 40
0.7753577817
 40
1.0
 40
1.0
 40
1.0
 40
1.0
 10
225.2379078164
 20
571.5731713567
 30
0.0
 10
225.2379078702
 20
571.5754331473
 30
0.0
 10
225.2481880544
 20
571.5785546779
 30
0.0
 10
225.2627465988
 20
571.5817581806
 30
0.0
 10
225.2919134881
 20
571.58551172
 30
0.0
 10
225.3301889716
 20
571.5892098967
 30
0.0
 10
225.380316831
 20
571.5930173137
 30
0.0
 10
225.4687111654
 20
571.5985287677
 30
0.0
 10
225.6067747917
 20
571.6051072798
 30
0.0
 10
225.8049019526
 20
571.6125394434
 30
0.0
 10
226.0461007748
 20
571.6199231594
 30
0.0
 10
226.3297200326
 20
571.6272316441
 30
0.0
 10
226.6550785889
 20
571.6344268302
 30
0.0
 10
227.0213714493
 20
571.6414893431
 30
0.0
 10
227.5889066473
 20
571.6511290264
 30
0.0
 10
228.3930408648
 20
571.6624505399
 30
0.0
 10
229.4658682721
 20
571.6747085719
 30
0.0
 10
230.2289037607
 20
571.6818462607
 30
0.0
 10
230.6331431754
 20
571.6853064603
 30
0.0
  0
SPLINE
  5
28F
100
AcDbEntity
  8
0
100
AcDbSpline
 62
7
  6
CONTINUOUS
 70
0
 71
3
 72
23
 73
19
 74
0
 42
0.0000001
 43
0.0000001
 44
0.0000000001
 40
0.0
 40
0.0
 40
0.0
 40
0.0
 40
0.0013399563
 40
0.0044920491
 40
0.0096121933
 40
0.0167279183
 40
0.0258457394
 40
0.0369646161
 40
0.0651917686
 40
0.1013758041
 40
0.1454724229
 40
0.1974072543
 40
0.2570945417
 40
0.3244473772
 40
0.3993600441
 40
0.5713551619
 40
0.771999214
 40
1.0
 40
1.0
 40
1.0
 40
1.0
 10
225.2379078164
 20
570.0532292338
 30
0.0
 10
225.2379078542
 20
570.0516401909
 30
0.0
 10
225.2441664234
 20
570.048782502
 30
0.0
 10
225.2540735596
 20
570.0464241367
 30
0.0
 10
225.272729104
 20
570.043264682
 30
0.0
 10
225.2975979743
 20
570.0403426929
 30
0.0
 10
225.3300000767
 20
570.0372514509
 30
0.0
 10
225.3872509858
 20
570.0328145957
 30
0.0
 10
225.4767024344
 20
570.0274863855
 30
0.0
 10
225.605225956
 20
570.0214546944
 30
0.0
 10
225.7619104735
 20
570.015434054
 30
0.0
 10
225.9464776503
 20
570.0094429671
 30
0.0
 10
226.1586405983
 20
570.0035037419
 30
0.0
 10
226.3980628719
 20
569.9976311314
 30
0.0
 10
226.7706543013
 20
569.989530642
 30
0.0
 10
227.3013155157
 20
569.9798550566
 30
0.0
 10
228.0135292056
 20
569.9691193522
 30
0.0
 10
228.5218153349
 20
569.9626905933
 30
0.0
 10
228.7921809177
 20
569.9595169423
 30
0.0
  0
SPLINE
  5
290
100
AcDbEntity
  8
0
100
AcDbSpline
 62
7
  6
CONTINUOUS
 70
0
 71
3
 72
10
 73
6
 74
0
 42
0.0000001
 43
0.0000001
 44
0.0000000001
 40
0.0
 40
0.0
 40
0.0
 40
0.0
 40
0.1985637096
 40
0.4403928698
 40
1.0
 40
1.0
 40
1.0
 40
1.0
 10
228.7921809177
 20
569.9595169423
 30
0.0
 10
229.7482588826
 20
569.9482941461
 30
0.0
 10
231.8688099384
 20
569.929745094
 30
0.0
 10
236.6840392295
 20
569.903110527
 30
0.0
 10
240.5432067478
 20
569.8961515948
 30
0.0
 10
243.2378829638
 20
569.8961515948
 30
0.0
  0
SPLINE
  5
291
100
AcDbEntity
  8
0
100
AcDbSpline
 62
7
  6
CONTINUOUS
 70
0
 71
3
 72
11
 73
7
 74
0
 42
0.0000001
 43
0.0000001
 44
0.0000000001
 40
0.0
 40
0.0
 40
0.0
 40
0.0
 40
0.3735599766
 40
0.6661274769
 40
0.8754705512
 40
1.0
 40
1.0
 40
1.0
 40
1.0
 10
254.1122700482
 20
560.5317251255
 30
0.0
 10
254.2472979848
 20
560.5342505417
 30
0.0
 10
254.4880622558
 20
560.5392466486
 30
0.0
 10
254.8044854263
 20
560.5475303687
 30
0.0
 10
255.0307495896
 20
560.5562684232
 30
0.0
 10
255.151366253
 20
560.5626060774
 30
0.0
 10
255.1961437069
 20
560.5672787921
 30
0.0
  0
SPLINE
  5
292
100
AcDbEntity
  8
0
100
AcDbSpline
 62
7
  6
CONTINUOUS
 70
0
 71
3
 72
10
 73
6
 74
0
 42
0.0000001
 43
0.0000001
 44
0.0000000001
 40
0.0
 40
0.0
 40
0.0
 40
0.0
 40
0.7263729359
 40
0.9153375598
 40
1.0
 40
1.0
 40
1.0
 40
1.0
 10
257.603118778
 20
560.5672787921
 30
0.0
 10
257.6118610778
 20
560.5683747158
 30
0.0
 10
257.6234389535
 20
560.5700831498
 30
0.0
 10
257.6342700688
 20
560.5729093011
 30
0.0
 10
257.6378830843
 20
560.5749783932
 30
0.0
 10
257.6378830843
 20
560.5760053276
 30
0.0
  0
SPLINE
  5
293
100
AcDbEntity
  8
0
100
AcDbSpline
 62
7
  6
CONTINUOUS
 70
0
 71
3
 72
10
 73
6
 74
0
 42
0.0000001
 43
0.0000001
 44
0.0000000001
 40
0.0
 40
0.0
 40
0.0
 40
0.0
 40
0.0846624402
 40
0.2736270641
 40
1.0
 40
1.0
 40
1.0
 40
1.0
 10
228.8378828432
 20
560.5760053276
 30
0.0
 10
228.8378828432
 20
560.5749783932
 30
0.0
 10
228.8414958587
 20
560.5729093011
 30
0.0
 10
228.852326974
 20
560.5700831498
 30
0.0
 10
228.8639048497
 20
560.5683747158
 30
0.0
 10
228.8726471495
 20
560.5672787921
 30
0.0
  0
SPLINE
  5
294
100
AcDbEntity
  8
0
100
AcDbSpline
 62
7
  6
CONTINUOUS
 70
0
 71
3
 72
13
 73
9
 74
0
 42
0.0000001
 43
0.0000001
 44
0.0000000001
 40
0.0
 40
0.0
 40
0.0
 40
0.0
 40
0.3904790004
 40
0.690255663
 40
0.8045552074
 40
0.894500716
 40
0.9597259399
 40
1.0
 40
1.0
 40
1.0
 40
1.0
 10
255.2971334015
 20
563.5072145961
 30
0.0
 10
255.5973920365
 20
563.5112295407
 30
0.0
 10
256.1281497949
 20
563.5192031256
 30
0.0
 10
256.7467560701
 20
563.5316493321
 30
0.0
 10
257.1341952141
 20
563.542661391
 30
0.0
 10
257.341310066
 20
563.5500652451
 30
0.0
 10
257.4913906444
 20
563.5576508938
 30
0.0
 10
257.5723878153
 20
563.5633121666
 30
0.0
 10
257.603118778
 20
563.5671645613
 30
0.0
  0
SPLINE
  5
295
100
AcDbEntity
  8
0
100
AcDbSpline
 62
7
  6
CONTINUOUS
 70
0
 71
3
 72
13
 73
9
 74
0
 42
0.0000001
 43
0.0000001
 44
0.0000000001
 40
0.0
 40
0.0
 40
0.0
 40
0.0
 40
0.0402740601
 40
0.105499284
 40
0.1954447926
 40
0.309744337
 40
0.6095209996
 40
1.0
 40
1.0
 40
1.0
 40
1.0
 10
228.8726471495
 20
563.5671645613
 30
0.0
 10
228.9033781122
 20
563.5633121666
 30
0.0
 10
228.9843752831
 20
563.5576508938
 30
0.0
 10
229.1344558616
 20
563.5500652451
 30
0.0
 10
229.3415707135
 20
563.542661391
 30
0.0
 10
229.7290098574
 20
563.5316493321
 30
0.0
 10
230.3476161326
 20
563.5192031256
 30
0.0
 10
230.878373891
 20
563.5112295407
 30
0.0
 10
231.178632526
 20
563.5072145961
 30
0.0
  0
SPLINE
  5
296
100
AcDbEntity
  8
0
100
AcDbSpline
 62
7
  6
CONTINUOUS
 70
0
 71
3
 72
11
 73
7
 74
0
 42
0.0000001
 43
0.0000001
 44
0.0000000001
 40
0.0
 40
0.0
 40
0.0
 40
0.0
 40
0.1245294488
 40
0.3338725231
 40
0.6264400234
 40
1.0
 40
1.0
 40
1.0
 40
1.0
 10
231.2796222207
 20
560.5672787921
 30
0.0
 10
231.3243996746
 20
560.5626060774
 30
0.0
 10
231.4450163379
 20
560.5562684232
 30
0.0
 10
231.6712805012
 20
560.5475303687
 30
0.0
 10
231.9877036718
 20
560.5392466486
 30
0.0
 10
232.2284679427
 20
560.5342505417
 30
0.0
 10
232.3634958793
 20
560.5317251255
 30
0.0
  0
LINE
  5
297
100
AcDbEntity
  8
0
100
AcDbLine
 62
7
  6
CONTINUOUS
 10
242.2378829638
 20
560.4506465874
 11
243.2378829638
 21
560.4503432165
  0
LINE
  5
298
100
AcDbEntity
  8
0
100
AcDbLine
 62
7
  6
CONTINUOUS
 10
243.2378829638
 20
560.4503432165
 11
244.2378829638
 21
560.4506465874
  0
SPLINE
  5
299
100
AcDbEntity
  8
0
100
AcDbSpline
 62
7
  6
CONTINUOUS
 70
0
 71
3
 72
9
 73
5
 74
0
 42
0.0000001
 43
0.0000001
 44
0.0000000001
 40
0.0
 40
0.0
 40
0.0
 40
0.0
 40
0.2711487455
 40
1.0
 40
1.0
 40
1.0
 40
1.0
 10
244.2378829638
 20
560.4716511408
 30
0.0
 10
244.8478509429
 20
560.4720962646
 30
0.0
 10
247.0974179295
 20
560.475316886
 30
0.0
 10
249.3469860165
 20
560.4839457939
 30
0.0
 10
250.9865434452
 20
560.496045182
 30
0.0
  0
SPLINE
  5
29A
100
AcDbEntity
  8
0
100
AcDbSpline
 62
7
  6
CONTINUOUS
 70
0
 71
3
 72
9
 73
5
 74
0
 42
0.0000001
 43
0.0000001
 44
0.0000000001
 40
0.0
 40
0.0
 40
0.0
 40
0.0
 40
0.2214409286
 40
1.0
 40
1.0
 40
1.0
 40
1.0
 10
233.7872340873
 20
563.4810784891
 30
0.0
 10
234.4109940745
 20
563.4763437422
 30
0.0
 10
237.2278450964
 20
563.4586550355
 30
0.0
 10
240.0447567868
 20
563.451864628
 30
0.0
 10
242.2378829638
 20
563.4505323566
 30
0.0
  0
SPLINE
  5
29B
100
AcDbEntity
  8
0
100
AcDbSpline
 62
7
  6
CONTINUOUS
 70
0
 71
3
 72
9
 73
5
 74
0
 42
0.0000001
 43
0.0000001
 44
0.0000000001
 40
0.0
 40
0.0
 40
0.0
 40
0.0
 40
0.2719704885
 40
1.0
 40
1.0
 40
1.0
 40
1.0
 10
244.2378829638
 20
563.4505323566
 30
0.0
 10
245.003997614
 20
563.4509977528
 30
0.0
 10
247.8208978309
 20
563.4547816448
 30
0.0
 10
250.6378015829
 20
563.4655121031
 30
0.0
 10
252.6885318402
 20
563.4810784891
 30
0.0
  0
SPLINE
  5
29C
100
AcDbEntity
  8
0
100
AcDbSpline
 62
7
  6
CONTINUOUS
 70
0
 71
3
 72
51
 73
47
 74
0
 42
0.0000001
 43
0.0000001
 44
0.0000000001
 40
0.0
 40
0.0
 40
0.0
 40
0.0
 40
0.0001848627
 40
0.0006492577
 40
0.0014093125
 40
0.0024672526
 40
0.0038234712
 40
0.005477848
 40
0.0096784329
 40
0.0150585617
 40
0.0216054904
 40
0.0293052491
 40
0.0381382052
 40
0.0480827894
 40
0.0591165925
 40
0.0843397319
 40
0.1135660974
 40
0.1465128687
 40
0.1828635389
 40
0.2222684837
 40
0.2643472601
 40
0.3086954422
 40
0.4024736845
 40
0.4999996
 40
0.5975255246
 40
0.6913038386
 40
0.7356520853
 40
0.7777308815
 40
0.817135798
 40
0.8534864325
 40
0.8864331717
 40
0.9156595868
 40
0.9408828825
 40
0.9519167509
 40
0.9618614161
 40
0.9706944736
 40
0.9783942987
 40
0.9849412854
 40
0.9903214796
 40
0.9945221057
 40
0.9961764933
 40
0.9975327226
 40
0.9985906725
 40
0.9993507353
 40
0.9998151357
 40
1.0
 40
1.0
 40
1.0
 40
1.0
 10
230.2378829638
 20
571.5731713568
 30
0.0
 10
230.2378829638
 20
571.5715689004
 30
0.0
 10
230.2451234204
 20
571.5693272464
 30
0.0
 10
230.2554143743
 20
571.567053666
 30
0.0
 10
230.2759674629
 20
571.5643679501
 30
0.0
 10
230.3029463988
 20
571.5617304619
 30
0.0
 10
230.3382693136
 20
571.5590111006
 30
0.0
 10
230.4005803988
 20
571.5550765865
 30
0.0
 10
230.4979103559
 20
571.5503822989
 30
0.0
 10
230.6375893141
 20
571.5450754495
 30
0.0
 10
230.8076487977
 20
571.5398023582
 30
0.0
 10
231.0076412452
 20
571.5345823101
 30
0.0
 10
231.2370996988
 20
571.5294388827
 30
0.0
 10
231.4954658363
 20
571.5243879259
 30
0.0
 10
231.8958983649
 20
571.5174898916
 30
0.0
 10
232.4634744656
 20
571.5093774902
 30
0.0
 10
233.221006527
 20
571.5005797824
 30
0.0
 10
234.0750082821
 20
571.4924438105
 30
0.0
 10
235.0172512777
 20
571.4850553343
 30
0.0
 10
236.0386616211
 20
571.4784939743
 30
0.0
 10
237.1294035869
 20
571.4728251755
 30
0.0
 10
238.6914745593
 20
571.4664179603
 30
0.0
 10
240.7341887371
 20
571.4611262093
 30
0.0
 10
243.2378726341
 20
571.4590131257
 30
0.0
 10
245.7415571528
 20
571.461126169
 30
0.0
 10
247.7842725906
 20
571.4664179083
 30
0.0
 10
249.3463449157
 20
571.4728250918
 30
0.0
 10
250.4370873677
 20
571.4784938794
 30
0.0
 10
251.4584973288
 20
571.4850552215
 30
0.0
 10
252.4007394918
 20
571.4924436495
 30
0.0
 10
253.254741089
 20
571.5005795984
 30
0.0
 10
254.0122746568
 20
571.5093772917
 30
0.0
 10
254.5798531097
 20
571.5174896588
 30
0.0
 10
254.980288261
 20
571.5243877227
 30
0.0
 10
255.2386565455
 20
571.5294387044
 30
0.0
 10
255.468117157
 20
571.5345821256
 30
0.0
 10
255.6681115618
 20
571.5398021987
 30
0.0
 10
255.838172691
 20
571.5450753266
 30
0.0
 10
255.977853075
 20
571.5503821906
 30
0.0
 10
256.0751840514
 20
571.555076509
 30
0.0
 10
256.1374956768
 20
571.5590110637
 30
0.0
 10
256.1728188664
 20
571.5617304372
 30
0.0
 10
256.1997980398
 20
571.5643679413
 30
0.0
 10
256.2203513529
 20
571.5670536532
 30
0.0
 10
256.2306423941
 20
571.5693272565
 30
0.0
 10
256.2378829638
 20
571.571568886
 30
0.0
 10
256.2378829638
 20
571.5731713568
 30
0.0
  0
SPLINE
  5
29D
100
AcDbEntity
  8
0
100
AcDbSpline
 62
7
  6
CONTINUOUS
 70
0
 71
3
 72
23
 73
19
 74
0
 42
0.0000001
 43
0.0000001
 44
0.0000000001
 40
0.0
 40
0.0
 40
0.0
 40
0.0
 40
0.2246436339
 40
0.4240355255
 40
0.5962056465
 40
0.6715410886
 40
0.7394569843
 40
0.7997901259
 40
0.852383841
 40
0.8971161694
 40
0.9338782042
 40
0.9625752608
 40
0.9738816284
 40
0.9831524307
 40
0.9903836154
 40
0.9955750522
 40
0.9987431411
 40
1.0
 40
1.0
 40
1.0
 40
1.0
 10
255.8433994297
 20
571.6852998166
 30
0.0
 10
256.2475832342
 20
571.681839678
 30
0.0
 10
257.0105124524
 20
571.6747021593
 30
0.0
 10
258.0831889655
 20
571.6624445947
 30
0.0
 10
258.8872080328
 20
571.6511236518
 30
0.0
 10
259.454660796
 20
571.641484503
 30
0.0
 10
259.8208998265
 20
571.6344224225
 30
0.0
 10
260.1462103146
 20
571.6272277006
 30
0.0
 10
260.4297873748
 20
571.6199197036
 30
0.0
 10
260.6709501223
 20
571.6125364872
 30
0.0
 10
260.8690474542
 20
571.6051048713
 30
0.0
 10
261.0070901531
 20
571.5985268331
 30
0.0
 10
261.0954709147
 20
571.5930157911
 30
0.0
 10
261.1455910574
 20
571.5892086298
 30
0.0
 10
261.1838607866
 20
571.5855107945
 30
0.0
 10
261.2130232714
 20
571.581757416
 30
0.0
 10
261.2275797261
 20
571.5785544442
 30
0.0
 10
261.2378581649
 20
571.5754328081
 30
0.0
 10
261.2378581111
 20
571.5731713568
 30
0.0
  0
SPLINE
  5
29E
100
AcDbEntity
  8
0
100
AcDbSpline
 62
7
  6
CONTINUOUS
 70
0
 71
3
 72
10
 73
6
 74
0
 42
0.0000001
 43
0.0000001
 44
0.0000000001
 40
0.0
 40
0.0
 40
0.0
 40
0.0
 40
0.5595982366
 40
0.8014289698
 40
1.0
 40
1.0
 40
1.0
 40
1.0
 10
243.2378829638
 20
569.8961515948
 30
0.0
 10
245.9324063445
 20
569.8961515948
 30
0.0
 10
249.7913810588
 20
569.9031098766
 30
0.0
 10
254.6064137765
 20
569.9297414579
 30
0.0
 10
256.7269210934
 20
569.9482885509
 30
0.0
 10
257.682995288
 20
569.9595100157
 30
0.0
  0
SPLINE
  5
29F
100
AcDbEntity
  8
0
100
AcDbSpline
 62
7
  6
CONTINUOUS
 70
0
 71
3
 72
23
 73
19
 74
0
 42
0.0000001
 43
0.0000001
 44
0.0000000001
 40
0.0
 40
0.0
 40
0.0
 40
0.0
 40
0.2279996568
 40
0.42864337
 40
0.6006385868
 40
0.6755514553
 40
0.7429045142
 40
0.8025920018
 40
0.8545270435
 40
0.8986239201
 40
0.9348081065
 40
0.9630353012
 40
0.9741542031
 40
0.983272076
 40
0.990387884
 40
0.9955080563
 40
0.9986601191
 40
1.0
 40
1.0
 40
1.0
 40
1.0
 10
257.682995288
 20
569.9595100157
 30
0.0
 10
257.9534043551
 20
569.9626838132
 30
0.0
 10
258.4617730117
 20
569.9691129119
 30
0.0
 10
259.1741031601
 20
569.9798492488
 30
0.0
 10
259.7048523148
 20
569.9895254949
 30
0.0
 10
260.0775061477
 20
569.99762657
 30
0.0
 10
260.3169688655
 20
570.0034996268
 30
0.0
 10
260.5291677508
 20
570.0094393215
 30
0.0
 10
260.7137663325
 20
570.0154308982
 30
0.0
 10
260.8704775793
 20
570.0214520222
 30
0.0
 10
260.9990229627
 20
570.0274842094
 30
0.0
 10
261.0884895296
 20
570.0328128819
 30
0.0
 10
261.1457500893
 20
570.0372501109
 30
0.0
 10
261.1781577966
 20
570.0403416272
 30
0.0
 10
261.2030309602
 20
570.0432638298
 30
0.0
 10
261.221689856
 20
570.0464235659
 30
0.0
 10
261.2315983965
 20
570.0487820727
 30
0.0
 10
261.2378581489
 20
570.0516400169
 30
0.0
 10
261.2378581111
 20
570.0532292337
 30
0.0
  0
SPLINE
  5
2A0
100
AcDbEntity
  8
0
100
AcDbSpline
 62
7
  6
CONTINUOUS
 70
0
 71
3
 72
29
 73
25
 74
0
 42
0.0000001
 43
0.0000001
 44
0.0000000001
 40
0.0
 40
0.0
 40
0.0
 40
0.0
 40
0.000369313
 40
0.0012970392
 40
0.0028166487
 40
0.004933143
 40
0.0076465769
 40
0.0109558029
 40
0.0193551932
 40
0.0301157847
 40
0.0432107687
 40
0.0586086719
 40
0.0762749692
 40
0.0961649225
 40
0.1182314471
 40
0.1686785834
 40
0.2271305579
 40
0.2930238239
 40
0.3657249068
 40
0.4445346393
 40
0.5286922605
 40
0.6173891294
 40
0.8049421525
 40
1.0
 40
1.0
 40
1.0
 40
1.0
 10
261.2378581111
 20
571.5731713568
 30
0.0
 10
261.2378580584
 20
571.5709550479
 30
0.0
 10
261.2278550092
 20
571.5678402276
 30
0.0
 10
261.2136084115
 20
571.5646981419
 30
0.0
 10
261.1851602573
 20
571.5609761636
 30
0.0
 10
261.1477964485
 20
571.5573281866
 30
0.0
 10
261.0988757263
 20
571.5535640246
 30
0.0
 10
261.0126003614
 20
571.5481190951
 30
0.0
 10
260.8778421435
 20
571.5416168591
 30
0.0
 10
260.6844424983
 20
571.5342702144
 30
0.0
 10
260.4489767566
 20
571.5269690241
 30
0.0
 10
260.1720651087
 20
571.5197393593
 30
0.0
 10
259.8543564177
 20
571.5126186255
 30
0.0
 10
259.4966185607
 20
571.5056256223
 30
0.0
 10
258.9421708155
 20
571.4960734171
 30
0.0
 10
258.1563029915
 20
571.484841942
 30
0.0
 10
257.1074147222
 20
571.4726597789
 30
0.0
 10
255.9249598637
 20
571.4613949199
 30
0.0
 10
254.6203213745
 20
571.4511646834
 30
0.0
 10
253.2060646133
 20
571.4420795328
 30
0.0
 10
251.6958057573
 20
571.4342306205
 30
0.0
 10
249.5329580859
 20
571.4253590333
 30
0.0
 10
246.704569585
 20
571.4180318037
 30
0.0
 10
244.408457591
 20
571.4160937178
 30
0.0
 10
243.2378829638
 20
571.4160937178
 30
0.0
  0
SPLINE
  5
2A1
100
AcDbEntity
  8
0
100
AcDbSpline
 62
7
  6
CONTINUOUS
 70
0
 71
3
 72
16
 73
12
 74
0
 42
0.0000001
 43
0.0000001
 44
0.0000000001
 40
0.0
 40
0.0
 40
0.0
 40
0.0
 40
0.0057484291
 40
0.018218457
 40
0.0658750305
 40
0.1444125179
 40
0.2539235326
 40
0.3943877555
 40
0.5656942709
 40
0.7676374735
 40
1.0
 40
1.0
 40
1.0
 40
1.0
 10
256.2378829638
 20
571.5731713568
 30
0.0
 10
256.2378829638
 20
571.5740069849
 30
0.0
 10
256.2351173396
 20
571.5757651224
 30
0.0
 10
256.2264984772
 20
571.5781488781
 30
0.0
 10
256.2059233018
 20
571.5814094915
 30
0.0
 10
256.1721914267
 20
571.5847124897
 30
0.0
 10
256.1244023013
 20
571.5882830665
 30
0.0
 10
256.0633262214
 20
571.5918130358
 30
0.0
 10
255.988710744
 20
571.5953774531
 30
0.0
 10
255.9007540798
 20
571.5989249633
 30
0.0
 10
255.8376567133
 20
571.6011276707
 30
0.0
 10
255.8038973139
 20
571.6022390812
 30
0.0
  0
SPLINE
  5
2A2
100
AcDbEntity
  8
0
100
AcDbSpline
 62
7
  6
CONTINUOUS
 70
0
 71
3
 72
16
 73
12
 74
0
 42
0.0000001
 43
0.0000001
 44
0.0000000001
 40
0.0
 40
0.0
 40
0.0
 40
0.0
 40
0.2323634999
 40
0.4343056464
 40
0.6056091295
 40
0.7460690725
 40
0.8555770755
 40
0.9341133772
 40
0.9817714561
 40
0.9942443673
 40
1.0
 40
1.0
 40
1.0
 40
1.0
 10
230.6697792032
 20
571.6021701987
 30
0.0
 10
230.6361815506
 20
571.6010613016
 30
0.0
 10
230.573386798
 20
571.5988636187
 30
0.0
 10
230.4858524389
 20
571.5953243083
 30
0.0
 10
230.4115962994
 20
571.5917682443
 30
0.0
 10
230.3508146101
 20
571.5882465821
 30
0.0
 10
230.3032571667
 20
571.5846845525
 30
0.0
 10
230.2696863112
 20
571.5813894262
 30
0.0
 10
230.2492134425
 20
571.5781366966
 30
0.0
 10
230.2406326695
 20
571.5757584126
 30
0.0
 10
230.2378829638
 20
571.5740040222
 30
0.0
 10
230.2378829638
 20
571.5731713568
 30
0.0
  0
SPLINE
  5
2A3
100
AcDbEntity
  8
0
100
AcDbSpline
 62
7
  6
CONTINUOUS
 70
0
 71
3
 72
29
 73
25
 74
0
 42
0.0000001
 43
0.0000001
 44
0.0000000001
 40
0.0
 40
0.0
 40
0.0
 40
0.0
 40
0.1950570724
 40
0.3826095132
 40
0.4713062149
 40
0.5554638452
 40
0.6342737492
 40
0.7069750795
 40
0.7728685685
 40
0.8313207485
 40
0.8817680856
 40
0.9038346902
 40
0.9237247324
 40
0.9413911135
 40
0.9567890808
 40
0.9698841163
 40
0.9806447627
 40
0.9890441737
 40
0.9923534002
 40
0.995066837
 40
0.9971833436
 40
0.9987029688
 40
0.9996306944
 40
1.0
 40
1.0
 40
1.0
 40
1.0
 10
243.2378829638
 20
571.4160937178
 30
0.0
 10
242.0673129865
 20
571.4160937178
 30
0.0
 10
239.771209135
 20
571.4180317908
 30
0.0
 10
236.9428297793
 20
571.4253589593
 30
0.0
 10
234.7799865475
 20
571.4342304925
 30
0.0
 10
233.2697276084
 20
571.4420793827
 30
0.0
 10
231.8554682764
 20
571.4511645114
 30
0.0
 10
230.550825933
 20
571.4613947392
 30
0.0
 10
229.3683670166
 20
571.4726596104
 30
0.0
 10
228.319474969
 20
571.4848417898
 30
0.0
 10
227.5336042247
 20
571.4960732672
 30
0.0
 10
226.9791542605
 20
571.5056254987
 30
0.0
 10
226.6214148864
 20
571.5126185145
 30
0.0
 10
226.3037047741
 20
571.5197392623
 30
0.0
 10
226.0267919297
 20
571.526968946
 30
0.0
 10
225.7913251644
 20
571.534270167
 30
0.0
 10
225.597924757
 20
571.541616812
 30
0.0
 10
225.4631660783
 20
571.5481190668
 30
0.0
 10
225.3768905747
 20
571.5535640116
 30
0.0
 10
225.3279697476
 20
571.5573281961
 30
0.0
 10
225.2906057864
 20
571.5609761545
 30
0.0
 10
225.2621573861
 20
571.5646981729
 30
0.0
 10
225.2479108573
 20
571.5678401291
 30
0.0
 10
225.2379077637
 20
571.5709550921
 30
0.0
 10
225.2379078164
 20
571.5731713567
 30
0.0
  0
SPLINE
  5
2A4
100
AcDbEntity
  8
0
100
AcDbSpline
 62
7
  6
CONTINUOUS
 70
0
 71
3
 72
26
 73
22
 74
0
 42
0.0000001
 43
0.0000001
 44
0.0000000001
 40
0.0
 40
0.0
 40
0.0
 40
0.0
 40
0.2179332564
 40
0.4147436363
 40
0.5041916422
 40
0.5871597284
 40
0.6633096258
 40
0.732318
 40
0.79390447
 40
0.8478083314
 40
0.8938093171
 40
0.9317160404
 40
0.9475826246
 40
0.9613714735
 40
0.9730685013
 40
0.9826601443
 40
0.9901379176
 40
0.9955005247
 40
0.9987546638
 40
0.999606469
 40
1.0
 40
1.0
 40
1.0
 40
1.0
 10
252.1554688761
 20
553.7054151517
 30
0.0
 10
252.7704987773
 20
553.7022070809
 30
0.0
 10
253.9409434807
 20
553.6952533325
 30
0.0
 10
255.3638017442
 20
553.684259424
 30
0.0
 10
256.4057641788
 20
553.6743846328
 30
0.0
 10
257.1072116754
 20
553.6668113565
 30
0.0
 10
257.7509676489
 20
553.6588711368
 30
0.0
 10
258.3343720616
 20
553.6505971152
 30
0.0
 10
258.8549835048
 20
553.6420314663
 30
0.0
 10
259.3106500627
 20
553.6332199366
 30
0.0
 10
259.6994712328
 20
553.6242060198
 30
0.0
 10
259.980934244
 20
553.616194241
 30
0.0
 10
260.1714922162
 20
553.6095159977
 30
0.0
 10
260.2880895427
 20
553.6047915464
 30
0.0
 10
260.3870006948
 20
553.6000460674
 30
0.0
 10
260.4679659322
 20
553.5953478735
 30
0.0
 10
260.5313142451
 20
553.5905959475
 30
0.0
 10
260.5760339626
 20
553.5861999757
 30
0.0
 10
260.6032981627
 20
553.5818587798
 30
0.0
 10
260.6147326317
 20
553.5786837012
 30
0.0
 10
260.6183907385
 20
553.5763397969
 30
0.0
 10
260.6183907126
 20
553.5752291972
 30
0.0
  0
SPLINE
  5
2A5
100
AcDbEntity
  8
0
100
AcDbSpline
 62
7
  6
CONTINUOUS
 70
0
 71
3
 72
22
 73
18
 74
0
 42
0.0000001
 43
0.0000001
 44
0.0000000001
 40
0.0
 40
0.0
 40
0.0
 40
0.0
 40
0.2250552096
 40
0.4246067478
 40
0.5967534228
 40
0.6720431971
 40
0.7398923741
 40
0.8001404692
 40
0.8526576013
 40
0.8973157929
 40
0.9340004047
 40
0.9626406472
 40
0.9831782504
 40
0.9903939462
 40
0.9955739171
 40
0.9987372285
 40
1.0
 40
1.0
 40
1.0
 40
1.0
 10
249.5647733702
 20
557.629457849
 30
0.0
 10
249.7564589443
 20
557.6277596714
 30
0.0
 10
250.1181055124
 20
557.6242645452
 30
0.0
 10
250.6263615503
 20
557.6182851933
 30
0.0
 10
251.0070492889
 20
557.6127785118
 30
0.0
 10
251.275556253
 20
557.6081007492
 30
0.0
 10
251.448760319
 20
557.6046781925
 30
0.0
 10
251.6025591811
 20
557.6011930057
 30
0.0
 10
251.7366063927
 20
557.5976581199
 30
0.0
 10
251.8505489321
 20
557.5940865825
 30
0.0
 10
251.9442125722
 20
557.5905005967
 30
0.0
 10
252.0171271983
 20
557.5869220128
 30
0.0
 10
252.0653385721
 20
557.5837416192
 30
0.0
 10
252.0928901279
 20
557.5810377792
 30
0.0
 10
252.1066411558
 20
557.5792129749
 30
0.0
 10
252.113548176
 20
557.5776869185
 30
0.0
 10
252.1183747039
 20
557.5761524682
 30
0.0
 10
252.1183744751
 20
557.5750768896
 30
0.0
  0
SPLINE
  5
2A6
100
AcDbEntity
  8
0
100
AcDbSpline
 62
7
  6
CONTINUOUS
 70
0
 71
3
 72
29
 73
25
 74
0
 42
0.0000001
 43
0.0000001
 44
0.0000000001
 40
0.0
 40
0.0
 40
0.0
 40
0.0
 40
0.0003697798
 40
0.0012986757
 40
0.0028189225
 40
0.0049348936
 40
0.0076472901
 40
0.0109557853
 40
0.0193566006
 40
0.0301172887
 40
0.0432109194
 40
0.0586095769
 40
0.0762760174
 40
0.0961652282
 40
0.1182317512
 40
0.1686792011
 40
0.2271309069
 40
0.2930237698
 40
0.3657268788
 40
0.4445347262
 40
0.5286911366
 40
0.6173897803
 40
0.80493902
 40
1.0
 40
1.0
 40
1.0
 40
1.0
 10
231.3573751347
 20
539.5757622743
 30
0.0
 10
231.3573743019
 20
539.5742975974
 30
0.0
 10
231.3639917913
 20
539.5722457922
 30
0.0
 10
231.3733976255
 20
539.5701696332
 30
0.0
 10
231.3921821735
 20
539.5677144
 30
0.0
 10
231.4168386598
 20
539.5653052056
 30
0.0
 10
231.4491189733
 20
539.5628207388
 30
0.0
 10
231.5060616355
 20
539.5592260961
 30
0.0
 10
231.5950093318
 20
539.5549362888
 30
0.0
 10
231.7226592877
 20
539.5500866233
 30
0.0
 10
231.8780715266
 20
539.545266981
 30
0.0
 10
232.0608394591
 20
539.540495935
 30
0.0
 10
232.270537032
 20
539.5357959524
 30
0.0
 10
232.5066520175
 20
539.5311801218
 30
0.0
 10
232.8726019238
 20
539.5248755572
 30
0.0
 10
233.3912976741
 20
539.5174624686
 30
0.0
 10
234.0835929639
 20
539.5094219035
 30
0.0
 10
234.8640528599
 20
539.5019863463
 30
0.0
 10
235.7251511058
 20
539.4952347538
 30
0.0
 10
236.6585973856
 20
539.4892378241
 30
0.0
 10
237.6554068433
 20
539.4840572639
 30
0.0
 10
239.0829363479
 20
539.4782024697
 30
0.0
 10
240.9497593201
 20
539.4733654624
 30
0.0
 10
242.4652573183
 20
539.4720865173
 30
0.0
 10
243.2378829638
 20
539.4720865173
 30
0.0
  0
SPLINE
  5
2A7
100
AcDbEntity
  8
0
100
AcDbSpline
 62
7
  6
CONTINUOUS
 70
0
 71
3
 72
9
 73
5
 74
0
 42
0.0000001
 43
0.0000001
 44
0.0000000001
 40
0.0
 40
0.0
 40
0.0
 40
0.0
 40
0.5385429501
 40
1.0
 40
1.0
 40
1.0
 40
1.0
 10
243.2378829638
 20
551.4236336489
 30
0.0
 10
245.3903012299
 20
551.4236336489
 30
0.0
 10
249.387045633
 20
551.429993039
 30
0.0
 10
253.383756809
 20
551.450167095
 30
0.0
 10
255.2280187014
 20
551.4655040508
 30
0.0
  0
SPLINE
  5
2A8
100
AcDbEntity
  8
0
100
AcDbSpline
 62
7
  6
CONTINUOUS
 70
0
 71
3
 72
23
 73
19
 74
0
 42
0.0000001
 43
0.0000001
 44
0.0000000001
 40
0.0
 40
0.0
 40
0.0
 40
0.0
 40
0.2242904153
 40
0.4235444941
 40
0.5957282746
 40
0.6711102812
 40
0.7390857725
 40
0.7994808816
 40
0.8521487911
 40
0.8969469582
 40
0.9337657913
 40
0.9625188195
 40
0.97384508
 40
0.9831294222
 40
0.990370865
 40
0.9955717974
 40
0.9987464806
 40
1.0
 40
1.0
 40
1.0
 40
1.0
 10
255.2280187014
 20
551.4655040508
 30
0.0
 10
255.6312532622
 20
551.4688573656
 30
0.0
 10
256.3927067824
 20
551.4757879185
 30
0.0
 10
257.463692287
 20
551.4877299929
 30
0.0
 10
258.2669486002
 20
551.4987893419
 30
0.0
 10
258.8341778275
 20
551.5082223232
 30
0.0
 10
259.2004363312
 20
551.5151406466
 30
0.0
 10
259.5258481993
 20
551.5221969442
 30
0.0
 10
259.8095707848
 20
551.5293663962
 30
0.0
 10
260.050903728
 20
551.5366147161
 30
0.0
 10
260.249171787
 20
551.5439174244
 30
0.0
 10
260.3873524814
 20
551.5503774104
 30
0.0
 10
260.4758282587
 20
551.5557959328
 30
0.0
 10
260.5259981591
 20
551.5595347821
 30
0.0
 10
260.5642894419
 20
551.563181372
 30
0.0
 10
260.5935173782
 20
551.5668479207
 30
0.0
 10
260.6080368493
 20
551.5700369965
 30
0.0
 10
260.6183907652
 20
551.5730516667
 30
0.0
 10
260.6183907126
 20
551.5753053511
 30
0.0
  0
SPLINE
  5
2A9
100
AcDbEntity
  8
0
100
AcDbSpline
 62
7
  6
CONTINUOUS
 70
0
 71
3
 72
29
 73
25
 74
0
 42
0.0000001
 43
0.0000001
 44
0.0000000001
 40
0.0
 40
0.0
 40
0.0
 40
0.0
 40
0.1950573715
 40
0.3826055235
 40
0.4713042479
 40
0.5554611349
 40
0.634269677
 40
0.7069736536
 40
0.7728673002
 40
0.8313198271
 40
0.8817677335
 40
0.903834618
 40
0.9237238639
 40
0.9413903225
 40
0.9567892692
 40
0.9698828344
 40
0.9806433482
 40
0.9890443668
 40
0.9923529139
 40
0.9950652366
 40
0.9971810808
 40
0.9987012204
 40
0.9996301002
 40
1.0
 40
1.0
 40
1.0
 40
1.0
 10
243.2378829638
 20
539.4720865173
 30
0.0
 10
244.0104942955
 20
539.4720865173
 30
0.0
 10
245.5259736527
 20
539.4733654305
 30
0.0
 10
247.3927782944
 20
539.4782022996
 30
0.0
 10
248.820305661
 20
539.4840570188
 30
0.0
 10
249.8171200517
 20
539.4892375345
 30
0.0
 10
250.7505743831
 20
539.4952344766
 30
0.0
 10
251.611681899
 20
539.5019860636
 30
0.0
 10
252.3921515671
 20
539.509421714
 30
0.0
 10
253.0844550039
 20
539.5174622593
 30
0.0
 10
253.6031572309
 20
539.5248755274
 30
0.0
 10
253.9691105076
 20
539.5311800347
 30
0.0
 10
254.2052271294
 20
539.5357959336
 30
0.0
 10
254.4149260498
 20
539.5404960237
 30
0.0
 10
254.5976949421
 20
539.5452669593
 30
0.0
 10
254.753107363
 20
539.550086615
 30
0.0
 10
254.8807571907
 20
539.5549364942
 30
0.0
 10
254.9697051489
 20
539.5592261249
 30
0.0
 10
255.0266486285
 20
539.5628207723
 30
0.0
 10
255.0589281432
 20
539.5653051026
 30
0.0
 10
255.0835839548
 20
539.5677146899
 30
0.0
 10
255.1023662304
 20
539.5701691057
 30
0.0
 10
255.1117742028
 20
539.5722469577
 30
0.0
 10
255.1183899598
 20
539.5742971224
 30
0.0
 10
255.1183907928
 20
539.5757622744
 30
0.0
  0
SPLINE
  5
2AA
100
AcDbEntity
  8
0
100
AcDbSpline
 62
7
  6
CONTINUOUS
 70
0
 71
3
 72
23
 73
19
 74
0
 42
0.0000001
 43
0.0000001
 44
0.0000000001
 40
0.0
 40
0.0
 40
0.0
 40
0.0
 40
0.0012535413
 40
0.0044282191
 40
0.0096291328
 40
0.0168705572
 40
0.0261548948
 40
0.0374811719
 40
0.0662341416
 40
0.1030528769
 40
0.1478510391
 40
0.2005188553
 40
0.2609138827
 40
0.328889428
 40
0.4042713997
 40
0.5764553017
 40
0.7757094394
 40
1.0
 40
1.0
 40
1.0
 40
1.0
 10
225.8573752149
 20
551.5753053511
 30
0.0
 10
225.8573752674
 20
551.5730517232
 30
0.0
 10
225.8677285379
 20
551.5700371456
 30
0.0
 10
225.8822475866
 20
551.5668480888
 30
0.0
 10
225.911474069
 20
551.5631816371
 30
0.0
 10
225.9497636927
 20
551.5595351163
 30
0.0
 10
225.9999314206
 20
551.5557963525
 30
0.0
 10
226.0884033522
 20
551.5503779669
 30
0.0
 10
226.2265779005
 20
551.543918106
 30
0.0
 10
226.4248372277
 20
551.5366155442
 30
0.0
 10
226.6661595417
 20
551.5293673972
 30
0.0
 10
226.9498697237
 20
551.5221980737
 30
0.0
 10
227.2752675201
 20
551.5151419021
 30
0.0
 10
227.6415103196
 20
551.5082237198
 30
0.0
 10
228.2087156525
 20
551.4987908709
 30
0.0
 10
229.0119380349
 20
551.4877317036
 30
0.0
 10
230.0828785372
 20
551.4757897542
 30
0.0
 10
230.8443000132
 20
551.4688592582
 30
0.0
 10
231.2475176715
 20
551.4655059593
 30
0.0
  0
SPLINE
  5
2AB
100
AcDbEntity
  8
0
100
AcDbSpline
 62
7
  6
CONTINUOUS
 70
0
 71
3
 72
9
 73
5
 74
0
 42
0.0000001
 43
0.0000001
 44
0.0000000001
 40
0.0
 40
0.0
 40
0.0
 40
0.0
 40
0.4614541722
 40
1.0
 40
1.0
 40
1.0
 40
1.0
 10
231.2475176715
 20
551.4655059593
 30
0.0
 10
233.0918033676
 20
551.4501682353
 30
0.0
 10
237.0885910629
 20
551.4299933415
 30
0.0
 10
241.0854119862
 20
551.4236336489
 30
0.0
 10
243.2378829638
 20
551.4236336489
 30
0.0
  0
SPLINE
  5
2AC
100
AcDbEntity
  8
0
100
AcDbSpline
 62
7
  6
CONTINUOUS
 70
0
 71
3
 72
26
 73
22
 74
0
 42
0.0000001
 43
0.0000001
 44
0.0000000001
 40
0.0
 40
0.0
 40
0.0
 40
0.0
 40
0.0003935477
 40
0.0012453519
 40
0.0044994524
 40
0.0098619912
 40
0.017339686
 40
0.026931243
 40
0.0386281305
 40
0.0524168037
 40
0.0682832046
 40
0.1061895705
 40
0.1521900863
 40
0.2060935647
 40
0.2676796052
 40
0.3366876595
 40
0.4128372595
 40
0.4958051603
 40
0.5852531281
 40
0.7820642295
 40
1.0
 40
1.0
 40
1.0
 40
1.0
 10
225.8573752149
 20
553.5752291972
 30
0.0
 10
225.8573752408
 20
553.5763397007
 30
0.0
 10
225.8610327379
 20
553.578683402
 30
0.0
 10
225.8724657696
 20
553.5818583558
 30
0.0
 10
225.8997259393
 20
553.5861991773
 30
0.0
 10
225.9444394253
 20
553.5905948926
 30
0.0
 10
226.0077788365
 20
553.5953464647
 30
0.0
 10
226.0887327565
 20
553.6000443267
 30
0.0
 10
226.1876299789
 20
553.6047894858
 30
0.0
 10
226.3042108273
 20
553.6095136206
 30
0.0
 10
226.4947421513
 20
553.616191423
 30
0.0
 10
226.7761659462
 20
553.6242026643
 30
0.0
 10
227.1649334695
 20
553.6332160598
 30
0.0
 10
227.6205375481
 20
553.642027058
 30
0.0
 10
228.1410785483
 20
553.6505922813
 30
0.0
 10
228.7244046525
 20
553.6588658987
 30
0.0
 10
229.3680752122
 20
553.6668058072
 30
0.0
 10
230.0694306406
 20
553.6743788302
 30
0.0
 10
231.1112599031
 20
553.6842534031
 30
0.0
 10
232.5339434198
 20
553.6952472795
 30
0.0
 10
233.7042460867
 20
553.7022012111
 30
0.0
 10
234.3192036494
 20
553.7054094388
 30
0.0
  0
SPLINE
  5
2AD
100
AcDbEntity
  8
0
100
AcDbSpline
 62
7
  6
CONTINUOUS
 70
0
 71
3
 72
22
 73
18
 74
0
 42
0.0000001
 43
0.0000001
 44
0.0000000001
 40
0.0
 40
0.0
 40
0.0
 40
0.0
 40
0.0012630209
 40
0.0044265068
 40
0.0096063544
 40
0.0168216582
 40
0.0373595768
 40
0.0660007481
 40
0.1026855931
 40
0.1473436428
 40
0.1998614251
 40
0.2601099828
 40
0.3279587928
 40
0.4032485554
 40
0.5753950003
 40
0.7749456236
 40
1.0
 40
1.0
 40
1.0
 40
1.0
 10
234.3573914524
 20
557.5750768894
 30
0.0
 10
234.3573916812
 20
557.5761527087
 30
0.0
 10
234.3622184095
 20
557.5776865521
 30
0.0
 10
234.3691262569
 20
557.5792132308
 30
0.0
 10
234.3828770808
 20
557.5810377999
 30
0.0
 10
234.410429341
 20
557.5837420578
 30
0.0
 10
234.4586426189
 20
557.5869222068
 30
0.0
 10
234.531560474
 20
557.5905008953
 30
0.0
 10
234.6252274295
 20
557.5940869419
 30
0.0
 10
234.7391736068
 20
557.5976585939
 30
0.0
 10
234.8732251746
 20
557.6011934602
 30
0.0
 10
235.0270287225
 20
557.6046786687
 30
0.0
 10
235.2002374189
 20
557.6081013001
 30
0.0
 10
235.468750934
 20
557.6127790621
 30
0.0
 10
235.849447709
 20
557.6182857652
 30
0.0
 10
236.357715441
 20
557.6242651461
 30
0.0
 10
236.71937004
 20
557.627760265
 30
0.0
 10
236.91105995
 20
557.6294584457
 30
0.0
  0
SPLINE
  5
2AE
100
AcDbEntity
  8
0
100
AcDbSpline
 62
7
  6
CONTINUOUS
 70
0
 71
3
 72
26
 73
22
 74
0
 42
0.0000001
 43
0.0000001
 44
0.0000000001
 40
0.0
 40
0.0
 40
0.0
 40
0.0
 40
0.0003632291
 40
0.001283478
 40
0.0027953043
 40
0.0049043701
 40
0.0109158854
 40
0.0193053851
 40
0.0300529895
 40
0.0431376174
 40
0.0585298521
 40
0.076188159
 40
0.1181317486
 40
0.1685725927
 40
0.2270206309
 40
0.2929159315
 40
0.3656202144
 40
0.4444352798
 40
0.61731663
 40
0.8049036502
 40
1.0
 40
1.0
 40
1.0
 40
1.0
 10
236.9435089401
 20
557.5750936289
 30
0.0
 10
236.9434824648
 20
557.5743318384
 30
0.0
 10
236.9469657497
 20
557.5732053991
 30
0.0
 10
236.9518845455
 20
557.5721414006
 30
0.0
 10
236.9617928681
 20
557.570821189
 30
0.0
 10
236.9816361837
 20
557.5688939154
 30
0.0
 10
237.0164213347
 20
557.5666119794
 30
0.0
 10
237.06903499
 20
557.5640545361
 30
0.0
 10
237.136644837
 20
557.5614875626
 30
0.0
 10
237.2189055826
 20
557.5589326633
 30
0.0
 10
237.3156941093
 20
557.5564047849
 30
0.0
 10
237.4730309195
 20
557.5528774595
 30
0.0
 10
237.7039248357
 20
557.5487277813
 30
0.0
 10
238.020420117
 20
557.5441960872
 30
0.0
 10
238.3871873555
 20
557.5399366741
 30
0.0
 10
238.8006808717
 20
557.5359957244
 30
0.0
 10
239.2569201668
 20
557.5324170117
 30
0.0
 10
239.9376738261
 20
557.5280443326
 30
0.0
 10
240.8595185795
 20
557.5238512885
 30
0.0
 10
242.0253894729
 20
557.5208253184
 30
0.0
 10
242.8284656578
 20
557.5201485577
 30
0.0
 10
243.2378829638
 20
557.5201485577
 30
0.0
  0
SPLINE
  5
2AF
100
AcDbEntity
  8
0
100
AcDbSpline
 62
7
  6
CONTINUOUS
 70
0
 71
3
 72
9
 73
5
 74
0
 42
0.0000001
 43
0.0000001
 44
0.0000000001
 40
0.0
 40
0.0
 40
0.0
 40
0.0
 40
0.5420436584
 40
1.0
 40
1.0
 40
1.0
 40
1.0
 10
243.2378829638
 20
557.497580739
 30
0.0
 10
242.0947225807
 20
557.497580739
 30
0.0
 10
239.9857405136
 20
557.5010744087
 30
0.0
 10
237.8767761923
 20
557.5121398752
 30
0.0
 10
236.9109923557
 20
557.5206959317
 30
0.0
  0
SPLINE
  5
2B0
100
AcDbEntity
  8
0
100
AcDbSpline
 62
7
  6
CONTINUOUS
 70
0
 71
3
 72
22
 73
18
 74
0
 42
0.0000001
 43
0.0000001
 44
0.0000000001
 40
0.0
 40
0.0
 40
0.0
 40
0.0
 40
0.2250552104
 40
0.4246067488
 40
0.5967534239
 40
0.672043198
 40
0.7398923749
 40
0.8001404698
 40
0.8526576018
 40
0.8973157932
 40
0.934000405
 40
0.9626406473
 40
0.9831782504
 40
0.9903939462
 40
0.9955739171
 40
0.9987372285
 40
1.0
 40
1.0
 40
1.0
 40
1.0
 10
236.9109923557
 20
557.5206959317
 30
0.0
 10
236.7193067961
 20
557.5223941093
 30
0.0
 10
236.3576602556
 20
557.5258892355
 30
0.0
 10
235.849404257
 20
557.5318685873
 30
0.0
 10
235.4687165483
 20
557.5373752686
 30
0.0
 10
235.2002096056
 20
557.542053031
 30
0.0
 10
235.0270055536
 20
557.5454755876
 30
0.0
 10
234.8732067039
 20
557.5489607743
 30
0.0
 10
234.7391595033
 20
557.55249566
 30
0.0
 10
234.6252169733
 20
557.5560671972
 30
0.0
 10
234.5315533409
 20
557.5596531829
 30
0.0
 10
234.4586387208
 20
557.5632317667
 30
0.0
 10
234.410427351
 20
557.5664121601
 30
0.0
 10
234.3828757975
 20
557.569116
 30
0.0
 10
234.3691247708
 20
557.5709408043
 30
0.0
 10
234.362217751
 20
557.5724668605
 30
0.0
 10
234.3573912236
 20
557.5740013108
 30
0.0
 10
234.3573914524
 20
557.5750768894
 30
0.0
  0
SPLINE
  5
2B1
100
AcDbEntity
  8
0
100
AcDbSpline
 62
7
  6
CONTINUOUS
 70
0
 71
3
 72
29
 73
25
 74
0
 42
0.0000001
 43
0.0000001
 44
0.0000000001
 40
0.0
 40
0.0
 40
0.0
 40
0.0
 40
0.1950577828
 40
0.3826089048
 40
0.4713061508
 40
0.5554639178
 40
0.6342732202
 40
0.7069743796
 40
0.7728686145
 40
0.8313205302
 40
0.8817668174
 40
0.9038346254
 40
0.9237243166
 40
0.9413895572
 40
0.9567890869
 40
0.9698833036
 40
0.9806431354
 40
0.9890442561
 40
0.9923532015
 40
0.9950656825
 40
0.9971815086
 40
0.9987015196
 40
0.999630228
 40
1.0
 40
1.0
 40
1.0
 40
1.0
 10
243.2378829638
 20
553.423557495
 30
0.0
 10
242.1075940711
 20
553.423557495
 30
0.0
 10
239.8905142289
 20
553.4254287972
 30
0.0
 10
237.1594740071
 20
553.4325040325
 30
0.0
 10
235.0710687872
 20
553.4410701492
 30
0.0
 10
233.6127849946
 20
553.4486486971
 30
0.0
 10
232.2472011263
 20
553.4574214277
 30
0.0
 10
230.9874582436
 20
553.4672996707
 30
0.0
 10
229.8456918844
 20
553.4781765538
 30
0.0
 10
228.8329007787
 20
553.4899393005
 30
0.0
 10
228.0740764589
 20
553.5007852555
 30
0.0
 10
227.5387090353
 20
553.5100077794
 30
0.0
 10
227.1932829384
 20
553.5167600048
 30
0.0
 10
226.8865064463
 20
553.5236369868
 30
0.0
 10
226.6191258338
 20
553.5306162235
 30
0.0
 10
226.3917630554
 20
553.5376664284
 30
0.0
 10
226.205018229
 20
553.5447622943
 30
0.0
 10
226.0748934589
 20
553.5510381033
 30
0.0
 10
225.9915845819
 20
553.5562962298
 30
0.0
 10
225.9443582356
 20
553.5599308623
 30
0.0
 10
225.9082883717
 20
553.5634555149
 30
0.0
 10
225.8808123645
 20
553.5670471787
 30
0.0
 10
225.8670521104
 20
553.5700851595
 30
0.0
 10
225.8573751649
 20
553.5730865031
 30
0.0
 10
225.8573752149
 20
553.5752291972
 30
0.0
  0
SPLINE
  5
2B2
100
AcDbEntity
  8
0
100
AcDbSpline
 62
7
  6
CONTINUOUS
 70
0
 71
3
 72
26
 73
22
 74
0
 42
0.0000001
 43
0.0000001
 44
0.0000000001
 40
0.0
 40
0.0
 40
0.0
 40
0.0
 40
0.1950930463
 40
0.3826776048
 40
0.5555587071
 40
0.6343743131
 40
0.7070793181
 40
0.7729757855
 40
0.8314248057
 40
0.8818666893
 40
0.9238110044
 40
0.9414695559
 40
0.956862036
 40
0.9699468907
 40
0.9806945277
 40
0.9890840021
 40
0.9950955964
 40
0.9972047443
 40
0.9987165879
 40
0.9996368101
 40
1.0
 40
1.0
 40
1.0
 40
1.0
 10
243.2378829638
 20
557.5201485577
 30
0.0
 10
243.6472933407
 20
557.5201485577
 30
0.0
 10
244.4503574338
 20
557.5208252918
 30
0.0
 10
245.6162157183
 20
557.5238511838
 30
0.0
 10
246.5380559279
 20
557.5280441541
 30
0.0
 10
247.2188117232
 20
557.5324167474
 30
0.0
 10
247.6750561204
 20
557.5359954876
 30
0.0
 10
248.0885556653
 20
557.5399364113
 30
0.0
 10
248.4553295974
 20
557.5441958879
 30
0.0
 10
248.7718306462
 20
557.548727608
 30
0.0
 10
249.0027287818
 20
557.5528773363
 30
0.0
 10
249.1600681431
 20
557.5564047115
 30
0.0
 10
249.2568581756
 20
557.5589326203
 30
0.0
 10
249.3391199789
 20
557.5614875064
 30
0.0
 10
249.4067303254
 20
557.564054522
 30
0.0
 10
249.4593441401
 20
557.5666119642
 30
0.0
 10
249.4941296213
 20
557.5688940037
 30
0.0
 10
249.5139732478
 20
557.5708211353
 30
0.0
 10
249.5238818343
 20
557.5721414745
 30
0.0
 10
249.5288003727
 20
557.5732052281
 30
0.0
 10
249.5322836352
 20
557.5743319267
 30
0.0
 10
249.5322569834
 20
557.5750936287
 30
0.0
  0
SPLINE
  5
2B3
100
AcDbEntity
  8
0
100
AcDbSpline
 62
7
  6
CONTINUOUS
 70
0
 71
3
 72
29
 73
25
 74
0
 42
0.0000001
 43
0.0000001
 44
0.0000000001
 40
0.0
 40
0.0
 40
0.0
 40
0.0
 40
0.0003697758
 40
0.001298481
 40
0.0028184844
 40
0.0049343024
 40
0.0076467783
 40
0.0109557248
 40
0.0193568223
 40
0.0301166097
 40
0.043210804
 40
0.0586102872
 40
0.0762754642
 40
0.0961651258
 40
0.1182328764
 40
0.1686790415
 40
0.2271307428
 40
0.2930247135
 40
0.3657255939
 40
0.4445346385
 40
0.5286923754
 40
0.6173898029
 40
0.8049415123
 40
1.0
 40
1.0
 40
1.0
 40
1.0
 10
260.6183907126
 20
553.5752291972
 30
0.0
 10
260.6183906627
 20
553.573086481
 30
0.0
 10
260.6087138643
 20
553.5700852227
 30
0.0
 10
260.5949535043
 20
553.5670471533
 30
0.0
 10
260.5674776922
 20
553.563455535
 30
0.0
 10
260.531407913
 20
553.5599308656
 30
0.0
 10
260.4841816505
 20
553.5562962447
 30
0.0
 10
260.4008729234
 20
553.5510381408
 30
0.0
 10
260.2707485434
 20
553.5447623333
 30
0.0
 10
260.0840042371
 20
553.5376664653
 30
0.0
 10
259.8566421155
 20
553.5306162924
 30
0.0
 10
259.589262271
 20
553.5236370591
 30
0.0
 10
259.2824865896
 20
553.516760073
 30
0.0
 10
258.9370613653
 20
553.510007873
 30
0.0
 10
258.4016951543
 20
553.5007853433
 30
0.0
 10
257.6428731171
 20
553.4899394167
 30
0.0
 10
256.6300854928
 20
553.4781766713
 30
0.0
 10
255.4883235244
 20
553.4672998111
 30
0.0
 10
254.2285852838
 20
553.4574215897
 30
0.0
 10
252.8630047021
 20
553.4486488302
 30
0.0
 10
251.4047215269
 20
553.4410702653
 30
0.0
 10
249.3163120277
 20
553.4325041069
 30
0.0
 10
246.5852632682
 20
553.4254288064
 30
0.0
 10
244.3681759397
 20
553.423557495
 30
0.0
 10
243.2378829638
 20
553.423557495
 30
0.0
  0
SPLINE
  5
2B4
100
AcDbEntity
  8
0
100
AcDbSpline
 62
7
  6
CONTINUOUS
 70
0
 71
3
 72
28
 73
24
 74
0
 42
0.0000001
 43
0.0000001
 44
0.0000000001
 40
0.0
 40
0.0
 40
0.0
 40
0.0
 40
0.1950580722
 40
0.3826064091
 40
0.4713060674
 40
0.5554630955
 40
0.6342719793
 40
0.7069742571
 40
0.7728687324
 40
0.8313223283
 40
0.8817681583
 40
0.9038364349
 40
0.9237269671
 40
0.9413911252
 40
0.9567901913
 40
0.9698862517
 40
0.9806448443
 40
0.9890445455
 40
0.9950680401
 40
0.9971843295
 40
0.9987034323
 40
0.9996308163
 40
1.0
 40
1.0
 40
1.0
 40
1.0
 10
243.2378829638
 20
553.4977330467
 30
0.0
 10
243.8153998083
 20
553.4977330467
 30
0.0
 10
244.9481993184
 20
553.4986889574
 30
0.0
 10
246.3436116946
 20
553.5023046139
 30
0.0
 10
247.4106695896
 20
553.5066807832
 30
0.0
 10
248.1557767974
 20
553.5105534441
 30
0.0
 10
248.8535155745
 20
553.5150355938
 30
0.0
 10
249.4971782686
 20
553.5200827804
 30
0.0
 10
250.0805676356
 20
553.525640656
 30
0.0
 10
250.5980529205
 20
553.5316504205
 30
0.0
 10
250.9857759759
 20
553.5371924787
 30
0.0
 10
251.2593217046
 20
553.5419047678
 30
0.0
 10
251.4358171692
 20
553.5453543765
 30
0.0
 10
251.5925583472
 20
553.5488686886
 30
0.0
 10
251.7291845964
 20
553.5524343396
 30
0.0
 10
251.8453302299
 20
553.5560381385
 30
0.0
 10
251.9408131934
 20
553.5596568009
 30
0.0
 10
252.0151463018
 20
553.563270243
 30
0.0
 10
252.0643017057
 20
553.5664788527
 30
0.0
 10
252.0923878793
 20
553.5692117833
 30
0.0
 10
252.1064148218
 20
553.5710491591
 30
0.0
 10
252.1134418608
 20
553.5725986137
 30
0.0
 10
252.1183747076
 20
553.5741361391
 30
0.0
 10
252.1183744751
 20
553.5752291971
 30
0.0
  0
SPLINE
  5
2B5
100
AcDbEntity
  8
0
100
AcDbSpline
 62
7
  6
CONTINUOUS
 70
0
 71
3
 72
22
 73
18
 74
0
 42
0.0000001
 43
0.0000001
 44
0.0000000001
 40
0.0
 40
0.0
 40
0.0
 40
0.0
 40
0.0012630209
 40
0.0044265068
 40
0.0096063544
 40
0.0168216581
 40
0.0373595767
 40
0.0660007479
 40
0.1026855928
 40
0.1473436423
 40
0.1998614245
 40
0.260109982
 40
0.3279587918
 40
0.4032485544
 40
0.5753949992
 40
0.7749456229
 40
1.0
 40
1.0
 40
1.0
 40
1.0
 10
252.1183744751
 20
557.5750768896
 30
0.0
 10
252.1183742463
 20
557.5740010703
 30
0.0
 10
252.1135475185
 20
557.572467227
 30
0.0
 10
252.1066396715
 20
557.5709405483
 30
0.0
 10
252.0928888489
 20
557.5691159793
 30
0.0
 10
252.0653365909
 20
557.5664117215
 30
0.0
 10
252.017123317
 20
557.5632315726
 30
0.0
 10
251.944205468
 20
557.5596528843
 30
0.0
 10
251.8505385202
 20
557.5560668379
 30
0.0
 10
251.7365923522
 20
557.5524951859
 30
0.0
 10
251.6025407955
 20
557.5489603198
 30
0.0
 10
251.4487372601
 20
557.5454751115
 30
0.0
 10
251.2755285777
 20
557.5420524802
 30
0.0
 10
251.0070150841
 20
557.5373747183
 30
0.0
 10
250.626318339
 20
557.5318680154
 30
0.0
 10
250.1180506463
 20
557.5258886346
 30
0.0
 10
249.7563960751
 20
557.5223935157
 30
0.0
 10
249.5647061795
 20
557.5206953351
 30
0.0
  0
SPLINE
  5
2B6
100
AcDbEntity
  8
0
100
AcDbSpline
 62
7
  6
CONTINUOUS
 70
0
 71
3
 72
9
 73
5
 74
0
 42
0.0000001
 43
0.0000001
 44
0.0000000001
 40
0.0
 40
0.0
 40
0.0
 40
0.0
 40
0.4579535458
 40
1.0
 40
1.0
 40
1.0
 40
1.0
 10
249.5647061795
 20
557.5206953351
 30
0.0
 10
248.5989385249
 20
557.5121396002
 30
0.0
 10
246.4899966685
 20
557.5010743518
 30
0.0
 10
244.3810370661
 20
557.497580739
 30
0.0
 10
243.2378829638
 20
557.497580739
 30
0.0
  0
SPLINE
  5
2B7
100
AcDbEntity
  8
0
100
AcDbSpline
 62
7
  6
CONTINUOUS
 70
0
 71
3
 72
28
 73
24
 74
0
 42
0.0000001
 43
0.0000001
 44
0.0000000001
 40
0.0
 40
0.0
 40
0.0
 40
0.0
 40
0.0003692538
 40
0.0012966762
 40
0.0028157208
 40
0.0049318701
 40
0.0109553857
 40
0.0193552459
 40
0.0301137485
 40
0.0432096155
 40
0.0586086808
 40
0.0762727382
 40
0.0961629169
 40
0.1182309378
 40
0.1686761043
 40
0.2271288256
 40
0.2930224186
 40
0.3657238344
 40
0.4445321137
 40
0.528688889
 40
0.6173885924
 40
0.804938446
 40
1.0
 40
1.0
 40
1.0
 40
1.0
 10
234.3573914524
 20
553.5752291973
 30
0.0
 10
234.3573916849
 20
553.5741359317
 30
0.0
 10
234.3623245003
 20
553.572599027
 30
0.0
 10
234.3693521321
 20
553.5710489909
 30
0.0
 10
234.3833782872
 20
553.5692118752
 30
0.0
 10
234.4114641025
 20
553.5664785879
 30
0.0
 10
234.4606195161
 20
553.5632702842
 30
0.0
 10
234.534952946
 20
553.5596568086
 30
0.0
 10
234.6304355156
 20
553.5560381414
 30
0.0
 10
234.7465803129
 20
553.5524343053
 30
0.0
 10
234.8832056862
 20
553.5488687357
 30
0.0
 10
235.0399455161
 20
553.5453544578
 30
0.0
 10
235.2164388749
 20
553.5419048305
 30
0.0
 10
235.4899808321
 20
553.5371926188
 30
0.0
 10
235.8776985707
 20
553.5316506024
 30
0.0
 10
236.3951766818
 20
553.5256408799
 30
0.0
 10
236.9785582859
 20
553.5200830398
 30
0.0
 10
237.622214016
 20
553.5150358498
 30
0.0
 10
238.3199476923
 20
553.5105536876
 30
0.0
 10
239.0650524844
 20
553.506680997
 30
0.0
 10
240.1321142386
 20
553.5023047343
 30
0.0
 10
241.5275415267
 20
553.4986889873
 30
0.0
 10
242.6603558191
 20
553.4977330467
 30
0.0
 10
243.2378829638
 20
553.4977330467
 30
0.0
  0
SPLINE
  5
2B8
100
AcDbEntity
  8
0
100
AcDbSpline
 62
7
  6
CONTINUOUS
 70
0
 71
3
 72
28
 73
24
 74
0
 42
0.0000001
 43
0.0000001
 44
0.0000000001
 40
0.0
 40
0.0
 40
0.0
 40
0.0
 40
0.0003690975
 40
0.0012566643
 40
0.0027026562
 40
0.0047139852
 40
0.010436184
 40
0.0184179056
 40
0.0286471015
 40
0.0411094211
 40
0.0557813468
 40
0.0726346185
 40
0.0916407799
 40
0.1127671447
 40
0.1612151077
 40
0.2176316923
 40
0.2816032452
 40
0.3526709102
 40
0.4303157014
 40
0.5139768408
 40
0.6030459552
 40
0.794796201
 40
1.0
 40
1.0
 40
1.0
 40
1.0
 10
218.7423286023
 20
104.1830897205
 30
0.0
 10
218.7423284776
 20
104.1854829377
 30
0.0
 10
218.7521977178
 20
104.1895142744
 30
0.0
 10
218.7672881646
 20
104.1929948996
 30
0.0
 10
218.7962315039
 20
104.1975383688
 30
0.0
 10
218.8547375435
 20
104.2040069327
 30
0.0
 10
218.9568528057
 20
104.2117681911
 30
0.0
 10
219.1115571407
 20
104.2204240249
 30
0.0
 10
219.310346313
 20
104.2291549256
 30
0.0
 10
219.5524212426
 20
104.2378617973
 30
0.0
 10
219.8375163354
 20
104.2465131144
 30
0.0
 10
220.1650451371
 20
104.2550762375
 30
0.0
 10
220.5344443815
 20
104.2635277598
 30
0.0
 10
221.1086799186
 20
104.2751543783
 30
0.0
 10
221.9254864132
 20
104.2889863493
 30
0.0
 10
223.020109182
 20
104.3042420782
 30
0.0
 10
224.261419802
 20
104.3186776332
 30
0.0
 10
225.6403910166
 20
104.3321729809
 30
0.0
 10
227.1470434178
 20
104.3446209302
 30
0.0
 10
228.7704286457
 20
104.3559234735
 30
0.0
 10
231.1336694519
 20
104.369688032
 30
0.0
 10
234.2850019408
 20
104.3831741202
 30
0.0
 10
236.8588324478
 20
104.389846004
 30
0.0
 10
238.1893653866
 20
104.392293397
 30
0.0
  0
SPLINE
  5
2B9
100
AcDbEntity
  8
0
100
AcDbSpline
 62
7
  6
CONTINUOUS
 70
0
 71
3
 72
9
 73
5
 74
0
 42
0.0000001
 43
0.0000001
 44
0.0000000001
 40
0.0
 40
0.0
 40
0.0
 40
0.0
 40
0.2199628159
 40
1.0
 40
1.0
 40
1.0
 40
1.0
 10
236.0029319762
 20
79.8921243301
 30
0.0
 10
236.1095202194
 20
79.8841845485
 30
0.0
 10
236.5942311464
 20
79.8499268981
 30
0.0
 10
237.0793523954
 20
79.821715186
 30
0.0
 10
237.457843735
 20
79.8014605915
 30
0.0
  0
SPLINE
  5
2BA
100
AcDbEntity
  8
0
100
AcDbSpline
 62
7
  6
CONTINUOUS
 70
0
 71
3
 72
21
 73
17
 74
0
 42
0.0000001
 43
0.0000001
 44
0.0000000001
 40
0.0
 40
0.0
 40
0.0
 40
0.0
 40
0.0013804911
 40
0.0045410295
 40
0.0096523021
 40
0.0167432903
 40
0.0368907753
 40
0.0649995754
 40
0.1010489408
 40
0.1449848684
 40
0.1967467363
 40
0.256272624
 40
0.398284645
 40
0.5702253398
 40
0.7711700912
 40
1.0
 40
1.0
 40
1.0
 40
1.0
 10
213.3922967718
 20
98.5633037129
 30
0.0
 10
213.3922968803
 20
98.5656546924
 30
0.0
 10
213.4010476064
 20
98.5701604012
 30
0.0
 10
213.415477024
 20
98.5737535542
 30
0.0
 10
213.4420503455
 20
98.5786491895
 30
0.0
 10
213.4962266659
 20
98.5854778492
 30
0.0
 10
213.5905100548
 20
98.5937600594
 30
0.0
 10
213.7336140285
 20
98.6029556257
 30
0.0
 10
213.9175366724
 20
98.6122645891
 30
0.0
 10
214.1416863992
 20
98.6215651569
 30
0.0
 10
214.4058799661
 20
98.6308361132
 30
0.0
 10
214.8370502404
 20
98.6438854701
 30
0.0
 10
215.4729008514
 20
98.659473043
 30
0.0
 10
216.3496002831
 20
98.6768881082
 30
0.0
 10
217.374186034
 20
98.6937550614
 30
0.0
 10
218.1060231928
 20
98.7039272283
 30
0.0
 10
218.4956884591
 20
98.7089682269
 30
0.0
  0
SPLINE
  5
2BB
100
AcDbEntity
  8
0
100
AcDbSpline
 62
7
  6
CONTINUOUS
 70
0
 71
3
 72
21
 73
17
 74
0
 42
0.0000001
 43
0.0000001
 44
0.0000000001
 40
0.0
 40
0.0
 40
0.0
 40
0.0
 40
0.2288306239
 40
0.4297757343
 40
0.6017162407
 40
0.7437281284
 40
0.8032537441
 40
0.8550155233
 40
0.8989514115
 40
0.935000623
 40
0.9631092156
 40
0.9832566767
 40
0.9903476817
 40
0.9954589691
 40
0.9986195079
 40
1.0
 40
1.0
 40
1.0
 40
1.0
 10
267.9896193863
 20
98.7089585688
 30
0.0
 10
268.3792288541
 20
98.7039178032
 30
0.0
 10
269.1109607569
 20
98.6937461201
 30
0.0
 10
270.1353980905
 20
98.6768801597
 30
0.0
 10
271.0119692902
 20
98.6594661139
 30
0.0
 10
271.6477258338
 20
98.6438796397
 30
0.0
 10
272.0788321524
 20
98.6308311255
 30
0.0
 10
272.3429863604
 20
98.6215608333
 30
0.0
 10
272.5671027854
 20
98.6122609568
 30
0.0
 10
272.7509978015
 20
98.6029526707
 30
0.0
 10
272.894080142
 20
98.5937577567
 30
0.0
 10
272.9883493087
 20
98.5854761169
 30
0.0
 10
273.0425176735
 20
98.5786480697
 30
0.0
 10
273.0690870791
 20
98.5737526671
 30
0.0
 10
273.0835143992
 20
98.5701600556
 30
0.0
 10
273.0922636561
 20
98.5656543502
 30
0.0
 10
273.0922635477
 20
98.5633037129
 30
0.0
  0
SPLINE
  5
2BC
100
AcDbEntity
  8
0
100
AcDbSpline
 62
7
  6
CONTINUOUS
 70
0
 71
3
 72
28
 73
24
 74
0
 42
0.0000001
 43
0.0000001
 44
0.0000000001
 40
0.0
 40
0.0
 40
0.0
 40
0.0
 40
0.2051858018
 40
0.3969285813
 40
0.48599715
 40
0.5696594799
 40
0.6473065475
 40
0.7183773155
 40
0.7823522839
 40
0.8387723561
 40
0.8872237272
 40
0.9083516629
 40
0.9273592628
 40
0.9442139286
 40
0.9588871048
 40
0.9713504363
 40
0.9815805218
 40
0.9895629916
 40
0.9952856907
 40
0.9972971543
 40
0.9987432531
 40
0.9996308932
 40
1.0
 40
1.0
 40
1.0
 40
1.0
 10
248.28602
 20
104.3923102594
 30
0.0
 10
249.6170637595
 20
104.3898665718
 30
0.0
 10
252.1919430817
 20
104.3832006704
 30
0.0
 10
255.3445932546
 20
104.3697195632
 30
0.0
 10
257.7089045058
 20
104.3559569609
 30
0.0
 10
259.3330744115
 20
104.3446548578
 30
0.0
 10
260.8404801061
 20
104.3322063416
 30
0.0
 10
262.2201588316
 20
104.3187096607
 30
0.0
 10
263.4621198973
 20
104.304271969
 30
0.0
 10
264.5573259129
 20
104.2890134232
 30
0.0
 10
265.374572654
 20
104.2751785524
 30
0.0
 10
265.9491207316
 20
104.2635492726
 30
0.0
 10
266.3187228234
 20
104.2550956691
 30
0.0
 10
266.6464326522
 20
104.2465304157
 30
0.0
 10
266.9316860049
 20
104.2378769117
 30
0.0
 10
267.1738956203
 20
104.2291676614
 30
0.0
 10
267.372795872
 20
104.2204344295
 30
0.0
 10
267.5275870611
 20
104.2117761587
 30
0.0
 10
267.629759806
 20
104.2040130187
 30
0.0
 10
267.6882981385
 20
104.1975423019
 30
0.0
 10
267.7172577618
 20
104.1929979222
 30
0.0
 10
267.7323559267
 20
104.1895156788
 30
0.0
 10
267.7422315923
 20
104.1854841263
 30
0.0
 10
267.7422317172
 20
104.1830897205
 30
0.0
  0
SPLINE
  5
2BD
100
AcDbEntity
  8
0
100
AcDbSpline
 62
7
  6
CONTINUOUS
 70
0
 71
3
 72
15
 73
11
 74
0
 42
0.0000001
 43
0.0000001
 44
0.0000000001
 40
0.0
 40
0.0
 40
0.0
 40
0.0
 40
0.4329075092
 40
0.6047227558
 40
0.7459609575
 40
0.8562812138
 40
0.9353835627
 40
0.9831214062
 40
0.9952796255
 40
1.0
 40
1.0
 40
1.0
 40
1.0
 10
248.2378829636
 20
104.1630111919
 30
0.0
 10
248.3107899357
 20
104.164392558
 30
0.0
 10
248.4125966834
 20
104.1665356877
 30
0.0
 10
248.5382725806
 20
104.1700493876
 30
0.0
 10
248.6093933448
 20
104.1725172872
 30
0.0
 10
248.6654321419
 20
104.1749223378
 30
0.0
 10
248.7044152688
 20
104.1774065459
 30
0.0
 10
248.7292761031
 20
104.1793871602
 30
0.0
 10
248.738506912
 20
104.1813410525
 30
0.0
 10
248.7422801598
 20
104.1822946085
 30
0.0
 10
248.7422801598
 20
104.1830897205
 30
0.0
  0
SPLINE
  5
2BE
100
AcDbEntity
  8
0
100
AcDbSpline
 62
7
  6
CONTINUOUS
 70
0
 71
3
 72
14
 73
10
 74
0
 42
0.0000001
 43
0.0000001
 44
0.0000000001
 40
0.0
 40
0.0
 40
0.0
 40
0.0
 40
0.0166703894
 40
0.0644102104
 40
0.1435135737
 40
0.253838703
 40
0.3950916994
 40
0.5669380309
 40
1.0
 40
1.0
 40
1.0
 40
1.0
 10
237.7422801598
 20
104.1830897205
 30
0.0
 10
237.7422801598
 20
104.1803312053
 30
0.0
 10
237.7585212469
 20
104.1810699494
 30
0.0
 10
237.7767909428
 20
104.1764577426
 30
0.0
 10
237.8190043292
 20
104.1754534295
 30
0.0
 10
237.8723357113
 20
104.1724277553
 30
0.0
 10
237.9428748863
 20
104.1702277166
 30
0.0
 10
238.0660482796
 20
104.1666230512
 30
0.0
 10
238.1662356108
 20
104.164549992
 30
0.0
 10
238.2378829636
 20
104.163178664
 30
0.0
  0
SPLINE
  5
2BF
100
AcDbEntity
  8
0
100
AcDbSpline
 62
7
  6
CONTINUOUS
 70
0
 71
3
 72
29
 73
25
 74
0
 42
0.0000001
 43
0.0000001
 44
0.0000000001
 40
0.0
 40
0.0
 40
0.0
 40
0.0
 40
0.000369779
 40
0.0012984863
 40
0.0028184913
 40
0.0049343112
 40
0.0076467904
 40
0.0109557426
 40
0.0193568542
 40
0.0301166552
 40
0.0432108599
 40
0.0586103529
 40
0.0762755387
 40
0.0961652051
 40
0.1182329597
 40
0.168679113
 40
0.227130768
 40
0.293024677
 40
0.3657254932
 40
0.4445344788
 40
0.5286922131
 40
0.617389706
 40
0.80494158
 40
1.0
 40
1.0
 40
1.0
 40
1.0
 10
213.3922967718
 20
96.5833791052
 30
0.0
 10
213.3922969415
 20
96.5796990868
 30
0.0
 10
213.4089162285
 20
96.5745446891
 30
0.0
 10
213.4325489841
 20
96.5693268931
 30
0.0
 10
213.4797370499
 20
96.5631585413
 30
0.0
 10
213.5416848317
 20
96.557105106
 30
0.0
 10
213.6227932147
 20
96.5508628638
 30
0.0
 10
213.765871209
 20
96.5418323766
 30
0.0
 10
213.9893523842
 20
96.5310540496
 30
0.0
 10
214.310074951
 20
96.5188673137
 30
0.0
 10
214.7005561435
 20
96.506759058
 30
0.0
 10
215.1597653363
 20
96.4947726423
 30
0.0
 10
215.6866344694
 20
96.482961833
 30
0.0
 10
216.2798818238
 20
96.4713653342
 30
0.0
 10
217.1993412677
 20
96.4555261998
 30
0.0
 10
218.50257223
 20
96.4368989807
 30
0.0
 10
220.2419732566
 20
96.4166971863
 30
0.0
 10
222.2028794906
 20
96.3980168445
 30
0.0
 10
224.3664027938
 20
96.3810516042
 30
0.0
 10
226.7117045821
 20
96.3659849127
 30
0.0
 10
229.216218823
 20
96.352969177
 30
0.0
 10
232.8029395941
 20
96.3382572994
 30
0.0
 10
237.4933542412
 20
96.3261058856
 30
0.0
 10
241.3010701956
 20
96.3228920206
 30
0.0
 10
243.2422801598
 20
96.3228920206
 30
0.0
  0
SPLINE
  5
2C0
100
AcDbEntity
  8
0
100
AcDbSpline
 62
7
  6
CONTINUOUS
 70
0
 71
3
 72
29
 73
25
 74
0
 42
0.0000001
 43
0.0000001
 44
0.0000000001
 40
0.0
 40
0.0
 40
0.0
 40
0.0
 40
0.1950588074
 40
0.3826089498
 40
0.4713072535
 40
0.5554651589
 40
0.6342736319
 40
0.7069757462
 40
0.7728701608
 40
0.8313209764
 40
0.8817685129
 40
0.9038349061
 40
0.9237259978
 40
0.9413912224
 40
0.9567891353
 40
0.9698849443
 40
0.9806447538
 40
0.9890441546
 40
0.992353665
 40
0.995067311
 40
0.9971837521
 40
0.9987031289
 40
0.9996307207
 40
1.0
 40
1.0
 40
1.0
 40
1.0
 10
243.2422801598
 20
103.9692896008
 30
0.0
 10
241.6489911169
 20
103.9692896008
 30
0.0
 10
238.5237450817
 20
103.9719272519
 30
0.0
 10
234.6740002854
 20
103.9819012583
 30
0.0
 10
231.7301354936
 20
103.9939758024
 30
0.0
 10
229.6745028279
 20
104.0046586291
 30
0.0
 10
227.7495429075
 20
104.0170255101
 30
0.0
 10
225.9737784783
 20
104.0309495733
 30
0.0
 10
224.3643186204
 20
104.0462815494
 30
0.0
 10
222.93666281
 20
104.0628642996
 30
0.0
 10
221.8670172605
 20
104.0781504796
 30
0.0
 10
221.1123412385
 20
104.0911531701
 30
0.0
 10
220.6254210569
 20
104.100669904
 30
0.0
 10
220.1929838899
 20
104.1103632369
 30
0.0
 10
219.8160785448
 20
104.1202038487
 30
0.0
 10
219.4955832137
 20
104.1301399985
 30
0.0
 10
219.2323445629
 20
104.1401409559
 30
0.0
 10
219.0489277708
 20
104.1489912706
 30
0.0
 10
218.9314932959
 20
104.1564019768
 30
0.0
 10
218.8649031686
 20
104.1615252194
 30
0.0
 10
218.8140473329
 20
104.1664902515
 30
0.0
 10
218.7753303469
 20
104.1715568849
 30
0.0
 10
218.7559413635
 20
104.1758333202
 30
0.0
 10
218.7423287596
 20
104.1800733548
 30
0.0
 10
218.7423286023
 20
104.1830897205
 30
0.0
  0
SPLINE
  5
2C1
100
AcDbEntity
  8
0
100
AcDbSpline
 62
7
  6
CONTINUOUS
 70
0
 71
3
 72
15
 73
11
 74
0
 42
0.0000001
 43
0.0000001
 44
0.0000000001
 40
0.0
 40
0.0
 40
0.0
 40
0.0
 40
0.0047203745
 40
0.0168785938
 40
0.0646164373
 40
0.1437187862
 40
0.2540390425
 40
0.3952772442
 40
0.5670924908
 40
1.0
 40
1.0
 40
1.0
 40
1.0
 10
248.7422801598
 20
104.1830897205
 30
0.0
 10
248.7422801598
 20
104.1838848326
 30
0.0
 10
248.738506912
 20
104.1848383886
 30
0.0
 10
248.7292761031
 20
104.1867922809
 30
0.0
 10
248.7044152688
 20
104.1887728951
 30
0.0
 10
248.6654321419
 20
104.1912571033
 30
0.0
 10
248.6093933448
 20
104.1936621539
 30
0.0
 10
248.5382725806
 20
104.1961300535
 30
0.0
 10
248.4125966834
 20
104.1996437533
 30
0.0
 10
248.3107899357
 20
104.2017868831
 30
0.0
 10
248.2378829636
 20
104.2031682492
 30
0.0
  0
SPLINE
  5
2C2
100
AcDbEntity
  8
0
100
AcDbSpline
 62
7
  6
CONTINUOUS
 70
0
 71
3
 72
14
 73
10
 74
0
 42
0.0000001
 43
0.0000001
 44
0.0000000001
 40
0.0
 40
0.0
 40
0.0
 40
0.0
 40
0.4330619691
 40
0.6049083006
 40
0.746161297
 40
0.8564864263
 40
0.9355897896
 40
0.9833296106
 40
1.0
 40
1.0
 40
1.0
 40
1.0
 10
238.2378829636
 20
104.203000777
 30
0.0
 10
238.1662356108
 20
104.201629449
 30
0.0
 10
238.0660482796
 20
104.1995563899
 30
0.0
 10
237.9428748863
 20
104.1959517245
 30
0.0
 10
237.8723357113
 20
104.1937516858
 30
0.0
 10
237.8190043292
 20
104.1907260115
 30
0.0
 10
237.7767909428
 20
104.1897216984
 30
0.0
 10
237.7585212469
 20
104.1851094916
 30
0.0
 10
237.7422801598
 20
104.1858482357
 30
0.0
 10
237.7422801598
 20
104.1830897205
 30
0.0
  0
SPLINE
  5
2C3
100
AcDbEntity
  8
0
100
AcDbSpline
 62
7
  6
CONTINUOUS
 70
0
 71
3
 72
29
 73
25
 74
0
 42
0.0000001
 43
0.0000001
 44
0.0000000001
 40
0.0
 40
0.0
 40
0.0
 40
0.0
 40
0.0003692624
 40
0.0012968472
 40
0.0028162453
 40
0.0049327097
 40
0.0076463459
 40
0.0109558286
 40
0.0193551809
 40
0.0301150186
 40
0.0432107834
 40
0.0586086376
 40
0.0762738801
 40
0.0961649295
 40
0.1182312545
 40
0.1686786898
 40
0.2271292744
 40
0.2930232914
 40
0.3657250799
 40
0.4445333013
 40
0.5286911928
 40
0.6173897489
 40
0.8049405745
 40
1.0
 40
1.0
 40
1.0
 40
1.0
 10
218.7423286023
 20
98.5633037129
 30
0.0
 10
218.7423284451
 20
98.5602874853
 30
0.0
 10
218.7559411053
 20
98.5560470308
 30
0.0
 10
218.7753297533
 20
98.551770989
 30
0.0
 10
218.8140472709
 20
98.5467042196
 30
0.0
 10
218.8649033022
 20
98.541739306
 30
0.0
 10
218.9314933422
 20
98.5366160033
 30
0.0
 10
219.0489270999
 20
98.5292053014
 30
0.0
 10
219.2323435082
 20
98.5203549474
 30
0.0
 10
219.4955816322
 20
98.5103541087
 30
0.0
 10
219.8160763535
 20
98.5004179089
 30
0.0
 10
220.192981005
 20
98.4905772782
 30
0.0
 10
220.6254174963
 20
98.4808840082
 30
0.0
 10
221.1123369228
 20
98.4713672527
 30
0.0
 10
221.8670112181
 20
98.4583645544
 30
0.0
 10
222.9366535012
 20
98.4430784315
 30
0.0
 10
224.3643033549
 20
98.4264957272
 30
0.0
 10
225.9737554212
 20
98.4111637549
 30
0.0
 10
227.7495118927
 20
98.3972397458
 30
0.0
 10
229.6744669902
 20
98.3848728462
 30
0.0
 10
231.7300995562
 20
98.3741899537
 30
0.0
 10
234.6739718868
 20
98.3621153661
 30
0.0
 10
238.5237293872
 20
98.3521412522
 30
0.0
 10
241.6489860625
 20
98.3495035932
 30
0.0
 10
243.2422801598
 20
98.3495035932
 30
0.0
  0
SPLINE
  5
2C4
100
AcDbEntity
  8
0
100
AcDbSpline
 62
7
  6
CONTINUOUS
 70
0
 71
3
 72
29
 73
25
 74
0
 42
0.0000001
 43
0.0000001
 44
0.0000000001
 40
0.0
 40
0.0
 40
0.0
 40
0.0
 40
0.0003692624
 40
0.0012968472
 40
0.0028162453
 40
0.0049327097
 40
0.0076463459
 40
0.0109558286
 40
0.0193551809
 40
0.0301150186
 40
0.0432107834
 40
0.0586086376
 40
0.0762738801
 40
0.0961649295
 40
0.1182312545
 40
0.1686786898
 40
0.2271292744
 40
0.2930232914
 40
0.3657250799
 40
0.4445333013
 40
0.5286911928
 40
0.6173897489
 40
0.8049405745
 40
1.0
 40
1.0
 40
1.0
 40
1.0
 10
267.7422317172
 20
104.1830897205
 30
0.0
 10
267.7422318745
 20
104.1800734929
 30
0.0
 10
267.7286192142
 20
104.1758330384
 30
0.0
 10
267.7092305662
 20
104.1715569967
 30
0.0
 10
267.6705130486
 20
104.1664902272
 30
0.0
 10
267.6196570173
 20
104.1615253136
 30
0.0
 10
267.5530669773
 20
104.156402011
 30
0.0
 10
267.4356332196
 20
104.148991309
 30
0.0
 10
267.2522168113
 20
104.140140955
 30
0.0
 10
266.9889786873
 20
104.1301401163
 30
0.0
 10
266.6684839661
 20
104.1202039165
 30
0.0
 10
266.2915793146
 20
104.1103632858
 30
0.0
 10
265.8591428232
 20
104.1006700158
 30
0.0
 10
265.3722233967
 20
104.0911532603
 30
0.0
 10
264.6175491014
 20
104.078150562
 30
0.0
 10
263.5479068183
 20
104.0628644391
 30
0.0
 10
262.1202569646
 20
104.0462817348
 30
0.0
 10
260.5108048983
 20
104.0309497626
 30
0.0
 10
258.7350484269
 20
104.0170257535
 30
0.0
 10
256.8100933293
 20
104.0046588538
 30
0.0
 10
254.7544607633
 20
103.9939759613
 30
0.0
 10
251.8105884327
 20
103.9819013738
 30
0.0
 10
247.9608309323
 20
103.9719272599
 30
0.0
 10
244.835574257
 20
103.9692896008
 30
0.0
 10
243.2422801598
 20
103.9692896008
 30
0.0
  0
SPLINE
  5
2C5
100
AcDbEntity
  8
0
100
AcDbSpline
 62
7
  6
CONTINUOUS
 70
0
 71
3
 72
29
 73
25
 74
0
 42
0.0000001
 43
0.0000001
 44
0.0000000001
 40
0.0
 40
0.0
 40
0.0
 40
0.0
 40
0.1950577445
 40
0.3826090479
 40
0.4713063618
 40
0.5554641301
 40
0.6342733835
 40
0.7069744893
 40
0.7728686691
 40
0.8313205356
 40
0.8817667939
 40
0.9038345935
 40
0.9237242747
 40
0.9413895174
 40
0.9567890461
 40
0.969883262
 40
0.9806431097
 40
0.9890442395
 40
0.9923531845
 40
0.9950656692
 40
0.9971815012
 40
0.9987015178
 40
0.9996302293
 40
1.0
 40
1.0
 40
1.0
 40
1.0
 10
243.2422801598
 20
96.3228920206
 30
0.0
 10
245.1834834052
 20
96.3228920206
 30
0.0
 10
248.9911869651
 20
96.3261058709
 30
0.0
 10
253.6815874382
 20
96.3382571748
 30
0.0
 10
257.2683010945
 20
96.352968984
 30
0.0
 10
259.7728165617
 20
96.3659846939
 30
0.0
 10
262.1181242404
 20
96.381051338
 30
0.0
 10
264.2816557889
 20
96.3980166217
 30
0.0
 10
266.2425697083
 20
96.4166970089
 30
0.0
 10
267.981976582
 20
96.4368988078
 30
0.0
 10
269.2852111439
 20
96.4555260769
 30
0.0
 10
270.2046722303
 20
96.4713651965
 30
0.0
 10
270.7979207469
 20
96.4829617403
 30
0.0
 10
271.3247909509
 20
96.4947725321
 30
0.0
 10
271.7840011769
 20
96.5067589475
 30
0.0
 10
272.1744833026
 20
96.5188672657
 30
0.0
 10
272.4952066223
 20
96.5310539807
 30
0.0
 10
272.7186883872
 20
96.5418323038
 30
0.0
 10
272.8617665214
 20
96.5508628401
 30
0.0
 10
272.942875051
 20
96.5571051136
 30
0.0
 10
273.0048230055
 20
96.5631584822
 30
0.0
 10
273.0520116281
 20
96.5693269881
 30
0.0
 10
273.0756439827
 20
96.5745444713
 30
0.0
 10
273.0922637174
 20
96.5796991687
 30
0.0
 10
273.0922635477
 20
96.5833791052
 30
0.0
  0
SPLINE
  5
2C6
100
AcDbEntity
  8
0
100
AcDbSpline
 62
7
  6
CONTINUOUS
 70
0
 71
3
 72
29
 73
25
 74
0
 42
0.0000001
 43
0.0000001
 44
0.0000000001
 40
0.0
 40
0.0
 40
0.0
 40
0.0
 40
0.000369779
 40
0.0012984863
 40
0.0028184913
 40
0.0049343112
 40
0.0076467904
 40
0.0109557426
 40
0.0193568542
 40
0.0301166552
 40
0.0432108599
 40
0.0586103529
 40
0.0762755387
 40
0.0961652051
 40
0.1182329597
 40
0.168679113
 40
0.227130768
 40
0.293024677
 40
0.3657254932
 40
0.4445344788
 40
0.5286922131
 40
0.617389706
 40
0.80494158
 40
1.0
 40
1.0
 40
1.0
 40
1.0
 10
273.0922635477
 20
98.5633037129
 30
0.0
 10
273.092263378
 20
98.5596236945
 30
0.0
 10
273.075644091
 20
98.5544692968
 30
0.0
 10
273.0520113354
 20
98.5492515007
 30
0.0
 10
273.0048232696
 20
98.543083149
 30
0.0
 10
272.9428754878
 20
98.5370297136
 30
0.0
 10
272.8617671048
 20
98.5307874715
 30
0.0
 10
272.7186891106
 20
98.5217569843
 30
0.0
 10
272.4952079353
 20
98.5109786573
 30
0.0
 10
272.1744853685
 20
98.4987919214
 30
0.0
 10
271.784004176
 20
98.4866836657
 30
0.0
 10
271.3247949832
 20
98.47469725
 30
0.0
 10
270.7979258502
 20
98.4628864406
 30
0.0
 10
270.2046784958
 20
98.4512899419
 30
0.0
 10
269.2852190518
 20
98.4354508074
 30
0.0
 10
267.9819880895
 20
98.4168235884
 30
0.0
 10
266.242587063
 20
98.396621794
 30
0.0
 10
264.281680829
 20
98.3779414522
 30
0.0
 10
262.1181575257
 20
98.3609762119
 30
0.0
 10
259.7728557374
 20
98.3459095204
 30
0.0
 10
257.2683414965
 20
98.3328937846
 30
0.0
 10
253.6816207254
 20
98.318181907
 30
0.0
 10
248.9912060783
 20
98.3060304932
 30
0.0
 10
245.1834901239
 20
98.3028166283
 30
0.0
 10
243.2422801598
 20
98.3028166283
 30
0.0
  0
SPLINE
  5
2C7
100
AcDbEntity
  8
0
100
AcDbSpline
 62
7
  6
CONTINUOUS
 70
0
 71
3
 72
29
 73
25
 74
0
 42
0.0000001
 43
0.0000001
 44
0.0000000001
 40
0.0
 40
0.0
 40
0.0
 40
0.0
 40
0.1950577445
 40
0.3826090479
 40
0.4713063618
 40
0.5554641301
 40
0.6342733835
 40
0.7069744893
 40
0.7728686691
 40
0.8313205356
 40
0.8817667939
 40
0.9038345935
 40
0.9237242747
 40
0.9413895174
 40
0.9567890461
 40
0.969883262
 40
0.9806431097
 40
0.9890442395
 40
0.9923531845
 40
0.9950656692
 40
0.9971815012
 40
0.9987015178
 40
0.9996302293
 40
1.0
 40
1.0
 40
1.0
 40
1.0
 10
243.2422801598
 20
98.3028166283
 30
0.0
 10
241.3010769143
 20
98.3028166283
 30
0.0
 10
237.4933733544
 20
98.3060304786
 30
0.0
 10
232.8029728813
 20
98.3181817825
 30
0.0
 10
229.216259225
 20
98.3328935917
 30
0.0
 10
226.7117437579
 20
98.3459093015
 30
0.0
 10
224.3664360791
 20
98.3609759457
 30
0.0
 10
222.2029045306
 20
98.3779412293
 30
0.0
 10
220.2419906112
 20
98.3966216166
 30
0.0
 10
218.5025837375
 20
98.4168234155
 30
0.0
 10
217.1993491756
 20
98.4354506845
 30
0.0
 10
216.2798880892
 20
98.4512898042
 30
0.0
 10
215.6866395726
 20
98.462886348
 30
0.0
 10
215.1597693687
 20
98.4746971397
 30
0.0
 10
214.7005591427
 20
98.4866835552
 30
0.0
 10
214.3100770169
 20
98.4987918734
 30
0.0
 10
213.9893536972
 20
98.5109785883
 30
0.0
 10
213.7658719324
 20
98.5217569114
 30
0.0
 10
213.6227937981
 20
98.5307874477
 30
0.0
 10
213.5416852685
 20
98.5370297213
 30
0.0
 10
213.479737314
 20
98.5430830898
 30
0.0
 10
213.4325486914
 20
98.5492515957
 30
0.0
 10
213.4089163368
 20
98.5544690789
 30
0.0
 10
213.3922966021
 20
98.5596237763
 30
0.0
 10
213.3922967718
 20
98.5633037129
 30
0.0
  0
SPLINE
  5
2C8
100
AcDbEntity
  8
0
100
AcDbSpline
 62
7
  6
CONTINUOUS
 70
0
 71
3
 72
29
 73
25
 74
0
 42
0.0000001
 43
0.0000001
 44
0.0000000001
 40
0.0
 40
0.0
 40
0.0
 40
0.0
 40
0.1950588074
 40
0.3826089498
 40
0.4713072535
 40
0.5554651589
 40
0.6342736319
 40
0.7069757462
 40
0.7728701608
 40
0.8313209764
 40
0.8817685129
 40
0.9038349061
 40
0.9237259978
 40
0.9413912224
 40
0.9567891353
 40
0.9698849443
 40
0.9806447538
 40
0.9890441546
 40
0.992353665
 40
0.995067311
 40
0.9971837521
 40
0.9987031289
 40
0.9996307207
 40
1.0
 40
1.0
 40
1.0
 40
1.0
 10
243.2422801598
 20
98.3495035932
 30
0.0
 10
244.8355692027
 20
98.3495035932
 30
0.0
 10
247.9608152378
 20
98.3521412443
 30
0.0
 10
251.8105600342
 20
98.3621152507
 30
0.0
 10
254.7544248259
 20
98.3741897948
 30
0.0
 10
256.8100574917
 20
98.3848726215
 30
0.0
 10
258.735017412
 20
98.3972395025
 30
0.0
 10
260.5107818412
 20
98.4111635657
 30
0.0
 10
262.1202416991
 20
98.4264955418
 30
0.0
 10
263.5478975095
 20
98.443078292
 30
0.0
 10
264.617543059
 20
98.4583644719
 30
0.0
 10
265.372219081
 20
98.4713671625
 30
0.0
 10
265.8591392626
 20
98.4808838964
 30
0.0
 10
266.2915764296
 20
98.4905772293
 30
0.0
 10
266.6684817747
 20
98.5004178411
 30
0.0
 10
266.9889771059
 20
98.5103539909
 30
0.0
 10
267.2522157567
 20
98.5203549483
 30
0.0
 10
267.4356325487
 20
98.529205263
 30
0.0
 10
267.5530670236
 20
98.5366159691
 30
0.0
 10
267.6196571509
 20
98.5417392117
 30
0.0
 10
267.6705129866
 20
98.5467042439
 30
0.0
 10
267.7092299726
 20
98.5517708773
 30
0.0
 10
267.728618956
 20
98.5560473126
 30
0.0
 10
267.7422315599
 20
98.5602873471
 30
0.0
 10
267.7422317172
 20
98.5633037129
 30
0.0
  0
SPLINE
  5
2C9
100
AcDbEntity
  8
0
100
AcDbSpline
 62
7
  6
CONTINUOUS
 70
0
 71
3
 72
19
 73
15
 74
0
 42
0.0000001
 43
0.0000001
 44
0.0000000001
 40
0.0
 40
0.0
 40
0.0
 40
0.0
 40
0.0524688334
 40
0.1078474458
 40
0.1665869591
 40
0.228745157
 40
0.3612905454
 40
0.5007954369
 40
0.6404754096
 40
0.7733148435
 40
0.8354505169
 40
0.8938940716
 40
0.9485860594
 40
1.0
 40
1.0
 40
1.0
 40
1.0
 10
246.1507462739
 20
52.9896846307
 30
0.0
 10
246.339057429
 20
53.0387430117
 30
0.0
 10
246.7144097559
 20
53.1895786767
 30
0.0
 10
247.2244727531
 20
53.5461457608
 30
0.0
 10
247.6759444979
 20
54.0248894791
 30
0.0
 10
248.1867465473
 20
54.8191500628
 30
0.0
 10
248.5760642175
 20
56.0210135436
 30
0.0
 10
248.5895816537
 20
57.5696487362
 30
0.0
 10
248.1644912362
 20
59.0585854977
 30
0.0
 10
247.4861241762
 20
60.1234702182
 30
0.0
 10
246.8002204808
 20
60.7719398565
 30
0.0
 10
246.2525033785
 20
61.1295349863
 30
0.0
 10
245.6805400091
 20
61.3549464581
 30
0.0
 10
245.2862203809
 20
61.4112922959
 30
0.0
 10
245.0955432953
 20
61.4129345197
 30
0.0
  0
SPLINE
  5
2CA
100
AcDbEntity
  8
0
100
AcDbSpline
 62
7
  6
CONTINUOUS
 70
0
 71
3
 72
19
 73
15
 74
0
 42
0.0000001
 43
0.0000001
 44
0.0000000001
 40
0.0
 40
0.0
 40
0.0
 40
0.0
 40
0.0524688334
 40
0.1078474458
 40
0.1665869591
 40
0.228745157
 40
0.3612905454
 40
0.5007954369
 40
0.6404754096
 40
0.7733148435
 40
0.8354505169
 40
0.8938940716
 40
0.9485860594
 40
1.0
 40
1.0
 40
1.0
 40
1.0
 10
237.9657573169
 20
53.0601785955
 30
0.0
 10
238.1540684719
 20
53.1092369764
 30
0.0
 10
238.5294207988
 20
53.2600726414
 30
0.0
 10
239.039483796
 20
53.6166397256
 30
0.0
 10
239.4909555408
 20
54.0953834439
 30
0.0
 10
240.0017575903
 20
54.8896440276
 30
0.0
 10
240.3910752604
 20
56.0915075084
 30
0.0
 10
240.4045926967
 20
57.640142701
 30
0.0
 10
239.9795022791
 20
59.1290794624
 30
0.0
 10
239.3011352192
 20
60.1939641829
 30
0.0
 10
238.6152315237
 20
60.8424338212
 30
0.0
 10
238.0675144214
 20
61.2000289511
 30
0.0
 10
237.495551052
 20
61.4254404229
 30
0.0
 10
237.1012314239
 20
61.4817862606
 30
0.0
 10
236.9105543382
 20
61.4834284844
 30
0.0
  0
SPLINE
  5
2CB
100
AcDbEntity
  8
0
100
AcDbSpline
 62
7
  6
CONTINUOUS
 70
0
 71
3
 72
19
 73
15
 74
0
 42
0.0000001
 43
0.0000001
 44
0.0000000001
 40
0.0
 40
0.0
 40
0.0
 40
0.0
 40
0.0524688334
 40
0.1078474458
 40
0.1665869591
 40
0.228745157
 40
0.3612905454
 40
0.5007954369
 40
0.6404754096
 40
0.7733148435
 40
0.8354505169
 40
0.8938940716
 40
0.9485860594
 40
1.0
 40
1.0
 40
1.0
 40
1.0
 10
229.7807683598
 20
53.1306725602
 30
0.0
 10
229.9690795149
 20
53.1797309412
 30
0.0
 10
230.3444318418
 20
53.3305666062
 30
0.0
 10
230.854494839
 20
53.6871336904
 30
0.0
 10
231.3059665838
 20
54.1658774087
 30
0.0
 10
231.8167686332
 20
54.9601379924
 30
0.0
 10
232.2060863033
 20
56.1620014731
 30
0.0
 10
232.2196037396
 20
57.7106366658
 30
0.0
 10
231.794513322
 20
59.1995734272
 30
0.0
 10
231.1161462621
 20
60.2644581477
 30
0.0
 10
230.4302425666
 20
60.912927786
 30
0.0
 10
229.8825254643
 20
61.2705229158
 30
0.0
 10
229.310562095
 20
61.4959343877
 30
0.0
 10
228.9162424668
 20
61.5522802254
 30
0.0
 10
228.7255653812
 20
61.5539224492
 30
0.0
  0
SPLINE
  5
2CC
100
AcDbEntity
  8
0
100
AcDbSpline
 62
7
  6
CONTINUOUS
 70
0
 71
3
 72
11
 73
7
 74
0
 42
0.0000001
 43
0.0000001
 44
0.0000000001
 40
0.0
 40
0.0
 40
0.0
 40
0.0
 40
0.2577069283
 40
0.5130508682
 40
0.7623518766
 40
1.0
 40
1.0
 40
1.0
 40
1.0
 10
213.1968213068
 20
53.2735033185
 30
0.0
 10
213.2308525026
 20
54.6721609404
 30
0.0
 10
213.2085725794
 20
57.459853463
 30
0.0
 10
212.8946775663
 20
61.5895965947
 30
0.0
 10
212.3350094634
 20
65.5829815025
 30
0.0
 10
211.7994838405
 20
68.1741372005
 30
0.0
 10
211.4942588441
 20
69.4276866423
 30
0.0
  0
SPLINE
  5
2CD
100
AcDbEntity
  8
0
100
AcDbSpline
 62
7
  6
CONTINUOUS
 70
0
 71
3
 72
13
 73
9
 74
0
 42
0.0000001
 43
0.0000001
 44
0.0000000001
 40
0.0
 40
0.0
 40
0.0
 40
0.0
 40
0.3325697155
 40
0.621732136
 40
0.7440353455
 40
0.8485015692
 40
0.933805631
 40
1.0
 40
1.0
 40
1.0
 40
1.0
 10
217.268562145
 20
69.3779549278
 30
0.0
 10
217.1051654424
 20
70.2025202198
 30
0.0
 10
216.7784417284
 20
71.7398785547
 30
0.0
 10
216.3494749203
 20
73.5709576871
 30
0.0
 10
216.0554555111
 20
74.841400052
 30
0.0
 10
215.8897261809
 20
75.6127665289
 30
0.0
 10
215.778286354
 20
76.2500736496
 30
0.0
 10
215.7422822461
 20
76.6325793098
 30
0.0
 10
215.7422840901
 20
76.7998913257
 30
0.0
  0
SPLINE
  5
2CE
100
AcDbEntity
  8
0
100
AcDbSpline
 62
7
  6
CONTINUOUS
 70
0
 71
3
 72
10
 73
6
 74
0
 42
0.0000001
 43
0.0000001
 44
0.0000000001
 40
0.0
 40
0.0
 40
0.0
 40
0.0
 40
0.4891846209
 40
0.7434399146
 40
1.0
 40
1.0
 40
1.0
 40
1.0
 10
274.999795164
 20
69.1707281259
 30
0.0
 10
274.4697895689
 20
66.7924797216
 30
0.0
 10
273.8721206916
 20
63.128809404
 30
0.0
 10
273.4354423984
 20
58.1659318102
 30
0.0
 10
273.3473083759
 20
55.6215402851
 30
0.0
 10
273.3363248275
 20
54.3436818829
 30
0.0
  0
SPLINE
  5
2CF
100
AcDbEntity
  8
0
100
AcDbSpline
 62
7
  6
CONTINUOUS
 70
0
 71
3
 72
9
 73
5
 74
0
 42
0.0000001
 43
0.0000001
 44
0.0000000001
 40
0.0
 40
0.0
 40
0.0
 40
0.0
 40
0.4938081533
 40
1.0
 40
1.0
 40
1.0
 40
1.0
 10
263.9781676877
 20
60.4552181085
 30
0.0
 10
263.7163087633
 20
59.9358539604
 30
0.0
 10
263.3119851476
 20
58.8165995633
 30
0.0
 10
263.1753041707
 20
57.6347487098
 30
0.0
 10
263.1753041707
 20
57.0385187392
 30
0.0
  0
SPLINE
  5
2D0
100
AcDbEntity
  8
0
100
AcDbSpline
 62
7
  6
CONTINUOUS
 70
0
 71
3
 72
13
 73
9
 74
0
 42
0.0000001
 43
0.0000001
 44
0.0000000001
 40
0.0
 40
0.0
 40
0.0
 40
0.0
 40
0.2811241035
 40
0.547583222
 40
0.6719241406
 40
0.7886110745
 40
0.8975446725
 40
1.0
 40
1.0
 40
1.0
 40
1.0
 10
263.1753041707
 20
57.0385187392
 30
0.0
 10
263.1753041707
 20
56.2075220093
 30
0.0
 10
263.4384581333
 20
54.5773641802
 30
0.0
 10
264.386525657
 20
52.7858655728
 30
0.0
 10
265.4208053906
 20
51.6886777043
 30
0.0
 10
266.2682388678
 20
51.0823917979
 30
0.0
 10
267.1680155794
 20
50.6988983306
 30
0.0
 10
267.7944478297
 20
50.6035289505
 30
0.0
 10
268.0972920464
 20
50.6008895979
 30
0.0
  0
SPLINE
  5
2D1
100
AcDbEntity
  8
0
100
AcDbSpline
 62
7
  6
CONTINUOUS
 70
0
 71
3
 72
13
 73
9
 74
0
 42
0.0000001
 43
0.0000001
 44
0.0000000001
 40
0.0
 40
0.0
 40
0.0
 40
0.0
 40
0.3258229105
 40
0.6135848598
 40
0.7370250825
 40
0.843483766
 40
0.9312456177
 40
1.0
 40
1.0
 40
1.0
 40
1.0
 10
269.2237180496
 20
69.2204751174
 30
0.0
 10
269.3823595594
 20
70.0966064437
 30
0.0
 10
269.7023651466
 20
71.7427379998
 30
0.0
 10
270.1259543569
 20
73.7118071867
 30
0.0
 10
270.4211774934
 20
75.095232653
 30
0.0
 10
270.5903153719
 20
75.9468342503
 30
0.0
 10
270.7051551496
 20
76.6562414389
 30
0.0
 10
270.7422766986
 20
77.0835658038
 30
0.0
 10
270.7422758526
 20
77.2714512992
 30
0.0
  0
SPLINE
  5
2D2
100
AcDbEntity
  8
0
100
AcDbSpline
 62
7
  6
CONTINUOUS
 70
0
 71
3
 72
11
 73
7
 74
0
 42
0.0000001
 43
0.0000001
 44
0.0000000001
 40
0.0
 40
0.0
 40
0.0
 40
0.0
 40
0.2295441167
 40
0.4834137658
 40
0.7462717712
 40
1.0
 40
1.0
 40
1.0
 40
1.0
 10
247.4660536691
 20
53.8294343811
 30
0.0
 10
247.0847975347
 20
54.1922042724
 30
0.0
 10
246.4676813028
 20
55.1584029868
 30
0.0
 10
246.1273580078
 20
56.868255514
 30
0.0
 10
246.3699002398
 20
58.648864224
 30
0.0
 10
246.9106125663
 20
59.7334700378
 30
0.0
 10
247.2619132789
 20
60.1971287174
 30
0.0
  0
SPLINE
  5
2D3
100
AcDbEntity
  8
0
100
AcDbSpline
 62
7
  6
CONTINUOUS
 70
0
 71
3
 72
11
 73
7
 74
0
 42
0.0000001
 43
0.0000001
 44
0.0000000001
 40
0.0
 40
0.0
 40
0.0
 40
0.0
 40
0.2295441167
 40
0.4834137658
 40
0.7462717712
 40
1.0
 40
1.0
 40
1.0
 40
1.0
 10
239.281064712
 20
53.8999283458
 30
0.0
 10
238.8998085776
 20
54.2626982372
 30
0.0
 10
238.2826923457
 20
55.2288969516
 30
0.0
 10
237.9423690507
 20
56.9387494788
 30
0.0
 10
238.1849112827
 20
58.7193581887
 30
0.0
 10
238.7256236092
 20
59.8039640026
 30
0.0
 10
239.0769243219
 20
60.2676226821
 30
0.0
  0
SPLINE
  5
2D4
100
AcDbEntity
  8
0
100
AcDbSpline
 62
7
  6
CONTINUOUS
 70
0
 71
3
 72
9
 73
5
 74
0
 42
0.0000001
 43
0.0000001
 44
0.0000000001
 40
0.0
 40
0.0
 40
0.0
 40
0.0
 40
0.2069961203
 40
1.0
 40
1.0
 40
1.0
 40
1.0
 10
211.4942588441
 20
69.4276866423
 30
0.0
 10
211.8879591181
 20
69.435090042
 30
0.0
 10
213.7899984232
 20
69.4671213143
 30
0.0
 10
215.6922005422
 20
69.4885231023
 30
0.0
 10
217.2006650212
 20
69.5031831184
 30
0.0
  0
SPLINE
  5
2D5
100
AcDbEntity
  8
0
100
AcDbSpline
 62
7
  6
CONTINUOUS
 70
0
 71
3
 72
11
 73
7
 74
0
 42
0.0000001
 43
0.0000001
 44
0.0000000001
 40
0.0
 40
0.0
 40
0.0
 40
0.0
 40
0.2408456943
 40
0.4912528493
 40
0.7451202668
 40
1.0
 40
1.0
 40
1.0
 40
1.0
 10
246.6497323561
 20
53.2724817605
 30
0.0
 10
246.2780696604
 20
53.4394188292
 30
0.0
 10
245.5604493378
 20
53.8761107577
 30
0.0
 10
244.6563246227
 20
54.7724154262
 30
0.0
 10
244.0136738016
 20
55.9063263737
 30
0.0
 10
243.8544851142
 20
56.77374766
 30
0.0
 10
243.8544851142
 20
57.2049210576
 30
0.0
  0
SPLINE
  5
2D6
100
AcDbEntity
  8
0
100
AcDbSpline
 62
7
  6
CONTINUOUS
 70
0
 71
3
 72
11
 73
7
 74
0
 42
0.0000001
 43
0.0000001
 44
0.0000000001
 40
0.0
 40
0.0
 40
0.0
 40
0.0
 40
0.2408456943
 40
0.4912528493
 40
0.7451202668
 40
1.0
 40
1.0
 40
1.0
 40
1.0
 10
238.464743399
 20
53.3429757252
 30
0.0
 10
238.0930807033
 20
53.509912794
 30
0.0
 10
237.3754603807
 20
53.9466047225
 30
0.0
 10
236.4713356656
 20
54.842909391
 30
0.0
 10
235.8286848445
 20
55.9768203385
 30
0.0
 10
235.6694961571
 20
56.8442416247
 30
0.0
 10
235.6694961571
 20
57.2754150223
 30
0.0
  0
SPLINE
  5
2D7
100
AcDbEntity
  8
0
100
AcDbSpline
 62
7
  6
CONTINUOUS
 70
0
 71
3
 72
11
 73
7
 74
0
 42
0.0000001
 43
0.0000001
 44
0.0000000001
 40
0.0
 40
0.0
 40
0.0
 40
0.0
 40
0.2408456943
 40
0.4912528493
 40
0.7451202668
 40
1.0
 40
1.0
 40
1.0
 40
1.0
 10
230.279754442
 20
53.41346969
 30
0.0
 10
229.9080917462
 20
53.5804067588
 30
0.0
 10
229.1904714236
 20
54.0170986872
 30
0.0
 10
228.2863467085
 20
54.9134033558
 30
0.0
 10
227.6436958874
 20
56.0473143033
 30
0.0
 10
227.4845072001
 20
56.9147355895
 30
0.0
 10
227.4845072001
 20
57.3459089871
 30
0.0
  0
SPLINE
  5
2D8
100
AcDbEntity
  8
0
100
AcDbSpline
 62
7
  6
CONTINUOUS
 70
0
 71
3
 72
11
 73
7
 74
0
 42
0.0000001
 43
0.0000001
 44
0.0000000001
 40
0.0
 40
0.0
 40
0.0
 40
0.0
 40
0.2544856863
 40
0.5077964991
 40
0.7578435518
 40
1.0
 40
1.0
 40
1.0
 40
1.0
 10
227.4845072001
 20
57.3459089871
 30
0.0
 10
227.4845072001
 20
57.7561764126
 30
0.0
 10
227.6281837369
 20
58.580825322
 30
0.0
 10
228.2147736295
 20
59.6719486138
 30
0.0
 10
229.0515761267
 20
60.5507985989
 30
0.0
 10
229.7218189381
 20
60.9902406574
 30
0.0
 10
230.0710738467
 20
61.1646713982
 30
0.0
  0
SPLINE
  5
2D9
100
AcDbEntity
  8
0
100
AcDbSpline
 62
7
  6
CONTINUOUS
 70
0
 71
3
 72
11
 73
7
 74
0
 42
0.0000001
 43
0.0000001
 44
0.0000000001
 40
0.0
 40
0.0
 40
0.0
 40
0.0
 40
0.2544856863
 40
0.5077964991
 40
0.7578435518
 40
1.0
 40
1.0
 40
1.0
 40
1.0
 10
235.6694961571
 20
57.2754150223
 30
0.0
 10
235.6694961571
 20
57.6856824478
 30
0.0
 10
235.813172694
 20
58.5103313572
 30
0.0
 10
236.3997625866
 20
59.6014546491
 30
0.0
 10
237.2365650838
 20
60.4803046341
 30
0.0
 10
237.9068078952
 20
60.9197466926
 30
0.0
 10
238.2560628038
 20
61.0941774334
 30
0.0
  0
SPLINE
  5
2DA
100
AcDbEntity
  8
0
100
AcDbSpline
 62
7
  6
CONTINUOUS
 70
0
 71
3
 72
11
 73
7
 74
0
 42
0.0000001
 43
0.0000001
 44
0.0000000001
 40
0.0
 40
0.0
 40
0.0
 40
0.0
 40
0.2544856863
 40
0.5077964991
 40
0.7578435518
 40
1.0
 40
1.0
 40
1.0
 40
1.0
 10
243.8544851142
 20
57.2049210576
 30
0.0
 10
243.8544851142
 20
57.615188483
 30
0.0
 10
243.998161651
 20
58.4398373924
 30
0.0
 10
244.5847515437
 20
59.5309606843
 30
0.0
 10
245.4215540408
 20
60.4098106694
 30
0.0
 10
246.0917968522
 20
60.8492527279
 30
0.0
 10
246.4410517609
 20
61.0236834687
 30
0.0
  0
SPLINE
  5
2DB
100
AcDbEntity
  8
0
100
AcDbSpline
 62
7
  6
CONTINUOUS
 70
0
 71
3
 72
9
 73
5
 74
0
 42
0.0000001
 43
0.0000001
 44
0.0000000001
 40
0.0
 40
0.0
 40
0.0
 40
0.0
 40
0.2165470888
 40
1.0
 40
1.0
 40
1.0
 40
1.0
 10
217.4572006286
 20
77.7069353108
 30
0.0
 10
217.5966642039
 20
77.705722688
 30
0.0
 10
218.2406585369
 20
77.6960994298
 30
0.0
 10
218.8845367797
 20
77.6806257205
 30
0.0
 10
219.3890464461
 20
77.6716795927
 30
0.0
  0
SPLINE
  5
2DC
100
AcDbEntity
  8
0
100
AcDbSpline
 62
7
  6
CONTINUOUS
 70
0
 71
3
 72
9
 73
5
 74
0
 42
0.0000001
 43
0.0000001
 44
0.0000000001
 40
0.0
 40
0.0
 40
0.0
 40
0.0
 40
0.2568205896
 40
1.0
 40
1.0
 40
1.0
 40
1.0
 10
234.022719523
 20
77.5642633136
 30
0.0
 10
233.6674136966
 20
77.567312623
 30
0.0
 10
232.2839085536
 20
77.5761738968
 30
0.0
 10
230.9003752726
 20
77.5778784818
 30
0.0
 10
229.8721705027
 20
77.5813941623
 30
0.0
  0
SPLINE
  5
2DD
100
AcDbEntity
  8
0
100
AcDbSpline
 62
7
  6
CONTINUOUS
 70
0
 71
3
 72
9
 73
5
 74
0
 42
0.0000001
 43
0.0000001
 44
0.0000000001
 40
0.0
 40
0.0
 40
0.0
 40
0.0
 40
0.2583165467
 40
1.0
 40
1.0
 40
1.0
 40
1.0
 10
272.0835293168
 20
52.5869749067
 30
0.0
 10
272.0177962881
 20
52.530773101
 30
0.0
 10
271.7559482093
 20
52.3221206019
 30
0.0
 10
271.4631417924
 20
52.1512716103
 30
0.0
 10
271.2344511492
 20
52.0545212746
 30
0.0
  0
SPLINE
  5
2DE
100
AcDbEntity
  8
0
100
AcDbSpline
 62
7
  6
CONTINUOUS
 70
0
 71
3
 72
9
 73
5
 74
0
 42
0.0000001
 43
0.0000001
 44
0.0000000001
 40
0.0
 40
0.0
 40
0.0
 40
0.0
 40
0.2572827167
 40
1.0
 40
1.0
 40
1.0
 40
1.0
 10
273.3305014862
 20
54.3435597052
 30
0.0
 10
273.2902772271
 20
54.2504157656
 30
0.0
 10
273.1247922597
 20
53.8924617042
 30
0.0
 10
272.9218524233
 20
53.5513666562
 30
0.0
 10
272.74963866
 20
53.3144587502
 30
0.0
  0
SPLINE
  5
2DF
100
AcDbEntity
  8
0
100
AcDbSpline
 62
7
  6
CONTINUOUS
 70
0
 71
3
 72
9
 73
5
 74
0
 42
0.0000001
 43
0.0000001
 44
0.0000000001
 40
0.0
 40
0.0
 40
0.0
 40
0.0
 40
0.2596359432
 40
1.0
 40
1.0
 40
1.0
 40
1.0
 10
261.8355214513
 20
63.7787545336
 30
0.0
 10
262.0165198012
 20
64.0276138946
 30
0.0
 10
262.7519958402
 20
64.9571932185
 30
0.0
 10
263.6398140197
 20
65.7695603899
 30
0.0
 10
264.3643317732
 20
66.26457546
 30
0.0
  0
SPLINE
  5
2E0
100
AcDbEntity
  8
0
100
AcDbSpline
 62
7
  6
CONTINUOUS
 70
0
 71
3
 72
9
 73
5
 74
0
 42
0.0000001
 43
0.0000001
 44
0.0000000001
 40
0.0
 40
0.0
 40
0.0
 40
0.0
 40
0.5249309725
 40
1.0
 40
1.0
 40
1.0
 40
1.0
 10
264.3643317732
 20
66.26457546
 30
0.0
 10
264.9497961452
 20
66.66458455
 30
0.0
 10
266.1587714139
 20
67.3032763702
 30
0.0
 10
267.5114233418
 20
67.5689549159
 30
0.0
 10
268.1531125375
 20
67.5746287235
 30
0.0
  0
SPLINE
  5
2E1
100
AcDbEntity
  8
0
100
AcDbSpline
 62
7
  6
CONTINUOUS
 70
0
 71
3
 72
9
 73
5
 74
0
 42
0.0000001
 43
0.0000001
 44
0.0000000001
 40
0.0
 40
0.0
 40
0.0
 40
0.0
 40
0.4327122111
 40
1.0
 40
1.0
 40
1.0
 40
1.0
 10
219.3890426537
 20
77.6723714054
 30
0.0
 10
220.9009278667
 20
77.6455621717
 30
0.0
 10
224.3953036393
 20
77.6075488427
 30
0.0
 10
227.8897785816
 20
77.5888628038
 30
0.0
 10
229.87216737
 20
77.5820845366
 30
0.0
  0
SPLINE
  5
2E2
100
AcDbEntity
  8
0
100
AcDbSpline
 62
7
  6
CONTINUOUS
 70
0
 71
3
 72
13
 73
9
 74
0
 42
0.0000001
 43
0.0000001
 44
0.0000000001
 40
0.0
 40
0.0
 40
0.0
 40
0.0
 40
0.1180440044
 40
0.2336745979
 40
0.3492988142
 40
0.4674563676
 40
0.7189591768
 40
1.0
 40
1.0
 40
1.0
 40
1.0
 10
268.2433714072
 20
67.5746369936
 30
0.0
 10
268.5361432073
 20
67.5720938972
 30
0.0
 10
269.116816535
 20
67.5171646923
 30
0.0
 10
269.9541995712
 20
67.2765448989
 30
0.0
 10
270.732175887
 20
66.8833549747
 30
0.0
 10
271.6963526807
 20
66.1531132555
 30
0.0
 10
272.7140588859
 20
64.8680739909
 30
0.0
 10
273.2580841623
 20
63.6533403964
 30
0.0
 10
273.489101606
 20
62.9956735453
 30
0.0
  0
SPLINE
  5
2E3
100
AcDbEntity
  8
0
100
AcDbSpline
 62
7
  6
CONTINUOUS
 70
0
 71
3
 72
11
 73
7
 74
0
 42
0.0000001
 43
0.0000001
 44
0.0000000001
 40
0.0
 40
0.0
 40
0.0
 40
0.0
 40
0.2420886665
 40
0.4846166783
 40
0.7351267876
 40
1.0
 40
1.0
 40
1.0
 40
1.0
 10
268.1531161161
 20
50.600892397
 30
0.0
 10
268.3994033802
 20
50.6030700658
 30
0.0
 10
268.8941346565
 20
50.6656406172
 30
0.0
 10
269.597896423
 20
50.9387562397
 30
0.0
 10
270.2379614195
 20
51.3797566159
 30
0.0
 10
270.6017451759
 20
51.7625431695
 30
0.0
 10
270.7699899069
 20
51.9730469316
 30
0.0
  0
SPLINE
  5
2E4
100
AcDbEntity
  8
0
100
AcDbSpline
 62
7
  6
CONTINUOUS
 70
0
 71
3
 72
11
 73
7
 74
0
 42
0.0000001
 43
0.0000001
 44
0.0000000001
 40
0.0
 40
0.0
 40
0.0
 40
0.0
 40
0.2256742198
 40
0.4652443224
 40
0.7230867024
 40
1.0
 40
1.0
 40
1.0
 40
1.0
 10
268.0920460187
 20
67.4798639515
 30
0.0
 10
268.6059467674
 20
67.3755977997
 30
0.0
 10
269.6376675036
 20
67.0000274355
 30
0.0
 10
271.0216235973
 20
66.018695072
 30
0.0
 10
272.2228919575
 20
64.6613523043
 30
0.0
 10
272.851570452
 20
63.5801072228
 30
0.0
 10
273.127379085
 20
62.9987889135
 30
0.0
  0
SPLINE
  5
2E5
100
AcDbEntity
  8
0
100
AcDbSpline
 62
7
  6
CONTINUOUS
 70
0
 71
3
 72
9
 73
5
 74
0
 42
0.0000001
 43
0.0000001
 44
0.0000000001
 40
0.0
 40
0.0
 40
0.0
 40
0.0
 40
0.5136851187
 40
1.0
 40
1.0
 40
1.0
 40
1.0
 10
272.2710977295
 20
57.1189436291
 30
0.0
 10
272.2710977295
 20
57.7120268997
 30
0.0
 10
272.1823530072
 20
58.8683201363
 30
0.0
 10
271.9019411417
 20
59.9964552518
 30
0.0
 10
271.7085169178
 20
60.5235697571
 30
0.0
  0
SPLINE
  5
2E6
100
AcDbEntity
  8
0
100
AcDbSpline
 62
7
  6
CONTINUOUS
 70
0
 71
3
 72
10
 73
6
 74
0
 42
0.0000001
 43
0.0000001
 44
0.0000000001
 40
0.0
 40
0.0
 40
0.0
 40
0.0
 40
0.547932371
 40
0.7888893989
 40
1.0
 40
1.0
 40
1.0
 40
1.0
 10
236.5803007588
 20
57.426333877
 30
0.0
 10
236.5803007588
 20
56.8527390172
 30
0.0
 10
236.6174610744
 20
56.0249257152
 30
0.0
 10
236.7777595171
 20
54.9896508335
 30
0.0
 10
236.900611661
 20
54.5306291683
 30
0.0
 10
236.9770198137
 20
54.3232601538
 30
0.0
  0
SPLINE
  5
2E7
100
AcDbEntity
  8
0
100
AcDbSpline
 62
7
  6
CONTINUOUS
 70
0
 71
3
 72
10
 73
6
 74
0
 42
0.0000001
 43
0.0000001
 44
0.0000000001
 40
0.0
 40
0.0
 40
0.0
 40
0.0
 40
0.547932371
 40
0.7888893989
 40
1.0
 40
1.0
 40
1.0
 40
1.0
 10
244.7652897159
 20
57.3558399122
 30
0.0
 10
244.7652897159
 20
56.7822450524
 30
0.0
 10
244.8024500315
 20
55.9544317505
 30
0.0
 10
244.9627484742
 20
54.9191568687
 30
0.0
 10
245.085600618
 20
54.4601352036
 30
0.0
 10
245.1620087708
 20
54.2527661891
 30
0.0
  0
SPLINE
  5
2E8
100
AcDbEntity
  8
0
100
AcDbSpline
 62
7
  6
CONTINUOUS
 70
0
 71
3
 72
16
 73
12
 74
0
 42
0.0000001
 43
0.0000001
 44
0.0000000001
 40
0.0
 40
0.0
 40
0.0
 40
0.0
 40
0.1246135213
 40
0.2493227208
 40
0.3746267549
 40
0.5008289651
 40
0.6275862506
 40
0.6909035443
 40
0.7539349353
 40
0.8784846387
 40
1.0
 40
1.0
 40
1.0
 40
1.0
 10
252.6170139812
 20
69.0735131587
 30
0.0
 10
252.1739803043
 20
69.8572623785
 30
0.0
 10
251.184606206
 20
71.3708682427
 30
0.0
 10
249.3600292805
 20
73.3873243864
 30
0.0
 10
247.1855368936
 20
75.0463232355
 30
0.0
 10
244.7189308489
 20
76.2604561201
 30
0.0
 10
242.5131601497
 20
76.8949532695
 30
0.0
 10
240.7118583979
 20
77.2146448922
 30
0.0
 10
238.9102109141
 20
77.4230764839
 30
0.0
 10
236.6781083901
 20
77.5317768803
 30
0.0
 10
234.9006046602
 20
77.5567291185
 30
0.0
 10
234.022719523
 20
77.5642633136
 30
0.0
  0
SPLINE
  5
2E9
100
AcDbEntity
  8
0
100
AcDbSpline
 62
7
  6
CONTINUOUS
 70
0
 71
3
 72
11
 73
7
 74
0
 42
0.0000001
 43
0.0000001
 44
0.0000000001
 40
0.0
 40
0.0
 40
0.0
 40
0.0
 40
0.2470427928
 40
0.4965233224
 40
0.7478167819
 40
1.0
 40
1.0
 40
1.0
 40
1.0
 10
258.3913172821
 20
69.0237814443
 30
0.0
 10
259.0238867918
 20
67.8077662472
 30
0.0
 10
260.0702979271
 20
65.2433114395
 30
0.0
 10
261.0773282837
 20
61.2078848043
 30
0.0
 10
261.6073407109
 20
57.0548023083
 30
0.0
 10
261.6439813225
 20
54.2548217364
 30
0.0
 10
261.5874918764
 20
52.8567342497
 30
0.0
  0
SPLINE
  5
2EA
100
AcDbEntity
  8
0
100
AcDbSpline
 62
7
  6
CONTINUOUS
 70
0
 71
3
 72
20
 73
16
 74
0
 42
0.0000001
 43
0.0000001
 44
0.0000000001
 40
0.0
 40
0.0
 40
0.0
 40
0.0
 40
0.0512750504
 40
0.1024492034
 40
0.1554916178
 40
0.2119703896
 40
0.2727116091
 40
0.3378168416
 40
0.4782234876
 40
0.6242903329
 40
0.7641084571
 40
0.828914924
 40
0.8895388544
 40
0.9462646016
 40
1.0
 40
1.0
 40
1.0
 40
1.0
 10
245.0580161963
 20
61.4129279942
 30
0.0
 10
244.8758935442
 20
61.4112931632
 30
0.0
 10
244.5102954272
 20
61.3606443576
 30
0.0
 10
243.9983805181
 20
61.1365324437
 30
0.0
 10
243.5477751127
 20
60.7767302458
 30
0.0
 10
243.1701293989
 20
60.2987574561
 30
0.0
 10
242.8712789714
 20
59.720434556
 30
0.0
 10
242.576027388
 20
58.8186586552
 30
0.0
 10
242.438385813
 20
57.5631152734
 30
0.0
 10
242.6076598798
 20
56.0481259282
 30
0.0
 10
243.0255777425
 20
54.8578379531
 30
0.0
 10
243.5282469968
 20
54.0566537783
 30
0.0
 10
243.963155697
 20
53.5724362741
 30
0.0
 10
244.4549584185
 20
53.2078895613
 30
0.0
 10
244.8198650255
 20
53.0514570217
 30
0.0
 10
245.0035448234
 20
52.9995650079
 30
0.0
  0
SPLINE
  5
2EB
100
AcDbEntity
  8
0
100
AcDbSpline
 62
7
  6
CONTINUOUS
 70
0
 71
3
 72
20
 73
16
 74
0
 42
0.0000001
 43
0.0000001
 44
0.0000000001
 40
0.0
 40
0.0
 40
0.0
 40
0.0
 40
0.0512750504
 40
0.1024492034
 40
0.1554916178
 40
0.2119703896
 40
0.2727116091
 40
0.3378168416
 40
0.4782234876
 40
0.6242903329
 40
0.7641084571
 40
0.828914924
 40
0.8895388544
 40
0.9462646016
 40
1.0
 40
1.0
 40
1.0
 40
1.0
 10
236.8730272392
 20
61.483421959
 30
0.0
 10
236.6909045871
 20
61.481787128
 30
0.0
 10
236.3253064702
 20
61.4311383224
 30
0.0
 10
235.813391561
 20
61.2070264085
 30
0.0
 10
235.3627861556
 20
60.8472242106
 30
0.0
 10
234.9851404418
 20
60.3692514209
 30
0.0
 10
234.6862900143
 20
59.7909285207
 30
0.0
 10
234.3910384309
 20
58.8891526199
 30
0.0
 10
234.2533968559
 20
57.6336092381
 30
0.0
 10
234.4226709227
 20
56.118619893
 30
0.0
 10
234.8405887854
 20
54.9283319178
 30
0.0
 10
235.3432580397
 20
54.1271477431
 30
0.0
 10
235.7781667399
 20
53.6429302389
 30
0.0
 10
236.2699694614
 20
53.2783835261
 30
0.0
 10
236.6348760684
 20
53.1219509865
 30
0.0
 10
236.8185558664
 20
53.0700589727
 30
0.0
  0
SPLINE
  5
2EC
100
AcDbEntity
  8
0
100
AcDbSpline
 62
7
  6
CONTINUOUS
 70
0
 71
3
 72
20
 73
16
 74
0
 42
0.0000001
 43
0.0000001
 44
0.0000000001
 40
0.0
 40
0.0
 40
0.0
 40
0.0
 40
0.0512750504
 40
0.1024492034
 40
0.1554916178
 40
0.2119703896
 40
0.2727116091
 40
0.3378168416
 40
0.4782234876
 40
0.6242903329
 40
0.7641084571
 40
0.828914924
 40
0.8895388544
 40
0.9462646016
 40
1.0
 40
1.0
 40
1.0
 40
1.0
 10
228.6880382821
 20
61.5539159237
 30
0.0
 10
228.50591563
 20
61.5522810927
 30
0.0
 10
228.1403175131
 20
61.5016322871
 30
0.0
 10
227.6284026039
 20
61.2775203733
 30
0.0
 10
227.1777971985
 20
60.9177181753
 30
0.0
 10
226.8001514847
 20
60.4397453857
 30
0.0
 10
226.5013010572
 20
59.8614224855
 30
0.0
 10
226.2060494739
 20
58.9596465847
 30
0.0
 10
226.0684078988
 20
57.7041032029
 30
0.0
 10
226.2376819657
 20
56.1891138578
 30
0.0
 10
226.6555998283
 20
54.9988258826
 30
0.0
 10
227.1582690826
 20
54.1976417079
 30
0.0
 10
227.5931777828
 20
53.7134242037
 30
0.0
 10
228.0849805043
 20
53.3488774909
 30
0.0
 10
228.4498871114
 20
53.1924449513
 30
0.0
 10
228.6335669093
 20
53.1405529375
 30
0.0
  0
SPLINE
  5
2ED
100
AcDbEntity
  8
0
100
AcDbSpline
 62
7
  6
CONTINUOUS
 70
0
 71
3
 72
9
 73
5
 74
0
 42
0.0000001
 43
0.0000001
 44
0.0000000001
 40
0.0
 40
0.0
 40
0.0
 40
0.0
 40
0.4664825126
 40
1.0
 40
1.0
 40
1.0
 40
1.0
 10
236.8193236592
 20
59.9747950285
 30
0.0
 10
236.7278236398
 20
59.5868405527
 30
0.0
 10
236.6132096921
 20
58.7366600827
 30
0.0
 10
236.5803007588
 20
57.882212446
 30
0.0
 10
236.5803007588
 20
57.426333877
 30
0.0
  0
SPLINE
  5
2EE
100
AcDbEntity
  8
0
100
AcDbSpline
 62
7
  6
CONTINUOUS
 70
0
 71
3
 72
9
 73
5
 74
0
 42
0.0000001
 43
0.0000001
 44
0.0000000001
 40
0.0
 40
0.0
 40
0.0
 40
0.0
 40
0.5286668358
 40
1.0
 40
1.0
 40
1.0
 40
1.0
 10
270.8723922771
 20
60.5307709569
 30
0.0
 10
270.6249166496
 20
61.0967464901
 30
0.0
 10
270.019796742
 20
62.1166877202
 30
0.0
 10
269.1057836946
 20
62.8946852198
 30
0.0
 10
268.6193293017
 20
63.1528705911
 30
0.0
  0
SPLINE
  5
2EF
100
AcDbEntity
  8
0
100
AcDbSpline
 62
7
  6
CONTINUOUS
 70
0
 71
3
 72
9
 73
5
 74
0
 42
0.0000001
 43
0.0000001
 44
0.0000000001
 40
0.0
 40
0.0
 40
0.0
 40
0.0
 40
0.2752126476
 40
1.0
 40
1.0
 40
1.0
 40
1.0
 10
252.6170139812
 20
69.0735131587
 30
0.0
 10
253.5525701153
 20
69.0764736515
 30
0.0
 10
256.9519561458
 20
69.0891249764
 30
0.0
 10
260.3513262686
 20
69.108761044
 30
0.0
 10
262.8150798397
 20
69.1305455214
 30
0.0
  0
SPLINE
  5
2F0
100
AcDbEntity
  8
0
100
AcDbSpline
 62
7
  6
CONTINUOUS
 70
0
 71
3
 72
15
 73
11
 74
0
 42
0.0000001
 43
0.0000001
 44
0.0000000001
 40
0.0
 40
0.0
 40
0.0
 40
0.0
 40
0.1364073231
 40
0.2435913147
 40
0.3353732334
 40
0.4293725595
 40
0.5389861933
 40
0.669800163
 40
0.8234074025
 40
1.0
 40
1.0
 40
1.0
 40
1.0
 10
215.7422840901
 20
76.7998913257
 30
0.0
 10
215.7422852309
 20
76.90339735
 30
0.0
 10
215.7530875315
 20
77.0888445635
 30
0.0
 10
215.82763859
 20
77.3364924102
 30
0.0
 10
215.9715839781
 20
77.5145638022
 30
0.0
 10
216.1757919806
 20
77.6177032861
 30
0.0
 10
216.424699388
 20
77.6721692126
 30
0.0
 10
216.7228613062
 20
77.6991916112
 30
0.0
 10
217.0726325675
 20
77.7087182017
 30
0.0
 10
217.3232070397
 20
77.7081003726
 30
0.0
 10
217.4572006286
 20
77.7069353108
 30
0.0
  0
SPLINE
  5
2F1
100
AcDbEntity
  8
0
100
AcDbSpline
 62
7
  6
CONTINUOUS
 70
0
 71
3
 72
9
 73
5
 74
0
 42
0.0000001
 43
0.0000001
 44
0.0000000001
 40
0.0
 40
0.0
 40
0.0
 40
0.0
 40
0.5897817095
 40
1.0
 40
1.0
 40
1.0
 40
1.0
 10
262.8150798397
 20
69.1305455214
 30
0.0
 10
264.075061776
 20
69.1416862655
 30
0.0
 10
266.2113694395
 20
69.1643402567
 30
0.0
 10
268.3475899409
 20
69.1984329225
 30
0.0
 10
269.2237180496
 20
69.2204751174
 30
0.0
  0
SPLINE
  5
2F2
100
AcDbEntity
  8
0
100
AcDbSpline
 62
7
  6
CONTINUOUS
 70
0
 71
3
 72
9
 73
5
 74
0
 42
0.0000001
 43
0.0000001
 44
0.0000000001
 40
0.0
 40
0.0
 40
0.0
 40
0.0
 40
0.2023468584
 40
1.0
 40
1.0
 40
1.0
 40
1.0
 10
274.999795164
 20
69.1707281259
 30
0.0
 10
274.5380380973
 20
69.162030257
 30
0.0
 10
272.2559324143
 20
69.1242887167
 30
0.0
 10
269.9736183717
 20
69.1006680541
 30
0.0
 10
268.1531161161
 20
69.0845711965
 30
0.0
  0
SPLINE
  5
2F3
100
AcDbEntity
  8
0
100
AcDbSpline
 62
7
  6
CONTINUOUS
 70
0
 71
3
 72
9
 73
5
 74
0
 42
0.0000001
 43
0.0000001
 44
0.0000000001
 40
0.0
 40
0.0
 40
0.0
 40
0.0
 40
0.4664825126
 40
1.0
 40
1.0
 40
1.0
 40
1.0
 10
245.0043126163
 20
59.9043010637
 30
0.0
 10
244.9128125969
 20
59.5163465879
 30
0.0
 10
244.7981986492
 20
58.666166118
 30
0.0
 10
244.7652897159
 20
57.8117184813
 30
0.0
 10
244.7652897159
 20
57.3558399122
 30
0.0
  0
SPLINE
  5
2F4
100
AcDbEntity
  8
0
100
AcDbSpline
 62
7
  6
CONTINUOUS
 70
0
 71
3
 72
29
 73
25
 74
0
 42
0.0000001
 43
0.0000001
 44
0.0000000001
 40
0.0
 40
0.0
 40
0.0
 40
0.0
 40
0.0024578168
 40
0.0096765012
 40
0.021592578
 40
0.03812372
 40
0.0591180301
 40
0.0843413866
 40
0.1465044212
 40
0.2222514148
 40
0.3086762704
 40
0.4024516671
 40
0.499979149
 40
0.5975062721
 40
0.6912843398
 40
0.7777133324
 40
0.8534724904
 40
0.9156448621
 40
0.9408734273
 40
0.9618719286
 40
0.978405147
 40
0.9903225112
 40
0.9975419439
 40
1.0
 40
1.0
 40
1.0
 40
1.0
 10
236.4333829638
 20
623.8568089878
 30
0.0
 10
236.4333829638
 20
623.8538591658
 30
0.0
 10
236.4517706855
 20
623.8574223646
 30
0.0
 10
236.471163299
 20
623.8516968491
 30
0.0
 10
236.5176032759
 20
623.8527973869
 30
0.0
 10
236.5753307688
 20
623.8503167708
 30
0.0
 10
236.6512360576
 20
623.8493775456
 30
0.0
 10
236.7810193695
 20
623.8473285322
 30
0.0
 10
236.9769753482
 20
623.8454684979
 30
0.0
 10
237.2461394048
 20
623.8435450011
 30
0.0
 10
237.5533427516
 20
623.8421646886
 30
0.0
 10
237.8866579753
 20
623.841293406
 30
0.0
 10
238.2333074506
 20
623.8410046908
 30
0.0
 10
238.5799601314
 20
623.8412932328
 30
0.0
 10
238.9132830965
 20
623.8421640851
 30
0.0
 10
239.2205092144
 20
623.8435445473
 30
0.0
 10
239.4897040329
 20
623.845467685
 30
0.0
 10
239.6856921032
 20
623.8473279422
 30
0.0
 10
239.8154978381
 20
623.849377128
 30
0.0
 10
239.8914170425
 20
623.8503163141
 30
0.0
 10
239.9491533456
 20
623.8527973612
 30
0.0
 10
239.9955987042
 20
623.8516965158
 30
0.0
 10
240.0149933135
 20
623.8574227588
 30
0.0
 10
240.0333829638
 20
623.8538588785
 30
0.0
 10
240.0333829638
 20
623.8568089878
 30
0.0
  0
SPLINE
  5
2F5
100
AcDbEntity
  8
0
100
AcDbSpline
 62
7
  6
CONTINUOUS
 70
0
 71
3
 72
29
 73
25
 74
0
 42
0.0000001
 43
0.0000001
 44
0.0000000001
 40
0.0
 40
0.0
 40
0.0
 40
0.0
 40
0.0024578168
 40
0.0096765012
 40
0.021592578
 40
0.03812372
 40
0.0591180301
 40
0.0843413866
 40
0.1465044212
 40
0.2222514148
 40
0.3086762704
 40
0.4024516671
 40
0.499979149
 40
0.5975062721
 40
0.6912843398
 40
0.7777133324
 40
0.8534724904
 40
0.9156448621
 40
0.9408734273
 40
0.9618719286
 40
0.978405147
 40
0.9903225112
 40
0.9975419439
 40
1.0
 40
1.0
 40
1.0
 40
1.0
 10
301.6878829638
 20
625.0457994494
 30
0.0
 10
301.6878829638
 20
625.0428496274
 30
0.0
 10
301.7062706855
 20
625.0464128262
 30
0.0
 10
301.725663299
 20
625.0406873107
 30
0.0
 10
301.7721032759
 20
625.0417878485
 30
0.0
 10
301.8298307688
 20
625.0393072325
 30
0.0
 10
301.9057360576
 20
625.0383680073
 30
0.0
 10
302.0355193695
 20
625.0363189939
 30
0.0
 10
302.2314753482
 20
625.0344589595
 30
0.0
 10
302.5006394048
 20
625.0325354627
 30
0.0
 10
302.8078427516
 20
625.0311551502
 30
0.0
 10
303.1411579753
 20
625.0302838676
 30
0.0
 10
303.4878074506
 20
625.0299951525
 30
0.0
 10
303.8344601314
 20
625.0302836945
 30
0.0
 10
304.1677830965
 20
625.0311545468
 30
0.0
 10
304.4750092144
 20
625.032535009
 30
0.0
 10
304.7442040329
 20
625.0344581466
 30
0.0
 10
304.9401921032
 20
625.0363184038
 30
0.0
 10
305.0699978381
 20
625.0383675896
 30
0.0
 10
305.1459170425
 20
625.0393067757
 30
0.0
 10
305.2036533456
 20
625.0417878229
 30
0.0
 10
305.2500987042
 20
625.0406869774
 30
0.0
 10
305.2694933135
 20
625.0464132204
 30
0.0
 10
305.2878829638
 20
625.0428493402
 30
0.0
 10
305.2878829638
 20
625.0457994494
 30
0.0
  0
SPLINE
  5
2F6
100
AcDbEntity
  8
0
100
AcDbSpline
 62
7
  6
CONTINUOUS
 70
0
 71
3
 72
29
 73
25
 74
0
 42
0.0000001
 43
0.0000001
 44
0.0000000001
 40
0.0
 40
0.0
 40
0.0
 40
0.0
 40
0.0024578168
 40
0.0096765012
 40
0.021592578
 40
0.03812372
 40
0.0591180301
 40
0.0843413866
 40
0.1465044212
 40
0.2222514148
 40
0.3086762704
 40
0.4024516671
 40
0.499979149
 40
0.5975062721
 40
0.6912843398
 40
0.7777133324
 40
0.8534724904
 40
0.9156448621
 40
0.9408734273
 40
0.9618719286
 40
0.978405147
 40
0.9903225112
 40
0.9975419439
 40
1.0
 40
1.0
 40
1.0
 40
1.0
 10
171.1878829638
 20
625.0457994494
 30
0.0
 10
171.1878829638
 20
625.0428496274
 30
0.0
 10
171.2062706855
 20
625.0464128262
 30
0.0
 10
171.225663299
 20
625.0406873107
 30
0.0
 10
171.2721032759
 20
625.0417878485
 30
0.0
 10
171.3298307688
 20
625.0393072325
 30
0.0
 10
171.4057360576
 20
625.0383680073
 30
0.0
 10
171.5355193695
 20
625.0363189939
 30
0.0
 10
171.7314753482
 20
625.0344589595
 30
0.0
 10
172.0006394048
 20
625.0325354627
 30
0.0
 10
172.3078427516
 20
625.0311551502
 30
0.0
 10
172.6411579753
 20
625.0302838676
 30
0.0
 10
172.9878074506
 20
625.0299951525
 30
0.0
 10
173.3344601314
 20
625.0302836945
 30
0.0
 10
173.6677830965
 20
625.0311545468
 30
0.0
 10
173.9750092144
 20
625.032535009
 30
0.0
 10
174.2442040329
 20
625.0344581466
 30
0.0
 10
174.4401921032
 20
625.0363184038
 30
0.0
 10
174.5699978381
 20
625.0383675896
 30
0.0
 10
174.6459170425
 20
625.0393067757
 30
0.0
 10
174.7036533456
 20
625.0417878229
 30
0.0
 10
174.7500987042
 20
625.0406869774
 30
0.0
 10
174.7694933135
 20
625.0464132204
 30
0.0
 10
174.7878829638
 20
625.0428493402
 30
0.0
 10
174.7878829638
 20
625.0457994494
 30
0.0
  0
SPLINE
  5
2F7
100
AcDbEntity
  8
0
100
AcDbSpline
 62
7
  6
CONTINUOUS
 70
0
 71
3
 72
39
 73
35
 74
0
 42
0.0000001
 43
0.0000001
 44
0.0000000001
 40
0.0
 40
0.0
 40
0.0
 40
0.0
 40
0.0006404482
 40
0.0024597566
 40
0.0054703898
 40
0.0096685573
 40
0.0150484072
 40
0.0215979808
 40
0.038130055
 40
0.0591084021
 40
0.0843340843
 40
0.1135576057
 40
0.1465061955
 40
0.1828543633
 40
0.2222606002
 40
0.30868873
 40
0.4024685789
 40
0.4999961443
 40
0.597523471
 40
0.6913028016
 40
0.7777311191
 40
0.8171377734
 40
0.853487047
 40
0.8864369729
 40
0.9156616584
 40
0.9408888202
 40
0.9618680238
 40
0.9784010754
 40
0.9849510073
 40
0.990331042
 40
0.9945293628
 40
0.9975401244
 40
0.9993595206
 40
1.0
 40
1.0
 40
1.0
 40
1.0
 10
233.0628829638
 20
624.4711570869
 30
0.0
 10
233.0628829638
 20
624.4668119533
 30
0.0
 10
233.0880779201
 20
624.4672759616
 30
0.0
 10
233.1168108967
 20
624.4601945727
 30
0.0
 10
233.1825544865
 20
624.4580483792
 30
0.0
 10
233.2658336966
 20
624.4530808991
 30
0.0
 10
233.3759570891
 20
624.4492496697
 30
0.0
 10
233.5685928173
 20
624.4431206614
 30
0.0
 10
233.8676807415
 20
624.4362400261
 30
0.0
 10
234.2931435755
 20
624.428530402
 30
0.0
 10
234.8048684887
 20
624.4212313468
 30
0.0
 10
235.3977687688
 20
624.4143379139
 30
0.0
 10
236.0661555339
 20
624.407974338
 30
0.0
 10
236.8036294991
 20
624.4021886432
 30
0.0
 10
237.9039381475
 20
624.3951255367
 30
0.0
 10
239.3939007508
 20
624.3883478498
 30
0.0
 10
241.2781976716
 20
624.3834589301
 30
0.0
 10
243.2378028436
 20
624.3818072046
 30
0.0
 10
245.1974044998
 20
624.3834586374
 30
0.0
 10
247.0816975592
 20
624.3883472554
 30
0.0
 10
248.571660753
 20
624.3951246086
 30
0.0
 10
249.6719810094
 20
624.4021876149
 30
0.0
 10
250.4094743739
 20
624.4079732317
 30
0.0
 10
251.0778856068
 20
624.4143367115
 30
0.0
 10
251.6708128856
 20
624.4212304578
 30
0.0
 10
252.1825615544
 20
624.4285293321
 30
0.0
 10
252.6080468595
 20
624.4362393265
 30
0.0
 10
252.9071496752
 20
624.4431200553
 30
0.0
 10
253.0997956929
 20
624.449249232
 30
0.0
 10
253.2099238459
 20
624.4530806385
 30
0.0
 10
253.2932061197
 20
624.4580483318
 30
0.0
 10
253.3589524759
 20
624.4601943592
 30
0.0
 10
253.3876866235
 20
624.4672762243
 30
0.0
 10
253.4128829638
 20
624.4668117421
 30
0.0
 10
253.4128829638
 20
624.4711570869
 30
0.0
  0
SPLINE
  5
2F8
100
AcDbEntity
  8
0
100
AcDbSpline
 62
7
  6
CONTINUOUS
 70
0
 71
3
 72
29
 73
25
 74
0
 42
0.0000001
 43
0.0000001
 44
0.0000000001
 40
0.0
 40
0.0
 40
0.0
 40
0.0
 40
0.0024578168
 40
0.0096765012
 40
0.021592578
 40
0.03812372
 40
0.0591180301
 40
0.0843413866
 40
0.1465044212
 40
0.2222514148
 40
0.3086762704
 40
0.4024516671
 40
0.499979149
 40
0.5975062721
 40
0.6912843398
 40
0.7777133324
 40
0.8534724904
 40
0.9156448621
 40
0.9408734273
 40
0.9618719286
 40
0.978405147
 40
0.9903225112
 40
0.9975419439
 40
1.0
 40
1.0
 40
1.0
 40
1.0
 10
240.0333829638
 20
623.8568089878
 30
0.0
 10
240.0333829638
 20
623.8597588098
 30
0.0
 10
240.014995242
 20
623.856195611
 30
0.0
 10
239.9956026285
 20
623.8619211265
 30
0.0
 10
239.9491626517
 20
623.8608205887
 30
0.0
 10
239.8914351587
 20
623.8633012048
 30
0.0
 10
239.8155298699
 20
623.8642404299
 30
0.0
 10
239.685746558
 20
623.8662894434
 30
0.0
 10
239.4897905793
 20
623.8681494777
 30
0.0
 10
239.2206265227
 20
623.8700729745
 30
0.0
 10
238.9134231759
 20
623.871453287
 30
0.0
 10
238.5801079522
 20
623.8723245696
 30
0.0
 10
238.2334584769
 20
623.8726132848
 30
0.0
 10
237.8868057962
 20
623.8723247427
 30
0.0
 10
237.553482831
 20
623.8714538905
 30
0.0
 10
237.2462567131
 20
623.8700734283
 30
0.0
 10
236.9770618946
 20
623.8681502906
 30
0.0
 10
236.7810738243
 20
623.8662900334
 30
0.0
 10
236.6512680894
 20
623.8642408476
 30
0.0
 10
236.575348885
 20
623.8633016615
 30
0.0
 10
236.5176125819
 20
623.8608206144
 30
0.0
 10
236.4711672233
 20
623.8619214598
 30
0.0
 10
236.451772614
 20
623.8561952168
 30
0.0
 10
236.4333829638
 20
623.8597590971
 30
0.0
 10
236.4333829638
 20
623.8568089878
 30
0.0
  0
SPLINE
  5
2F9
100
AcDbEntity
  8
0
100
AcDbSpline
 62
7
  6
CONTINUOUS
 70
0
 71
3
 72
29
 73
25
 74
0
 42
0.0000001
 43
0.0000001
 44
0.0000000001
 40
0.0
 40
0.0
 40
0.0
 40
0.0
 40
0.0024578168
 40
0.0096765012
 40
0.021592578
 40
0.03812372
 40
0.0591180301
 40
0.0843413866
 40
0.1465044212
 40
0.2222514148
 40
0.3086762704
 40
0.4024516671
 40
0.499979149
 40
0.5975062721
 40
0.6912843398
 40
0.7777133324
 40
0.8534724904
 40
0.9156448621
 40
0.9408734273
 40
0.9618719286
 40
0.978405147
 40
0.9903225112
 40
0.9975419439
 40
1.0
 40
1.0
 40
1.0
 40
1.0
 10
305.2878829638
 20
625.0457994494
 30
0.0
 10
305.2878829638
 20
625.0487492715
 30
0.0
 10
305.269495242
 20
625.0451860727
 30
0.0
 10
305.2501026285
 20
625.0509115882
 30
0.0
 10
305.2036626517
 20
625.0498110504
 30
0.0
 10
305.1459351587
 20
625.0522916664
 30
0.0
 10
305.0700298699
 20
625.0532308916
 30
0.0
 10
304.940246558
 20
625.055279905
 30
0.0
 10
304.7442905793
 20
625.0571399393
 30
0.0
 10
304.4751265227
 20
625.0590634362
 30
0.0
 10
304.1679231759
 20
625.0604437487
 30
0.0
 10
303.8346079522
 20
625.0613150313
 30
0.0
 10
303.4879584769
 20
625.0616037464
 30
0.0
 10
303.1413057962
 20
625.0613152044
 30
0.0
 10
302.807982831
 20
625.0604443521
 30
0.0
 10
302.5007567131
 20
625.0590638899
 30
0.0
 10
302.2315618946
 20
625.0571407523
 30
0.0
 10
302.0355738243
 20
625.0552804951
 30
0.0
 10
301.9057680894
 20
625.0532313092
 30
0.0
 10
301.829848885
 20
625.0522921232
 30
0.0
 10
301.7721125819
 20
625.049811076
 30
0.0
 10
301.7256672233
 20
625.0509119215
 30
0.0
 10
301.706272614
 20
625.0451856785
 30
0.0
 10
301.6878829638
 20
625.0487495587
 30
0.0
 10
301.6878829638
 20
625.0457994494
 30
0.0
  0
SPLINE
  5
2FA
100
AcDbEntity
  8
0
100
AcDbSpline
 62
7
  6
CONTINUOUS
 70
0
 71
3
 72
29
 73
25
 74
0
 42
0.0000001
 43
0.0000001
 44
0.0000000001
 40
0.0
 40
0.0
 40
0.0
 40
0.0
 40
0.0024578168
 40
0.0096765012
 40
0.021592578
 40
0.03812372
 40
0.0591180301
 40
0.0843413866
 40
0.1465044212
 40
0.2222514148
 40
0.3086762704
 40
0.4024516671
 40
0.499979149
 40
0.5975062721
 40
0.6912843398
 40
0.7777133324
 40
0.8534724904
 40
0.9156448621
 40
0.9408734273
 40
0.9618719286
 40
0.978405147
 40
0.9903225112
 40
0.9975419439
 40
1.0
 40
1.0
 40
1.0
 40
1.0
 10
174.7878829638
 20
625.0457994494
 30
0.0
 10
174.7878829638
 20
625.0487492715
 30
0.0
 10
174.769495242
 20
625.0451860727
 30
0.0
 10
174.7501026285
 20
625.0509115882
 30
0.0
 10
174.7036626517
 20
625.0498110504
 30
0.0
 10
174.6459351587
 20
625.0522916664
 30
0.0
 10
174.5700298699
 20
625.0532308916
 30
0.0
 10
174.440246558
 20
625.055279905
 30
0.0
 10
174.2442905793
 20
625.0571399393
 30
0.0
 10
173.9751265227
 20
625.0590634362
 30
0.0
 10
173.6679231759
 20
625.0604437487
 30
0.0
 10
173.3346079522
 20
625.0613150313
 30
0.0
 10
172.9879584769
 20
625.0616037464
 30
0.0
 10
172.6413057962
 20
625.0613152044
 30
0.0
 10
172.307982831
 20
625.0604443521
 30
0.0
 10
172.0007567131
 20
625.0590638899
 30
0.0
 10
171.7315618946
 20
625.0571407523
 30
0.0
 10
171.5355738243
 20
625.0552804951
 30
0.0
 10
171.4057680894
 20
625.0532313092
 30
0.0
 10
171.329848885
 20
625.0522921232
 30
0.0
 10
171.2721125819
 20
625.049811076
 30
0.0
 10
171.2256672233
 20
625.0509119215
 30
0.0
 10
171.206272614
 20
625.0451856785
 30
0.0
 10
171.1878829638
 20
625.0487495587
 30
0.0
 10
171.1878829638
 20
625.0457994494
 30
0.0
  0
SPLINE
  5
2FB
100
AcDbEntity
  8
0
100
AcDbSpline
 62
7
  6
CONTINUOUS
 70
0
 71
3
 72
39
 73
35
 74
0
 42
0.0000001
 43
0.0000001
 44
0.0000000001
 40
0.0
 40
0.0
 40
0.0
 40
0.0
 40
0.0006404482
 40
0.0024597566
 40
0.0054703898
 40
0.0096685573
 40
0.0150484072
 40
0.0215979808
 40
0.038130055
 40
0.0591084021
 40
0.0843340843
 40
0.1135576057
 40
0.1465061955
 40
0.1828543633
 40
0.2222606002
 40
0.30868873
 40
0.4024685789
 40
0.4999961443
 40
0.597523471
 40
0.6913028016
 40
0.7777311191
 40
0.8171377734
 40
0.853487047
 40
0.8864369729
 40
0.9156616584
 40
0.9408888202
 40
0.9618680238
 40
0.9784010754
 40
0.9849510073
 40
0.990331042
 40
0.9945293628
 40
0.9975401244
 40
0.9993595206
 40
1.0
 40
1.0
 40
1.0
 40
1.0
 10
253.4128829638
 20
624.4711570869
 30
0.0
 10
253.4128829638
 20
624.4755022205
 30
0.0
 10
253.3876880074
 20
624.4750382122
 30
0.0
 10
253.3589550308
 20
624.4821196011
 30
0.0
 10
253.293211441
 20
624.4842657946
 30
0.0
 10
253.2099322309
 20
624.4892332747
 30
0.0
 10
253.0998088384
 20
624.4930645041
 30
0.0
 10
252.9071731102
 20
624.4991935124
 30
0.0
 10
252.608085186
 20
624.5060741476
 30
0.0
 10
252.182622352
 20
624.5137837717
 30
0.0
 10
251.6708974388
 20
624.521082827
 30
0.0
 10
251.0779971587
 20
624.5279762598
 30
0.0
 10
250.4096103936
 20
624.5343398357
 30
0.0
 10
249.6721364284
 20
624.5401255306
 30
0.0
 10
248.5718277801
 20
624.5471886371
 30
0.0
 10
247.0818651767
 20
624.5539663239
 30
0.0
 10
245.1975682559
 20
624.5588552436
 30
0.0
 10
243.2379630839
 20
624.5605069692
 30
0.0
 10
241.2783614277
 20
624.5588555364
 30
0.0
 10
239.3940683683
 20
624.5539669184
 30
0.0
 10
237.9041051745
 20
624.5471895652
 30
0.0
 10
236.8037849181
 20
624.5401265589
 30
0.0
 10
236.0662915536
 20
624.534340942
 30
0.0
 10
235.3978803207
 20
624.5279774622
 30
0.0
 10
234.8049530419
 20
624.521083716
 30
0.0
 10
234.2932043731
 20
624.5137848417
 30
0.0
 10
233.867719068
 20
624.5060748473
 30
0.0
 10
233.5686162523
 20
624.4991941185
 30
0.0
 10
233.3759702347
 20
624.4930649417
 30
0.0
 10
233.2658420816
 20
624.4892335352
 30
0.0
 10
233.1825598078
 20
624.484265842
 30
0.0
 10
233.1168134517
 20
624.4821198145
 30
0.0
 10
233.088079304
 20
624.4750379495
 30
0.0
 10
233.0628829638
 20
624.4755024316
 30
0.0
 10
233.0628829638
 20
624.4711570869
 30
0.0
  0
ELLIPSE
  5
2FC
100
AcDbEntity
  8
0
100
AcDbEllipse
 62
7
  6
CONTINUOUS
 10
243.2422801598
 20
283.4523496488
 30
0.0
 11
-24.6077779631
 21
957.6323888923
 31
0.0
 40
0.0259900341
 41
-1.8179043667
 42
-1.8152558975
  0
ELLIPSE
  5
2FD
100
AcDbEntity
  8
0
100
AcDbEllipse
 62
7
  6
CONTINUOUS
 10
243.2422801598
 20
56.505126628
 30
0.0
 11
33.8284331016
 21
-22.9168292146
 31
0.0
 40
0.391843782
 41
1.1961626108
 42
1.2898730407
  0
ELLIPSE
  5
2FE
100
AcDbEntity
  8
0
100
AcDbEllipse
 62
7
  6
CONTINUOUS
 10
237.5272561213
 20
57.2390431807
 30
0.0
 11
0.2406929815
 21
4.2476925114
 31
0.0
 40
0.7106055199
 41
-3.0950537421
 42
-2.9166942789
  0
ELLIPSE
  5
2FF
100
AcDbEntity
  8
0
100
AcDbEllipse
 62
7
  6
CONTINUOUS
 10
229.3422671643
 20
57.3095371454
 30
0.0
 11
0.2406929815
 21
4.2476925114
 31
0.0
 40
0.7106055199
 41
-3.0950537421
 42
-2.9166942788
  0
ELLIPSE
  5
300
100
AcDbEntity
  8
0
100
AcDbEllipse
 62
7
  6
CONTINUOUS
 10
243.2422801598
 20
233.8057441098
 30
0.0
 11
24.604970089
 21
759.5752323219
 31
0.0
 40
0.0327705186
 41
-4.471355755
 42
-4.4671138224
  0
ELLIPSE
  5
301
100
AcDbEntity
  8
0
100
AcDbEllipse
 62
7
  6
CONTINUOUS
 10
245.7122450784
 20
57.1685492159
 30
0.0
 11
0.2406929815
 21
4.2476925114
 31
0.0
 40
0.7106055199
 41
-3.0950537421
 42
-2.9166942788
  0
ELLIPSE
  5
302
100
AcDbEntity
  8
0
100
AcDbEllipse
 62
7
  6
CONTINUOUS
 10
243.2422801598
 20
56.505126628
 30
0.0
 11
33.7259503986
 21
23.2268718266
 31
0.0
 40
0.4028680459
 41
-0.8916039566
 42
-0.7978935267
  0
ELLIPSE
  5
303
100
AcDbEntity
  8
0
100
AcDbEllipse
 62
7
  6
CONTINUOUS
 10
229.3422671643
 20
57.3095371454
 30
0.0
 11
0.2406929815
 21
4.2476925114
 31
0.0
 40
0.7106055199
 41
-3.2982590521
 42
-3.1074766655
  0
ELLIPSE
  5
304
100
AcDbEntity
  8
0
100
AcDbEllipse
 62
7
  6
CONTINUOUS
 10
237.5272561213
 20
57.2390431807
 30
0.0
 11
0.2406929815
 21
4.2476925114
 31
0.0
 40
0.7106055199
 41
-3.2982590521
 42
-3.1074766655
  0
ELLIPSE
  5
305
100
AcDbEntity
  8
0
100
AcDbEllipse
 62
7
  6
CONTINUOUS
 10
245.7122450784
 20
57.1685492159
 30
0.0
 11
0.2406929815
 21
4.2476925114
 31
0.0
 40
0.7106055199
 41
-3.2982590521
 42
-3.1074766655
  0
ELLIPSE
  5
306
100
AcDbEntity
  8
0
100
AcDbEllipse
 62
7
  6
CONTINUOUS
 10
243.2422801598
 20
233.8057441098
 30
0.0
 11
24.604970089
 21
759.5752323219
 31
0.0
 40
0.0327705186
 41
-1.8145133229
 42
-1.8102713903
  0
ENDSEC
  0
SECTION
  2
OBJECTS
  0
DICTIONARY
  5
C
100
AcDbDictionary
280
0
281
1
  3
ACAD_GROUP
350
D
  3
ACAD_MLINESTYLE
350
17
  3
ACAD_LAYOUT
350
1A
  3
ACAD_PLOTSETTINGS
350
19
  3
ACAD_PLOTSTYLENAME
350
E
  0
DICTIONARY
  5
D
102
{ACAD_REACTORS
330
C
102
}
100
AcDbDictionary
280
0
281
1
  0
ACDBDICTIONARYWDFLT
  5
E
102
{ACAD_REACTORS
330
C
102
}
100
AcDbDictionary
281
1
  3
Normal
350
F
100
AcDbDictionaryWithDefault
340
F
  0
DICTIONARY
  5
17
102
{ACAD_REACTORS
330
C
102
}
100
AcDbDictionary
280
0
281
1
  3
Standard
350
18
  0
DICTIONARY
  5
19
102
{ACAD_REACTORS
330
C
102
}
100
AcDbDictionary
281
1
  0
DICTIONARY
  5
1A
102
{ACAD_REACTORS
330
C
102
}
100
AcDbDictionary
281
1
  3
Model
350
307
  3
Layout1
350
308
  0
ACDBPLACEHOLDER
  5
F
102
{ACAD_REACTORS
330
E
102
}
  0
MLINESTYLE
  5
18
102
{ACAD_REACTORS
330
17
102
}
100
AcDbMlineStyle
  2
STANDARD
 70
0
  3

 62
256
 51
90.0
 52
90.0
 71
2
 49
0.5
 62
256
  6
BYLAYER
 49
-0.5
 62
256
  6
BYLAYER
  0
LAYOUT
  5
307
102
{ACAD_REACTORS
330
1A
102
}
100
AcDbPlotSettings
  1

  2
none_device
  4

  6

 40
0.0
 41
0.0
 42
0.0
 43
0.0
 44
210.0
 45
297.0
 46
0.0
 47
0.0
 48
0.0
 49
0.0
140
0.0
141
0.0
142
1.0
143
1.0
 70
1024
 72
1
 73
0
 74
0
  7

 75
0
147
1.0
148
0.0
149
0.0
100
AcDbLayout
  1
Model
 70
0
 71
0
 10
0.0
 20
0.0
 11
210.0
 21
297.0
 12
0.0
 22
0.0
 32
0.0
 14
0.0
 24
0.0
 34
0.0
 15
0.0
 25
0.0
 35
0.0
146
0.0
 13
0.0
 23
0.0
 33
0.0
 16
1.0
 26
0.0
 36
0.0
 17
0.0
 27
1.0
 37
0.0
 76
0
330
210
345
0
346
0
  0
LAYOUT
  5
308
102
{ACAD_REACTORS
330
1A
102
}
100
AcDbPlotSettings
  1

  2
none_device
  4

  6

 40
0.0
 41
0.0
 42
0.0
 43
0.0
 44
210.0
 45
297.0
 46
0.0
 47
0.0
 48
0.0
 49
0.0
140
0.0
141
0.0
142
1.0
143
1.0
 70
0
 72
1
 73
0
 74
0
  7

 75
0
147
1.0
148
0.0
149
0.0
100
AcDbLayout
  1
Layout1
 70
0
 71
1
 10
0.0
 20
0.0
 11
210.0
 21
297.0
 12
0.0
 22
0.0
 32
0.0
 14
0.0
 24
0.0
 34
0.0
 15
0.0
 25
0.0
 35
0.0
146
0.0
 13
0.0
 23
0.0
 33
0.0
 16
1.0
 26
0.0
 36
0.0
 17
0.0
 27
1.0
 37
0.0
 76
0
330
211
345
0
346
0
  0
ENDSEC
  0
EOF
