999
DXF file: C:\Users\sesa63760\Dev\_Creo\CAD\MCADID0005537_3D-CAD\drw0001_6.dxf
999
Pro/ENGINEER 2019471 by Parametric Technology Corporation
  0
SECTION
  2
HEADER
  9
$ACADVER
  1
AC1024
  9
$DWGCODEPAGE
  3
ANSI_1252
  9
$EXTMAX
 10
58.6296719835
 20
82.9191075196
 30
0.0
  9
$EXTMIN
 10
0.0
 20
0.0
 30
0.0
  9
$LIMMIN
 10
0.0
 20
0.0
  9
$LIMMAX
 10
58.6296719835
 20
82.9191075196
  9
$VIEWCTR
 10
29.3148359918
 20
41.4595537598
  9
$VIEWSIZE
 40
82.9191075196
  9
$CLAYER
  8
0
  9
$LTSCALE
 40
5.4050973791
  9
$CELTYPE
  6
BYLAYER
  9
$DIMSCALE
 40
1.0
  9
$DIMASZ
 40
0.6979722855
  9
$DIMEXO
 40
1.0
  9
$DIMDLI
 40
3.7344309164
  9
$DIMEXE
 40
1.0
  9
$DIMCEN
 40
0.8844704802
  9
$DIMLFAC
 40
1.0
  9
$DIMBLK
  1
_FILLED
  9
$DIMALT
 70
0
  9
$DIMALTF
 40
0.0393700787
  9
$DIMTXT
 40
0.9771611997
  9
$DIMTOL
 70
1
  9
$DIMLIM
 70
0
  9
$DIMTFAC
 40
1.0
  9
$DIMTP
 40
0.01
  9
$DIMTM
 40
0.01
  9
$DIMGAP
 40
0.625
  9
$DIMDSEP
 70
46
  9
$AUNITS
 70
0
  9
$PDMODE
 70
3
  9
$PDSIZE
 40
0.3125
  9
$HANDSEED
  5
2C6
  9
$TILEMODE
 70
1
  9
$MEASUREMENT
 70
1
  9
$INSUNITS
 70
4
  0
ENDSEC
  0
SECTION
  2
CLASSES
  0
CLASS
  1
ACDBDICTIONARYWDFLT
  2
AcDbDictionaryWithDefault
  3
AutoCAD 2000
 90
0
 91
1
280
0
281
0
  0
CLASS
  1
ACDBPLACEHOLDER
  2
AcDbPlaceHolder
  3
AutoCAD 2000
 90
0
 91
1
280
0
281
0
  0
CLASS
  1
LAYOUT
  2
AcDbLayout
  3
AutoCAD 2000
 90
0
 91
0
280
0
281
0
  0
ENDSEC
  0
SECTION
  2
TABLES
  0
TABLE
  2
VPORT
  5
8
100
AcDbSymbolTable
 70
2
  0
VPORT
  5
1F4
100
AcDbSymbolTableRecord
100
AcDbViewportTableRecord
  2
*ACTIVE
 70
0
 10
0.0
 20
0.0
 11
1.0
 21
1.0
 12
29.3148359918
 22
41.4595537598
 13
0.0
 23
0.0
 14
1.0
 24
1.0
 15
0.0
 25
0.0
 16
0.0
 26
0.0
 36
1.0
 17
0.0
 27
0.0
 37
0.0
 40
82.9191075196
 41
0.7070707071
 42
50.0
 43
0.0
 44
0.0
 50
0.0
 51
0.0
 71
0
 72
100
 73
1
 74
1
 75
0
 76
0
 77
0
 78
0
  0
ENDTAB
  0
TABLE
  2
LTYPE
  5
5
100
AcDbSymbolTable
 70
6
  0
LTYPE
  5
14
100
AcDbSymbolTableRecord
100
AcDbLinetypeTableRecord
  2
BYBLOCK
 70
0
  3

 72
65
 73
0
 40
0.0
  0
LTYPE
  5
15
100
AcDbSymbolTableRecord
100
AcDbLinetypeTableRecord
  2
BYLAYER
 70
0
  3

 72
65
 73
0
 40
0.0
  0
LTYPE
  5
16
100
AcDbSymbolTableRecord
100
AcDbLinetypeTableRecord
  2
CONTINUOUS
 70
64
  3
Solid line
 72
65
 73
0
 40
0.0
  0
LTYPE
  5
1F5
100
AcDbSymbolTableRecord
100
AcDbLinetypeTableRecord
  2
CENTER
 70
64
  3
____ _ ____ _ ____ _ ____ _ ____ _ ____ _ ____
 72
65
 73
4
 40
0.6
 49
0.375
 74
0
 49
-0.075
 74
0
 49
0.075
 74
0
 49
-0.075
 74
0
  0
LTYPE
  5
1F6
100
AcDbSymbolTableRecord
100
AcDbLinetypeTableRecord
  2
HIDDEN
 70
64
  3
- - - - - - - - - - - - - - - - - - - -
 72
65
 73
2
 40
0.2
 49
0.1
 74
0
 49
-0.1
 74
0
  0
LTYPE
  5
1F7
100
AcDbSymbolTableRecord
100
AcDbLinetypeTableRecord
  2
PHANTOM
 70
64
  3
_____ _ _ _____ _ _ _____ _ _ _____
 72
65
 73
6
 40
0.8
 49
0.45
 74
0
 49
-0.05
 74
0
 49
0.1
 74
0
 49
-0.05
 74
0
 49
0.1
 74
0
 49
-0.05
 74
0
  0
LTYPE
  5
1F8
100
AcDbSymbolTableRecord
100
AcDbLinetypeTableRecord
  2
DOT
 70
64
  3
. . . . . . . . . . . . . . . . . . . .
 72
65
 73
2
 40
0.2
 49
0.1
 74
0
 49
-0.1
 74
0
  0
LTYPE
  5
1F9
100
AcDbSymbolTableRecord
100
AcDbLinetypeTableRecord
  2
DASHED
 70
64
  3
- - - - - - - - - - - - - - - - - - - -
 72
65
 73
2
 40
0.2
 49
0.1
 74
0
 49
-0.1
 74
0
  0
ENDTAB
  0
TABLE
  2
LAYER
  5
2
100
AcDbSymbolTable
 70
36
  0
LAYER
  5
10
100
AcDbSymbolTableRecord
100
AcDbLayerTableRecord
  2
0
 70
0
 62
7
  6
CONTINUOUS
370
-3
390
F
  0
LAYER
  5
1FA
100
AcDbSymbolTableRecord
100
AcDbLayerTableRecord
  2
DEFAULT_1
 70
0
 62
7
  6
CENTER
370
-3
390
F
  0
LAYER
  5
1FB
100
AcDbSymbolTableRecord
100
AcDbLayerTableRecord
  2
DEFAULT_2
 70
0
 62
7
  6
HIDDEN
370
-3
390
F
  0
LAYER
  5
1FC
100
AcDbSymbolTableRecord
100
AcDbLayerTableRecord
  2
DEFAULT_3
 70
0
 62
7
  6
PHANTOM
370
-3
390
F
  0
LAYER
  5
1FD
100
AcDbSymbolTableRecord
100
AcDbLayerTableRecord
  2
00_COMPONENTS
 70
0
 62
7
  6
CONTINUOUS
370
-3
390
F
  0
LAYER
  5
1FE
100
AcDbSymbolTableRecord
100
AcDbLayerTableRecord
  2
01_1_DEFAULT_DATUMS
 70
0
 62
7
  6
CONTINUOUS
370
-3
390
F
  0
LAYER
  5
1FF
100
AcDbSymbolTableRecord
100
AcDbLayerTableRecord
  2
01_PLANES
 70
0
 62
7
  6
CONTINUOUS
370
-3
390
F
  0
LAYER
  5
200
100
AcDbSymbolTableRecord
100
AcDbLayerTableRecord
  2
02_COORD_SYS
 70
0
 62
7
  6
CONTINUOUS
370
-3
390
F
  0
LAYER
  5
201
100
AcDbSymbolTableRecord
100
AcDbLayerTableRecord
  2
03_AXES
 70
0
 62
7
  6
CONTINUOUS
370
-3
390
F
  0
LAYER
  5
202
100
AcDbSymbolTableRecord
100
AcDbLayerTableRecord
  2
04_POINTS
 70
0
 62
7
  6
CONTINUOUS
370
-3
390
F
  0
LAYER
  5
203
100
AcDbSymbolTableRecord
100
AcDbLayerTableRecord
  2
05_CURVES
 70
0
 62
7
  6
CONTINUOUS
370
-3
390
F
  0
LAYER
  5
204
100
AcDbSymbolTableRecord
100
AcDbLayerTableRecord
  2
06_SURFS
 70
0
 62
7
  6
CONTINUOUS
370
-3
390
F
  0
LAYER
  5
205
100
AcDbSymbolTableRecord
100
AcDbLayerTableRecord
  2
07_COSMETICS
 70
0
 62
7
  6
CONTINUOUS
370
-3
390
F
  0
LAYER
  5
206
100
AcDbSymbolTableRecord
100
AcDbLayerTableRecord
  2
10_NOTES
 70
0
 62
7
  6
CONTINUOUS
370
-3
390
F
  0
LAYER
  5
207
100
AcDbSymbolTableRecord
100
AcDbLayerTableRecord
  2
11_NOTES_PUB
 70
0
 62
7
  6
CONTINUOUS
370
-3
390
F
  0
LAYER
  5
208
100
AcDbSymbolTableRecord
100
AcDbLayerTableRecord
  2
13_REF_GTOL
 70
0
 62
7
  6
CONTINUOUS
370
-3
390
F
  0
LAYER
  5
209
100
AcDbSymbolTableRecord
100
AcDbLayerTableRecord
  2
16_MISC
 70
0
 62
7
  6
CONTINUOUS
370
-3
390
F
  0
LAYER
  5
20A
100
AcDbSymbolTableRecord
100
AcDbLayerTableRecord
  2
17_NO_PRINT
 70
0
 62
7
  6
CONTINUOUS
370
-3
390
F
  0
LAYER
  5
20B
100
AcDbSymbolTableRecord
100
AcDbLayerTableRecord
  2
18_DATUM_CAMS_JOINTS
 70
0
 62
7
  6
CONTINUOUS
370
-3
390
F
  0
LAYER
  5
20C
100
AcDbSymbolTableRecord
100
AcDbLayerTableRecord
  2
19_DATUM_FUNCTIONAL
 70
0
 62
7
  6
CONTINUOUS
370
-3
390
F
  0
LAYER
  5
20D
100
AcDbSymbolTableRecord
100
AcDbLayerTableRecord
  2
20_DATUM_KINEMATIC_SCHEME
 70
0
 62
7
  6
CONTINUOUS
370
-3
390
F
  0
ENDTAB
  0
TABLE
  2
STYLE
  5
3
100
AcDbSymbolTable
 70
1
  0
STYLE
  5
11
100
AcDbSymbolTableRecord
100
AcDbTextStyleTableRecord
  2
STANDARD
 70
0
 40
0.0
 41
1.0
 50
0.0
 71
0
 42
0.2
  3
ARIAL.TTF
  4

  0
STYLE
  5
20E
100
AcDbSymbolTableRecord
100
AcDbTextStyleTableRecord
  2
TEXTSTYLE_1
 70
0
 40
0.0
 41
0.8
 50
0.0
 71
0
 42
0.2
  3
gdt
  4

  0
ENDTAB
  0
TABLE
  2
VIEW
  5
6
100
AcDbSymbolTable
 70
0
  0
ENDTAB
  0
TABLE
  2
UCS
  5
7
100
AcDbSymbolTable
 70
0
  0
ENDTAB
  0
TABLE
  2
APPID
  5
9
100
AcDbSymbolTable
 70
1
  0
APPID
  5
20F
100
AcDbSymbolTableRecord
100
AcDbRegAppTableRecord
  2
ACAD
 70
0
  0
ENDTAB
  0
TABLE
  2
BLOCK_RECORD
  5
1
100
AcDbSymbolTable
 70
0
  0
BLOCK_RECORD
  5
210
100
AcDbSymbolTableRecord
100
AcDbBlockTableRecord
  2
*Model_Space
  0
BLOCK_RECORD
  5
211
100
AcDbSymbolTableRecord
100
AcDbBlockTableRecord
  2
*Paper_Space
  0
BLOCK_RECORD
  5
212
100
AcDbSymbolTableRecord
100
AcDbBlockTableRecord
  2
_FILLED
  0
ENDTAB
  0
TABLE
  2
DIMSTYLE
  5
A
100
AcDbSymbolTable
 70
1
100
AcDbDimStyleTable
 71
0
  0
DIMSTYLE
105
213
100
AcDbSymbolTableRecord
100
AcDbDimStyleTableRecord
  2
STANDARD
 70
0
  3

  4

 40
1.0
 41
0.6979722855
 42
1.0
 43
0.38
 44
1.0
 45
0.0
 46
0.0
 47
0.01
 48
0.01
140
0.9771611997
141
0.09
142
0.0
143
25.4
144
1.0
145
0.0
146
1.0
147
0.625
 71
1
 72
0
 73
0
 74
0
 75
0
 76
0
 77
1
 78
8
 79
2
170
0
171
1
172
0
173
0
174
0
175
0
176
0
177
0
178
0
270
2
179
2
271
2
272
2
273
2
274
2
275
0
280
0
281
0
282
0
283
1
284
8
285
0
286
0
287
3
288
0
340
11
278
46
341
212
342
212
343
212
344
212
  0
ENDTAB
  0
ENDSEC
  0
SECTION
  2
BLOCKS
  0
BLOCK
  5
20
100
AcDbEntity
  8
0
100
AcDbBlockBegin
  2
*Model_Space
 70
0
 10
0.0
 20
0.0
 30
0.0
  3
*Model_Space
  1

  0
ENDBLK
  5
21
100
AcDbEntity
  8
0
100
AcDbBlockEnd
  0
BLOCK
  5
1C
100
AcDbEntity
  8
0
100
AcDbBlockBegin
  2
*Paper_Space
 70
0
 10
0.0
 20
0.0
 30
0.0
  3
*Paper_Space
  1

  0
ENDBLK
  5
1D
100
AcDbEntity
  8
0
100
AcDbBlockEnd
  0
BLOCK
  5
214
100
AcDbEntity
  8
0
100
AcDbBlockBegin
  2
_FILLED
 70
64
 10
0.0
 20
0.0
  3
_FILLED
  1

  0
SOLID
  5
215
100
AcDbEntity
  8
0
  6
BYBLOCK
 62
0
100
AcDbTrace
 10
0.0
 20
0.0
 11
-1.0
 21
0.25
 12
-1.0
 22
-0.25
 13
-1.0
 23
-0.25
  0
ENDBLK
  5
216
100
AcDbEntity
  8
0
  6
BYBLOCK
 62
0
100
AcDbBlockEnd
  0
ENDSEC
  0
SECTION
  2
ENTITIES
  0
LINE
  5
217
100
AcDbEntity
  8
0
100
AcDbLine
 62
7
  6
BYLAYER
 10
6.8544247726
 20
36.7561446902
 11
6.6488027324
 21
40.1576709566
  0
LINE
  5
218
100
AcDbEntity
  8
0
100
AcDbLine
 62
7
  6
BYLAYER
 10
6.6488029471
 20
40.1576709566
 11
6.6488609605
 21
40.1565465449
  0
LINE
  5
219
100
AcDbEntity
  8
0
100
AcDbLine
 62
7
  6
BYLAYER
 10
6.6491795871
 20
40.205581732
 11
6.6461747389
 21
42.3080818972
  0
LINE
  5
21A
100
AcDbEntity
  8
0
100
AcDbLine
 62
7
  6
BYLAYER
 10
6.6488607725
 20
40.1565480414
 11
6.6492674985
 21
40.2496869475
  0
LINE
  5
21B
100
AcDbEntity
  8
0
100
AcDbLine
 62
7
  6
BYLAYER
 10
6.6624931528
 20
43.2049941678
 11
6.6592167486
 21
43.1006849077
  0
LINE
  5
21C
100
AcDbEntity
  8
0
100
AcDbLine
 62
7
  6
BYLAYER
 10
6.6624126923
 20
43.2049955655
 11
6.6588775049
 21
43.1006903328
  0
LINE
  5
21D
100
AcDbEntity
  8
0
100
AcDbLine
 62
7
  6
BYLAYER
 10
8.4444427092
 20
35.4104198961
 11
8.4444427092
 21
29.5643547868
  0
LINE
  5
21E
100
AcDbEntity
  8
0
100
AcDbLine
 62
7
  6
BYLAYER
 10
8.5626121541
 20
35.0102139855
 11
8.5626121541
 21
29.4011867376
  0
LINE
  5
21F
100
AcDbEntity
  8
0
100
AcDbLine
 62
7
  6
BYLAYER
 10
8.9588858572
 20
29.3418689418
 11
8.9588858572
 21
34.6587940877
  0
LINE
  5
220
100
AcDbEntity
  8
0
100
AcDbLine
 62
7
  6
BYLAYER
 10
32.915258805
 20
27.2095537561
 11
23.0291831867
 21
27.2095537561
  0
LINE
  5
221
100
AcDbEntity
  8
0
100
AcDbLine
 62
7
  6
BYLAYER
 10
34.1652590099
 20
27.8845540027
 11
32.915258805
 21
27.8845540027
  0
LINE
  5
222
100
AcDbEntity
  8
0
100
AcDbLine
 62
7
  6
BYLAYER
 10
22.6152590725
 20
28.9855537598
 11
22.3852587181
 21
28.9855537598
  0
LINE
  5
223
100
AcDbEntity
  8
0
100
AcDbLine
 62
7
  6
BYLAYER
 10
21.88133473
 20
29.3377746019
 11
11.4122868618
 21
29.3377746019
  0
LINE
  5
224
100
AcDbEntity
  8
0
100
AcDbLine
 62
7
  6
BYLAYER
 10
22.3850331075
 20
30.2060785914
 11
21.8813347346
 21
30.2060785914
  0
LINE
  5
225
100
AcDbEntity
  8
0
100
AcDbLine
 62
7
  6
BYLAYER
 10
36.8632590099
 20
30.5845537598
 11
34.1652590099
 21
30.5845537598
  0
LINE
  5
226
100
AcDbEntity
  8
0
100
AcDbLine
 62
7
  6
BYLAYER
 10
22.3852587181
 20
53.9345535229
 11
21.8849434611
 21
50.5741568336
  0
LINE
  5
227
100
AcDbEntity
  8
0
100
AcDbLine
 62
7
  6
BYLAYER
 10
22.6152590725
 20
54.3195538933
 11
23.0291831867
 21
55.7095537598
  0
LINE
  5
228
100
AcDbEntity
  8
0
100
AcDbLine
 62
7
  6
BYLAYER
 10
37.1242590099
 20
30.9595537598
 11
37.1132590099
 21
30.9595537598
  0
LINE
  5
229
100
AcDbEntity
  8
0
100
AcDbLine
 62
7
  6
BYLAYER
 10
37.1242590099
 20
31.3195537598
 11
45.7242590099
 21
31.3195537598
  0
LINE
  5
22A
100
AcDbEntity
  8
0
100
AcDbLine
 62
7
  6
BYLAYER
 10
48.6122590099
 20
32.3595537598
 11
45.7242590099
 21
32.3595537598
  0
LINE
  5
22B
100
AcDbEntity
  8
0
100
AcDbLine
 62
7
  6
BYLAYER
 10
23.0291831867
 20
27.2095537598
 11
22.6152590725
 21
28.5995536263
  0
LINE
  5
22C
100
AcDbEntity
  8
0
100
AcDbLine
 62
7
  6
BYLAYER
 10
21.8813347327
 20
53.5829914476
 11
21.8813347326
 21
52.7143750609
  0
LINE
  5
22D
100
AcDbEntity
  8
0
100
AcDbLine
 62
7
  6
BYLAYER
 10
21.881334731
 20
36.0773157349
 11
21.8813347303
 21
29.337878258
  0
LINE
  5
22E
100
AcDbEntity
  8
0
100
AcDbLine
 62
7
  6
BYLAYER
 10
21.8849434611
 20
38.1887577516
 11
21.8849434611
 21
50.5191071449
  0
LINE
  5
22F
100
AcDbEntity
  8
0
100
AcDbLine
 62
7
  6
BYLAYER
 10
22.3852587181
 20
28.9845539967
 11
22.3852587181
 21
53.9345535229
  0
LINE
  5
230
100
AcDbEntity
  8
0
100
AcDbLine
 62
7
  6
BYLAYER
 10
22.6113347303
 20
29.8898855996
 11
22.6113347303
 21
36.0770560502
  0
LINE
  5
231
100
AcDbEntity
  8
0
100
AcDbLine
 62
7
  6
BYLAYER
 10
22.6152590725
 20
28.5995536263
 11
22.6152590725
 21
29.8856039292
  0
LINE
  5
232
100
AcDbEntity
  8
0
100
AcDbLine
 62
7
  6
BYLAYER
 10
22.6152590725
 20
35.832266602
 11
22.6152590725
 21
54.3195538933
  0
LINE
  5
233
100
AcDbEntity
  8
0
100
AcDbLine
 62
7
  6
BYLAYER
 10
34.1652590099
 20
34.2459679078
 11
34.9489094859
 21
34.2460083204
  0
LINE
  5
234
100
AcDbEntity
  8
0
100
AcDbLine
 62
7
  6
BYLAYER
 10
23.0245945933
 20
29.6382232189
 11
23.0246082252
 21
33.529087818
  0
LINE
  5
235
100
AcDbEntity
  8
0
100
AcDbLine
 62
7
  6
BYLAYER
 10
23.0291831867
 20
27.2095537561
 11
23.0291831867
 21
55.7095537635
  0
LINE
  5
236
100
AcDbEntity
  8
0
100
AcDbLine
 62
7
  6
BYLAYER
 10
37.5242590099
 20
34.6595537598
 11
51.8132590099
 21
34.6595537598
  0
LINE
  5
237
100
AcDbEntity
  8
0
100
AcDbLine
 62
7
  6
BYLAYER
 10
48.4132590099
 20
34.7473890359
 11
45.7242590099
 21
34.7473890359
  0
LINE
  5
238
100
AcDbEntity
  8
0
100
AcDbLine
 62
7
  6
BYLAYER
 10
48.4132590099
 20
34.7744894777
 11
51.8132590099
 21
34.7744894777
  0
LINE
  5
239
100
AcDbEntity
  8
0
100
AcDbLine
 62
7
  6
BYLAYER
 10
37.5242590099
 20
34.8180443258
 11
45.7242590099
 21
34.8180443258
  0
LINE
  5
23A
100
AcDbEntity
  8
0
100
AcDbLine
 62
7
  6
BYLAYER
 10
8.2556282803
 20
35.9783204051
 11
21.8813347242
 21
35.9783204051
  0
LINE
  5
23B
100
AcDbEntity
  8
0
100
AcDbLine
 62
7
  6
BYLAYER
 10
21.8813347242
 20
36.0773157349
 11
22.385150838
 21
36.0773157349
  0
LINE
  5
23C
100
AcDbEntity
  8
0
100
AcDbLine
 62
7
  6
BYLAYER
 10
34.1652590099
 20
36.4077601768
 11
32.9152590099
 21
36.4077601768
  0
LINE
  5
23D
100
AcDbEntity
  8
0
100
AcDbLine
 62
7
  6
BYLAYER
 10
48.4132590099
 20
37.651319381
 11
49.4214933887
 21
37.651319381
  0
LINE
  5
23E
100
AcDbEntity
  8
0
100
AcDbLine
 62
7
  6
BYLAYER
 10
34.9489094859
 20
38.0184338586
 11
34.1652590099
 21
38.0184850869
  0
LINE
  5
23F
100
AcDbEntity
  8
0
100
AcDbLine
 62
7
  6
BYLAYER
 10
48.7115279488
 20
38.2595537598
 11
48.4132590099
 21
38.2595537598
  0
LINE
  5
240
100
AcDbEntity
  8
0
100
AcDbLine
 62
7
  6
BYLAYER
 10
45.7242590099
 20
38.2595539573
 11
37.5242590099
 21
38.2595539573
  0
LINE
  5
241
100
AcDbEntity
  8
0
100
AcDbLine
 62
7
  6
BYLAYER
 10
45.7242590099
 20
38.9595537598
 11
37.5242590099
 21
38.9595537598
  0
LINE
  5
242
100
AcDbEntity
  8
0
100
AcDbLine
 62
7
  6
BYLAYER
 10
50.6132590099
 20
40.6595537598
 11
46.5132590099
 21
40.6595537598
  0
LINE
  5
243
100
AcDbEntity
  8
0
100
AcDbLine
 62
7
  6
BYLAYER
 10
32.9152590099
 20
40.3045537598
 11
31.7152590099
 21
40.4095537598
  0
LINE
  5
244
100
AcDbEntity
  8
0
100
AcDbLine
 62
7
  6
BYLAYER
 10
31.7152590099
 20
42.5095537598
 11
31.7152590099
 21
40.4095537598
  0
LINE
  5
245
100
AcDbEntity
  8
0
100
AcDbLine
 62
7
  6
BYLAYER
 10
31.7152590099
 20
42.5095537598
 11
32.9152590099
 21
42.6145537598
  0
LINE
  5
246
100
AcDbEntity
  8
0
100
AcDbLine
 62
7
  6
BYLAYER
 10
46.5132590099
 20
42.2595537598
 11
50.6132590099
 21
42.2595537598
  0
LINE
  5
247
100
AcDbEntity
  8
0
100
AcDbLine
 62
7
  6
BYLAYER
 10
32.915258805
 20
27.2095537523
 11
32.915258805
 21
55.7095537672
  0
LINE
  5
248
100
AcDbEntity
  8
0
100
AcDbLine
 62
7
  6
BYLAYER
 10
51.8132590099
 20
45.2595537598
 11
53.0132590099
 21
45.2804998377
  0
LINE
  5
249
100
AcDbEntity
  8
0
100
AcDbLine
 62
7
  6
BYLAYER
 10
37.5242590099
 20
43.9595537598
 11
40.1682654305
 21
43.9595537598
  0
LINE
  5
24A
100
AcDbEntity
  8
0
100
AcDbLine
 62
7
  6
BYLAYER
 10
42.6602525894
 20
43.9595537598
 11
45.7242590099
 21
43.9595537598
  0
LINE
  5
24B
100
AcDbEntity
  8
0
100
AcDbLine
 62
7
  6
BYLAYER
 10
45.7242590099
 20
44.1278865726
 11
51.6132590099
 21
44.1278865726
  0
LINE
  5
24C
100
AcDbEntity
  8
0
100
AcDbLine
 62
7
  6
BYLAYER
 10
34.1652590099
 20
27.8845540027
 11
34.1652590099
 21
55.0345535169
  0
LINE
  5
24D
100
AcDbEntity
  8
0
100
AcDbLine
 62
7
  6
BYLAYER
 10
34.9489094859
 20
51.2393590254
 11
34.9489094859
 21
48.5146683269
  0
LINE
  5
24E
100
AcDbEntity
  8
0
100
AcDbLine
 62
7
  6
BYLAYER
 10
34.9489094859
 20
38.0183826209
 11
34.9489094859
 21
34.2460487353
  0
LINE
  5
24F
100
AcDbEntity
  8
0
100
AcDbLine
 62
7
  6
BYLAYER
 10
35.1479617001
 20
34.2927546896
 11
35.1479617001
 21
37.9593968261
  0
LINE
  5
250
100
AcDbEntity
  8
0
100
AcDbLine
 62
7
  6
BYLAYER
 10
35.1479617001
 20
48.5619133521
 11
35.1479617001
 21
51.2028327027
  0
LINE
  5
251
100
AcDbEntity
  8
0
100
AcDbLine
 62
7
  6
BYLAYER
 10
32.9152590099
 20
46.5113473428
 11
34.1652590099
 21
46.5113473428
  0
LINE
  5
252
100
AcDbEntity
  8
0
100
AcDbLine
 62
7
  6
BYLAYER
 10
36.4152590099
 20
52.0992494791
 11
36.4152590099
 21
52.3344538895
  0
LINE
  5
253
100
AcDbEntity
  8
0
100
AcDbLine
 62
7
  6
BYLAYER
 10
36.7732590094
 20
35.8769084953
 11
36.7732590094
 21
36.1685035161
  0
LINE
  5
254
100
AcDbEntity
  8
0
100
AcDbLine
 62
7
  6
BYLAYER
 10
36.7732590094
 20
49.9244961345
 11
36.7732590094
 21
50.1317923601
  0
LINE
  5
255
100
AcDbEntity
  8
0
100
AcDbLine
 62
7
  6
BYLAYER
 10
36.8632590099
 20
52.3345537598
 11
36.8632590099
 21
30.5845537598
  0
LINE
  5
256
100
AcDbEntity
  8
0
100
AcDbLine
 62
7
  6
BYLAYER
 10
37.1132590099
 20
52.0845537598
 11
37.1132590099
 21
30.8345537598
  0
LINE
  5
257
100
AcDbEntity
  8
0
100
AcDbLine
 62
7
  6
BYLAYER
 10
37.1242590099
 20
31.3195537598
 11
37.1242590099
 21
30.9595566135
  0
LINE
  5
258
100
AcDbEntity
  8
0
100
AcDbLine
 62
7
  6
BYLAYER
 10
51.6132590099
 20
47.2741904638
 11
48.4132590099
 21
47.2741904638
  0
LINE
  5
259
100
AcDbEntity
  8
0
100
AcDbLine
 62
7
  6
BYLAYER
 10
34.1652590099
 20
48.5145861234
 11
34.9489094859
 21
48.5146272203
  0
LINE
  5
25A
100
AcDbEntity
  8
0
100
AcDbLine
 62
7
  6
BYLAYER
 10
53.0132590099
 20
47.4386076819
 11
51.8132590099
 21
47.4595537598
  0
LINE
  5
25B
100
AcDbEntity
  8
0
100
AcDbLine
 62
7
  6
BYLAYER
 10
37.5242590099
 20
43.9595537598
 11
37.5242590099
 21
38.9595537598
  0
LINE
  5
25C
100
AcDbEntity
  8
0
100
AcDbLine
 62
7
  6
BYLAYER
 10
37.5242590099
 20
34.6595538091
 11
37.5242590099
 21
38.2595539573
  0
LINE
  5
25D
100
AcDbEntity
  8
0
100
AcDbLine
 62
7
  6
BYLAYER
 10
37.5242590099
 20
49.2857917519
 11
37.5242590099
 21
51.5595537598
  0
LINE
  5
25E
100
AcDbEntity
  8
0
100
AcDbLine
 62
7
  6
BYLAYER
 10
38.7142590099
 20
51.7673178238
 11
38.7142590099
 21
51.5595537598
  0
LINE
  5
25F
100
AcDbEntity
  8
0
100
AcDbLine
 62
7
  6
BYLAYER
 10
48.4132590099
 20
49.1048143109
 11
50.3474493988
 21
49.1048143109
  0
LINE
  5
260
100
AcDbEntity
  8
0
100
AcDbLine
 62
7
  6
BYLAYER
 10
45.7242590099
 20
49.2857917519
 11
37.5242590099
 21
49.2857917519
  0
LINE
  5
261
100
AcDbEntity
  8
0
100
AcDbLine
 62
7
  6
BYLAYER
 10
48.4132590099
 20
49.4075963022
 11
50.2132590099
 21
49.4075963022
  0
LINE
  5
262
100
AcDbEntity
  8
0
100
AcDbLine
 62
7
  6
BYLAYER
 10
37.5242590099
 20
49.7541301849
 11
45.7242590099
 21
49.7541301849
  0
LINE
  5
263
100
AcDbEntity
  8
0
100
AcDbLine
 62
7
  6
BYLAYER
 10
37.5242590099
 20
50.0671331895
 11
45.7242590099
 21
50.0671331895
  0
LINE
  5
264
100
AcDbEntity
  8
0
100
AcDbLine
 62
7
  6
BYLAYER
 10
48.4132590099
 20
50.5595537598
 11
45.7242590099
 21
50.5595537598
  0
LINE
  5
265
100
AcDbEntity
  8
0
100
AcDbLine
 62
7
  6
BYLAYER
 10
50.6132590099
 20
42.2595537598
 11
51.8132590099
 21
42.9523740828
  0
LINE
  5
266
100
AcDbEntity
  8
0
100
AcDbLine
 62
7
  6
BYLAYER
 10
34.9489094859
 20
51.2393590254
 11
34.9594317824
 21
51.2394690074
  0
LINE
  5
267
100
AcDbEntity
  8
0
100
AcDbLine
 62
7
  6
BYLAYER
 10
50.6132590099
 20
51.5595537598
 11
48.4132590099
 21
51.5595537598
  0
LINE
  5
268
100
AcDbEntity
  8
0
100
AcDbLine
 62
7
  6
BYLAYER
 10
45.7242590099
 20
51.5595537598
 11
37.5242590099
 21
51.5595537598
  0
LINE
  5
269
100
AcDbEntity
  8
0
100
AcDbLine
 62
7
  6
BYLAYER
 10
42.5376867337
 20
51.9595537598
 11
37.1132590099
 21
51.9595537598
  0
LINE
  5
26A
100
AcDbEntity
  8
0
100
AcDbLine
 62
7
  6
BYLAYER
 10
36.4152590099
 20
52.0992494791
 11
34.1652590099
 21
52.0992494791
  0
LINE
  5
26B
100
AcDbEntity
  8
0
100
AcDbLine
 62
7
  6
BYLAYER
 10
36.8632590099
 20
52.3345537598
 11
36.4152590099
 21
52.3345537598
  0
LINE
  5
26C
100
AcDbEntity
  8
0
100
AcDbLine
 62
7
  6
BYLAYER
 10
34.9489094859
 20
51.2393590254
 11
34.1652590099
 21
51.2394867781
  0
LINE
  5
26D
100
AcDbEntity
  8
0
100
AcDbLine
 62
7
  6
BYLAYER
 10
34.9594317824
 20
51.2394690074
 11
35.1479617001
 21
51.2028327027
  0
LINE
  5
26E
100
AcDbEntity
  8
0
100
AcDbLine
 62
7
  6
BYLAYER
 10
35.7762471003
 20
50.9309798992
 11
35.1479617001
 21
51.2028327027
  0
LINE
  5
26F
100
AcDbEntity
  8
0
100
AcDbLine
 62
7
  6
BYLAYER
 10
51.8132590099
 20
39.9667334368
 11
50.6132590099
 21
40.6595537598
  0
LINE
  5
270
100
AcDbEntity
  8
0
100
AcDbLine
 62
7
  6
BYLAYER
 10
42.5377265755
 20
51.955993358
 11
42.5377265755
 21
51.5595537598
  0
LINE
  5
271
100
AcDbEntity
  8
0
100
AcDbLine
 62
7
  6
BYLAYER
 10
42.7133667941
 20
51.5595537598
 11
42.7133667941
 21
51.9595520995
  0
LINE
  5
272
100
AcDbEntity
  8
0
100
AcDbLine
 62
7
  6
BYLAYER
 10
8.255280079
 20
52.8484740073
 11
21.8813347304
 21
52.8484740073
  0
LINE
  5
273
100
AcDbEntity
  8
0
100
AcDbLine
 62
7
  6
BYLAYER
 10
21.8813347304
 20
53.5831119317
 11
11.5474168471
 21
53.5831119317
  0
LINE
  5
274
100
AcDbEntity
  8
0
100
AcDbLine
 62
7
  6
BYLAYER
 10
22.3852587181
 20
53.9345535229
 11
22.6152590725
 21
53.9345535229
  0
LINE
  5
275
100
AcDbEntity
  8
0
100
AcDbLine
 62
7
  6
BYLAYER
 10
22.2035562628
 20
52.7141383533
 11
21.8813347258
 21
52.7143750609
  0
LINE
  5
276
100
AcDbEntity
  8
0
100
AcDbLine
 62
7
  6
BYLAYER
 10
48.8966084298
 20
38.1762043399
 11
51.8132590099
 21
35.2595537598
  0
LINE
  5
277
100
AcDbEntity
  8
0
100
AcDbLine
 62
7
  6
BYLAYER
 10
32.915258805
 20
55.0345535169
 11
34.1652590099
 21
55.0345535169
  0
LINE
  5
278
100
AcDbEntity
  8
0
100
AcDbLine
 62
7
  6
BYLAYER
 10
23.0291831867
 20
55.7095537635
 11
32.915258805
 21
55.7095537635
  0
LINE
  5
279
100
AcDbEntity
  8
0
100
AcDbLine
 62
7
  6
BYLAYER
 10
45.7242590099
 20
34.6595538091
 11
45.7242590099
 21
31.3195537598
  0
LINE
  5
27A
100
AcDbEntity
  8
0
100
AcDbLine
 62
7
  6
BYLAYER
 10
45.7242590099
 20
34.747422322
 11
45.7242590099
 21
51.5595537598
  0
LINE
  5
27B
100
AcDbEntity
  8
0
100
AcDbLine
 62
7
  6
BYLAYER
 10
46.5132590099
 20
40.6595537598
 11
46.5132590099
 21
42.2595537598
  0
LINE
  5
27C
100
AcDbEntity
  8
0
100
AcDbLine
 62
7
  6
BYLAYER
 10
48.1652590099
 20
40.6595537598
 11
48.1652590099
 21
42.2595537598
  0
LINE
  5
27D
100
AcDbEntity
  8
0
100
AcDbLine
 62
7
  6
BYLAYER
 10
48.4132590099
 20
34.7474371439
 11
48.4132590099
 21
38.2595537598
  0
LINE
  5
27E
100
AcDbEntity
  8
0
100
AcDbLine
 62
7
  6
BYLAYER
 10
48.4132590099
 20
47.2741904638
 11
48.4132590099
 21
51.5595537598
  0
LINE
  5
27F
100
AcDbEntity
  8
0
100
AcDbLine
 62
7
  6
BYLAYER
 10
48.6122590099
 20
33.0595538739
 11
48.6122590099
 21
32.3596924989
  0
LINE
  5
280
100
AcDbEntity
  8
0
100
AcDbLine
 62
7
  6
BYLAYER
 10
50.2132590099
 20
51.5595537598
 11
50.2132590099
 21
49.4075963022
  0
LINE
  5
281
100
AcDbEntity
  8
0
100
AcDbLine
 62
7
  6
BYLAYER
 10
51.5132590099
 20
50.6595470053
 11
51.5132590099
 21
49.5928187868
  0
LINE
  5
282
100
AcDbEntity
  8
0
100
AcDbLine
 62
7
  6
BYLAYER
 10
51.6132590099
 20
47.2741904638
 11
51.6132590099
 21
44.1278865726
  0
LINE
  5
283
100
AcDbEntity
  8
0
100
AcDbLine
 62
7
  6
BYLAYER
 10
51.8132590099
 20
34.5900559616
 11
51.8132590099
 21
39.9667334368
  0
LINE
  5
284
100
AcDbEntity
  8
0
100
AcDbLine
 62
7
  6
BYLAYER
 10
51.8132590099
 20
42.9523740828
 11
51.8132590099
 21
49.2518576553
  0
LINE
  5
285
100
AcDbEntity
  8
0
100
AcDbLine
 62
7
  6
BYLAYER
 10
51.5132590099
 20
50.6595537598
 11
50.6132590099
 21
51.5595537598
  0
LINE
  5
286
100
AcDbEntity
  8
0
100
AcDbLine
 62
7
  6
BYLAYER
 10
53.0132590099
 20
47.4386076819
 11
53.0132590099
 21
45.2804998377
  0
LINE
  5
287
100
AcDbEntity
  8
0
100
AcDbLine
 62
7
  6
BYLAYER
 10
51.5132582103
 20
34.0712276331
 11
51.8132590099
 21
34.5900559616
  0
ARC
  5
288
100
AcDbEntity
  8
0
100
AcDbCircle
 62
7
  6
BYLAYER
 10
11.6542174477
 20
-726.4999106714
 40
780.0830299358
100
AcDbArc
 50
90.007844321
 51
90.1979678346
  0
ARC
  5
289
100
AcDbEntity
  8
0
100
AcDbCircle
 62
7
  6
BYLAYER
 10
11.4726426462
 20
792.9257511759
 40
763.5879789915
100
AcDbArc
 50
269.8113801762
 51
269.9954712112
  0
ARC
  5
28A
100
AcDbEntity
  8
0
100
AcDbCircle
 62
7
  6
BYLAYER
 10
-12.310459672
 20
-418.3742563482
 40
453.5320533692
100
AcDbArc
 50
86.9779935602
 51
87.3120402779
  0
ARC
  5
28B
100
AcDbEntity
  8
0
100
AcDbCircle
 62
7
  6
BYLAYER
 10
56.7848387678
 20
41.4814130021
 40
50.1535083753
100
AcDbArc
 50
180.0238297702
 51
181.0954855822
  0
ARC
  5
28C
100
AcDbEntity
  8
0
100
AcDbCircle
 62
7
  6
BYLAYER
 10
56.7848387678
 20
41.4396945175
 40
50.1535083753
100
AcDbArc
 50
178.0381983212
 51
178.0582104789
  0
ARC
  5
28D
100
AcDbEntity
  8
0
100
AcDbCircle
 62
7
  6
BYLAYER
 10
56.7848387678
 20
41.4396945175
 40
50.1535083753
100
AcDbArc
 50
178.8348724105
 51
179.9761702298
  0
ARC
  5
28E
100
AcDbEntity
  8
0
100
AcDbCircle
 62
7
  6
BYLAYER
 10
56.7848387678
 20
41.4396945175
 40
50.1535083753
100
AcDbArc
 50
174.5961856975
 51
177.9573685067
  0
ARC
  5
28F
100
AcDbEntity
  8
0
100
AcDbCircle
 62
7
  6
BYLAYER
 10
32.3928815774
 20
42.2778044227
 40
25.7471572571
100
AcDbArc
 50
178.1684999438
 51
178.4552473291
  0
ARC
  5
290
100
AcDbEntity
  8
0
100
AcDbCircle
 62
7
  6
BYLAYER
 10
32.208084946
 20
42.3196062173
 40
25.5610139455
100
AcDbArc
 50
178.1627666513
 51
178.437514014
  0
ARC
  5
291
100
AcDbEntity
  8
0
100
AcDbCircle
 62
7
  6
BYLAYER
 10
43.8479155896
 20
51.4514315967
 40
18.9989508762
100
AcDbArc
 50
284.5230083055
 51
289.8813806049
  0
ARC
  5
292
100
AcDbEntity
  8
0
100
AcDbCircle
 62
7
  6
BYLAYER
 10
44.8077814452
 20
49.0005433959
 40
16.3656482887
100
AcDbArc
 50
293.6610595177
 51
294.1839494392
  0
ARC
  5
293
100
AcDbEntity
  8
0
100
AcDbCircle
 62
7
  6
BYLAYER
 10
33.4202515522
 20
32.344950686
 40
11.5353080911
100
AcDbArc
 50
190.7799713864
 51
196.9314485105
  0
ARC
  5
294
100
AcDbEntity
  8
0
100
AcDbCircle
 62
7
  6
BYLAYER
 10
41.4884003467
 20
41.1503110313
 40
10.5536116593
100
AcDbArc
 50
11.951105034
 51
16.3878524663
  0
CIRCLE
  5
295
100
AcDbEntity
  8
0
100
AcDbCircle
 62
7
  6
BYLAYER
 10
41.4142590099
 20
43.8595537598
 40
1.25
  0
ARC
  5
296
100
AcDbEntity
  8
0
100
AcDbCircle
 62
7
  6
BYLAYER
 10
36.8632590099
 20
52.0845537598
 40
0.25
100
AcDbArc
 50
0.0
 51
90.0
  0
ARC
  5
297
100
AcDbEntity
  8
0
100
AcDbCircle
 62
7
  6
BYLAYER
 10
36.8632590099
 20
30.8345537598
 40
0.25
100
AcDbArc
 50
270.0
 51
360.0
  0
ARC
  5
298
100
AcDbEntity
  8
0
100
AcDbCircle
 62
7
  6
BYLAYER
 10
48.710616791
 20
38.0103667507
 40
0.2491886749
100
AcDbArc
 50
41.7214736212
 51
89.7904976449
  0
SPLINE
  5
299
100
AcDbEntity
  8
0
100
AcDbSpline
 62
7
  6
BYLAYER
 70
0
 71
3
 72
16
 73
12
 74
0
 42
0.0000001
 43
0.0000001
 44
0.0000000001
 40
0.0
 40
0.0
 40
0.0
 40
0.0
 40
0.0485142956
 40
0.0793941508
 40
0.115666476
 40
0.2056367334
 40
0.3196559105
 40
0.4572703507
 40
0.6174304098
 40
0.7988695073
 40
1.0
 40
1.0
 40
1.0
 40
1.0
 10
22.9355421035
 20
29.3377867622
 30
0.0
 10
22.9250529461
 20
29.3377843697
 30
0.0
 10
22.9080576199
 20
29.3442058544
 30
0.0
 10
22.8878271053
 20
29.3587704898
 30
0.0
 10
22.862943839
 20
29.3820869744
 30
0.0
 10
22.8306281008
 20
29.4229927091
 30
0.0
 10
22.790965906
 20
29.48537257
 30
0.0
 10
22.7487811944
 20
29.5638550992
 30
0.0
 10
22.705012155
 20
29.6578119176
 30
0.0
 10
22.6601599848
 20
29.7662700795
 30
0.0
 10
22.6305897138
 20
29.8435243036
 30
0.0
 10
22.6153615525
 20
29.8842567175
 30
0.0
  0
LINE
  5
29A
100
AcDbEntity
  8
0
100
AcDbLine
 62
7
  6
BYLAYER
 10
22.6153615525
 20
29.8842567175
 11
22.613164016
 21
29.8901414963
  0
LINE
  5
29B
100
AcDbEntity
  8
0
100
AcDbLine
 62
7
  6
BYLAYER
 10
6.66319843
 20
43.2273207187
 11
6.6624126923
 21
43.2049955655
  0
SPLINE
  5
29C
100
AcDbEntity
  8
0
100
AcDbSpline
 62
7
  6
BYLAYER
 70
0
 71
3
 72
12
 73
8
 74
0
 42
0.0000001
 43
0.0000001
 44
0.0000000001
 40
0.0
 40
0.0
 40
0.0
 40
0.0
 40
0.2500202724
 40
0.5000212086
 40
0.6250198299
 40
0.7500143555
 40
1.0
 40
1.0
 40
1.0
 40
1.0
 10
6.6565750384
 20
43.0165820909
 30
0.0
 10
6.6549238111
 20
42.9560778916
 30
0.0
 10
6.6520306852
 20
42.8350620663
 30
0.0
 10
6.6497425588
 20
42.6837686211
 30
0.0
 10
6.6482355925
 20
42.5627363686
 30
0.0
 10
6.6471656561
 20
42.4416998142
 30
0.0
 10
6.6481847107
 20
42.3509224291
 30
0.0
 10
6.6483160984
 20
42.2904042277
 30
0.0
  0
SPLINE
  5
29D
100
AcDbEntity
  8
0
100
AcDbSpline
 62
7
  6
BYLAYER
 70
0
 71
3
 72
9
 73
5
 74
0
 42
0.0000001
 43
0.0000001
 44
0.0000000001
 40
0.0
 40
0.0
 40
0.0
 40
0.0
 40
0.4867041435
 40
1.0
 40
1.0
 40
1.0
 40
1.0
 10
6.8542355902
 20
46.1628802232
 30
0.0
 10
6.958767198
 20
47.2677090472
 30
0.0
 10
7.311772529
 20
49.5259673145
 30
0.0
 10
7.9008990475
 20
51.7330183527
 30
0.0
 10
8.255280079
 20
52.8484740073
 30
0.0
  0
SPLINE
  5
29E
100
AcDbEntity
  8
0
100
AcDbSpline
 62
7
  6
BYLAYER
 70
0
 71
3
 72
10
 73
6
 74
0
 42
0.0000001
 43
0.0000001
 44
0.0000000001
 40
0.0
 40
0.0
 40
0.0
 40
0.0
 40
0.4863081049
 40
0.7398329659
 40
1.0
 40
1.0
 40
1.0
 40
1.0
 10
6.8544601279
 20
36.7561464914
 30
0.0
 10
6.9617801049
 20
35.621892926
 30
0.0
 10
7.2330211764
 20
33.9048837603
 30
0.0
 10
7.7828920243
 20
31.6269966727
 30
0.0
 10
8.1253065347
 20
30.4725461249
 30
0.0
 10
8.3127717165
 20
29.8925732632
 30
0.0
  0
LINE
  5
29F
100
AcDbEntity
  8
0
100
AcDbLine
 62
7
  6
BYLAYER
 10
51.8132590099
 20
49.2518576553
 11
51.5132590099
 21
49.5928187868
  0
SPLINE
  5
2A0
100
AcDbEntity
  8
0
100
AcDbSpline
 62
7
  6
BYLAYER
 70
0
 71
3
 72
9
 73
5
 74
0
 42
0.0000001
 43
0.0000001
 44
0.0000000001
 40
0.0
 40
0.0
 40
0.0
 40
0.0
 40
0.4991954446
 40
1.0
 40
1.0
 40
1.0
 40
1.0
 10
50.3089641838
 20
33.5848430734
 30
0.0
 10
50.4887050509
 20
33.6498997786
 30
0.0
 10
50.8465271181
 20
33.7864427844
 30
0.0
 10
51.2001111512
 20
33.9336401388
 30
0.0
 10
51.3757311901
 20
34.0106641417
 30
0.0
  0
SPLINE
  5
2A1
100
AcDbEntity
  8
0
100
AcDbSpline
 62
7
  6
BYLAYER
 70
0
 71
3
 72
11
 73
7
 74
0
 42
0.0000001
 43
0.0000001
 44
0.0000000001
 40
0.0
 40
0.0
 40
0.0
 40
0.0
 40
0.3265111041
 40
0.5983153023
 40
0.8185955022
 40
1.0
 40
1.0
 40
1.0
 40
1.0
 10
8.9588873152
 20
53.5784628202
 30
0.0
 10
8.9148568932
 20
53.578231928
 30
0.0
 10
8.8341697945
 20
53.5766001339
 30
0.0
 10
8.7239949458
 20
53.5676786999
 30
0.0
 10
8.6346455043
 20
53.550107127
 30
0.0
 10
8.5837579981
 20
53.5298930914
 30
0.0
 10
8.5626121541
 20
53.517593114
 30
0.0
  0
SPLINE
  5
2A2
100
AcDbEntity
  8
0
100
AcDbSpline
 62
7
  6
BYLAYER
 70
0
 71
3
 72
9
 73
5
 74
0
 42
0.0000001
 43
0.0000001
 44
0.0000000001
 40
0.0
 40
0.0
 40
0.0
 40
0.0
 40
0.2250663522
 40
1.0
 40
1.0
 40
1.0
 40
1.0
 10
8.5626121541
 20
53.517593114
 30
0.0
 10
8.5509063828
 20
53.5077145333
 30
0.0
 10
8.5018664744
 20
53.4602989802
 30
0.0
 10
8.4657145715
 20
53.4005899008
 30
0.0
 10
8.4444427092
 20
53.3523315642
 30
0.0
  0
SPLINE
  5
2A3
100
AcDbEntity
  8
0
100
AcDbSpline
 62
7
  6
BYLAYER
 70
0
 71
3
 72
10
 73
6
 74
0
 42
0.0000001
 43
0.0000001
 44
0.0000000001
 40
0.0
 40
0.0
 40
0.0
 40
0.0
 40
0.2085091386
 40
0.4463614451
 40
1.0
 40
1.0
 40
1.0
 40
1.0
 10
8.4444427092
 20
53.3523315642
 30
0.0
 10
8.4285350245
 20
53.3184529289
 30
0.0
 10
8.3964795909
 20
53.244986162
 30
0.0
 10
8.3310271246
 20
53.0778176433
 30
0.0
 10
8.2854106394
 20
52.9431746313
 30
0.0
 10
8.255280079
 20
52.8484740073
 30
0.0
  0
SPLINE
  5
2A4
100
AcDbEntity
  8
0
100
AcDbSpline
 62
7
  6
BYLAYER
 70
0
 71
3
 72
11
 73
7
 74
0
 42
0.0000001
 43
0.0000001
 44
0.0000000001
 40
0.0
 40
0.0
 40
0.0
 40
0.0
 40
0.3276255151
 40
0.5995840999
 40
0.8194310294
 40
1.0
 40
1.0
 40
1.0
 40
1.0
 10
8.9588873382
 20
29.3419098758
 30
0.0
 10
8.9147451733
 20
29.3421277836
 30
0.0
 10
8.8339582102
 20
29.3436581082
 30
0.0
 10
8.7237454536
 20
29.3522408606
 30
0.0
 10
8.6345457593
 20
29.3693334316
 30
0.0
 10
8.5837342887
 20
29.3891137986
 30
0.0
 10
8.5626121541
 20
29.4011867376
 30
0.0
  0
SPLINE
  5
2A5
100
AcDbEntity
  8
0
100
AcDbSpline
 62
7
  6
BYLAYER
 70
0
 71
3
 72
9
 73
5
 74
0
 42
0.0000001
 43
0.0000001
 44
0.0000000001
 40
0.0
 40
0.0
 40
0.0
 40
0.0
 40
0.2252058783
 40
1.0
 40
1.0
 40
1.0
 40
1.0
 10
8.5626121541
 20
29.4011867376
 30
0.0
 10
8.5509117891
 20
29.4108893758
 30
0.0
 10
8.5018975495
 20
29.4575229106
 30
0.0
 10
8.4657171412
 20
29.51658412
 30
0.0
 10
8.4444427092
 20
29.5643547868
 30
0.0
  0
SPLINE
  5
2A6
100
AcDbEntity
  8
0
100
AcDbSpline
 62
7
  6
BYLAYER
 70
0
 71
3
 72
9
 73
5
 74
0
 42
0.0000001
 43
0.0000001
 44
0.0000000001
 40
0.0
 40
0.0
 40
0.0
 40
0.0
 40
0.4569761588
 40
1.0
 40
1.0
 40
1.0
 40
1.0
 10
8.4444427092
 20
29.5643547868
 30
0.0
 10
8.4213462506
 20
29.61304042
 30
0.0
 10
8.3750525246
 20
29.7215885655
 30
0.0
 10
8.334028424
 20
29.832171437
 30
0.0
 10
8.3127717165
 20
29.8925732632
 30
0.0
  0
SPLINE
  5
2A7
100
AcDbEntity
  8
0
100
AcDbSpline
 62
7
  6
BYLAYER
 70
0
 71
3
 72
9
 73
5
 74
0
 42
0.0000001
 43
0.0000001
 44
0.0000000001
 40
0.0
 40
0.0
 40
0.0
 40
0.0
 40
0.4979351398
 40
1.0
 40
1.0
 40
1.0
 40
1.0
 10
35.1480988773
 20
37.9593042843
 30
0.0
 10
35.1203714948
 20
37.9775238915
 30
0.0
 10
35.0599099085
 20
38.0075622278
 30
0.0
 10
34.9928846791
 20
38.0185591373
 30
0.0
 10
34.9594317824
 20
38.0185591373
 30
0.0
  0
LINE
  5
2A8
100
AcDbEntity
  8
0
100
AcDbLine
 62
7
  6
BYLAYER
 10
34.9594317824
 20
38.0185591373
 11
34.9489094859
 21
38.0184338586
  0
LINE
  5
2A9
100
AcDbEntity
  8
0
100
AcDbLine
 62
7
  6
BYLAYER
 10
34.9489094859
 20
34.2460083204
 11
34.9594317824
 21
34.2459094919
  0
SPLINE
  5
2AA
100
AcDbEntity
  8
0
100
AcDbSpline
 62
7
  6
BYLAYER
 70
0
 71
3
 72
33
 73
29
 74
0
 42
0.0000001
 43
0.0000001
 44
0.0000000001
 40
0.0
 40
0.0
 40
0.0
 40
0.0
 40
0.0074255385
 40
0.0150793263
 40
0.0227776616
 40
0.0305255701
 40
0.0382869466
 40
0.0460602219
 40
0.06163355
 40
0.0772256293
 40
0.0928303795
 40
0.1084435843
 40
0.1240624986
 40
0.1553125863
 40
0.1865737147
 40
0.2178418879
 40
0.2491150349
 40
0.2803917175
 40
0.3116710546
 40
0.3742353358
 40
0.4368047446
 40
0.49937743
 40
0.561952338
 40
0.6245287624
 40
0.687106216
 40
0.7496843645
 40
0.8748418182
 40
1.0
 40
1.0
 40
1.0
 40
1.0
 10
21.8813347302
 20
33.5629799296
 30
0.0
 10
21.8627750045
 20
33.5806182285
 30
0.0
 10
21.8163203148
 20
33.606316792
 30
0.0
 10
21.7435709407
 20
33.6352556503
 30
0.0
 10
21.6675432617
 20
33.6594437282
 30
0.0
 10
21.5903658419
 20
33.6805411442
 30
0.0
 10
21.5124078432
 20
33.6997719594
 30
0.0
 10
21.4077109499
 20
33.7231210561
 30
0.0
 10
21.2759632333
 20
33.7490906122
 30
0.0
 10
21.1171707744
 20
33.7772777584
 30
0.0
 10
20.9578105801
 20
33.8029373422
 30
0.0
 10
20.7980644938
 20
33.826684736
 30
0.0
 10
20.5847038719
 20
33.8566059691
 30
0.0
 10
20.3174722179
 20
33.8908097644
 30
0.0
 10
19.9962911129
 20
33.9283410997
 30
0.0
 10
19.6747411908
 20
33.9633061545
 30
0.0
 10
19.3529026803
 20
33.9960299715
 30
0.0
 10
19.030858168
 20
34.0270562791
 30
0.0
 10
18.6012287012
 20
34.0664455085
 30
0.0
 10
18.0638500303
 20
34.1123567395
 30
0.0
 10
17.4186424707
 20
34.1635710143
 30
0.0
 10
16.7731683317
 20
34.2117963003
 30
0.0
 10
16.127474589
 20
34.2573245345
 30
0.0
 10
15.4816067795
 20
34.3005529498
 30
0.0
 10
14.8355993814
 20
34.341813147
 30
0.0
 10
13.974110038
 20
34.3946891382
 30
0.0
 10
12.8970318327
 20
34.457342018
 30
0.0
 10
12.0351862144
 20
34.504241269
 30
0.0
 10
11.6042246909
 20
34.5269732938
 30
0.0
  0
SPLINE
  5
2AB
100
AcDbEntity
  8
0
100
AcDbSpline
 62
7
  6
BYLAYER
 70
0
 71
3
 72
9
 73
5
 74
0
 42
0.0000001
 43
0.0000001
 44
0.0000000001
 40
0.0
 40
0.0
 40
0.0
 40
0.0
 40
0.4581313484
 40
1.0
 40
1.0
 40
1.0
 40
1.0
 10
8.2556282803
 20
35.9783204051
 30
0.0
 10
8.2919741621
 20
35.8944006068
 30
0.0
 10
8.3609208655
 20
35.7067431805
 30
0.0
 10
8.4168272184
 20
35.5150035384
 30
0.0
 10
8.4444427092
 20
35.4104198961
 30
0.0
  0
SPLINE
  5
2AC
100
AcDbEntity
  8
0
100
AcDbSpline
 62
7
  6
BYLAYER
 70
0
 71
3
 72
9
 73
5
 74
0
 42
0.0000001
 43
0.0000001
 44
0.0000000001
 40
0.0
 40
0.0
 40
0.0
 40
0.0
 40
0.4879985876
 40
1.0
 40
1.0
 40
1.0
 40
1.0
 10
8.4444427092
 20
35.4104198961
 30
0.0
 10
8.4607769645
 20
35.3445240194
 30
0.0
 10
8.4981658363
 20
35.2104589573
 30
0.0
 10
8.5403442385
 20
35.077873215
 30
0.0
 10
8.5626121541
 20
35.0102139855
 30
0.0
  0
SPLINE
  5
2AD
100
AcDbEntity
  8
0
100
AcDbSpline
 62
7
  6
BYLAYER
 70
0
 71
3
 72
12
 73
8
 74
0
 42
0.0000001
 43
0.0000001
 44
0.0000000001
 40
0.0
 40
0.0
 40
0.0
 40
0.0
 40
0.2467489128
 40
0.4965964586
 40
0.6224529878
 40
0.7485482547
 40
1.0
 40
1.0
 40
1.0
 40
1.0
 10
8.5626121541
 20
35.0102139855
 30
0.0
 10
8.5821452096
 20
34.9693065327
 30
0.0
 10
8.6273771662
 20
34.8896690852
 30
0.0
 10
8.6992477359
 20
34.7998546436
 30
0.0
 10
8.7678133808
 20
34.7378196288
 30
0.0
 10
8.8441820784
 20
34.6855264935
 30
0.0
 10
8.9125505389
 20
34.6621484816
 30
0.0
 10
8.9586246199
 20
34.6587992744
 30
0.0
  0
SPLINE
  5
2AE
100
AcDbEntity
  8
0
100
AcDbSpline
 62
7
  6
BYLAYER
 70
0
 71
3
 72
9
 73
5
 74
0
 42
0.0000001
 43
0.0000001
 44
0.0000000001
 40
0.0
 40
0.0
 40
0.0
 40
0.0
 40
0.5000045132
 40
1.0
 40
1.0
 40
1.0
 40
1.0
 10
50.3474493988
 20
49.1048143109
 30
0.0
 10
50.5676589164
 20
48.8062438928
 30
0.0
 10
51.0005505111
 20
48.2035076821
 30
0.0
 10
51.413505197
 20
47.5868083952
 30
0.0
 10
51.6132590099
 20
47.2741904638
 30
0.0
  0
SPLINE
  5
2AF
100
AcDbEntity
  8
0
100
AcDbSpline
 62
7
  6
BYLAYER
 70
0
 71
3
 72
15
 73
11
 74
0
 42
0.0000001
 43
0.0000001
 44
0.0000000001
 40
0.0
 40
0.0
 40
0.0
 40
0.0
 40
0.2087465014
 40
0.3926499453
 40
0.5510155592
 40
0.6833424961
 40
0.790344953
 40
0.8743695505
 40
0.9407888019
 40
1.0
 40
1.0
 40
1.0
 40
1.0
 10
23.022899902
 20
29.6409101539
 30
0.0
 10
23.0227915541
 20
29.6176805373
 30
0.0
 10
23.0215825162
 20
29.5739802268
 30
0.0
 10
23.0166071017
 20
29.5128308984
 30
0.0
 10
23.0090656649
 20
29.4605193302
 30
0.0
 10
22.9995103164
 20
29.4172499155
 30
0.0
 10
22.9878679241
 20
29.3830832812
 30
0.0
 10
22.9738665942
 20
29.3578266048
 30
0.0
 10
22.9563661205
 20
29.3414248479
 30
0.0
 10
22.9421312839
 20
29.3377882651
 30
0.0
 10
22.9355421035
 20
29.3377867622
 30
0.0
  0
SPLINE
  5
2B0
100
AcDbEntity
  8
0
100
AcDbSpline
 62
7
  6
BYLAYER
 70
0
 71
3
 72
12
 73
8
 74
0
 42
0.0000001
 43
0.0000001
 44
0.0000000001
 40
0.0
 40
0.0
 40
0.0
 40
0.0
 40
0.2640645112
 40
0.522547113
 40
0.6478760138
 40
0.7697343582
 40
1.0
 40
1.0
 40
1.0
 40
1.0
 10
22.9369878531
 20
34.5269732938
 30
0.0
 10
22.9503688347
 20
34.4393559807
 30
0.0
 10
22.9742563981
 20
34.2655576221
 30
0.0
 10
22.9959668515
 20
34.0491360567
 30
0.0
 10
23.0086162903
 20
33.8798725318
 30
0.0
 10
23.0184633595
 20
33.7199248796
 30
0.0
 10
23.0228307119
 20
33.601742954
 30
0.0
 10
23.0228569226
 20
33.5244543417
 30
0.0
  0
SPLINE
  5
2B1
100
AcDbEntity
  8
0
100
AcDbSpline
 62
7
  6
BYLAYER
 70
0
 71
3
 72
12
 73
8
 74
0
 42
0.0000001
 43
0.0000001
 44
0.0000000001
 40
0.0
 40
0.0
 40
0.0
 40
0.0
 40
0.230272911
 40
0.3520908716
 40
0.4774122173
 40
0.7359417657
 40
1.0
 40
1.0
 40
1.0
 40
1.0
 10
23.0228569226
 20
33.5244543417
 30
0.0
 10
23.0228414107
 20
33.601710606
 30
0.0
 10
23.0212971582
 20
33.7198594506
 30
0.0
 10
23.0138256782
 20
33.8798717443
 30
0.0
 10
23.0017400589
 20
34.0491057556
 30
0.0
 10
22.980080932
 20
34.2654369867
 30
0.0
 10
22.9574785632
 20
34.4393344304
 30
0.0
 10
22.9445236388
 20
34.5269732938
 30
0.0
  0
SPLINE
  5
2B2
100
AcDbEntity
  8
0
100
AcDbSpline
 62
7
  6
BYLAYER
 70
0
 71
3
 72
9
 73
5
 74
0
 42
0.0000001
 43
0.0000001
 44
0.0000000001
 40
0.0
 40
0.0
 40
0.0
 40
0.0
 40
0.5097883474
 40
1.0
 40
1.0
 40
1.0
 40
1.0
 10
34.9594317824
 20
48.5145267178
 30
0.0
 10
34.9927357951
 20
48.5145267178
 30
0.0
 10
35.0583366427
 20
48.5230113707
 30
0.0
 10
35.1197508072
 20
48.5470930721
 30
0.0
 10
35.1480990933
 20
48.5619920904
 30
0.0
  0
SPLINE
  5
2B3
100
AcDbEntity
  8
0
100
AcDbSpline
 62
7
  6
BYLAYER
 70
0
 71
3
 72
15
 73
11
 74
0
 42
0.0000001
 43
0.0000001
 44
0.0000000001
 40
0.0
 40
0.0
 40
0.0
 40
0.0
 40
0.057590788
 40
0.1233544519
 40
0.2074867145
 40
0.3146746457
 40
0.4470682376
 40
0.6056206685
 40
0.790183791
 40
1.0
 40
1.0
 40
1.0
 40
1.0
 10
22.94290637
 20
29.3377980461
 30
0.0
 10
22.9492788301
 20
29.3378001779
 30
0.0
 10
22.9631628646
 20
29.34153778
 30
0.0
 10
22.9800867035
 20
29.3579640557
 30
0.0
 10
22.9938546371
 20
29.3830955064
 30
0.0
 10
23.0050802138
 20
29.4172557866
 30
0.0
 10
23.0135548411
 20
29.4605631362
 30
0.0
 10
23.0190834486
 20
29.5129316209
 30
0.0
 10
23.0221604227
 20
29.5740535183
 30
0.0
 10
23.0228021578
 20
29.6176940512
 30
0.0
 10
23.022899902
 20
29.6409101539
 30
0.0
  0
SPLINE
  5
2B4
100
AcDbEntity
  8
0
100
AcDbSpline
 62
7
  6
BYLAYER
 70
0
 71
3
 72
12
 73
8
 74
0
 42
0.0000001
 43
0.0000001
 44
0.0000000001
 40
0.0
 40
0.0
 40
0.0
 40
0.0
 40
0.1033677746
 40
0.2150132075
 40
0.4592617855
 40
0.7241900873
 40
1.0
 40
1.0
 40
1.0
 40
1.0
 10
22.6132949638
 20
35.8324147367
 30
0.0
 10
22.6301289246
 20
35.7891575819
 30
0.0
 10
22.6625702822
 20
35.6981741698
 30
0.0
 10
22.7248167487
 20
35.5015475488
 30
0.0
 10
22.7998014789
 20
35.2329046136
 30
0.0
 10
22.8761893934
 20
34.8886377312
 30
0.0
 10
22.9182898205
 20
34.6494061191
 30
0.0
 10
22.9369878531
 20
34.5269732938
 30
0.0
  0
SPLINE
  5
2B5
100
AcDbEntity
  8
0
100
AcDbSpline
 62
7
  6
BYLAYER
 70
0
 71
3
 72
11
 73
7
 74
0
 42
0.0000001
 43
0.0000001
 44
0.0000000001
 40
0.0
 40
0.0
 40
0.0
 40
0.0
 40
0.2756489835
 40
0.5403458872
 40
0.7844170222
 40
1.0
 40
1.0
 40
1.0
 40
1.0
 10
22.9445236226
 20
34.5269732938
 30
0.0
 10
22.9263871104
 20
34.6496651181
 30
0.0
 10
22.8854317131
 20
34.889430252
 30
0.0
 10
22.8089095804
 20
35.2340892115
 30
0.0
 10
22.721939111
 20
35.5484551748
 30
0.0
 10
22.6502491536
 20
35.7427308144
 30
0.0
 10
22.6132949638
 20
35.8324147367
 30
0.0
  0
SPLINE
  5
2B6
100
AcDbEntity
  8
0
100
AcDbSpline
 62
7
  6
BYLAYER
 70
0
 71
3
 72
14
 73
10
 74
0
 42
0.0000001
 43
0.0000001
 44
0.0000000001
 40
0.0
 40
0.0
 40
0.0
 40
0.0
 40
0.0175222872
 40
0.0694024674
 40
0.1546040283
 40
0.2715504683
 40
0.4178105153
 40
0.5907674345
 40
1.0
 40
1.0
 40
1.0
 40
1.0
 10
42.7133667941
 20
51.9595520996
 30
0.0
 10
42.7123455969
 20
51.9594519698
 30
0.0
 10
42.708272351
 20
51.9595041318
 30
0.0
 10
42.6992325839
 20
51.9590917003
 30
0.0
 10
42.6843564019
 20
51.9587848411
 30
0.0
 10
42.6639627581
 20
51.9582327341
 30
0.0
 10
42.6384269982
 20
51.9576641157
 30
0.0
 10
42.5957784335
 20
51.9568007775
 30
0.0
 10
42.5616892838
 20
51.9562788576
 30
0.0
 10
42.5377265755
 20
51.9559934962
 30
0.0
  0
SPLINE
  5
2B7
100
AcDbEntity
  8
0
100
AcDbSpline
 62
7
  6
BYLAYER
 70
0
 71
3
 72
11
 73
7
 74
0
 42
0.0000001
 43
0.0000001
 44
0.0000000001
 40
0.0
 40
0.0
 40
0.0
 40
0.0
 40
0.249987122
 40
0.4984589716
 40
0.7476778483
 40
1.0
 40
1.0
 40
1.0
 40
1.0
 10
21.884944508
 20
38.18875803
 30
0.0
 10
21.884950761
 20
38.0063543076
 30
0.0
 10
21.9049360694
 20
37.6422860082
 30
0.0
 10
21.9981945021
 20
37.1035110056
 30
0.0
 10
22.1556045876
 20
36.5780638774
 30
0.0
 10
22.3020657378
 20
36.2416094698
 30
0.0
 10
22.385150838
 20
36.0773157349
 30
0.0
  0
SPLINE
  5
2B8
100
AcDbEntity
  8
0
100
AcDbSpline
 62
7
  6
BYLAYER
 70
0
 71
3
 72
12
 73
8
 74
0
 42
0.0000001
 43
0.0000001
 44
0.0000000001
 40
0.0
 40
0.0
 40
0.0
 40
0.0
 40
0.2776495831
 40
0.5468919312
 40
0.7931706849
 40
0.9026311831
 40
1.0
 40
1.0
 40
1.0
 40
1.0
 10
50.3474585407
 20
49.1048137292
 30
0.0
 10
50.3290217995
 20
49.1298111297
 30
0.0
 10
50.2946715058
 20
49.1805595399
 30
0.0
 10
50.2520986123
 20
49.2585501232
 30
0.0
 10
50.2264238464
 20
49.3239892078
 30
0.0
 10
50.2154136254
 20
49.3735591722
 30
0.0
 10
50.2132590099
 20
49.3967035458
 30
0.0
 10
50.2132590099
 20
49.4075963022
 30
0.0
  0
SPLINE
  5
2B9
100
AcDbEntity
  8
0
100
AcDbSpline
 62
7
  6
BYLAYER
 70
0
 71
3
 72
15
 73
11
 74
0
 42
0.0000001
 43
0.0000001
 44
0.0000000001
 40
0.0
 40
0.0
 40
0.0
 40
0.0
 40
0.1064860021
 40
0.2186848027
 40
0.3374146388
 40
0.4620311898
 40
0.5915384987
 40
0.7248607504
 40
0.8612456852
 40
1.0
 40
1.0
 40
1.0
 40
1.0
 10
36.7732590094
 20
50.1317923601
 30
0.0
 10
36.7626273641
 20
50.1772856935
 30
0.0
 10
36.7259701273
 20
50.2675052955
 30
0.0
 10
36.6391069823
 20
50.3884720312
 30
0.0
 10
36.5275479575
 20
50.4982654613
 30
0.0
 10
36.3981828716
 20
50.5987962241
 30
0.0
 10
36.2553757273
 20
50.6912815749
 30
0.0
 10
36.1026045959
 20
50.7771219896
 30
0.0
 10
35.9421735549
 20
50.8570991797
 30
0.0
 10
35.8321462136
 20
50.9068205426
 30
0.0
 10
35.7762777686
 20
50.9309999903
 30
0.0
  0
LINE
  5
2BA
100
AcDbEntity
  8
0
100
AcDbLine
 62
7
  6
BYLAYER
 10
34.9489094859
 20
48.5146272203
 11
34.9594317824
 21
48.5145267178
  0
SPLINE
  5
2BB
100
AcDbEntity
  8
0
100
AcDbSpline
 62
7
  6
BYLAYER
 70
0
 71
3
 72
15
 73
11
 74
0
 42
0.0000001
 43
0.0000001
 44
0.0000000001
 40
0.0
 40
0.0
 40
0.0
 40
0.0
 40
0.2742596886
 40
0.4083290886
 40
0.539414671
 40
0.6662786804
 40
0.7870202776
 40
0.844341738
 40
0.89910731
 40
1.0
 40
1.0
 40
1.0
 40
1.0
 10
35.1480990933
 20
48.5619920904
 30
0.0
 10
35.3203858307
 20
48.6589930831
 30
0.0
 10
35.5749482932
 20
48.8070539199
 30
0.0
 10
35.902733953
 20
49.0163906797
 30
0.0
 10
36.1349516268
 20
49.1776516019
 30
0.0
 10
36.3500991665
 20
49.3459986702
 30
0.0
 10
36.5111855867
 20
49.4963211207
 30
0.0
 10
36.6208792593
 20
49.62375114
 30
0.0
 10
36.709269847
 20
49.7492177914
 30
0.0
 10
36.7573190341
 20
49.8535296472
 30
0.0
 10
36.7732590094
 20
49.9244961345
 30
0.0
  0
SPLINE
  5
2BC
100
AcDbEntity
  8
0
100
AcDbSpline
 62
7
  6
BYLAYER
 70
0
 71
3
 72
11
 73
7
 74
0
 42
0.0000001
 43
0.0000001
 44
0.0000000001
 40
0.0
 40
0.0
 40
0.0
 40
0.0
 40
0.2499848491
 40
0.4999785119
 40
0.7499804756
 40
1.0
 40
1.0
 40
1.0
 40
1.0
 10
6.6470285593
 20
42.3080818972
 30
0.0
 10
6.6470274368
 20
42.3634024623
 30
0.0
 10
6.6459284169
 20
42.4740471549
 30
0.0
 10
6.648429408
 20
42.6400043158
 30
0.0
 10
6.6509455049
 20
42.8059587479
 30
0.0
 10
6.6535896003
 20
42.916581835
 30
0.0
 10
6.6550815141
 20
42.9718899553
 30
0.0
  0
SPLINE
  5
2BD
100
AcDbEntity
  8
0
100
AcDbSpline
 62
7
  6
BYLAYER
 70
0
 71
3
 72
34
 73
30
 74
0
 42
0.0000001
 43
0.0000001
 44
0.0000000001
 40
0.0
 40
0.0
 40
0.0
 40
0.0
 40
0.125579297
 40
0.2511322068
 40
0.3138962246
 40
0.376650025
 40
0.4393916286
 40
0.5021183862
 40
0.5648266236
 40
0.627511032
 40
0.6901634982
 40
0.7214739324
 40
0.7527707312
 40
0.7840504625
 40
0.8153081679
 40
0.8465362577
 40
0.8777222602
 40
0.8932931042
 40
0.9088435013
 40
0.9243664774
 40
0.9398506905
 40
0.9552757295
 40
0.9629545304
 40
0.9705992589
 40
0.9781935015
 40
0.9857049627
 40
0.9930574849
 40
0.9966146414
 40
1.0
 40
1.0
 40
1.0
 40
1.0
 10
11.4122869144
 20
29.3377745697
 30
0.0
 10
11.8510641974
 20
29.33777451
 30
0.0
 10
12.7285268725
 20
29.3386481257
 30
0.0
 10
13.8252834583
 20
29.3423707516
 30
0.0
 10
14.7025174171
 20
29.3473165978
 30
0.0
 10
15.360283317
 20
29.3521435826
 30
0.0
 10
16.0179085042
 20
29.3582499112
 30
0.0
 10
16.6753591577
 20
29.3658437369
 30
0.0
 10
17.3325875772
 20
29.375198184
 30
0.0
 10
17.9895228777
 20
29.3866861324
 30
0.0
 10
18.536727849
 20
29.3984753145
 30
0.0
 10
18.9742464905
 20
29.4096431401
 30
0.0
 10
19.302156139
 20
29.4190340777
 30
0.0
 10
19.6298449897
 20
29.4296292115
 30
0.0
 10
19.9572436842
 20
29.4416843223
 30
0.0
 10
20.2842428027
 20
29.4555650988
 30
0.0
 10
20.5563913168
 20
29.4691073776
 30
0.0
 10
20.7737376945
 20
29.481583881
 30
0.0
 10
20.9363859
 20
29.4919365393
 30
0.0
 10
21.0986478323
 20
29.5035302729
 30
0.0
 10
21.2603485335
 20
29.5167293678
 30
0.0
 10
21.3945724224
 20
29.5295530686
 30
0.0
 10
21.5013510262
 20
29.541447043
 30
0.0
 10
21.5808078686
 20
29.5513982688
 30
0.0
 10
21.6594980768
 20
29.562716857
 30
0.0
 10
21.7368389719
 20
29.5759894998
 30
0.0
 10
21.7998280967
 20
29.5895327199
 30
0.0
 10
21.8478266278
 20
29.6033655682
 30
0.0
 10
21.870646598
 20
29.6118122253
 30
0.0
 10
21.88133473
 20
29.6168795669
 30
0.0
  0
SPLINE
  5
2BE
100
AcDbEntity
  8
0
100
AcDbSpline
 62
7
  6
BYLAYER
 70
0
 71
3
 72
14
 73
10
 74
0
 42
0.0000001
 43
0.0000001
 44
0.0000000001
 40
0.0
 40
0.0
 40
0.0
 40
0.0
 40
0.2558205716
 40
0.3829435858
 40
0.5092493504
 40
0.6344039631
 40
0.7580010753
 40
0.8797467826
 40
1.0
 40
1.0
 40
1.0
 40
1.0
 10
35.1480990933
 20
34.2928176778
 30
0.0
 10
35.3218197291
 20
34.3899621616
 30
0.0
 10
35.5781074276
 20
34.542572871
 30
0.0
 10
35.9046373897
 20
34.7672412145
 30
0.0
 10
36.1375774439
 20
34.9478686731
 30
0.0
 10
36.3538793229
 20
35.1443177532
 30
0.0
 10
36.5452476521
 20
35.361030422
 30
0.0
 10
36.6977191822
 20
35.6030919795
 30
0.0
 10
36.7580892555
 20
35.7845852166
 30
0.0
 10
36.7732590094
 20
35.8769084953
 30
0.0
  0
SPLINE
  5
2BF
100
AcDbEntity
  8
0
100
AcDbSpline
 62
7
  6
BYLAYER
 70
0
 71
3
 72
14
 73
10
 74
0
 42
0.0000001
 43
0.0000001
 44
0.0000000001
 40
0.0
 40
0.0
 40
0.0
 40
0.0
 40
0.1172448966
 40
0.2381013159
 40
0.3617581231
 40
0.4873736403
 40
0.6143366254
 40
0.7422478649
 40
1.0
 40
1.0
 40
1.0
 40
1.0
 10
36.7732590094
 20
36.1685035161
 30
0.0
 10
36.7578742044
 20
36.2638238502
 30
0.0
 10
36.6965237817
 20
36.4529450073
 30
0.0
 10
36.5445710456
 20
36.7107201589
 30
0.0
 10
36.3535649236
 20
36.9491661618
 30
0.0
 10
36.1374153639
 20
37.1715751955
 30
0.0
 10
35.9045244326
 20
37.3814481941
 30
0.0
 10
35.5778476876
 20
37.6490066997
 30
0.0
 10
35.3216727702
 20
37.8371220596
 30
0.0
 10
35.1480988773
 20
37.9593042843
 30
0.0
  0
SPLINE
  5
2C0
100
AcDbEntity
  8
0
100
AcDbSpline
 62
7
  6
BYLAYER
 70
0
 71
3
 72
9
 73
5
 74
0
 42
0.0000001
 43
0.0000001
 44
0.0000000001
 40
0.0
 40
0.0
 40
0.0
 40
0.0
 40
0.4893015089
 40
1.0
 40
1.0
 40
1.0
 40
1.0
 10
6.854217511
 20
41.4605542462
 30
0.0
 10
6.7754858463
 20
42.2243895014
 30
0.0
 10
6.6997335112
 20
43.7950890557
 30
0.0
 10
6.7787437469
 20
45.3649821876
 30
0.0
 10
6.8542355902
 20
46.1628802232
 30
0.0
  0
SPLINE
  5
2C1
100
AcDbEntity
  8
0
100
AcDbSpline
 62
7
  6
BYLAYER
 70
0
 71
3
 72
9
 73
5
 74
0
 42
0.0000001
 43
0.0000001
 44
0.0000000001
 40
0.0
 40
0.0
 40
0.0
 40
0.0
 40
0.5100661259
 40
1.0
 40
1.0
 40
1.0
 40
1.0
 10
34.9594317824
 20
34.2459094919
 30
0.0
 10
34.9927275856
 20
34.2459094919
 30
0.0
 10
35.0582716334
 20
34.2542236182
 30
0.0
 10
35.1197477442
 20
34.2780181801
 30
0.0
 10
35.1480990933
 20
34.2928176778
 30
0.0
  0
SPLINE
  5
2C2
100
AcDbEntity
  8
0
100
AcDbSpline
 62
7
  6
BYLAYER
 70
0
 71
3
 72
11
 73
7
 74
0
 42
0.0000001
 43
0.0000001
 44
0.0000000001
 40
0.0
 40
0.0
 40
0.0
 40
0.0
 40
0.242453911
 40
0.4892768763
 40
0.7415007769
 40
1.0
 40
1.0
 40
1.0
 40
1.0
 10
8.2556282803
 20
35.9783204051
 30
0.0
 10
8.0725649087
 20
36.3992474028
 30
0.0
 10
7.738179122
 20
37.2643738836
 30
0.0
 10
7.3381701692
 20
38.6114313191
 30
0.0
 10
7.0369881832
 20
40.0149922219
 30
0.0
 10
6.9043949767
 20
40.9737448705
 30
0.0
 10
6.854217511
 20
41.4605542462
 30
0.0
  0
ELLIPSE
  5
2C3
100
AcDbEntity
  8
0
100
AcDbEllipse
 62
7
  6
BYLAYER
 10
43.1431953873
 20
41.4595537598
 30
0.0
 11
23.2519159813
 21
-0.0
 31
0.0
 40
0.4515756899
 41
1.5968387939
 42
1.7624435218
  0
ENDSEC
  0
SECTION
  2
OBJECTS
  0
DICTIONARY
  5
C
100
AcDbDictionary
280
0
281
1
  3
ACAD_GROUP
350
D
  3
ACAD_MLINESTYLE
350
17
  3
ACAD_LAYOUT
350
1A
  3
ACAD_PLOTSETTINGS
350
19
  3
ACAD_PLOTSTYLENAME
350
E
  0
DICTIONARY
  5
D
102
{ACAD_REACTORS
330
C
102
}
100
AcDbDictionary
280
0
281
1
  0
ACDBDICTIONARYWDFLT
  5
E
102
{ACAD_REACTORS
330
C
102
}
100
AcDbDictionary
281
1
  3
Normal
350
F
100
AcDbDictionaryWithDefault
340
F
  0
DICTIONARY
  5
17
102
{ACAD_REACTORS
330
C
102
}
100
AcDbDictionary
280
0
281
1
  3
Standard
350
18
  0
DICTIONARY
  5
19
102
{ACAD_REACTORS
330
C
102
}
100
AcDbDictionary
281
1
  0
DICTIONARY
  5
1A
102
{ACAD_REACTORS
330
C
102
}
100
AcDbDictionary
281
1
  3
Model
350
2C4
  3
Layout1
350
2C5
  0
ACDBPLACEHOLDER
  5
F
102
{ACAD_REACTORS
330
E
102
}
  0
MLINESTYLE
  5
18
102
{ACAD_REACTORS
330
17
102
}
100
AcDbMlineStyle
  2
STANDARD
 70
0
  3

 62
256
 51
90.0
 52
90.0
 71
2
 49
0.5
 62
256
  6
BYLAYER
 49
-0.5
 62
256
  6
BYLAYER
  0
LAYOUT
  5
2C4
102
{ACAD_REACTORS
330
1A
102
}
100
AcDbPlotSettings
  1

  2
none_device
  4

  6

 40
0.0
 41
0.0
 42
0.0
 43
0.0
 44
210.0
 45
297.0
 46
0.0
 47
0.0
 48
0.0
 49
0.0
140
0.0
141
0.0
142
1.0
143
1.0
 70
1024
 72
1
 73
0
 74
0
  7

 75
0
147
1.0
148
0.0
149
0.0
100
AcDbLayout
  1
Model
 70
0
 71
0
 10
0.0
 20
0.0
 11
210.0
 21
297.0
 12
0.0
 22
0.0
 32
0.0
 14
0.0
 24
0.0
 34
0.0
 15
0.0
 25
0.0
 35
0.0
146
0.0
 13
0.0
 23
0.0
 33
0.0
 16
1.0
 26
0.0
 36
0.0
 17
0.0
 27
1.0
 37
0.0
 76
0
330
210
345
0
346
0
  0
LAYOUT
  5
2C5
102
{ACAD_REACTORS
330
1A
102
}
100
AcDbPlotSettings
  1

  2
none_device
  4

  6

 40
0.0
 41
0.0
 42
0.0
 43
0.0
 44
210.0
 45
297.0
 46
0.0
 47
0.0
 48
0.0
 49
0.0
140
0.0
141
0.0
142
1.0
143
1.0
 70
0
 72
1
 73
0
 74
0
  7

 75
0
147
1.0
148
0.0
149
0.0
100
AcDbLayout
  1
Layout1
 70
0
 71
1
 10
0.0
 20
0.0
 11
210.0
 21
297.0
 12
0.0
 22
0.0
 32
0.0
 14
0.0
 24
0.0
 34
0.0
 15
0.0
 25
0.0
 35
0.0
146
0.0
 13
0.0
 23
0.0
 33
0.0
 16
1.0
 26
0.0
 36
0.0
 17
0.0
 27
1.0
 37
0.0
 76
0
330
211
345
0
346
0
  0
ENDSEC
  0
EOF
