999
DXF file: C:\Users\sesa63760\Dev\_Creo\CAD\MCADID0005781_3D-CAD\mcadid0005781_3d-simplified_2.dxf
999
Pro/ENGINEER 2019471 by Parametric Technology Corporation
  0
SECTION
  2
HEADER
  9
$ACADVER
  1
AC1024
  9
$DWGCODEPAGE
  3
ANSI_1252
  9
$EXTMAX
 10
37.6307959772
 20
53.2206971678
 30
0.0
  9
$EXTMIN
 10
0.0
 20
0.0
 30
0.0
  9
$LIMMIN
 10
0.0
 20
0.0
  9
$LIMMAX
 10
37.6307959772
 20
53.2206971678
  9
$VIEWCTR
 10
18.8153979886
 20
26.6103485839
  9
$VIEWSIZE
 40
53.2206971678
  9
$CLAYER
  8
0
  9
$LTSCALE
 40
3.4692010006
  9
$CELTYPE
  6
BYLAYER
  9
$DIMSCALE
 40
1.0
  9
$DIMASZ
 40
0.4479856664
  9
$DIMEXO
 40
1.0
  9
$DIMDLI
 40
2.3969025095
  9
$DIMEXE
 40
1.0
  9
$DIMCEN
 40
0.5676874365
  9
$DIMLFAC
 40
1.0
  9
$DIMBLK
  1
_FILLED
  9
$DIMALT
 70
0
  9
$DIMALTF
 40
0.0393700787
  9
$DIMTXT
 40
0.627179933
  9
$DIMTOL
 70
1
  9
$DIMLIM
 70
0
  9
$DIMTFAC
 40
1.0
  9
$DIMTP
 40
0.01
  9
$DIMTM
 40
0.01
  9
$DIMGAP
 40
0.625
  9
$DIMDSEP
 70
46
  9
$AUNITS
 70
0
  9
$PDMODE
 70
3
  9
$PDSIZE
 40
0.3125
  9
$HANDSEED
  5
272
  9
$TILEMODE
 70
1
  9
$MEASUREMENT
 70
1
  9
$INSUNITS
 70
4
  0
ENDSEC
  0
SECTION
  2
CLASSES
  0
CLASS
  1
ACDBDICTIONARYWDFLT
  2
AcDbDictionaryWithDefault
  3
AutoCAD 2000
 90
0
 91
1
280
0
281
0
  0
CLASS
  1
ACDBPLACEHOLDER
  2
AcDbPlaceHolder
  3
AutoCAD 2000
 90
0
 91
1
280
0
281
0
  0
CLASS
  1
LAYOUT
  2
AcDbLayout
  3
AutoCAD 2000
 90
0
 91
0
280
0
281
0
  0
ENDSEC
  0
SECTION
  2
TABLES
  0
TABLE
  2
VPORT
  5
8
100
AcDbSymbolTable
 70
2
  0
VPORT
  5
1F4
100
AcDbSymbolTableRecord
100
AcDbViewportTableRecord
  2
*ACTIVE
 70
0
 10
0.0
 20
0.0
 11
1.0
 21
1.0
 12
18.8153979886
 22
26.6103485839
 13
0.0
 23
0.0
 14
1.0
 24
1.0
 15
0.0
 25
0.0
 16
0.0
 26
0.0
 36
1.0
 17
0.0
 27
0.0
 37
0.0
 40
53.2206971678
 41
0.7070707071
 42
50.0
 43
0.0
 44
0.0
 50
0.0
 51
0.0
 71
0
 72
100
 73
1
 74
1
 75
0
 76
0
 77
0
 78
0
  0
ENDTAB
  0
TABLE
  2
LTYPE
  5
5
100
AcDbSymbolTable
 70
6
  0
LTYPE
  5
14
100
AcDbSymbolTableRecord
100
AcDbLinetypeTableRecord
  2
BYBLOCK
 70
0
  3

 72
65
 73
0
 40
0.0
  0
LTYPE
  5
15
100
AcDbSymbolTableRecord
100
AcDbLinetypeTableRecord
  2
BYLAYER
 70
0
  3

 72
65
 73
0
 40
0.0
  0
LTYPE
  5
16
100
AcDbSymbolTableRecord
100
AcDbLinetypeTableRecord
  2
CONTINUOUS
 70
64
  3
Solid line
 72
65
 73
0
 40
0.0
  0
LTYPE
  5
1F5
100
AcDbSymbolTableRecord
100
AcDbLinetypeTableRecord
  2
CENTER
 70
64
  3
____ _ ____ _ ____ _ ____ _ ____ _ ____ _ ____
 72
65
 73
4
 40
0.6
 49
0.375
 74
0
 49
-0.075
 74
0
 49
0.075
 74
0
 49
-0.075
 74
0
  0
LTYPE
  5
1F6
100
AcDbSymbolTableRecord
100
AcDbLinetypeTableRecord
  2
HIDDEN
 70
64
  3
- - - - - - - - - - - - - - - - - - - -
 72
65
 73
2
 40
0.2
 49
0.1
 74
0
 49
-0.1
 74
0
  0
LTYPE
  5
1F7
100
AcDbSymbolTableRecord
100
AcDbLinetypeTableRecord
  2
PHANTOM
 70
64
  3
_____ _ _ _____ _ _ _____ _ _ _____
 72
65
 73
6
 40
0.8
 49
0.45
 74
0
 49
-0.05
 74
0
 49
0.1
 74
0
 49
-0.05
 74
0
 49
0.1
 74
0
 49
-0.05
 74
0
  0
LTYPE
  5
1F8
100
AcDbSymbolTableRecord
100
AcDbLinetypeTableRecord
  2
DOT
 70
64
  3
. . . . . . . . . . . . . . . . . . . .
 72
65
 73
2
 40
0.2
 49
0.1
 74
0
 49
-0.1
 74
0
  0
LTYPE
  5
1F9
100
AcDbSymbolTableRecord
100
AcDbLinetypeTableRecord
  2
DASHED
 70
64
  3
- - - - - - - - - - - - - - - - - - - -
 72
65
 73
2
 40
0.2
 49
0.1
 74
0
 49
-0.1
 74
0
  0
ENDTAB
  0
TABLE
  2
LAYER
  5
2
100
AcDbSymbolTable
 70
36
  0
LAYER
  5
10
100
AcDbSymbolTableRecord
100
AcDbLayerTableRecord
  2
0
 70
0
 62
7
  6
CONTINUOUS
370
-3
390
F
  0
LAYER
  5
1FA
100
AcDbSymbolTableRecord
100
AcDbLayerTableRecord
  2
DEFAULT_1
 70
0
 62
7
  6
CENTER
370
-3
390
F
  0
LAYER
  5
1FB
100
AcDbSymbolTableRecord
100
AcDbLayerTableRecord
  2
DEFAULT_2
 70
0
 62
7
  6
HIDDEN
370
-3
390
F
  0
LAYER
  5
1FC
100
AcDbSymbolTableRecord
100
AcDbLayerTableRecord
  2
DEFAULT_3
 70
0
 62
7
  6
PHANTOM
370
-3
390
F
  0
LAYER
  5
1FD
100
AcDbSymbolTableRecord
100
AcDbLayerTableRecord
  2
00_COMPONENTS
 70
0
 62
7
  6
CONTINUOUS
370
-3
390
F
  0
LAYER
  5
1FE
100
AcDbSymbolTableRecord
100
AcDbLayerTableRecord
  2
01_1_DEFAULT_DATUMS
 70
0
 62
7
  6
CONTINUOUS
370
-3
390
F
  0
LAYER
  5
1FF
100
AcDbSymbolTableRecord
100
AcDbLayerTableRecord
  2
01_PLANES
 70
0
 62
7
  6
CONTINUOUS
370
-3
390
F
  0
LAYER
  5
200
100
AcDbSymbolTableRecord
100
AcDbLayerTableRecord
  2
02_COORD_SYS
 70
0
 62
7
  6
CONTINUOUS
370
-3
390
F
  0
LAYER
  5
201
100
AcDbSymbolTableRecord
100
AcDbLayerTableRecord
  2
03_AXES
 70
0
 62
7
  6
CONTINUOUS
370
-3
390
F
  0
LAYER
  5
202
100
AcDbSymbolTableRecord
100
AcDbLayerTableRecord
  2
04_POINTS
 70
0
 62
7
  6
CONTINUOUS
370
-3
390
F
  0
LAYER
  5
203
100
AcDbSymbolTableRecord
100
AcDbLayerTableRecord
  2
05_CURVES
 70
0
 62
7
  6
CONTINUOUS
370
-3
390
F
  0
LAYER
  5
204
100
AcDbSymbolTableRecord
100
AcDbLayerTableRecord
  2
06_SURFS
 70
0
 62
7
  6
CONTINUOUS
370
-3
390
F
  0
LAYER
  5
205
100
AcDbSymbolTableRecord
100
AcDbLayerTableRecord
  2
07_COSMETICS
 70
0
 62
7
  6
CONTINUOUS
370
-3
390
F
  0
LAYER
  5
206
100
AcDbSymbolTableRecord
100
AcDbLayerTableRecord
  2
10_NOTES
 70
0
 62
7
  6
CONTINUOUS
370
-3
390
F
  0
LAYER
  5
207
100
AcDbSymbolTableRecord
100
AcDbLayerTableRecord
  2
11_NOTES_PUB
 70
0
 62
7
  6
CONTINUOUS
370
-3
390
F
  0
LAYER
  5
208
100
AcDbSymbolTableRecord
100
AcDbLayerTableRecord
  2
13_REF_GTOL
 70
0
 62
7
  6
CONTINUOUS
370
-3
390
F
  0
LAYER
  5
209
100
AcDbSymbolTableRecord
100
AcDbLayerTableRecord
  2
16_MISC
 70
0
 62
7
  6
CONTINUOUS
370
-3
390
F
  0
LAYER
  5
20A
100
AcDbSymbolTableRecord
100
AcDbLayerTableRecord
  2
17_NO_PRINT
 70
0
 62
7
  6
CONTINUOUS
370
-3
390
F
  0
LAYER
  5
20B
100
AcDbSymbolTableRecord
100
AcDbLayerTableRecord
  2
18_DATUM_CAMS_JOINTS
 70
0
 62
7
  6
CONTINUOUS
370
-3
390
F
  0
LAYER
  5
20C
100
AcDbSymbolTableRecord
100
AcDbLayerTableRecord
  2
19_DATUM_FUNCTIONAL
 70
0
 62
7
  6
CONTINUOUS
370
-3
390
F
  0
LAYER
  5
20D
100
AcDbSymbolTableRecord
100
AcDbLayerTableRecord
  2
20_DATUM_KINEMATIC_SCHEME
 70
0
 62
7
  6
CONTINUOUS
370
-3
390
F
  0
ENDTAB
  0
TABLE
  2
STYLE
  5
3
100
AcDbSymbolTable
 70
1
  0
STYLE
  5
11
100
AcDbSymbolTableRecord
100
AcDbTextStyleTableRecord
  2
STANDARD
 70
0
 40
0.0
 41
1.0
 50
0.0
 71
0
 42
0.2
  3
ARIAL.TTF
  4

  0
STYLE
  5
20E
100
AcDbSymbolTableRecord
100
AcDbTextStyleTableRecord
  2
TEXTSTYLE_1
 70
0
 40
0.0
 41
0.8
 50
0.0
 71
0
 42
0.2
  3
gdt
  4

  0
ENDTAB
  0
TABLE
  2
VIEW
  5
6
100
AcDbSymbolTable
 70
0
  0
ENDTAB
  0
TABLE
  2
UCS
  5
7
100
AcDbSymbolTable
 70
0
  0
ENDTAB
  0
TABLE
  2
APPID
  5
9
100
AcDbSymbolTable
 70
1
  0
APPID
  5
20F
100
AcDbSymbolTableRecord
100
AcDbRegAppTableRecord
  2
ACAD
 70
0
  0
ENDTAB
  0
TABLE
  2
BLOCK_RECORD
  5
1
100
AcDbSymbolTable
 70
0
  0
BLOCK_RECORD
  5
210
100
AcDbSymbolTableRecord
100
AcDbBlockTableRecord
  2
*Model_Space
  0
BLOCK_RECORD
  5
211
100
AcDbSymbolTableRecord
100
AcDbBlockTableRecord
  2
*Paper_Space
  0
BLOCK_RECORD
  5
212
100
AcDbSymbolTableRecord
100
AcDbBlockTableRecord
  2
_FILLED
  0
ENDTAB
  0
TABLE
  2
DIMSTYLE
  5
A
100
AcDbSymbolTable
 70
1
100
AcDbDimStyleTable
 71
0
  0
DIMSTYLE
105
213
100
AcDbSymbolTableRecord
100
AcDbDimStyleTableRecord
  2
STANDARD
 70
0
  3

  4

 40
1.0
 41
0.4479856664
 42
1.0
 43
0.38
 44
1.0
 45
0.0
 46
0.0
 47
0.01
 48
0.01
140
0.627179933
141
0.09
142
0.0
143
25.4
144
1.0
145
0.0
146
1.0
147
0.625
 71
1
 72
0
 73
0
 74
0
 75
0
 76
0
 77
1
 78
8
 79
2
170
0
171
1
172
0
173
0
174
0
175
0
176
0
177
0
178
0
270
2
179
2
271
2
272
2
273
2
274
2
275
0
280
0
281
0
282
0
283
1
284
8
285
0
286
0
287
3
288
0
340
11
278
46
341
212
342
212
343
212
344
212
  0
ENDTAB
  0
ENDSEC
  0
SECTION
  2
BLOCKS
  0
BLOCK
  5
20
100
AcDbEntity
  8
0
100
AcDbBlockBegin
  2
*Model_Space
 70
0
 10
0.0
 20
0.0
 30
0.0
  3
*Model_Space
  1

  0
ENDBLK
  5
21
100
AcDbEntity
  8
0
100
AcDbBlockEnd
  0
BLOCK
  5
1C
100
AcDbEntity
  8
0
100
AcDbBlockBegin
  2
*Paper_Space
 70
0
 10
0.0
 20
0.0
 30
0.0
  3
*Paper_Space
  1

  0
ENDBLK
  5
1D
100
AcDbEntity
  8
0
100
AcDbBlockEnd
  0
BLOCK
  5
214
100
AcDbEntity
  8
0
100
AcDbBlockBegin
  2
_FILLED
 70
64
 10
0.0
 20
0.0
  3
_FILLED
  1

  0
SOLID
  5
215
100
AcDbEntity
  8
0
  6
BYBLOCK
 62
0
100
AcDbTrace
 10
0.0
 20
0.0
 11
-1.0
 21
0.25
 12
-1.0
 22
-0.25
 13
-1.0
 23
-0.25
  0
ENDBLK
  5
216
100
AcDbEntity
  8
0
  6
BYBLOCK
 62
0
100
AcDbBlockEnd
  0
ENDSEC
  0
SECTION
  2
ENTITIES
  0
LINE
  5
217
100
AcDbEntity
  8
0
100
AcDbLine
 62
7
  6
BYLAYER
 10
22.0259644374
 20
3.7705309024
 11
16.1259644374
 21
3.7705309024
  0
LINE
  5
218
100
AcDbEntity
  8
0
100
AcDbLine
 62
7
  6
BYLAYER
 10
15.3259644374
 20
5.5547414287
 11
17.3094843498
 21
5.5547414287
  0
LINE
  5
219
100
AcDbEntity
  8
0
100
AcDbLine
 62
7
  6
BYLAYER
 10
20.0414639502
 20
5.5547414287
 11
22.8259644374
 21
5.5547414287
  0
LINE
  5
21A
100
AcDbEntity
  8
0
100
AcDbLine
 62
7
  6
BYLAYER
 10
21.3025616018
 20
6.6046144098
 11
21.0282240016
 21
6.6046144098
  0
LINE
  5
21B
100
AcDbEntity
  8
0
100
AcDbLine
 62
7
  6
BYLAYER
 10
16.1668938822
 20
6.9209223072
 11
12.4259644374
 21
8.6547414287
  0
LINE
  5
21C
100
AcDbEntity
  8
0
100
AcDbLine
 62
7
  6
BYLAYER
 10
12.4259644374
 20
8.6547414287
 11
10.4259644374
 21
8.6547414287
  0
LINE
  5
21D
100
AcDbEntity
  8
0
100
AcDbLine
 62
7
  6
BYLAYER
 10
27.7259644374
 20
9.6547414287
 11
25.7259644374
 21
9.6547414287
  0
LINE
  5
21E
100
AcDbEntity
  8
0
100
AcDbLine
 62
7
  6
BYLAYER
 10
34.0259644374
 20
10.1547414287
 11
27.7259644374
 21
10.1547414287
  0
LINE
  5
21F
100
AcDbEntity
  8
0
100
AcDbLine
 62
7
  6
BYLAYER
 10
10.4259644374
 20
10.1547414287
 11
4.1259644374
 21
10.1547414287
  0
LINE
  5
220
100
AcDbEntity
  8
0
100
AcDbLine
 62
7
  6
BYLAYER
 10
23.9759644374
 20
10.3547414287
 11
14.1759644374
 21
10.3547414287
  0
LINE
  5
221
100
AcDbEntity
  8
0
100
AcDbLine
 62
7
  6
BYLAYER
 10
4.1259644374
 20
42.8547414287
 11
4.1259644374
 21
10.1547414287
  0
LINE
  5
222
100
AcDbEntity
  8
0
100
AcDbLine
 62
7
  6
BYLAYER
 10
4.4109644374
 20
49.2547414287
 11
4.4109644374
 21
42.8547414287
  0
LINE
  5
223
100
AcDbEntity
  8
0
100
AcDbLine
 62
7
  6
BYLAYER
 10
34.0259644374
 20
10.9347414287
 11
23.9759644374
 21
10.9347414287
  0
LINE
  5
224
100
AcDbEntity
  8
0
100
AcDbLine
 62
7
  6
BYLAYER
 10
14.1759644374
 20
10.9347414287
 11
4.1259644374
 21
10.9347414287
  0
LINE
  5
225
100
AcDbEntity
  8
0
100
AcDbLine
 62
7
  6
BYLAYER
 10
23.9759644374
 20
11.8547414287
 11
14.1759644374
 21
11.8547414287
  0
LINE
  5
226
100
AcDbEntity
  8
0
100
AcDbLine
 62
7
  6
BYLAYER
 10
5.0559644374
 20
13.0547414287
 11
5.0559644374
 21
21.4547414287
  0
LINE
  5
227
100
AcDbEntity
  8
0
100
AcDbLine
 62
7
  6
BYLAYER
 10
5.0559644374
 20
13.0547414287
 11
14.1759644374
 21
13.0547414287
  0
LINE
  5
228
100
AcDbEntity
  8
0
100
AcDbLine
 62
7
  6
BYLAYER
 10
23.9759644374
 20
13.0547414287
 11
33.1059644374
 21
13.0547414287
  0
LINE
  5
229
100
AcDbEntity
  8
0
100
AcDbLine
 62
7
  6
BYLAYER
 10
6.9109644374
 20
42.8547414287
 11
6.9109644374
 21
49.2547414287
  0
LINE
  5
22A
100
AcDbEntity
  8
0
100
AcDbLine
 62
7
  6
BYLAYER
 10
5.0559644374
 20
14.2547414287
 11
14.1759644374
 21
14.2547414287
  0
LINE
  5
22B
100
AcDbEntity
  8
0
100
AcDbLine
 62
7
  6
BYLAYER
 10
23.9759644374
 20
14.2547414287
 11
33.1059644374
 21
14.2547414287
  0
LINE
  5
22C
100
AcDbEntity
  8
0
100
AcDbLine
 62
7
  6
BYLAYER
 10
10.4259644374
 20
10.1547414287
 11
10.4259644374
 21
8.6547414287
  0
LINE
  5
22D
100
AcDbEntity
  8
0
100
AcDbLine
 62
7
  6
BYLAYER
 10
4.1259644374
 20
19.1547414287
 11
5.0559644374
 21
19.1547414287
  0
LINE
  5
22E
100
AcDbEntity
  8
0
100
AcDbLine
 62
7
  6
BYLAYER
 10
33.1059644374
 20
19.1547414287
 11
34.0259644374
 21
19.1547414287
  0
LINE
  5
22F
100
AcDbEntity
  8
0
100
AcDbLine
 62
7
  6
BYLAYER
 10
12.3259644374
 20
7.5705309024
 11
12.3259644374
 21
8.6547414287
  0
LWPOLYLINE
  5
230
100
AcDbEntity
  8
0
100
AcDbPolyline
 62
7
  6
BYLAYER
 90
3
 70
0
 10
21.3389309045
 20
8.8626450276
 10
20.8153819687
 20
9.9409841503
 10
20.2917181948
 20
10.3547414287
  0
LINE
  5
231
100
AcDbEntity
  8
0
100
AcDbLine
 62
7
  6
BYLAYER
 10
14.1759644374
 20
42.3547414287
 11
14.1759644374
 21
10.3547414287
  0
LINE
  5
232
100
AcDbEntity
  8
0
100
AcDbLine
 62
7
  6
BYLAYER
 10
14.8259644374
 20
7.5424066592
 11
14.8259644374
 21
6.0547414287
  0
LINE
  5
233
100
AcDbEntity
  8
0
100
AcDbLine
 62
7
  6
BYLAYER
 10
33.1059644374
 20
21.4547414287
 11
29.1472106364
 21
21.4547414287
  0
LINE
  5
234
100
AcDbEntity
  8
0
100
AcDbLine
 62
7
  6
BYLAYER
 10
9.0047182384
 20
21.4547414287
 11
5.0559644374
 21
21.4547414287
  0
LINE
  5
235
100
AcDbEntity
  8
0
100
AcDbLine
 62
7
  6
BYLAYER
 10
34.0259644374
 20
22.6047414287
 11
29.6295183412
 21
22.6047414287
  0
LINE
  5
236
100
AcDbEntity
  8
0
100
AcDbLine
 62
7
  6
BYLAYER
 10
8.5224105336
 20
22.6047414287
 11
4.1259644374
 21
22.6047414287
  0
LINE
  5
237
100
AcDbEntity
  8
0
100
AcDbLine
 62
7
  6
BYLAYER
 10
15.9439611605
 20
8.2706671064
 11
15.9439611605
 21
7.8365466623
  0
LWPOLYLINE
  5
238
100
AcDbEntity
  8
0
100
AcDbPolyline
 62
7
  6
BYLAYER
 90
5
 70
0
 10
15.9439694406
 20
7.8365466626
 10
16.0109458907
 20
8.4285245835
 10
16.5344948266
 20
9.5068637062
 10
17.4831726302
 20
10.2564331164
 10
17.9177423716
 20
10.3547414287
  0
LINE
  5
239
100
AcDbEntity
  8
0
100
AcDbLine
 62
7
  6
BYLAYER
 10
20.6749383976
 20
10.3547414287
 11
20.6749383976
 21
10.0519514401
  0
LINE
  5
23A
100
AcDbEntity
  8
0
100
AcDbLine
 62
7
  6
BYLAYER
 10
21.4059073546
 20
8.2706671068
 11
21.3389309045
 21
8.8626450276
  0
LINE
  5
23B
100
AcDbEntity
  8
0
100
AcDbLine
 62
7
  6
BYLAYER
 10
21.4059156347
 20
8.2706671064
 11
21.4059156347
 21
7.8365466623
  0
LINE
  5
23C
100
AcDbEntity
  8
0
100
AcDbLine
 62
7
  6
BYLAYER
 10
34.0259644374
 20
29.5233000823
 11
29.8184146262
 21
29.5233000823
  0
LINE
  5
23D
100
AcDbEntity
  8
0
100
AcDbLine
 62
7
  6
BYLAYER
 10
8.3335142486
 20
29.5233000823
 11
4.1259644374
 21
29.5233000823
  0
LINE
  5
23E
100
AcDbEntity
  8
0
100
AcDbLine
 62
7
  6
BYLAYER
 10
34.0259644374
 20
30.235046884
 11
29.5823067873
 21
30.235046884
  0
LINE
  5
23F
100
AcDbEntity
  8
0
100
AcDbLine
 62
7
  6
BYLAYER
 10
8.5696220875
 20
30.235046884
 11
4.1259644374
 21
30.235046884
  0
LINE
  5
240
100
AcDbEntity
  8
0
100
AcDbLine
 62
7
  6
BYLAYER
 10
23.3259644374
 20
6.0547414287
 11
23.3259644374
 21
7.542406643
  0
LINE
  5
241
100
AcDbEntity
  8
0
100
AcDbLine
 62
7
  6
BYLAYER
 10
23.9759644374
 20
10.3547414287
 11
23.9759644374
 21
42.3547414287
  0
LINE
  5
242
100
AcDbEntity
  8
0
100
AcDbLine
 62
7
  6
BYLAYER
 10
25.7259644374
 20
8.6547414287
 11
25.7259644374
 21
9.6547414287
  0
LINE
  5
243
100
AcDbEntity
  8
0
100
AcDbLine
 62
7
  6
BYLAYER
 10
25.8259644374
 20
9.6547414287
 11
25.8259644374
 21
7.5705309024
  0
LINE
  5
244
100
AcDbEntity
  8
0
100
AcDbLine
 62
7
  6
BYLAYER
 10
27.7259644374
 20
9.6547414287
 11
27.7259644374
 21
10.1547414287
  0
LINE
  5
245
100
AcDbEntity
  8
0
100
AcDbLine
 62
7
  6
BYLAYER
 10
34.0259644374
 20
36.5547414287
 11
23.9759644374
 21
36.5547414287
  0
LINE
  5
246
100
AcDbEntity
  8
0
100
AcDbLine
 62
7
  6
BYLAYER
 10
14.1759644374
 20
36.5547414287
 11
4.1259644374
 21
36.5547414287
  0
LINE
  5
247
100
AcDbEntity
  8
0
100
AcDbLine
 62
7
  6
BYLAYER
 10
31.2409644374
 20
49.2547414287
 11
31.2409644374
 21
42.8547414287
  0
LINE
  5
248
100
AcDbEntity
  8
0
100
AcDbLine
 62
7
  6
BYLAYER
 10
33.1059644374
 20
13.0547414287
 11
33.1059644374
 21
21.4547414287
  0
LINE
  5
249
100
AcDbEntity
  8
0
100
AcDbLine
 62
7
  6
BYLAYER
 10
33.7409644374
 20
42.8547414287
 11
33.7409644374
 21
49.2547414287
  0
LINE
  5
24A
100
AcDbEntity
  8
0
100
AcDbLine
 62
7
  6
BYLAYER
 10
14.1759644374
 20
40.8547414287
 11
23.9759644374
 21
40.8547414287
  0
LINE
  5
24B
100
AcDbEntity
  8
0
100
AcDbLine
 62
7
  6
BYLAYER
 10
34.0259644374
 20
10.1547414287
 11
34.0259644374
 21
42.8547414287
  0
LINE
  5
24C
100
AcDbEntity
  8
0
100
AcDbLine
 62
7
  6
BYLAYER
 10
23.9759644374
 20
42.3547414287
 11
14.1759644374
 21
42.3547414287
  0
LINE
  5
24D
100
AcDbEntity
  8
0
100
AcDbLine
 62
7
  6
BYLAYER
 10
4.1259644374
 20
42.8547414287
 11
34.0259644374
 21
42.8547414287
  0
LINE
  5
24E
100
AcDbEntity
  8
0
100
AcDbLine
 62
7
  6
BYLAYER
 10
4.4109644374
 20
44.2547414287
 11
6.9109644374
 21
44.2547414287
  0
LINE
  5
24F
100
AcDbEntity
  8
0
100
AcDbLine
 62
7
  6
BYLAYER
 10
31.2409644374
 20
44.2547414287
 11
33.7409644374
 21
44.2547414287
  0
LINE
  5
250
100
AcDbEntity
  8
0
100
AcDbLine
 62
7
  6
BYLAYER
 10
25.7259644374
 20
8.6547414287
 11
20.9485672648
 21
6.4405476536
  0
LINE
  5
251
100
AcDbEntity
  8
0
100
AcDbLine
 62
7
  6
BYLAYER
 10
33.7409644374
 20
49.2547414287
 11
31.2409644374
 21
49.2547414287
  0
LINE
  5
252
100
AcDbEntity
  8
0
100
AcDbLine
 62
7
  6
BYLAYER
 10
6.9109644374
 20
49.2547414287
 11
4.4109644374
 21
49.2547414287
  0
ARC
  5
253
100
AcDbEntity
  8
0
100
AcDbCircle
 62
7
  6
BYLAYER
 10
19.0759644374
 20
26.3547414287
 40
11.2
100
AcDbArc
 50
115.8107234997
 51
243.9674974783
  0
ARC
  5
254
100
AcDbEntity
  8
0
100
AcDbCircle
 62
7
  6
BYLAYER
 10
19.0759644374
 20
26.3547414287
 40
11.2
100
AcDbArc
 50
296.0343468434
 51
64.1892765003
  0
ARC
  5
255
100
AcDbEntity
  8
0
100
AcDbCircle
 62
7
  6
BYLAYER
 10
19.0759644383
 20
26.3547414287
 40
9.5
100
AcDbArc
 50
121.3092978541
 51
238.6853002943
  0
ARC
  5
256
100
AcDbEntity
  8
0
100
AcDbCircle
 62
7
  6
BYLAYER
 10
19.0759644383
 20
26.3547414287
 40
9.5
100
AcDbArc
 50
301.3092978433
 51
58.685300305
  0
ARC
  5
257
100
AcDbEntity
  8
0
100
AcDbCircle
 62
7
  6
BYLAYER
 10
22.0259644374
 20
7.5705309024
 40
3.8
100
AcDbArc
 50
270.0
 51
360.0
  0
ARC
  5
258
100
AcDbEntity
  8
0
100
AcDbCircle
 62
7
  6
BYLAYER
 10
16.1259644374
 20
7.5705309024
 40
3.8
100
AcDbArc
 50
180.0
 51
270.0
  0
ARC
  5
259
100
AcDbEntity
  8
0
100
AcDbCircle
 62
7
  6
BYLAYER
 10
19.0836399508
 20
35.2889441693
 40
3.0487331561
100
AcDbArc
 50
238.2406898474
 51
269.8573082002
  0
ARC
  5
25A
100
AcDbEntity
  8
0
100
AcDbCircle
 62
7
  6
BYLAYER
 10
19.0282595604
 20
34.5795885145
 40
2.9455330197
100
AcDbArc
 50
265.4897734682
 51
269.9993076239
  0
ARC
  5
25B
100
AcDbEntity
  8
0
100
AcDbCircle
 62
7
  6
BYLAYER
 10
19.0460466842
 20
34.8036631231
 40
2.9455042768
100
AcDbArc
 50
85.4897516331
 51
89.9992859461
  0
ARC
  5
25C
100
AcDbEntity
  8
0
100
AcDbCircle
 62
7
  6
BYLAYER
 10
18.9667121396
 20
35.1934764317
 40
2.8907569512
100
AcDbArc
 50
180.8293421514
 51
185.2275758024
  0
ARC
  5
25D
100
AcDbEntity
  8
0
100
AcDbCircle
 62
7
  6
BYLAYER
 10
19.1866463645
 20
35.1759404935
 40
2.8895059927
100
AcDbArc
 50
345.756653775
 51
349.809379774
  0
ARC
  5
25E
100
AcDbEntity
  8
0
100
AcDbCircle
 62
7
  6
BYLAYER
 10
19.0082051351
 20
9.2925534918
 40
2.1141494124
100
AcDbArc
 50
0.3439332021
 51
30.5503802328
  0
ARC
  5
25F
100
AcDbEntity
  8
0
100
AcDbCircle
 62
7
  6
BYLAYER
 10
15.3259644374
 20
6.0547414287
 40
0.5
100
AcDbArc
 50
180.0
 51
270.0
  0
ARC
  5
260
100
AcDbEntity
  8
0
100
AcDbCircle
 62
7
  6
BYLAYER
 10
22.8259644374
 20
6.0547414287
 40
0.5
100
AcDbArc
 50
270.0
 51
360.0
  0
SPLINE
  5
261
100
AcDbEntity
  8
0
100
AcDbSpline
 62
7
  6
BYLAYER
 70
0
 71
3
 72
15
 73
11
 74
0
 42
0.0000001
 43
0.0000001
 44
0.0000000001
 40
0.0
 40
0.0
 40
0.0
 40
0.0
 40
0.1249929519
 40
0.2499882858
 40
0.3749858539
 40
0.4999815888
 40
0.6249812026
 40
0.7499854571
 40
0.8749928435
 40
1.0
 40
1.0
 40
1.0
 40
1.0
 10
19.0460833928
 20
37.7491673996
 30
0.0
 10
18.8577634827
 20
37.7491674003
 30
0.0
 10
18.480126798
 20
37.7128066682
 30
0.0
 10
17.9352272131
 20
37.5515861266
 30
0.0
 10
17.4304478334
 20
37.29029573
 30
0.0
 10
16.9835997374
 20
36.9391900242
 30
0.0
 10
16.6095328678
 20
36.5114568115
 30
0.0
 10
16.3202529772
 20
36.0223791619
 30
0.0
 10
16.1247352498
 20
35.4890784273
 30
0.0
 10
16.060832803
 20
35.1153691894
 30
0.0
 10
16.0460101765
 20
34.9276120607
 30
0.0
  0
SPLINE
  5
262
100
AcDbEntity
  8
0
100
AcDbSpline
 62
7
  6
BYLAYER
 70
0
 71
3
 72
15
 73
11
 74
0
 42
0.0000001
 43
0.0000001
 44
0.0000000001
 40
0.0
 40
0.0
 40
0.0
 40
0.0
 40
0.1250049221
 40
0.2500113405
 40
0.3750163197
 40
0.5000175489
 40
0.6250147471
 40
0.7500145208
 40
0.8750071381
 40
1.0
 40
1.0
 40
1.0
 40
1.0
 10
22.0282949274
 20
34.4556108347
 30
0.0
 10
22.0438739792
 20
34.652949552
 30
0.0
 10
22.0372640846
 20
35.0516515724
 30
0.0
 10
21.9139659461
 20
35.6361241297
 30
0.0
 10
21.6811737367
 20
36.1865190431
 30
0.0
 10
21.3465486274
 20
36.6816627919
 30
0.0
 10
20.9217621431
 20
37.1021286819
 30
0.0
 10
20.4222872835
 20
37.4306219101
 30
0.0
 10
19.8676274608
 20
37.6531675422
 30
0.0
 10
19.4749939031
 20
37.7244774636
 30
0.0
 10
19.2776735141
 20
37.7400460096
 30
0.0
  0
SPLINE
  5
263
100
AcDbEntity
  8
0
100
AcDbSpline
 62
7
  6
BYLAYER
 70
0
 71
3
 72
11
 73
7
 74
0
 42
0.0000001
 43
0.0000001
 44
0.0000000001
 40
0.0
 40
0.0
 40
0.0
 40
0.0
 40
0.2507400234
 40
0.5009768789
 40
0.7506516984
 40
1.0
 40
1.0
 40
1.0
 40
1.0
 10
21.197284781
 20
19.1899121223
 30
0.0
 10
21.3095906273
 20
19.0793124541
 30
0.0
 10
21.5167482275
 20
18.8400218747
 30
0.0
 10
21.7658756682
 20
18.436958048
 30
0.0
 10
21.9469500225
 20
18.0000205822
 30
0.0
 10
22.0193589753
 20
17.6931385271
 30
0.0
 10
22.0429038203
 20
17.5381691933
 30
0.0
  0
SPLINE
  5
264
100
AcDbEntity
  8
0
100
AcDbSpline
 62
7
  6
BYLAYER
 70
0
 71
3
 72
11
 73
7
 74
0
 42
0.0000001
 43
0.0000001
 44
0.0000000001
 40
0.0
 40
0.0
 40
0.0
 40
0.0
 40
0.250644136
 40
0.5010059745
 40
0.7508452426
 40
1.0
 40
1.0
 40
1.0
 40
1.0
 10
19.0759644254
 20
20.055242661
 30
0.0
 10
19.2719701375
 20
20.0552426612
 30
0.0
 10
19.6648079142
 20
20.0172097019
 30
0.0
 10
20.2308223
 20
19.8481390728
 30
0.0
 10
20.7526400863
 20
19.5737112738
 30
0.0
 10
21.0584608966
 20
19.32662696
 30
0.0
 10
21.197284781
 20
19.1899121223
 30
0.0
  0
SPLINE
  5
265
100
AcDbEntity
  8
0
100
AcDbSpline
 62
7
  6
BYLAYER
 70
0
 71
3
 72
15
 73
11
 74
0
 42
0.0000001
 43
0.0000001
 44
0.0000000001
 40
0.0
 40
0.0
 40
0.0
 40
0.0
 40
0.1258294591
 40
0.2515157267
 40
0.3768698192
 40
0.5019412936
 40
0.6267685204
 40
0.7513592379
 40
0.8757522386
 40
1.0
 40
1.0
 40
1.0
 40
1.0
 10
17.478949758
 20
32.6967351407
 30
0.0
 10
17.3817873991
 20
32.7569862754
 30
0.0
 10
17.1942718561
 20
32.8886229851
 30
0.0
 10
16.9376344779
 20
33.116385862
 30
0.0
 10
16.7092249205
 20
33.3715977798
 30
0.0
 10
16.51212109
 20
33.6507244483
 30
0.0
 10
16.3488218314
 20
33.9501019525
 30
0.0
 10
16.2215907803
 20
34.2658484914
 30
0.0
 10
16.1320214032
 20
34.5936805763
 30
0.0
 10
16.0982617261
 20
34.8176732867
 30
0.0
 10
16.0879788212
 20
34.9300941387
 30
0.0
  0
SPLINE
  5
266
100
AcDbEntity
  8
0
100
AcDbSpline
 62
7
  6
BYLAYER
 70
0
 71
3
 72
15
 73
11
 74
0
 42
0.0000001
 43
0.0000001
 44
0.0000000001
 40
0.0
 40
0.0
 40
0.0
 40
0.0
 40
0.1240487929
 40
0.2483027723
 40
0.3728438475
 40
0.4977163793
 40
0.6229264425
 40
0.7484266727
 40
0.874162428
 40
1.0
 40
1.0
 40
1.0
 40
1.0
 10
16.1075229322
 20
17.5281402948
 30
0.0
 10
16.1332667855
 20
17.7016529727
 30
0.0
 10
16.2165135149
 20
18.0450865366
 30
0.0
 10
16.4318060186
 20
18.5293275564
 30
0.0
 10
16.7308860054
 20
18.9684019135
 30
0.0
 10
17.1041868495
 20
19.3482078116
 30
0.0
 10
17.5398605698
 20
19.6567766213
 30
0.0
 10
18.0241393131
 20
19.8844278226
 30
0.0
 10
18.5414966947
 20
20.0239071556
 30
0.0
 10
18.8980229167
 20
20.0552426608
 30
0.0
 10
19.0759644254
 20
20.055242661
 30
0.0
  0
SPLINE
  5
267
100
AcDbEntity
  8
0
100
AcDbSpline
 62
7
  6
BYLAYER
 70
0
 71
3
 72
15
 73
11
 74
0
 42
0.0000001
 43
0.0000001
 44
0.0000000001
 40
0.0
 40
0.0
 40
0.0
 40
0.0
 40
0.1238800311
 40
0.2480034893
 40
0.3724571503
 40
0.4972897308
 40
0.6225151334
 40
0.7480842554
 40
0.873967736
 40
1.0
 40
1.0
 40
1.0
 40
1.0
 10
21.9873274666
 20
34.4650043172
 30
0.0
 10
21.9472823481
 20
34.3072348319
 30
0.0
 10
21.8402001591
 20
33.9975313358
 30
0.0
 10
21.6038777022
 20
33.5664703879
 30
0.0
 10
21.2981406067
 20
33.1797769007
 30
0.0
 10
20.9314697671
 20
32.8482084035
 30
0.0
 10
20.5139509742
 20
32.5808327211
 30
0.0
 10
20.0570178661
 20
32.3848523189
 30
0.0
 10
19.5733596708
 20
32.2657629211
 30
0.0
 10
19.2416466915
 20
32.2396972618
 30
0.0
 10
19.0760471677
 20
32.2401808407
 30
0.0
  0
SPLINE
  5
268
100
AcDbEntity
  8
0
100
AcDbSpline
 62
7
  6
BYLAYER
 70
0
 71
3
 72
15
 73
11
 74
0
 42
0.0000001
 43
0.0000001
 44
0.0000000001
 40
0.0
 40
0.0
 40
0.0
 40
0.0
 40
0.1250049224
 40
0.250011341
 40
0.3750163199
 40
0.5000175489
 40
0.6250147464
 40
0.7500145204
 40
0.8750071376
 40
1.0
 40
1.0
 40
1.0
 40
1.0
 10
16.0460101765
 20
34.9276120607
 30
0.0
 10
16.0304311244
 20
34.730273343
 30
0.0
 10
16.0370410194
 20
34.3315713217
 30
0.0
 10
16.1603391584
 20
33.7470987644
 30
0.0
 10
16.3931313675
 20
33.1967038514
 30
0.0
 10
16.7277564759
 20
32.7015601045
 30
0.0
 10
17.1525429589
 20
32.2810942145
 30
0.0
 10
17.6520178179
 20
31.9526009866
 30
0.0
 10
18.2066776412
 20
31.730055354
 30
0.0
 10
18.5993111994
 20
31.6587454306
 30
0.0
 10
18.7966315892
 20
31.6431768858
 30
0.0
  0
SPLINE
  5
269
100
AcDbEntity
  8
0
100
AcDbSpline
 62
7
  6
BYLAYER
 70
0
 71
3
 72
15
 73
11
 74
0
 42
0.0000001
 43
0.0000001
 44
0.0000000001
 40
0.0
 40
0.0
 40
0.0
 40
0.0
 40
0.1249929438
 40
0.2499882711
 40
0.37498584
 40
0.4999815782
 40
0.6249811956
 40
0.7499854529
 40
0.8749928415
 40
1.0
 40
1.0
 40
1.0
 40
1.0
 10
19.0282239658
 20
31.634055495
 30
0.0
 10
19.2165437703
 20
31.634055495
 30
0.0
 10
19.5941802165
 20
31.670416684
 30
0.0
 10
20.1390794084
 20
31.831637386
 30
0.0
 10
20.6438584037
 20
32.0929279178
 30
0.0
 10
21.0907061419
 20
32.4440336302
 30
0.0
 10
21.4647727017
 20
32.8717667558
 30
0.0
 10
21.7540523457
 20
33.3608442345
 30
0.0
 10
21.9495699086
 20
33.8941447371
 30
0.0
 10
22.0134723084
 20
34.2678537963
 30
0.0
 10
22.0282949274
 20
34.4556108347
 30
0.0
  0
SPLINE
  5
26A
100
AcDbEntity
  8
0
100
AcDbSpline
 62
7
  6
BYLAYER
 70
0
 71
3
 72
15
 73
11
 74
0
 42
0.0000001
 43
0.0000001
 44
0.0000000001
 40
0.0
 40
0.0
 40
0.0
 40
0.0
 40
0.1240591943
 40
0.2482617855
 40
0.3727296569
 40
0.4975406075
 40
0.6227304764
 40
0.7482564066
 40
0.8740731131
 40
1.0
 40
1.0
 40
1.0
 40
1.0
 10
21.4059068285
 20
7.8365466619
 30
0.0
 10
21.4059051766
 20
7.6607785157
 30
0.0
 10
21.3706479006
 20
7.308036507
 30
0.0
 10
21.2140712625
 20
6.8002076263
 30
0.0
 10
20.9598716361
 20
6.3321159426
 30
0.0
 10
20.6179076814
 20
5.9219932017
 30
0.0
 10
20.2013580543
 20
5.5855549099
 30
0.0
 10
19.7262270341
 20
5.3355488914
 30
0.0
 10
19.2109804435
 20
5.1817136202
 30
0.0
 10
18.853352707
 20
5.1470591058
 30
0.0
 10
18.6749383976
 20
5.1470591058
 30
0.0
  0
SPLINE
  5
26B
100
AcDbEntity
  8
0
100
AcDbSpline
 62
7
  6
BYLAYER
 70
0
 71
3
 72
15
 73
11
 74
0
 42
0.0000001
 43
0.0000001
 44
0.0000000001
 40
0.0
 40
0.0
 40
0.0
 40
0.0
 40
0.1259267698
 40
0.2517405494
 40
0.3772645722
 40
0.5024525834
 40
0.6272636851
 40
0.7517335805
 40
0.8759388546
 40
1.0
 40
1.0
 40
1.0
 40
1.0
 10
18.6749383976
 20
5.1470591058
 30
0.0
 10
18.4965242225
 20
5.1470591058
 30
0.0
 10
18.1389005623
 20
5.181712024
 30
0.0
 10
17.6236608076
 20
5.3355450113
 30
0.0
 10
17.1485354049
 20
5.585541157
 30
0.0
 10
16.7319873954
 20
5.9219736066
 30
0.0
 10
16.3900197814
 20
6.3320937988
 30
0.0
 10
16.1358127527
 20
6.8001898561
 30
0.0
 10
15.9792325062
 20
7.3080270972
 30
0.0
 10
15.9439683147
 20
7.6607757209
 30
0.0
 10
15.9439699667
 20
7.8365466626
 30
0.0
  0
SPLINE
  5
26C
100
AcDbEntity
  8
0
100
AcDbSpline
 62
7
  6
BYLAYER
 70
0
 71
3
 72
11
 73
7
 74
0
 42
0.0000001
 43
0.0000001
 44
0.0000000001
 40
0.0
 40
0.0
 40
0.0
 40
0.0
 40
0.2509929013
 40
0.5012016233
 40
0.7507725796
 40
1.0
 40
1.0
 40
1.0
 40
1.0
 10
16.8981525675
 20
10.3131091887
 30
0.0
 10
16.7496361134
 20
10.1878057985
 30
0.0
 10
16.4790833128
 20
9.9047270016
 30
0.0
 10
16.1749917101
 20
9.4041918368
 30
0.0
 10
15.9865072719
 20
8.8510922029
 30
0.0
 10
15.9439804495
 20
8.4636146603
 30
0.0
 10
15.9439697622
 20
8.2706670894
 30
0.0
  0
SPLINE
  5
26D
100
AcDbEntity
  8
0
100
AcDbSpline
 62
7
  6
BYLAYER
 70
0
 71
3
 72
17
 73
13
 74
0
 42
0.0000001
 43
0.0000001
 44
0.0000000001
 40
0.0
 40
0.0
 40
0.0
 40
0.0
 40
0.1258763093
 40
0.1887814514
 40
0.2516259658
 40
0.3769911626
 40
0.5020470318
 40
0.5645157431
 40
0.6269159705
 40
0.751432461
 40
0.8757643749
 40
1.0
 40
1.0
 40
1.0
 40
1.0
 10
19.4545593281
 20
10.4141184448
 30
0.0
 10
19.5940238983
 20
10.3732021663
 30
0.0
 10
19.7988234561
 20
10.2951241083
 30
0.0
 10
20.0562415102
 20
10.1599348705
 30
0.0
 10
20.3017284097
 20
10.005119718
 30
0.0
 10
20.5837603184
 20
9.776047678
 30
0.0
 10
20.8253917561
 20
9.5052440221
 30
0.0
 10
20.9903046567
 20
9.2680982171
 30
0.0
 10
21.1353661447
 20
9.0190475557
 30
0.0
 10
21.2779873473
 20
8.6872909915
 30
0.0
 10
21.382462702
 20
8.2675570788
 30
0.0
 10
21.4059081767
 20
7.9799949772
 30
0.0
 10
21.4059068285
 20
7.8365466619
 30
0.0
  0
ELLIPSE
  5
26E
100
AcDbEntity
  8
0
100
AcDbEllipse
 62
7
  6
BYLAYER
 10
19.0759644374
 20
17.9683955484
 30
0.0
 11
0.0
 21
3.0462798357
 31
0.0
 40
0.984807753
 41
0.0
 42
6.2831853072
  0
ELLIPSE
  5
26F
100
AcDbEntity
  8
0
100
AcDbEllipse
 62
7
  6
BYLAYER
 10
18.6749383976
 20
8.4017464897
 30
0.0
 11
2.7309772371
 21
-0.0
 31
0.0
 40
0.9216049851
 41
2.2526861726
 42
2.2791763776
  0
ENDSEC
  0
SECTION
  2
OBJECTS
  0
DICTIONARY
  5
C
100
AcDbDictionary
280
0
281
1
  3
ACAD_GROUP
350
D
  3
ACAD_MLINESTYLE
350
17
  3
ACAD_LAYOUT
350
1A
  3
ACAD_PLOTSETTINGS
350
19
  3
ACAD_PLOTSTYLENAME
350
E
  0
DICTIONARY
  5
D
102
{ACAD_REACTORS
330
C
102
}
100
AcDbDictionary
280
0
281
1
  0
ACDBDICTIONARYWDFLT
  5
E
102
{ACAD_REACTORS
330
C
102
}
100
AcDbDictionary
281
1
  3
Normal
350
F
100
AcDbDictionaryWithDefault
340
F
  0
DICTIONARY
  5
17
102
{ACAD_REACTORS
330
C
102
}
100
AcDbDictionary
280
0
281
1
  3
Standard
350
18
  0
DICTIONARY
  5
19
102
{ACAD_REACTORS
330
C
102
}
100
AcDbDictionary
281
1
  0
DICTIONARY
  5
1A
102
{ACAD_REACTORS
330
C
102
}
100
AcDbDictionary
281
1
  3
Model
350
270
  3
Layout1
350
271
  0
ACDBPLACEHOLDER
  5
F
102
{ACAD_REACTORS
330
E
102
}
  0
MLINESTYLE
  5
18
102
{ACAD_REACTORS
330
17
102
}
100
AcDbMlineStyle
  2
STANDARD
 70
0
  3

 62
256
 51
90.0
 52
90.0
 71
2
 49
0.5
 62
256
  6
BYLAYER
 49
-0.5
 62
256
  6
BYLAYER
  0
LAYOUT
  5
270
102
{ACAD_REACTORS
330
1A
102
}
100
AcDbPlotSettings
  1

  2
none_device
  4

  6

 40
0.0
 41
0.0
 42
0.0
 43
0.0
 44
210.0
 45
297.0
 46
0.0
 47
0.0
 48
0.0
 49
0.0
140
0.0
141
0.0
142
1.0
143
1.0
 70
1024
 72
1
 73
0
 74
0
  7

 75
0
147
1.0
148
0.0
149
0.0
100
AcDbLayout
  1
Model
 70
0
 71
0
 10
0.0
 20
0.0
 11
210.0
 21
297.0
 12
0.0
 22
0.0
 32
0.0
 14
0.0
 24
0.0
 34
0.0
 15
0.0
 25
0.0
 35
0.0
146
0.0
 13
0.0
 23
0.0
 33
0.0
 16
1.0
 26
0.0
 36
0.0
 17
0.0
 27
1.0
 37
0.0
 76
0
330
210
345
0
346
0
  0
LAYOUT
  5
271
102
{ACAD_REACTORS
330
1A
102
}
100
AcDbPlotSettings
  1

  2
none_device
  4

  6

 40
0.0
 41
0.0
 42
0.0
 43
0.0
 44
210.0
 45
297.0
 46
0.0
 47
0.0
 48
0.0
 49
0.0
140
0.0
141
0.0
142
1.0
143
1.0
 70
0
 72
1
 73
0
 74
0
  7

 75
0
147
1.0
148
0.0
149
0.0
100
AcDbLayout
  1
Layout1
 70
0
 71
1
 10
0.0
 20
0.0
 11
210.0
 21
297.0
 12
0.0
 22
0.0
 32
0.0
 14
0.0
 24
0.0
 34
0.0
 15
0.0
 25
0.0
 35
0.0
146
0.0
 13
0.0
 23
0.0
 33
0.0
 16
1.0
 26
0.0
 36
0.0
 17
0.0
 27
1.0
 37
0.0
 76
0
330
211
345
0
346
0
  0
ENDSEC
  0
EOF
