999
DXF file: C:\Users\sesa63760\Dev\_Creo\CAD\MCADPD0005314_3D-CAD\drw0001_2.dxf
999
Pro/ENGINEER 2019471 by Parametric Technology Corporation
  0
SECTION
  2
HEADER
  9
$ACADVER
  1
AC1024
  9
$DWGCODEPAGE
  3
ANSI_1252
  9
$EXTMAX
 10
206.4033346593
 20
291.9132875896
 30
0.0
  9
$EXTMIN
 10
0.0
 20
0.0
 30
0.0
  9
$LIMMIN
 10
0.0
 20
0.0
  9
$LIMMAX
 10
206.4033346593
 20
291.9132875896
  9
$VIEWCTR
 10
103.2016673296
 20
145.9566437948
  9
$VIEWSIZE
 40
291.9132875896
  9
$CLAYER
  8
0
  9
$LTSCALE
 40
19.0284217095
  9
$CELTYPE
  6
BYLAYER
  9
$DIMSCALE
 40
1.0
  9
$DIMASZ
 40
2.4571825555
  9
$DIMEXO
 40
1.0
  9
$DIMDLI
 40
13.1469095448
  9
$DIMEXE
 40
1.0
  9
$DIMCEN
 40
3.1137417343
  9
$DIMLFAC
 40
1.0
  9
$DIMBLK
  1
_FILLED
  9
$DIMALT
 70
0
  9
$DIMALTF
 40
0.0393700787
  9
$DIMTXT
 40
3.4400555777
  9
$DIMTOL
 70
1
  9
$DIMLIM
 70
0
  9
$DIMTFAC
 40
1.0
  9
$DIMTP
 40
0.01
  9
$DIMTM
 40
0.01
  9
$DIMGAP
 40
0.625
  9
$DIMDSEP
 70
46
  9
$AUNITS
 70
0
  9
$PDMODE
 70
3
  9
$PDSIZE
 40
0.3125
  9
$HANDSEED
  5
273
  9
$TILEMODE
 70
1
  9
$MEASUREMENT
 70
1
  9
$INSUNITS
 70
4
  0
ENDSEC
  0
SECTION
  2
CLASSES
  0
CLASS
  1
ACDBDICTIONARYWDFLT
  2
AcDbDictionaryWithDefault
  3
AutoCAD 2000
 90
0
 91
1
280
0
281
0
  0
CLASS
  1
ACDBPLACEHOLDER
  2
AcDbPlaceHolder
  3
AutoCAD 2000
 90
0
 91
1
280
0
281
0
  0
CLASS
  1
LAYOUT
  2
AcDbLayout
  3
AutoCAD 2000
 90
0
 91
0
280
0
281
0
  0
ENDSEC
  0
SECTION
  2
TABLES
  0
TABLE
  2
VPORT
  5
8
100
AcDbSymbolTable
 70
2
  0
VPORT
  5
1F4
100
AcDbSymbolTableRecord
100
AcDbViewportTableRecord
  2
*ACTIVE
 70
0
 10
0.0
 20
0.0
 11
1.0
 21
1.0
 12
103.2016673296
 22
145.9566437948
 13
0.0
 23
0.0
 14
1.0
 24
1.0
 15
0.0
 25
0.0
 16
0.0
 26
0.0
 36
1.0
 17
0.0
 27
0.0
 37
0.0
 40
291.9132875896
 41
0.7070707071
 42
50.0
 43
0.0
 44
0.0
 50
0.0
 51
0.0
 71
0
 72
100
 73
1
 74
1
 75
0
 76
0
 77
0
 78
0
  0
ENDTAB
  0
TABLE
  2
LTYPE
  5
5
100
AcDbSymbolTable
 70
6
  0
LTYPE
  5
14
100
AcDbSymbolTableRecord
100
AcDbLinetypeTableRecord
  2
BYBLOCK
 70
0
  3

 72
65
 73
0
 40
0.0
  0
LTYPE
  5
15
100
AcDbSymbolTableRecord
100
AcDbLinetypeTableRecord
  2
BYLAYER
 70
0
  3

 72
65
 73
0
 40
0.0
  0
LTYPE
  5
16
100
AcDbSymbolTableRecord
100
AcDbLinetypeTableRecord
  2
CONTINUOUS
 70
64
  3
Solid line
 72
65
 73
0
 40
0.0
  0
LTYPE
  5
1F5
100
AcDbSymbolTableRecord
100
AcDbLinetypeTableRecord
  2
CENTER
 70
64
  3
____ _ ____ _ ____ _ ____ _ ____ _ ____ _ ____
 72
65
 73
4
 40
0.6
 49
0.375
 74
0
 49
-0.075
 74
0
 49
0.075
 74
0
 49
-0.075
 74
0
  0
LTYPE
  5
1F6
100
AcDbSymbolTableRecord
100
AcDbLinetypeTableRecord
  2
HIDDEN
 70
64
  3
- - - - - - - - - - - - - - - - - - - -
 72
65
 73
2
 40
0.2
 49
0.1
 74
0
 49
-0.1
 74
0
  0
LTYPE
  5
1F7
100
AcDbSymbolTableRecord
100
AcDbLinetypeTableRecord
  2
PHANTOM
 70
64
  3
_____ _ _ _____ _ _ _____ _ _ _____
 72
65
 73
6
 40
0.8
 49
0.45
 74
0
 49
-0.05
 74
0
 49
0.1
 74
0
 49
-0.05
 74
0
 49
0.1
 74
0
 49
-0.05
 74
0
  0
LTYPE
  5
1F8
100
AcDbSymbolTableRecord
100
AcDbLinetypeTableRecord
  2
DOT
 70
64
  3
. . . . . . . . . . . . . . . . . . . .
 72
65
 73
2
 40
0.2
 49
0.1
 74
0
 49
-0.1
 74
0
  0
LTYPE
  5
1F9
100
AcDbSymbolTableRecord
100
AcDbLinetypeTableRecord
  2
DASHED
 70
64
  3
- - - - - - - - - - - - - - - - - - - -
 72
65
 73
2
 40
0.2
 49
0.1
 74
0
 49
-0.1
 74
0
  0
ENDTAB
  0
TABLE
  2
LAYER
  5
2
100
AcDbSymbolTable
 70
36
  0
LAYER
  5
10
100
AcDbSymbolTableRecord
100
AcDbLayerTableRecord
  2
0
 70
0
 62
7
  6
CONTINUOUS
370
-3
390
F
  0
LAYER
  5
1FA
100
AcDbSymbolTableRecord
100
AcDbLayerTableRecord
  2
DEFAULT_1
 70
0
 62
7
  6
CENTER
370
-3
390
F
  0
LAYER
  5
1FB
100
AcDbSymbolTableRecord
100
AcDbLayerTableRecord
  2
DEFAULT_2
 70
0
 62
7
  6
HIDDEN
370
-3
390
F
  0
LAYER
  5
1FC
100
AcDbSymbolTableRecord
100
AcDbLayerTableRecord
  2
DEFAULT_3
 70
0
 62
7
  6
PHANTOM
370
-3
390
F
  0
LAYER
  5
1FD
100
AcDbSymbolTableRecord
100
AcDbLayerTableRecord
  2
00_COMPONENTS
 70
0
 62
7
  6
CONTINUOUS
370
-3
390
F
  0
LAYER
  5
1FE
100
AcDbSymbolTableRecord
100
AcDbLayerTableRecord
  2
01_1_DEFAULT_DATUMS
 70
0
 62
7
  6
CONTINUOUS
370
-3
390
F
  0
LAYER
  5
1FF
100
AcDbSymbolTableRecord
100
AcDbLayerTableRecord
  2
01_PLANES
 70
0
 62
7
  6
CONTINUOUS
370
-3
390
F
  0
LAYER
  5
200
100
AcDbSymbolTableRecord
100
AcDbLayerTableRecord
  2
02_COORD_SYS
 70
0
 62
7
  6
CONTINUOUS
370
-3
390
F
  0
LAYER
  5
201
100
AcDbSymbolTableRecord
100
AcDbLayerTableRecord
  2
03_AXES
 70
0
 62
7
  6
CONTINUOUS
370
-3
390
F
  0
LAYER
  5
202
100
AcDbSymbolTableRecord
100
AcDbLayerTableRecord
  2
04_POINTS
 70
0
 62
7
  6
CONTINUOUS
370
-3
390
F
  0
LAYER
  5
203
100
AcDbSymbolTableRecord
100
AcDbLayerTableRecord
  2
05_CURVES
 70
0
 62
7
  6
CONTINUOUS
370
-3
390
F
  0
LAYER
  5
204
100
AcDbSymbolTableRecord
100
AcDbLayerTableRecord
  2
06_SURFS
 70
0
 62
7
  6
CONTINUOUS
370
-3
390
F
  0
LAYER
  5
205
100
AcDbSymbolTableRecord
100
AcDbLayerTableRecord
  2
07_COSMETICS
 70
0
 62
7
  6
CONTINUOUS
370
-3
390
F
  0
LAYER
  5
206
100
AcDbSymbolTableRecord
100
AcDbLayerTableRecord
  2
10_NOTES
 70
0
 62
7
  6
CONTINUOUS
370
-3
390
F
  0
LAYER
  5
207
100
AcDbSymbolTableRecord
100
AcDbLayerTableRecord
  2
11_NOTES_PUB
 70
0
 62
7
  6
CONTINUOUS
370
-3
390
F
  0
LAYER
  5
208
100
AcDbSymbolTableRecord
100
AcDbLayerTableRecord
  2
13_REF_GTOL
 70
0
 62
7
  6
CONTINUOUS
370
-3
390
F
  0
LAYER
  5
209
100
AcDbSymbolTableRecord
100
AcDbLayerTableRecord
  2
16_MISC
 70
0
 62
7
  6
CONTINUOUS
370
-3
390
F
  0
LAYER
  5
20A
100
AcDbSymbolTableRecord
100
AcDbLayerTableRecord
  2
17_NO_PRINT
 70
0
 62
7
  6
CONTINUOUS
370
-3
390
F
  0
LAYER
  5
20B
100
AcDbSymbolTableRecord
100
AcDbLayerTableRecord
  2
18_DATUM_CAMS_JOINTS
 70
0
 62
7
  6
CONTINUOUS
370
-3
390
F
  0
LAYER
  5
20C
100
AcDbSymbolTableRecord
100
AcDbLayerTableRecord
  2
19_DATUM_FUNCTIONAL
 70
0
 62
7
  6
CONTINUOUS
370
-3
390
F
  0
LAYER
  5
20D
100
AcDbSymbolTableRecord
100
AcDbLayerTableRecord
  2
20_DATUM_KINEMATIC_SCHEME
 70
0
 62
7
  6
CONTINUOUS
370
-3
390
F
  0
ENDTAB
  0
TABLE
  2
STYLE
  5
3
100
AcDbSymbolTable
 70
1
  0
STYLE
  5
11
100
AcDbSymbolTableRecord
100
AcDbTextStyleTableRecord
  2
STANDARD
 70
0
 40
0.0
 41
1.0
 50
0.0
 71
0
 42
0.2
  3
ARIAL.TTF
  4

  0
STYLE
  5
20E
100
AcDbSymbolTableRecord
100
AcDbTextStyleTableRecord
  2
TEXTSTYLE_1
 70
0
 40
0.0
 41
0.8
 50
0.0
 71
0
 42
0.2
  3
gdt
  4

  0
ENDTAB
  0
TABLE
  2
VIEW
  5
6
100
AcDbSymbolTable
 70
0
  0
ENDTAB
  0
TABLE
  2
UCS
  5
7
100
AcDbSymbolTable
 70
0
  0
ENDTAB
  0
TABLE
  2
APPID
  5
9
100
AcDbSymbolTable
 70
1
  0
APPID
  5
20F
100
AcDbSymbolTableRecord
100
AcDbRegAppTableRecord
  2
ACAD
 70
0
  0
ENDTAB
  0
TABLE
  2
BLOCK_RECORD
  5
1
100
AcDbSymbolTable
 70
0
  0
BLOCK_RECORD
  5
210
100
AcDbSymbolTableRecord
100
AcDbBlockTableRecord
  2
*Model_Space
  0
BLOCK_RECORD
  5
211
100
AcDbSymbolTableRecord
100
AcDbBlockTableRecord
  2
*Paper_Space
  0
BLOCK_RECORD
  5
212
100
AcDbSymbolTableRecord
100
AcDbBlockTableRecord
  2
_FILLED
  0
ENDTAB
  0
TABLE
  2
DIMSTYLE
  5
A
100
AcDbSymbolTable
 70
1
100
AcDbDimStyleTable
 71
0
  0
DIMSTYLE
105
213
100
AcDbSymbolTableRecord
100
AcDbDimStyleTableRecord
  2
STANDARD
 70
0
  3

  4

 40
1.0
 41
2.4571825555
 42
1.0
 43
0.38
 44
1.0
 45
0.0
 46
0.0
 47
0.01
 48
0.01
140
3.4400555777
141
0.09
142
0.0
143
25.4
144
1.0
145
0.0
146
1.0
147
0.625
 71
1
 72
0
 73
0
 74
0
 75
0
 76
0
 77
1
 78
8
 79
2
170
0
171
1
172
0
173
0
174
0
175
0
176
0
177
0
178
0
270
2
179
2
271
2
272
2
273
2
274
2
275
0
280
0
281
0
282
0
283
1
284
8
285
0
286
0
287
3
288
0
340
11
278
46
341
212
342
212
343
212
344
212
  0
ENDTAB
  0
ENDSEC
  0
SECTION
  2
BLOCKS
  0
BLOCK
  5
20
100
AcDbEntity
  8
0
100
AcDbBlockBegin
  2
*Model_Space
 70
0
 10
0.0
 20
0.0
 30
0.0
  3
*Model_Space
  1

  0
ENDBLK
  5
21
100
AcDbEntity
  8
0
100
AcDbBlockEnd
  0
BLOCK
  5
1C
100
AcDbEntity
  8
0
100
AcDbBlockBegin
  2
*Paper_Space
 70
0
 10
0.0
 20
0.0
 30
0.0
  3
*Paper_Space
  1

  0
ENDBLK
  5
1D
100
AcDbEntity
  8
0
100
AcDbBlockEnd
  0
BLOCK
  5
214
100
AcDbEntity
  8
0
100
AcDbBlockBegin
  2
_FILLED
 70
64
 10
0.0
 20
0.0
  3
_FILLED
  1

  0
SOLID
  5
215
100
AcDbEntity
  8
0
  6
BYBLOCK
 62
0
100
AcDbTrace
 10
0.0
 20
0.0
 11
-1.0
 21
0.25
 12
-1.0
 22
-0.25
 13
-1.0
 23
-0.25
  0
ENDBLK
  5
216
100
AcDbEntity
  8
0
  6
BYBLOCK
 62
0
100
AcDbBlockEnd
  0
ENDSEC
  0
SECTION
  2
ENTITIES
  0
LINE
  5
217
100
AcDbEntity
  8
0
100
AcDbLine
 62
7
  6
BYLAYER
 10
22.6308634066
 20
143.4056951355
 11
22.6308634066
 21
160.3510774555
  0
LINE
  5
218
100
AcDbEntity
  8
0
100
AcDbLine
 62
7
  6
BYLAYER
 10
25.7308634066
 20
79.7356951355
 11
25.7308634066
 21
143.4056951355
  0
LINE
  5
219
100
AcDbEntity
  8
0
100
AcDbLine
 62
7
  6
BYLAYER
 10
28.3158634066
 20
163.9108686691
 11
28.3158634066
 21
163.9892538875
  0
LINE
  5
21A
100
AcDbEntity
  8
0
100
AcDbLine
 62
7
  6
BYLAYER
 10
35.1508634066
 20
143.4056951355
 11
35.1542259329
 21
160.3510365548
  0
LINE
  5
21B
100
AcDbEntity
  8
0
100
AcDbLine
 62
7
  6
BYLAYER
 10
35.8308634066
 20
143.4056951355
 11
35.8308634066
 21
79.7356951355
  0
LINE
  5
21C
100
AcDbEntity
  8
0
100
AcDbLine
 62
7
  6
BYLAYER
 10
41.6081049113
 20
164.767112396
 11
41.6081049113
 21
164.6664740896
  0
LINE
  5
21D
100
AcDbEntity
  8
0
100
AcDbLine
 62
7
  6
BYLAYER
 10
42.3152116925
 20
164.8853094729
 11
42.3152116925
 21
164.9909362452
  0
LINE
  5
21E
100
AcDbEntity
  8
0
100
AcDbLine
 62
7
  6
BYLAYER
 10
25.7308634066
 20
79.7356951355
 11
183.5308634066
 21
79.7356951355
  0
LINE
  5
21F
100
AcDbEntity
  8
0
100
AcDbLine
 62
7
  6
BYLAYER
 10
44.3158634066
 20
165.7174600951
 11
44.3158634066
 21
165.8056951355
  0
LINE
  5
220
100
AcDbEntity
  8
0
100
AcDbLine
 62
7
  6
BYLAYER
 10
74.6308634066
 20
165.8056951355
 11
74.6308634066
 21
170.1056951355
  0
LINE
  5
221
100
AcDbEntity
  8
0
100
AcDbLine
 62
7
  6
BYLAYER
 10
78.1308634066
 20
165.8056951355
 11
78.1308634066
 21
171.1056951355
  0
LINE
  5
222
100
AcDbEntity
  8
0
100
AcDbLine
 62
7
  6
BYLAYER
 10
82.1308634066
 20
178.4356951355
 11
82.1308634066
 21
171.1056951355
  0
LINE
  5
223
100
AcDbEntity
  8
0
100
AcDbLine
 62
7
  6
BYLAYER
 10
99.212594292
 20
209.1754941511
 11
98.6308634066
 21
192.516901175
  0
LINE
  5
224
100
AcDbEntity
  8
0
100
AcDbLine
 62
7
  6
BYLAYER
 10
22.6308634066
 20
143.4056951355
 11
186.6308634066
 21
143.4056951355
  0
LINE
  5
225
100
AcDbEntity
  8
0
100
AcDbLine
 62
7
  6
BYLAYER
 10
110.6308634065
 20
192.5169011782
 11
110.0491325186
 21
209.1754942256
  0
LINE
  5
226
100
AcDbEntity
  8
0
100
AcDbLine
 62
7
  6
BYLAYER
 10
35.1542259329
 20
160.3510365548
 11
174.1076681319
 21
160.3509812236
  0
LINE
  5
227
100
AcDbEntity
  8
0
100
AcDbLine
 62
7
  6
BYLAYER
 10
35.0924381255
 20
165.8056951355
 11
174.1692886877
 21
165.8056951355
  0
LINE
  5
228
100
AcDbEntity
  8
0
100
AcDbLine
 62
7
  6
BYLAYER
 10
127.1308634066
 20
178.4356951355
 11
127.1308634066
 21
171.1056951355
  0
LINE
  5
229
100
AcDbEntity
  8
0
100
AcDbLine
 62
7
  6
BYLAYER
 10
131.1308634066
 20
165.8056951355
 11
131.1308634066
 21
171.1056951355
  0
LINE
  5
22A
100
AcDbEntity
  8
0
100
AcDbLine
 62
7
  6
BYLAYER
 10
134.6308634066
 20
170.1056951355
 11
74.6308634066
 21
170.1056951355
  0
LINE
  5
22B
100
AcDbEntity
  8
0
100
AcDbLine
 62
7
  6
BYLAYER
 10
75.6308634066
 20
171.1056951355
 11
133.6308634066
 21
171.1056951355
  0
LINE
  5
22C
100
AcDbEntity
  8
0
100
AcDbLine
 62
7
  6
BYLAYER
 10
134.6308634066
 20
165.8056951355
 11
134.6308634066
 21
170.1056951355
  0
LINE
  5
22D
100
AcDbEntity
  8
0
100
AcDbLine
 62
7
  6
BYLAYER
 10
127.1308634066
 20
178.4356951355
 11
124.8726395702
 21
178.4356951355
  0
LINE
  5
22E
100
AcDbEntity
  8
0
100
AcDbLine
 62
7
  6
BYLAYER
 10
84.3890872432
 20
178.4356951355
 11
82.1308634066
 21
178.4356951355
  0
LINE
  5
22F
100
AcDbEntity
  8
0
100
AcDbLine
 62
7
  6
BYLAYER
 10
124.6308634066
 20
180.9356951355
 11
122.6235533324
 21
180.9356951355
  0
LINE
  5
230
100
AcDbEntity
  8
0
100
AcDbLine
 62
7
  6
BYLAYER
 10
86.6381734821
 20
180.9356951355
 11
84.6313863863
 21
180.9356951355
  0
LINE
  5
231
100
AcDbEntity
  8
0
100
AcDbLine
 62
7
  6
BYLAYER
 10
164.9458634066
 20
165.7172023813
 11
164.9458634066
 21
165.8056951355
  0
LINE
  5
232
100
AcDbEntity
  8
0
100
AcDbLine
 62
7
  6
BYLAYER
 10
107.9149439156
 20
209.1056951355
 11
101.3467828901
 21
209.1056951355
  0
LINE
  5
233
100
AcDbEntity
  8
0
100
AcDbLine
 62
7
  6
BYLAYER
 10
174.1108634066
 20
143.4056951355
 11
174.1076681319
 21
160.3509812236
  0
LINE
  5
234
100
AcDbEntity
  8
0
100
AcDbLine
 62
7
  6
BYLAYER
 10
173.4308634066
 20
79.7356951355
 11
173.4308634066
 21
143.4056951355
  0
LINE
  5
235
100
AcDbEntity
  8
0
100
AcDbLine
 62
7
  6
BYLAYER
 10
108.050350868
 20
211.1056951355
 11
101.2113759452
 21
211.1056951355
  0
LINE
  5
236
100
AcDbEntity
  8
0
100
AcDbLine
 62
7
  6
BYLAYER
 10
178.2381049113
 20
164.767112396
 11
178.2381049113
 21
163.9627090429
  0
LINE
  5
237
100
AcDbEntity
  8
0
100
AcDbLine
 62
7
  6
BYLAYER
 10
178.9452116925
 20
163.962306374
 11
178.9452116925
 21
164.767112396
  0
LINE
  5
238
100
AcDbEntity
  8
0
100
AcDbLine
 62
7
  6
BYLAYER
 10
180.9458634066
 20
163.9109495562
 11
180.9458634066
 21
163.9892538875
  0
LINE
  5
239
100
AcDbEntity
  8
0
100
AcDbLine
 62
7
  6
BYLAYER
 10
183.5308634066
 20
143.4056951355
 11
183.5308634066
 21
79.7356951355
  0
LINE
  5
23A
100
AcDbEntity
  8
0
100
AcDbLine
 62
7
  6
BYLAYER
 10
186.6308634066
 20
143.4056951355
 11
186.6308634066
 21
160.3510618585
  0
ARC
  5
23B
100
AcDbEntity
  8
0
100
AcDbCircle
 62
7
  6
BYLAYER
 10
171.8087228883
 20
143.4502997014
 40
22.4796791772
100
AcDbArc
 50
48.7487122304
 51
65.3347651689
  0
ARC
  5
23C
100
AcDbEntity
  8
0
100
AcDbCircle
 62
7
  6
BYLAYER
 10
37.4530039249
 20
143.4502997014
 40
22.4796791772
100
AcDbArc
 50
114.66523484
 51
131.2512881391
  0
ARC
  5
23D
100
AcDbEntity
  8
0
100
AcDbCircle
 62
7
  6
BYLAYER
 10
37.4530039249
 20
143.4502997014
 40
22.4796791772
100
AcDbArc
 50
96.0276778322
 51
114.5025784737
  0
ARC
  5
23E
100
AcDbEntity
  8
0
100
AcDbCircle
 62
7
  6
BYLAYER
 10
171.8087228883
 20
143.4502997014
 40
22.4796791772
100
AcDbArc
 50
65.4976888915
 51
83.9723221678
  0
ARC
  5
23F
100
AcDbEntity
  8
0
100
AcDbCircle
 62
7
  6
BYLAYER
 10
86.6381734824
 20
192.9356951355
 40
12.0
100
AcDbArc
 50
269.9999999988
 51
358.0000000055
  0
ARC
  5
240
100
AcDbEntity
  8
0
100
AcDbCircle
 62
7
  6
BYLAYER
 10
122.6235533308
 20
192.9356951355
 40
12.0
100
AcDbArc
 50
181.9999999924
 51
270.0000000057
  0
ARC
  5
241
100
AcDbEntity
  8
0
100
AcDbCircle
 62
7
  6
BYLAYER
 10
124.6308634066
 20
178.4356951355
 40
2.5
100
AcDbArc
 50
0.0
 51
90.0
  0
ARC
  5
242
100
AcDbEntity
  8
0
100
AcDbCircle
 62
7
  6
BYLAYER
 10
84.6308634066
 20
178.4356951355
 40
2.5
100
AcDbArc
 50
90.0
 51
180.0
  0
ARC
  5
243
100
AcDbEntity
  8
0
100
AcDbCircle
 62
7
  6
BYLAYER
 10
101.2113759452
 20
209.1056951355
 40
2.0
100
AcDbArc
 50
90.0
 51
177.9999996811
  0
ARC
  5
244
100
AcDbEntity
  8
0
100
AcDbCircle
 62
7
  6
BYLAYER
 10
108.0503460772
 20
209.1057039051
 40
1.9999888772
100
AcDbArc
 50
1.9997455179
 51
89.9998627539
  0
ARC
  5
245
100
AcDbEntity
  8
0
100
AcDbCircle
 62
7
  6
BYLAYER
 10
133.6308634066
 20
170.1056951355
 40
1.0
100
AcDbArc
 50
0.0
 51
90.0
  0
ARC
  5
246
100
AcDbEntity
  8
0
100
AcDbCircle
 62
7
  6
BYLAYER
 10
75.6308634066
 20
170.1056951355
 40
1.0
100
AcDbArc
 50
90.0
 51
180.0
  0
SPLINE
  5
247
100
AcDbEntity
  8
0
100
AcDbSpline
 62
7
  6
BYLAYER
 70
0
 71
3
 72
11
 73
7
 74
0
 42
0.0000001
 43
0.0000001
 44
0.0000000001
 40
0.0
 40
0.0
 40
0.0
 40
0.0
 40
0.1144389784
 40
0.3192828771
 40
0.6146443603
 40
1.0
 40
1.0
 40
1.0
 40
1.0
 10
181.1898483136
 20
163.8789672324
 30
0.0
 10
181.1804883473
 20
163.8832653851
 30
0.0
 10
181.1519689927
 20
163.8890367353
 30
0.0
 10
181.0975422299
 20
163.8976347066
 30
0.0
 10
181.0181568228
 20
163.9061037671
 30
0.0
 10
180.9571497356
 20
163.9113415145
 30
0.0
 10
180.9225694713
 20
163.9140029999
 30
0.0
  0
SPLINE
  5
248
100
AcDbEntity
  8
0
100
AcDbSpline
 62
7
  6
BYLAYER
 70
0
 71
3
 72
10
 73
6
 74
0
 42
0.0000001
 43
0.0000001
 44
0.0000000001
 40
0.0
 40
0.0
 40
0.0
 40
0.0
 40
0.1558498308
 40
0.3781013257
 40
1.0
 40
1.0
 40
1.0
 40
1.0
 10
180.9225694713
 20
163.9140029999
 30
0.0
 10
180.7837965256
 20
163.9246837213
 30
0.0
 10
180.4464641632
 20
163.9415543447
 30
0.0
 10
179.5537235293
 20
163.9660275528
 30
0.0
 10
178.7997009273
 20
163.9664455795
 30
0.0
 10
178.2443171303
 20
163.9632004171
 30
0.0
  0
SPLINE
  5
249
100
AcDbEntity
  8
0
100
AcDbSpline
 62
7
  6
BYLAYER
 70
0
 71
3
 72
9
 73
5
 74
0
 42
0.0000001
 43
0.0000001
 44
0.0000000001
 40
0.0
 40
0.0
 40
0.0
 40
0.0
 40
0.2225792008
 40
1.0
 40
1.0
 40
1.0
 40
1.0
 10
178.2443171303
 20
163.9632004171
 30
0.0
 10
177.8745304702
 20
163.961039717
 30
0.0
 10
176.2132082923
 20
163.9425377574
 30
0.0
 10
174.5522685658
 20
163.9016294262
 30
0.0
 10
173.2608608598
 20
163.878967639
 30
0.0
  0
SPLINE
  5
24A
100
AcDbEntity
  8
0
100
AcDbSpline
 62
7
  6
BYLAYER
 70
0
 71
3
 72
9
 73
5
 74
0
 42
0.0000001
 43
0.0000001
 44
0.0000000001
 40
0.0
 40
0.0
 40
0.0
 40
0.0
 40
0.5306529633
 40
1.0
 40
1.0
 40
1.0
 40
1.0
 10
36.0008466114
 20
163.8789685111
 30
0.0
 10
37.0102131396
 20
163.8612567807
 30
0.0
 10
38.9187047746
 20
163.9906813741
 30
0.0
 10
40.7811223752
 20
164.4091405526
 30
0.0
 10
41.6372942944
 20
164.6625707963
 30
0.0
  0
LINE
  5
24B
100
AcDbEntity
  8
0
100
AcDbLine
 62
7
  6
BYLAYER
 10
41.6372942944
 20
164.6625707963
 11
41.6638590924
 21
164.6704544212
  0
SPLINE
  5
24C
100
AcDbEntity
  8
0
100
AcDbSpline
 62
7
  6
BYLAYER
 70
0
 71
3
 72
9
 73
5
 74
0
 42
0.0000001
 43
0.0000001
 44
0.0000000001
 40
0.0
 40
0.0
 40
0.0
 40
0.0
 40
0.5827458186
 40
1.0
 40
1.0
 40
1.0
 40
1.0
 10
41.6638590924
 20
164.6704544212
 30
0.0
 10
42.1388238001
 20
164.8117734052
 30
0.0
 10
42.9447527753
 20
165.0854897904
 30
0.0
 10
43.7304391464
 20
165.4137565564
 30
0.0
 10
44.049322527
 20
165.5693439167
 30
0.0
  0
SPLINE
  5
24D
100
AcDbEntity
  8
0
100
AcDbSpline
 62
7
  6
BYLAYER
 70
0
 71
3
 72
9
 73
5
 74
0
 42
0.0000001
 43
0.0000001
 44
0.0000000001
 40
0.0
 40
0.0
 40
0.0
 40
0.0
 40
0.5895870442
 40
1.0
 40
1.0
 40
1.0
 40
1.0
 10
44.049322527
 20
165.5693439167
 30
0.0
 10
44.1353199639
 20
165.6113031878
 30
0.0
 10
44.2798019205
 20
165.6851639005
 30
0.0
 10
44.4201851347
 20
165.7673451846
 30
0.0
 10
44.4746458269
 20
165.8056951355
 30
0.0
  0
SPLINE
  5
24E
100
AcDbEntity
  8
0
100
AcDbSpline
 62
7
  6
BYLAYER
 70
0
 71
3
 72
9
 73
5
 74
0
 42
0.0000001
 43
0.0000001
 44
0.0000000001
 40
0.0
 40
0.0
 40
0.0
 40
0.0
 40
0.4112740675
 40
1.0
 40
1.0
 40
1.0
 40
1.0
 10
164.7870809863
 20
165.8056951355
 30
0.0
 10
164.8404595413
 20
165.7681072004
 30
0.0
 10
164.977642202
 20
165.6875362519
 30
0.0
 10
165.1188635254
 20
165.6151033014
 30
0.0
 10
165.202796388
 20
165.5740082725
 30
0.0
  0
SPLINE
  5
24F
100
AcDbEntity
  8
0
100
AcDbSpline
 62
7
  6
BYLAYER
 70
0
 71
3
 72
12
 73
8
 74
0
 42
0.0000001
 43
0.0000001
 44
0.0000000001
 40
0.0
 40
0.0
 40
0.0
 40
0.0
 40
0.071382512
 40
0.1635294505
 40
0.3995635097
 40
0.6865887255
 40
1.0
 40
1.0
 40
1.0
 40
1.0
 10
165.202796388
 20
165.5740082725
 30
0.0
 10
165.3801321142
 20
165.487181533
 30
0.0
 10
165.7936066619
 20
165.303053215
 30
0.0
 10
166.8228965482
 20
164.8997772243
 30
0.0
 10
168.4517989885
 20
164.3964611287
 30
0.0
 10
170.7287639571
 20
163.9561045125
 30
0.0
 10
172.3940890431
 20
163.8637582797
 30
0.0
 10
173.2608812072
 20
163.8789672488
 30
0.0
  0
SPLINE
  5
250
100
AcDbEntity
  8
0
100
AcDbSpline
 62
7
  6
BYLAYER
 70
0
 71
3
 72
11
 73
7
 74
0
 42
0.0000001
 43
0.0000001
 44
0.0000000001
 40
0.0
 40
0.0
 40
0.0
 40
0.0
 40
0.1124120173
 40
0.3165853821
 40
0.6126927061
 40
1.0
 40
1.0
 40
1.0
 40
1.0
 10
28.0718793153
 20
163.8789678926
 30
0.0
 10
28.0819790495
 20
163.8836059931
 30
0.0
 10
28.1131143811
 20
163.88964862
 30
0.0
 10
28.1727325766
 20
163.8988042454
 30
0.0
 10
28.2601919411
 20
163.9077028478
 30
0.0
 10
28.327492899
 20
163.9132084951
 30
0.0
 10
28.3656828685
 20
163.9159990197
 30
0.0
  0
SPLINE
  5
251
100
AcDbEntity
  8
0
100
AcDbSpline
 62
7
  6
BYLAYER
 70
0
 71
3
 72
9
 73
5
 74
0
 42
0.0000001
 43
0.0000001
 44
0.0000000001
 40
0.0
 40
0.0
 40
0.0
 40
0.0
 40
0.2082135712
 40
1.0
 40
1.0
 40
1.0
 40
1.0
 10
28.3656828685
 20
163.9159990197
 30
0.0
 10
28.3979249772
 20
163.9183549368
 30
0.0
 10
28.5528514346
 20
163.9286372569
 30
0.0
 10
28.7079801495
 20
163.9356314476
 30
0.0
 10
28.8308288364
 20
163.9402615668
 30
0.0
  0
SPLINE
  5
252
100
AcDbEntity
  8
0
100
AcDbSpline
 62
7
  6
BYLAYER
 70
0
 71
3
 72
11
 73
7
 74
0
 42
0.0000001
 43
0.0000001
 44
0.0000000001
 40
0.0
 40
0.0
 40
0.0
 40
0.0
 40
0.17034083
 40
0.4061654527
 40
0.6898149179
 40
1.0
 40
1.0
 40
1.0
 40
1.0
 10
28.8308288364
 20
163.9402615668
 30
0.0
 10
29.2377095315
 20
163.9555967416
 30
0.0
 10
30.2086774995
 20
163.9692586869
 30
0.0
 10
31.8575441371
 20
163.9591488518
 30
0.0
 10
33.8403946641
 20
163.9225592834
 30
0.0
 10
35.2595177531
 20
163.8919797512
 30
0.0
 10
36.0008460728
 20
163.8789684163
 30
0.0
  0
SPLINE
  5
253
100
AcDbEntity
  8
0
100
AcDbSpline
 62
7
  6
BYLAYER
 70
0
 71
3
 72
22
 73
18
 74
0
 42
0.0000001
 43
0.0000001
 44
0.0000000001
 40
0.0
 40
0.0
 40
0.0
 40
0.0
 40
0.2023341463
 40
0.3931871298
 40
0.5659942123
 40
0.7154853135
 40
0.7800170212
 40
0.8370048164
 40
0.8859857088
 40
0.9266119219
 40
0.9585439462
 40
0.9711552709
 40
0.9815041134
 40
0.9895759804
 40
0.9953566418
 40
0.9988328337
 40
1.0
 40
1.0
 40
1.0
 40
1.0
 10
101.3467170539
 20
209.1056915873
 30
0.0
 10
101.2027804114
 20
209.1097707866
 30
0.0
 10
100.9230791801
 20
209.1178602908
 30
0.0
 10
100.5204587636
 20
209.1298556261
 30
0.0
 10
100.1554368788
 20
209.1410281888
 30
0.0
 10
99.8802827759
 20
209.1497797432
 30
0.0
 10
99.6875179487
 20
209.1561622919
 30
0.0
 10
99.5662523809
 20
209.1603070099
 30
0.0
 10
99.4619820339
 20
209.1640048982
 30
0.0
 10
99.3755735889
 20
209.1672556663
 30
0.0
 10
99.3149488532
 20
209.1696565868
 30
0.0
 10
99.2760162115
 20
209.1714394177
 30
0.0
 10
99.2537586636
 20
209.1723838721
 30
0.0
 10
99.2370737997
 20
209.1735969979
 30
0.0
 10
99.2235984152
 20
209.1736973469
 30
0.0
 10
99.2182561702
 20
209.1754677163
 30
0.0
 10
99.21284054
 20
209.1746569292
 30
0.0
 10
99.2129339997
 20
209.1754822877
 30
0.0
  0
SPLINE
  5
254
100
AcDbEntity
  8
0
100
AcDbSpline
 62
7
  6
BYLAYER
 70
0
 71
3
 72
14
 73
10
 74
0
 42
0.0000001
 43
0.0000001
 44
0.0000000001
 40
0.0
 40
0.0
 40
0.0
 40
0.0
 40
0.0333896987
 40
0.0602111594
 40
0.0949241592
 40
0.1880116044
 40
0.3108140529
 40
0.6276416619
 40
1.0
 40
1.0
 40
1.0
 40
1.0
 10
101.6387028274
 20
211.1056954362
 30
0.0
 10
101.6158073681
 20
211.1056955253
 30
0.0
 10
101.5806522104
 20
211.0712106123
 30
0.0
 10
101.5508170517
 20
211.0156392851
 30
0.0
 10
101.5111516947
 20
210.9160711005
 30
0.0
 10
101.4696113829
 20
210.7494532495
 30
0.0
 10
101.4078975416
 20
210.3889714284
 30
0.0
 10
101.3598989804
 20
209.8336410022
 30
0.0
 10
101.3467839462
 20
209.3610159118
 30
0.0
 10
101.3467845404
 20
209.1056882058
 30
0.0
  0
SPLINE
  5
255
100
AcDbEntity
  8
0
100
AcDbSpline
 62
7
  6
BYLAYER
 70
0
 71
3
 72
11
 73
7
 74
0
 42
0.0000001
 43
0.0000001
 44
0.0000000001
 40
0.0
 40
0.0
 40
0.0
 40
0.0
 40
0.1421222139
 40
0.3605335612
 40
0.6490443901
 40
1.0
 40
1.0
 40
1.0
 40
1.0
 10
44.2217618743
 20
165.8056951355
 30
0.0
 10
44.1404906785
 20
165.7502396916
 30
0.0
 10
43.9196184994
 20
165.6322165293
 30
0.0
 10
43.5123297833
 20
165.4429319954
 30
0.0
 10
42.9618846918
 20
165.2190159811
 30
0.0
 10
42.5453546756
 20
165.0688067262
 30
0.0
 10
42.3152116925
 20
164.9909362452
 30
0.0
  0
SPLINE
  5
256
100
AcDbEntity
  8
0
100
AcDbSpline
 62
7
  6
BYLAYER
 70
0
 71
3
 72
8
 73
4
 74
0
 42
0.0000001
 43
0.0000001
 44
0.0000000001
 40
0.0
 40
0.0
 40
0.0
 40
0.0
 40
1.0
 40
1.0
 40
1.0
 40
1.0
 10
100.6916501076
 20
192.4296524333
 30
0.0
 10
100.909717688
 20
197.9883455045
 30
0.0
 10
101.1281366639
 20
203.5470247947
 30
0.0
 10
101.3467828901
 20
209.1056951355
 30
0.0
  0
SPLINE
  5
257
100
AcDbEntity
  8
0
100
AcDbSpline
 62
7
  6
BYLAYER
 70
0
 71
3
 72
9
 73
5
 74
0
 42
0.0000001
 43
0.0000001
 44
0.0000000001
 40
0.0
 40
0.0
 40
0.0
 40
0.0
 40
0.4672745492
 40
1.0
 40
1.0
 40
1.0
 40
1.0
 10
41.6081049113
 20
164.767112396
 30
0.0
 10
40.7599627666
 20
164.5166361515
 30
0.0
 10
38.9067536628
 20
164.1021354272
 30
0.0
 10
37.0081347184
 20
163.9747903246
 30
0.0
 10
36.0000590661
 20
163.9921977209
 30
0.0
  0
SPLINE
  5
258
100
AcDbEntity
  8
0
100
AcDbSpline
 62
7
  6
BYLAYER
 70
0
 71
3
 72
9
 73
5
 74
0
 42
0.0000001
 43
0.0000001
 44
0.0000000001
 40
0.0
 40
0.0
 40
0.0
 40
0.0
 40
0.2755840856
 40
1.0
 40
1.0
 40
1.0
 40
1.0
 10
36.0000590661
 20
163.9921977209
 30
0.0
 10
35.5017275957
 20
164.0008028821
 30
0.0
 10
33.6950539339
 20
164.107712076
 30
0.0
 10
31.907878905
 20
164.4827690466
 30
0.0
 10
30.6590091571
 20
164.878729672
 30
0.0
  0
SPLINE
  5
259
100
AcDbEntity
  8
0
100
AcDbSpline
 62
7
  6
BYLAYER
 70
0
 71
3
 72
11
 73
7
 74
0
 42
0.0000001
 43
0.0000001
 44
0.0000000001
 40
0.0
 40
0.0
 40
0.0
 40
0.0
 40
0.2347107046
 40
0.4779168157
 40
0.7324438906
 40
1.0
 40
1.0
 40
1.0
 40
1.0
 10
184.0469636864
 20
162.3066365163
 30
0.0
 10
183.6449776454
 20
162.5675356283
 30
0.0
 10
182.7752863822
 20
163.0240040005
 30
0.0
 10
181.3398287591
 20
163.4700859034
 30
0.0
 10
179.7827669888
 20
163.6693392529
 30
0.0
 10
178.7125752114
 20
163.6337351157
 30
0.0
 10
178.1692043661
 20
163.5773056963
 30
0.0
  0
SPLINE
  5
25A
100
AcDbEntity
  8
0
100
AcDbSpline
 62
7
  6
BYLAYER
 70
0
 71
3
 72
9
 73
5
 74
0
 42
0.0000001
 43
0.0000001
 44
0.0000000001
 40
0.0
 40
0.0
 40
0.0
 40
0.0
 40
0.2403790873
 40
1.0
 40
1.0
 40
1.0
 40
1.0
 10
178.1692043661
 20
163.5773056963
 30
0.0
 10
177.7981859732
 20
163.5387751923
 30
0.0
 10
176.2624235908
 20
163.3049478893
 30
0.0
 10
174.7753347005
 20
162.7962846875
 30
0.0
 10
173.703089576
 20
162.3066282851
 30
0.0
  0
SPLINE
  5
25B
100
AcDbEntity
  8
0
100
AcDbSpline
 62
7
  6
BYLAYER
 70
0
 71
3
 72
14
 73
10
 74
0
 42
0.0000001
 43
0.0000001
 44
0.0000000001
 40
0.0
 40
0.0
 40
0.0
 40
0.0
 40
0.1715871063
 40
0.2856888696
 40
0.4150558559
 40
0.5553125883
 40
0.7016534526
 40
0.8504804043
 40
1.0
 40
1.0
 40
1.0
 40
1.0
 10
84.3890872432
 20
178.4356951355
 30
0.0
 10
85.7426097951
 20
178.435694204
 30
0.0
 10
88.0061687848
 20
178.6867987821
 30
0.0
 10
91.1454287408
 20
179.6519673517
 30
0.0
 10
93.868222236
 20
181.0127987061
 30
0.0
 10
96.485049928
 20
183.0311915871
 30
0.0
 10
98.6979049793
 20
185.7003388296
 30
0.0
 10
100.2244129983
 20
188.9001989827
 30
0.0
 10
100.6453497698
 20
191.2511131253
 30
0.0
 10
100.6916501076
 20
192.4296524333
 30
0.0
  0
SPLINE
  5
25C
100
AcDbEntity
  8
0
100
AcDbSpline
 62
7
  6
BYLAYER
 70
0
 71
3
 72
29
 73
25
 74
0
 42
0.0000001
 43
0.0000001
 44
0.0000000001
 40
0.0
 40
0.0
 40
0.0
 40
0.0
 40
0.0002937958
 40
0.0011905115
 40
0.0026890971
 40
0.0047884164
 40
0.0074873415
 40
0.0107846831
 40
0.019165071
 40
0.0299069141
 40
0.0429868638
 40
0.0583751809
 40
0.0760293061
 40
0.0959052187
 40
0.1179578172
 40
0.1683734954
 40
0.2268058605
 40
0.2926925245
 40
0.3654082468
 40
0.4442398944
 40
0.5284314632
 40
0.6171569343
 40
0.8048220293
 40
1.0
 40
1.0
 40
1.0
 40
1.0
 10
186.6308628165
 20
160.351048571
 30
0.0
 10
186.6315154897
 20
160.3500101099
 30
0.0
 10
186.6219236297
 20
160.3527863682
 30
0.0
 10
186.6152284625
 20
160.3509370689
 30
0.0
 10
186.5939092307
 20
160.3534033729
 30
0.0
 10
186.5688044145
 20
160.3542136363
 30
0.0
 10
186.5346105416
 20
160.3562302544
 30
0.0
 10
186.4748769608
 20
160.3591085626
 30
0.0
 10
186.3812395294
 20
160.3634644319
 30
0.0
 10
186.2469742236
 20
160.3689225217
 30
0.0
 10
186.0833638902
 20
160.3748133072
 30
0.0
 10
185.8909132661
 20
160.380810408
 30
0.0
 10
185.6700679014
 20
160.3867653105
 30
0.0
 10
185.4213892506
 20
160.3924820787
 30
0.0
 10
185.0359421688
 20
160.3998714539
 30
0.0
 10
184.4895071702
 20
160.4073456118
 30
0.0
 10
183.7600432771
 20
160.4126613321
 30
0.0
 10
182.9374647365
 20
160.4143254295
 30
0.0
 10
182.0297254411
 20
160.4121610537
 30
0.0
 10
181.0455819538
 20
160.4064441528
 30
0.0
 10
179.9946234367
 20
160.3975113451
 30
0.0
 10
178.4893479625
 20
160.3822883005
 30
0.0
 10
176.5207767475
 20
160.3605950387
 30
0.0
 10
174.9224934786
 20
160.3506543222
 30
0.0
 10
174.1076681662
 20
160.3509812236
 30
0.0
  0
SPLINE
  5
25D
100
AcDbEntity
  8
0
100
AcDbSpline
 62
7
  6
BYLAYER
 70
0
 71
3
 72
14
 73
10
 74
0
 42
0.0000001
 43
0.0000001
 44
0.0000000001
 40
0.0
 40
0.0
 40
0.0
 40
0.0
 40
0.1495686999
 40
0.2984287097
 40
0.4447830274
 40
0.5850468314
 40
0.7144062725
 40
0.8284678218
 40
1.0
 40
1.0
 40
1.0
 40
1.0
 10
108.5700767055
 20
192.429652435
 30
0.0
 10
108.6164251916
 20
191.2507313051
 30
0.0
 10
109.0378633511
 20
188.8992600064
 30
0.0
 10
110.5646188656
 20
185.6986679924
 30
0.0
 10
112.7784119758
 20
183.0297356549
 30
0.0
 10
115.3954336715
 20
181.0114593604
 30
0.0
 10
118.1182553799
 20
179.6514113793
 30
0.0
 10
121.2567508799
 20
178.6866419225
 30
0.0
 10
123.5195548099
 20
178.4357218612
 30
0.0
 10
124.8726395702
 20
178.4356951355
 30
0.0
  0
SPLINE
  5
25E
100
AcDbEntity
  8
0
100
AcDbSpline
 62
7
  6
BYLAYER
 70
0
 71
3
 72
8
 73
4
 74
0
 42
0.0000001
 43
0.0000001
 44
0.0000000001
 40
0.0
 40
0.0
 40
0.0
 40
0.0
 40
1.0
 40
1.0
 40
1.0
 40
1.0
 10
107.9149439156
 20
209.1056951355
 30
0.0
 10
108.1335916891
 20
203.547024856
 30
0.0
 10
108.3520071625
 20
197.9883454288
 30
0.0
 10
108.5700767055
 20
192.429652435
 30
0.0
  0
SPLINE
  5
25F
100
AcDbEntity
  8
0
100
AcDbSpline
 62
7
  6
BYLAYER
 70
0
 71
3
 72
9
 73
5
 74
0
 42
0.0000001
 43
0.0000001
 44
0.0000000001
 40
0.0
 40
0.0
 40
0.0
 40
0.0
 40
0.2273907194
 40
1.0
 40
1.0
 40
1.0
 40
1.0
 10
173.2608300757
 20
163.878963613
 30
0.0
 10
173.3003816317
 20
163.7616282734
 30
0.0
 10
173.4665502952
 20
163.2430022457
 30
0.0
 10
173.6054688996
 20
162.7159344927
 30
0.0
 10
173.7030723533
 20
162.3067004972
 30
0.0
  0
SPLINE
  5
260
100
AcDbEntity
  8
0
100
AcDbSpline
 62
7
  6
BYLAYER
 70
0
 71
3
 72
9
 73
5
 74
0
 42
0.0000001
 43
0.0000001
 44
0.0000000001
 40
0.0
 40
0.0
 40
0.0
 40
0.0
 40
0.47728481
 40
1.0
 40
1.0
 40
1.0
 40
1.0
 10
173.703091725
 20
162.3067018668
 30
0.0
 10
173.775301211
 20
161.997270617
 30
0.0
 10
173.9165749886
 20
161.3466542401
 30
0.0
 10
174.0469073991
 20
160.6936896363
 30
0.0
 10
174.1076659339
 20
160.3510452545
 30
0.0
  0
SPLINE
  5
261
100
AcDbEntity
  8
0
100
AcDbSpline
 62
7
  6
BYLAYER
 70
0
 71
3
 72
9
 73
5
 74
0
 42
0.0000001
 43
0.0000001
 44
0.0000000001
 40
0.0
 40
0.0
 40
0.0
 40
0.0
 40
0.5226721041
 40
1.0
 40
1.0
 40
1.0
 40
1.0
 10
35.154223746
 20
160.3510452545
 30
0.0
 10
35.2145935848
 20
160.6937107254
 30
0.0
 10
35.3443960219
 20
161.346751104
 30
0.0
 10
35.4859677935
 20
161.997276507
 30
0.0
 10
35.5586253971
 20
162.3066152298
 30
0.0
  0
SPLINE
  5
262
100
AcDbEntity
  8
0
100
AcDbSpline
 62
7
  6
BYLAYER
 70
0
 71
3
 72
9
 73
5
 74
0
 42
0.0000001
 43
0.0000001
 44
0.0000000001
 40
0.0
 40
0.0
 40
0.0
 40
0.0
 40
0.2724816462
 40
1.0
 40
1.0
 40
1.0
 40
1.0
 10
35.55865286
 20
162.3066132884
 30
0.0
 10
35.5930759957
 20
162.4509456119
 30
0.0
 10
35.7241096393
 20
162.9794635479
 30
0.0
 10
35.8743695545
 20
163.503546979
 30
0.0
 10
36.0009160563
 20
163.878964148
 30
0.0
  0
SPLINE
  5
263
100
AcDbEntity
  8
0
100
AcDbSpline
 62
7
  6
BYLAYER
 70
0
 71
3
 72
14
 73
10
 74
0
 42
0.0000001
 43
0.0000001
 44
0.0000000001
 40
0.0
 40
0.0
 40
0.0
 40
0.0
 40
0.3722344963
 40
0.6890142505
 40
0.8118611699
 40
0.905022143
 40
0.939760592
 40
0.9665981567
 40
1.0
 40
1.0
 40
1.0
 40
1.0
 10
107.9149386196
 20
209.1057231637
 30
0.0
 10
107.9149381583
 20
209.3609599904
 30
0.0
 10
107.9018309803
 20
209.8334564069
 30
0.0
 10
107.853855902
 20
210.3886871774
 30
0.0
 10
107.7921617177
 20
210.7492125748
 30
0.0
 10
107.7506219081
 20
210.9159266663
 30
0.0
 10
107.710931686
 20
211.0155706381
 30
0.0
 10
107.6810819175
 20
211.0711679204
 30
0.0
 10
107.6459274454
 20
211.1056914159
 30
0.0
 10
107.6230241934
 20
211.1056926168
 30
0.0
  0
SPLINE
  5
264
100
AcDbEntity
  8
0
100
AcDbSpline
 62
7
  6
BYLAYER
 70
0
 71
3
 72
22
 73
18
 74
0
 42
0.0000001
 43
0.0000001
 44
0.0000000001
 40
0.0
 40
0.0
 40
0.0
 40
0.0
 40
0.0011638018
 40
0.0046367105
 40
0.0104142685
 40
0.0184832568
 40
0.0288294867
 40
0.0414385058
 40
0.0733667617
 40
0.1139901313
 40
0.1629692849
 40
0.219956583
 40
0.2844888752
 40
0.4339839199
 40
0.6067976223
 40
0.7976571776
 40
1.0
 40
1.0
 40
1.0
 40
1.0
 10
110.0487346215
 20
209.1754830067
 30
0.0
 10
110.0488413343
 20
209.1746617002
 30
0.0
 10
110.0434021569
 20
209.1754634772
 30
0.0
 10
110.0380967817
 20
209.1737009028
 30
0.0
 10
110.0246108572
 20
209.1735969814
 30
0.0
 10
110.0079405678
 20
209.1723858213
 30
0.0
 10
109.985686254
 20
209.1714410982
 30
0.0
 10
109.9467625999
 20
209.1696589782
 30
0.0
 10
109.8861453392
 20
209.1672582406
 30
0.0
 10
109.7997462386
 20
209.1640077971
 30
0.0
 10
109.6954829634
 20
209.1603100467
 30
0.0
 10
109.5742228112
 20
209.1561655285
 30
0.0
 10
109.3814617555
 20
209.1497832259
 30
0.0
 10
109.106309246
 20
209.1410317436
 30
0.0
 10
108.7412878002
 20
209.1298587129
 30
0.0
 10
108.3386657577
 20
209.1178629742
 30
0.0
 10
108.0589633513
 20
209.1097733086
 30
0.0
 10
107.9150255111
 20
209.105694123
 30
0.0
  0
SPLINE
  5
265
100
AcDbEntity
  8
0
100
AcDbSpline
 62
7
  6
BYLAYER
 70
0
 71
3
 72
21
 73
17
 74
0
 42
0.0000001
 43
0.0000001
 44
0.0000000001
 40
0.0
 40
0.0
 40
0.0
 40
0.0
 40
0.000988319
 40
0.0038766436
 40
0.0087525362
 40
0.0156836805
 40
0.0359725256
 40
0.0652609252
 40
0.1039299615
 40
0.1518244842
 40
0.2086551671
 40
0.274132563
 40
0.4287242754
 40
0.6075575008
 40
0.8012948733
 40
1.0
 40
1.0
 40
1.0
 40
1.0
 10
110.6308634063
 20
192.5169011824
 30
0.0
 10
110.6308871196
 20
192.5162220258
 30
0.0
 10
110.6268061289
 20
192.5163166092
 30
0.0
 10
110.6222338022
 20
192.5149768075
 30
0.0
 10
110.6113689041
 20
192.5143843564
 30
0.0
 10
110.5898676913
 20
192.5124689668
 30
0.0
 10
110.5507023678
 20
192.5102005681
 30
0.0
 10
110.4903088683
 20
192.5067705039
 30
0.0
 10
110.4106711736
 20
192.5028055227
 30
0.0
 10
110.3122111814
 20
192.4981447159
 30
0.0
 10
110.1952874516
 20
192.4928958133
 30
0.0
 10
110.0050718252
 20
192.4846811524
 30
0.0
 10
109.7310129903
 20
192.473447601
 30
0.0
 10
109.368814154
 20
192.4592427401
 30
0.0
 10
108.9762824705
 20
192.4444317752
 30
0.0
 10
108.7066182679
 20
192.4345713519
 30
0.0
 10
108.5700767077
 20
192.4296524429
 30
0.0
  0
SPLINE
  5
266
100
AcDbEntity
  8
0
100
AcDbSpline
 62
7
  6
BYLAYER
 70
0
 71
3
 72
15
 73
11
 74
0
 42
0.0000001
 43
0.0000001
 44
0.0000000001
 40
0.0
 40
0.0
 40
0.0
 40
0.0
 40
0.0199626634
 40
0.0477245076
 40
0.1251512343
 40
0.2287937124
 40
0.3547915856
 40
0.4992356424
 40
0.6581220708
 40
1.0
 40
1.0
 40
1.0
 40
1.0
 10
165.0399649389
 20
165.8056951355
 30
0.0
 10
165.0866613402
 20
165.7738318211
 30
0.0
 10
165.2036760152
 20
165.705726952
 30
0.0
 10
165.5195433548
 20
165.5449558093
 30
0.0
 10
166.0627246339
 20
165.3097097523
 30
0.0
 10
166.8775282559
 20
165.0052152617
 30
0.0
 10
167.88877572
 20
164.6876730771
 30
0.0
 10
169.0688851778
 20
164.3916391682
 30
0.0
 10
170.867775419
 20
164.0659971723
 30
0.0
 10
172.290980145
 20
163.9762057543
 30
0.0
 10
173.2590048895
 20
163.9919720767
 30
0.0
  0
SPLINE
  5
267
100
AcDbEntity
  8
0
100
AcDbSpline
 62
7
  6
BYLAYER
 70
0
 71
3
 72
9
 73
5
 74
0
 42
0.0000001
 43
0.0000001
 44
0.0000000001
 40
0.0
 40
0.0
 40
0.0
 40
0.0
 40
0.2715210055
 40
1.0
 40
1.0
 40
1.0
 40
1.0
 10
173.2590048895
 20
163.9919720767
 30
0.0
 10
173.7158527053
 20
163.9994128059
 30
0.0
 10
175.3970290911
 20
164.0935342731
 30
0.0
 10
177.0624365112
 20
164.4199099755
 30
0.0
 10
178.2381049113
 20
164.767112396
 30
0.0
  0
SPLINE
  5
268
100
AcDbEntity
  8
0
100
AcDbSpline
 62
7
  6
BYLAYER
 70
0
 71
3
 72
12
 73
8
 74
0
 42
0.0000001
 43
0.0000001
 44
0.0000000001
 40
0.0
 40
0.0
 40
0.0
 40
0.0
 40
0.2278830002
 40
0.353136586
 40
0.4834927486
 40
0.7485807596
 40
1.0
 40
1.0
 40
1.0
 40
1.0
 10
122.6235517653
 20
180.9356951355
 30
0.0
 10
122.9056454017
 20
180.9356951363
 30
0.0
 10
123.3492274413
 20
180.8405973322
 30
0.0
 10
123.8687238164
 20
180.5368173244
 30
0.0
 10
124.3510374906
 20
180.1025111786
 30
0.0
 10
124.7644385354
 20
179.3909479905
 30
0.0
 10
124.8726377568
 20
178.7469240016
 30
0.0
 10
124.8726377501
 20
178.4356951355
 30
0.0
  0
SPLINE
  5
269
100
AcDbEntity
  8
0
100
AcDbSpline
 62
7
  6
BYLAYER
 70
0
 71
3
 72
29
 73
25
 74
0
 42
0.0000001
 43
0.0000001
 44
0.0000000001
 40
0.0
 40
0.0
 40
0.0
 40
0.0
 40
0.0002944921
 40
0.0011929042
 40
0.002693854
 40
0.0047958687
 40
0.0074974796
 40
0.0107972317
 40
0.0191854074
 40
0.0299445381
 40
0.0430416045
 40
0.0584395378
 40
0.0761013663
 40
0.0959888855
 40
0.1180524396
 40
0.1684854082
 40
0.2269304933
 40
0.2928205646
 40
0.3655330153
 40
0.4443548355
 40
0.5285306996
 40
0.6172342632
 40
0.8048590799
 40
1.0
 40
1.0
 40
1.0
 40
1.0
 10
22.6308639865
 20
160.3510774555
 30
0.0
 10
22.6302163574
 20
160.350032401
 30
0.0
 10
22.6398120978
 20
160.3528102859
 30
0.0
 10
22.6465360591
 20
160.3509395346
 30
0.0
 10
22.6678791269
 20
160.3533934195
 30
0.0
 10
22.6930203874
 20
160.3541872797
 30
0.0
 10
22.7272464248
 20
160.3561955305
 30
0.0
 10
22.7870350216
 20
160.3590792245
 30
0.0
 10
22.8807871718
 20
160.3634572399
 30
0.0
 10
23.0152318675
 20
160.3688869376
 30
0.0
 10
23.1790279692
 20
160.3747802428
 30
0.0
 10
23.3716231814
 20
160.3808331558
 30
0.0
 10
23.5925910853
 20
160.3868329137
 30
0.0
 10
23.8413999782
 20
160.3925258178
 30
0.0
 10
24.2270197018
 20
160.3998519883
 30
0.0
 10
24.7736340443
 20
160.4072297348
 30
0.0
 10
25.5032465959
 20
160.4125557002
 30
0.0
 10
26.3258893912
 20
160.4143004312
 30
0.0
 10
27.2336001589
 20
160.412143261
 30
0.0
 10
28.2176360233
 20
160.4063933249
 30
0.0
 10
29.2684097211
 20
160.3974111782
 30
0.0
 10
30.7733794952
 20
160.3821798218
 30
0.0
 10
32.7415639164
 20
160.3606892735
 30
0.0
 10
34.3395446713
 20
160.350665288
 30
0.0
 10
35.1542258932
 20
160.3510195013
 30
0.0
  0
SPLINE
  5
26A
100
AcDbEntity
  8
0
100
AcDbSpline
 62
7
  6
BYLAYER
 70
0
 71
3
 72
21
 73
17
 74
0
 42
0.0000001
 43
0.0000001
 44
0.0000000001
 40
0.0
 40
0.0
 40
0.0
 40
0.0
 40
0.0009883179
 40
0.0038766402
 40
0.0087525292
 40
0.0156836689
 40
0.0359725021
 40
0.0652608869
 40
0.1039299065
 40
0.1518244121
 40
0.2086550792
 40
0.2741324621
 40
0.4287241628
 40
0.6075574003
 40
0.8012948119
 40
1.0
 40
1.0
 40
1.0
 40
1.0
 10
98.630863406
 20
192.5169011578
 30
0.0
 10
98.6308396917
 20
192.5162220019
 30
0.0
 10
98.6349206808
 20
192.5163165839
 30
0.0
 10
98.6394930017
 20
192.5149767839
 30
0.0
 10
98.6503578932
 20
192.5143843324
 30
0.0
 10
98.6718590918
 20
192.5124689439
 30
0.0
 10
98.7110243943
 20
192.5102005457
 30
0.0
 10
98.7714178637
 20
192.5067704828
 30
0.0
 10
98.8510555251
 20
192.5028055025
 30
0.0
 10
98.9495154832
 20
192.4981446967
 30
0.0
 10
99.0664391816
 20
192.4928957949
 30
0.0
 10
99.2566547803
 20
192.4846811343
 30
0.0
 10
99.5307136067
 20
192.4734475821
 30
0.0
 10
99.8929124704
 20
192.459242719
 30
0.0
 10
100.2854442316
 20
192.4444317501
 30
0.0
 10
100.5551085034
 20
192.4345713236
 30
0.0
 10
100.6916501059
 20
192.4296524128
 30
0.0
  0
SPLINE
  5
26B
100
AcDbEntity
  8
0
100
AcDbSpline
 62
7
  6
BYLAYER
 70
0
 71
3
 72
12
 73
8
 74
0
 42
0.0000001
 43
0.0000001
 44
0.0000000001
 40
0.0
 40
0.0
 40
0.0
 40
0.0
 40
0.2514192984
 40
0.5165073284
 40
0.6468634836
 40
0.7721170532
 40
1.0
 40
1.0
 40
1.0
 40
1.0
 10
84.3890872285
 20
178.4356951355
 30
0.0
 10
84.3890872286
 20
178.7469240885
 30
0.0
 10
84.4972865266
 20
179.3909482069
 30
0.0
 10
84.9106877682
 20
180.1025114358
 30
0.0
 10
85.3930015465
 20
180.5368175036
 30
0.0
 10
85.9124979178
 20
180.8405973844
 30
0.0
 10
86.3560798871
 20
180.9356951355
 30
0.0
 10
86.6381734709
 20
180.9356951355
 30
0.0
  0
SPLINE
  5
26C
100
AcDbEntity
  8
0
100
AcDbSpline
 62
7
  6
BYLAYER
 70
0
 71
3
 72
11
 73
7
 74
0
 42
0.0000001
 43
0.0000001
 44
0.0000000001
 40
0.0
 40
0.0
 40
0.0
 40
0.0
 40
0.226079983
 40
0.4665410348
 40
0.7252671574
 40
1.0
 40
1.0
 40
1.0
 40
1.0
 10
25.2147314989
 20
162.3066159889
 30
0.0
 10
25.8954162805
 20
162.7483992958
 30
0.0
 10
27.4542104507
 20
163.4409083517
 30
0.0
 10
30.0717187519
 20
163.752180489
 30
0.0
 10
32.8478675257
 20
163.3692279778
 30
0.0
 10
34.66160542
 20
162.7162477703
 30
0.0
 10
35.5586146082
 20
162.3066159891
 30
0.0
  0
ELLIPSE
  5
26D
100
AcDbEntity
  8
0
100
AcDbEllipse
 62
7
  6
BYLAYER
 10
34.4716161071
 20
143.4502997011
 30
0.0
 11
22.4796791774
 21
-0.0
 31
0.0
 40
1.0
 41
1.4033226574
 42
1.4655935024
  0
ELLIPSE
  5
26E
100
AcDbEntity
  8
0
100
AcDbEllipse
 62
7
  6
BYLAYER
 10
34.4716161071
 20
143.4502997011
 30
0.0
 11
0.0
 21
22.4796791774
 31
0.0
 40
1.0
 41
-0.3230539398
 42
-0.1674736694
  0
ELLIPSE
  5
26F
100
AcDbEntity
  8
0
100
AcDbEllipse
 62
7
  6
BYLAYER
 10
171.1016161071
 20
143.4502997011
 30
0.0
 11
22.4796791774
 21
0.0
 31
0.0
 40
1.0
 41
1.247742387
 42
1.4655935024
  0
ELLIPSE
  5
270
100
AcDbEntity
  8
0
100
AcDbEllipse
 62
7
  6
BYLAYER
 10
35.8858296695
 20
143.4502997011
 30
0.0
 11
0.0
 21
22.4796791774
 31
0.0
 40
1.0
 41
-0.290058853
 42
-0.1052028244
  0
ENDSEC
  0
SECTION
  2
OBJECTS
  0
DICTIONARY
  5
C
100
AcDbDictionary
280
0
281
1
  3
ACAD_GROUP
350
D
  3
ACAD_MLINESTYLE
350
17
  3
ACAD_LAYOUT
350
1A
  3
ACAD_PLOTSETTINGS
350
19
  3
ACAD_PLOTSTYLENAME
350
E
  0
DICTIONARY
  5
D
102
{ACAD_REACTORS
330
C
102
}
100
AcDbDictionary
280
0
281
1
  0
ACDBDICTIONARYWDFLT
  5
E
102
{ACAD_REACTORS
330
C
102
}
100
AcDbDictionary
281
1
  3
Normal
350
F
100
AcDbDictionaryWithDefault
340
F
  0
DICTIONARY
  5
17
102
{ACAD_REACTORS
330
C
102
}
100
AcDbDictionary
280
0
281
1
  3
Standard
350
18
  0
DICTIONARY
  5
19
102
{ACAD_REACTORS
330
C
102
}
100
AcDbDictionary
281
1
  0
DICTIONARY
  5
1A
102
{ACAD_REACTORS
330
C
102
}
100
AcDbDictionary
281
1
  3
Model
350
271
  3
Layout1
350
272
  0
ACDBPLACEHOLDER
  5
F
102
{ACAD_REACTORS
330
E
102
}
  0
MLINESTYLE
  5
18
102
{ACAD_REACTORS
330
17
102
}
100
AcDbMlineStyle
  2
STANDARD
 70
0
  3

 62
256
 51
90.0
 52
90.0
 71
2
 49
0.5
 62
256
  6
BYLAYER
 49
-0.5
 62
256
  6
BYLAYER
  0
LAYOUT
  5
271
102
{ACAD_REACTORS
330
1A
102
}
100
AcDbPlotSettings
  1

  2
none_device
  4

  6

 40
0.0
 41
0.0
 42
0.0
 43
0.0
 44
210.0
 45
297.0
 46
0.0
 47
0.0
 48
0.0
 49
0.0
140
0.0
141
0.0
142
1.0
143
1.0
 70
1024
 72
1
 73
0
 74
0
  7

 75
0
147
1.0
148
0.0
149
0.0
100
AcDbLayout
  1
Model
 70
0
 71
0
 10
0.0
 20
0.0
 11
210.0
 21
297.0
 12
0.0
 22
0.0
 32
0.0
 14
0.0
 24
0.0
 34
0.0
 15
0.0
 25
0.0
 35
0.0
146
0.0
 13
0.0
 23
0.0
 33
0.0
 16
1.0
 26
0.0
 36
0.0
 17
0.0
 27
1.0
 37
0.0
 76
0
330
210
345
0
346
0
  0
LAYOUT
  5
272
102
{ACAD_REACTORS
330
1A
102
}
100
AcDbPlotSettings
  1

  2
none_device
  4

  6

 40
0.0
 41
0.0
 42
0.0
 43
0.0
 44
210.0
 45
297.0
 46
0.0
 47
0.0
 48
0.0
 49
0.0
140
0.0
141
0.0
142
1.0
143
1.0
 70
0
 72
1
 73
0
 74
0
  7

 75
0
147
1.0
148
0.0
149
0.0
100
AcDbLayout
  1
Layout1
 70
0
 71
1
 10
0.0
 20
0.0
 11
210.0
 21
297.0
 12
0.0
 22
0.0
 32
0.0
 14
0.0
 24
0.0
 34
0.0
 15
0.0
 25
0.0
 35
0.0
146
0.0
 13
0.0
 23
0.0
 33
0.0
 16
1.0
 26
0.0
 36
0.0
 17
0.0
 27
1.0
 37
0.0
 76
0
330
211
345
0
346
0
  0
ENDSEC
  0
EOF
