999
DXF file: C:\SESA671053\Gen2D\CAD\MCADPP0003369_3D-simplified\drw0001_5.dxf
999
Pro/ENGINEER 2019471 by Parametric Technology Corporation
  0
SECTION
  2
HEADER
  9
$ACADVER
  1
AC1024
  9
$DWGCODEPAGE
  3
ANSI_1252
  9
$EXTMAX
 10
107.6693844766
 20
152.2752723312
 30
0.0
  9
$EXTMIN
 10
0.0
 20
0.0
 30
0.0
  9
$LIMMIN
 10
0.0
 20
0.0
  9
$LIMMAX
 10
107.6693844766
 20
152.2752723312
  9
$VIEWCTR
 10
53.8346922383
 20
76.1376361656
  9
$VIEWSIZE
 40
152.2752723312
  9
$CLAYER
  8
0
  9
$LTSCALE
 40
9.926091826
  9
$CELTYPE
  6
BYLAYER
  9
$DIMSCALE
 40
1.0
  9
$DIMASZ
 40
1.2817783866
  9
$DIMEXO
 40
1.0
  9
$DIMDLI
 40
6.8580270798
  9
$DIMEXE
 40
1.0
  9
$DIMCEN
 40
1.6242695715
  9
$DIMLFAC
 40
1.0
  9
$DIMBLK
  1
_FILLED
  9
$DIMALT
 70
0
  9
$DIMALTF
 40
0.0393700787
  9
$DIMTXT
 40
1.7944897413
  9
$DIMTOL
 70
1
  9
$DIMLIM
 70
0
  9
$DIMTFAC
 40
1.0
  9
$DIMTP
 40
0.01
  9
$DIMTM
 40
0.01
  9
$DIMGAP
 40
0.625
  9
$DIMDSEP
 70
46
  9
$AUNITS
 70
0
  9
$PDMODE
 70
3
  9
$PDSIZE
 40
0.3125
  9
$HANDSEED
  5
2A1
  9
$TILEMODE
 70
1
  9
$MEASUREMENT
 70
1
  9
$INSUNITS
 70
4
  0
ENDSEC
  0
SECTION
  2
CLASSES
  0
CLASS
  1
ACDBDICTIONARYWDFLT
  2
AcDbDictionaryWithDefault
  3
AutoCAD 2000
 90
0
 91
1
280
0
281
0
  0
CLASS
  1
ACDBPLACEHOLDER
  2
AcDbPlaceHolder
  3
AutoCAD 2000
 90
0
 91
1
280
0
281
0
  0
CLASS
  1
LAYOUT
  2
AcDbLayout
  3
AutoCAD 2000
 90
0
 91
0
280
0
281
0
  0
ENDSEC
  0
SECTION
  2
TABLES
  0
TABLE
  2
VPORT
  5
8
100
AcDbSymbolTable
 70
2
  0
VPORT
  5
1F4
100
AcDbSymbolTableRecord
100
AcDbViewportTableRecord
  2
*ACTIVE
 70
0
 10
0.0
 20
0.0
 11
1.0
 21
1.0
 12
53.8346922383
 22
76.1376361656
 13
0.0
 23
0.0
 14
1.0
 24
1.0
 15
0.0
 25
0.0
 16
0.0
 26
0.0
 36
1.0
 17
0.0
 27
0.0
 37
0.0
 40
152.2752723312
 41
0.7070707071
 42
50.0
 43
0.0
 44
0.0
 50
0.0
 51
0.0
 71
0
 72
100
 73
1
 74
1
 75
0
 76
0
 77
0
 78
0
  0
ENDTAB
  0
TABLE
  2
LTYPE
  5
5
100
AcDbSymbolTable
 70
6
  0
LTYPE
  5
14
100
AcDbSymbolTableRecord
100
AcDbLinetypeTableRecord
  2
BYBLOCK
 70
0
  3

 72
65
 73
0
 40
0.0
  0
LTYPE
  5
15
100
AcDbSymbolTableRecord
100
AcDbLinetypeTableRecord
  2
BYLAYER
 70
0
  3

 72
65
 73
0
 40
0.0
  0
LTYPE
  5
16
100
AcDbSymbolTableRecord
100
AcDbLinetypeTableRecord
  2
CONTINUOUS
 70
64
  3
Solid line
 72
65
 73
0
 40
0.0
  0
LTYPE
  5
1F5
100
AcDbSymbolTableRecord
100
AcDbLinetypeTableRecord
  2
CENTER
 70
64
  3
____ _ ____ _ ____ _ ____ _ ____ _ ____ _ ____
 72
65
 73
4
 40
0.6
 49
0.375
 74
0
 49
-0.075
 74
0
 49
0.075
 74
0
 49
-0.075
 74
0
  0
LTYPE
  5
1F6
100
AcDbSymbolTableRecord
100
AcDbLinetypeTableRecord
  2
HIDDEN
 70
64
  3
- - - - - - - - - - - - - - - - - - - -
 72
65
 73
2
 40
0.2
 49
0.1
 74
0
 49
-0.1
 74
0
  0
LTYPE
  5
1F7
100
AcDbSymbolTableRecord
100
AcDbLinetypeTableRecord
  2
PHANTOM
 70
64
  3
_____ _ _ _____ _ _ _____ _ _ _____
 72
65
 73
6
 40
0.8
 49
0.45
 74
0
 49
-0.05
 74
0
 49
0.1
 74
0
 49
-0.05
 74
0
 49
0.1
 74
0
 49
-0.05
 74
0
  0
LTYPE
  5
1F8
100
AcDbSymbolTableRecord
100
AcDbLinetypeTableRecord
  2
DOT
 70
64
  3
. . . . . . . . . . . . . . . . . . . .
 72
65
 73
2
 40
0.2
 49
0.1
 74
0
 49
-0.1
 74
0
  0
LTYPE
  5
1F9
100
AcDbSymbolTableRecord
100
AcDbLinetypeTableRecord
  2
DASHED
 70
64
  3
- - - - - - - - - - - - - - - - - - - -
 72
65
 73
2
 40
0.2
 49
0.1
 74
0
 49
-0.1
 74
0
  0
ENDTAB
  0
TABLE
  2
LAYER
  5
2
100
AcDbSymbolTable
 70
36
  0
LAYER
  5
10
100
AcDbSymbolTableRecord
100
AcDbLayerTableRecord
  2
0
 70
0
 62
7
  6
CONTINUOUS
370
-3
390
F
  0
LAYER
  5
1FA
100
AcDbSymbolTableRecord
100
AcDbLayerTableRecord
  2
DEFAULT_1
 70
0
 62
7
  6
CENTER
370
-3
390
F
  0
LAYER
  5
1FB
100
AcDbSymbolTableRecord
100
AcDbLayerTableRecord
  2
DEFAULT_2
 70
0
 62
8
  6
HIDDEN
370
-3
390
F
  0
LAYER
  5
1FC
100
AcDbSymbolTableRecord
100
AcDbLayerTableRecord
  2
DEFAULT_3
 70
0
 62
7
  6
PHANTOM
370
-3
390
F
  0
LAYER
  5
1FD
100
AcDbSymbolTableRecord
100
AcDbLayerTableRecord
  2
00_COMPONENTS
 70
0
 62
7
  6
CONTINUOUS
370
-3
390
F
  0
LAYER
  5
1FE
100
AcDbSymbolTableRecord
100
AcDbLayerTableRecord
  2
00_COMPONENTS_1
 70
0
 62
7
  6
CONTINUOUS
370
-3
390
F
  0
LAYER
  5
1FF
100
AcDbSymbolTableRecord
100
AcDbLayerTableRecord
  2
01_1_DEFAULT_DATUMS
 70
0
 62
7
  6
CONTINUOUS
370
-3
390
F
  0
LAYER
  5
200
100
AcDbSymbolTableRecord
100
AcDbLayerTableRecord
  2
01_PLANES
 70
0
 62
7
  6
CONTINUOUS
370
-3
390
F
  0
LAYER
  5
201
100
AcDbSymbolTableRecord
100
AcDbLayerTableRecord
  2
02_COORD_SYS
 70
0
 62
7
  6
CONTINUOUS
370
-3
390
F
  0
LAYER
  5
202
100
AcDbSymbolTableRecord
100
AcDbLayerTableRecord
  2
03_AXES
 70
0
 62
7
  6
CONTINUOUS
370
-3
390
F
  0
LAYER
  5
203
100
AcDbSymbolTableRecord
100
AcDbLayerTableRecord
  2
03_AXES_1
 70
0
 62
7
  6
CONTINUOUS
370
-3
390
F
  0
LAYER
  5
204
100
AcDbSymbolTableRecord
100
AcDbLayerTableRecord
  2
04_POINTS
 70
0
 62
7
  6
CONTINUOUS
370
-3
390
F
  0
LAYER
  5
205
100
AcDbSymbolTableRecord
100
AcDbLayerTableRecord
  2
05_CURVES
 70
0
 62
7
  6
CONTINUOUS
370
-3
390
F
  0
LAYER
  5
206
100
AcDbSymbolTableRecord
100
AcDbLayerTableRecord
  2
06_SURFS
 70
0
 62
7
  6
CONTINUOUS
370
-3
390
F
  0
LAYER
  5
207
100
AcDbSymbolTableRecord
100
AcDbLayerTableRecord
  2
07_COSMETICS
 70
0
 62
7
  6
CONTINUOUS
370
-3
390
F
  0
LAYER
  5
208
100
AcDbSymbolTableRecord
100
AcDbLayerTableRecord
  2
10_NOTES
 70
0
 62
7
  6
CONTINUOUS
370
-3
390
F
  0
LAYER
  5
209
100
AcDbSymbolTableRecord
100
AcDbLayerTableRecord
  2
11_NOTES_PUB
 70
0
 62
7
  6
CONTINUOUS
370
-3
390
F
  0
LAYER
  5
20A
100
AcDbSymbolTableRecord
100
AcDbLayerTableRecord
  2
13_REF_GTOL
 70
0
 62
7
  6
CONTINUOUS
370
-3
390
F
  0
LAYER
  5
20B
100
AcDbSymbolTableRecord
100
AcDbLayerTableRecord
  2
16_MISC
 70
0
 62
7
  6
CONTINUOUS
370
-3
390
F
  0
LAYER
  5
20C
100
AcDbSymbolTableRecord
100
AcDbLayerTableRecord
  2
17_NO_PRINT
 70
0
 62
7
  6
CONTINUOUS
370
-3
390
F
  0
LAYER
  5
20D
100
AcDbSymbolTableRecord
100
AcDbLayerTableRecord
  2
18_DATUM_CAMS_JOINTS
 70
0
 62
7
  6
CONTINUOUS
370
-3
390
F
  0
LAYER
  5
20E
100
AcDbSymbolTableRecord
100
AcDbLayerTableRecord
  2
19_DATUM_FUNCTIONAL
 70
0
 62
7
  6
CONTINUOUS
370
-3
390
F
  0
LAYER
  5
20F
100
AcDbSymbolTableRecord
100
AcDbLayerTableRecord
  2
20_DATUM_KINEMATIC_SCHEME
 70
0
 62
7
  6
CONTINUOUS
370
-3
390
F
  0
LAYER
  5
210
100
AcDbSymbolTableRecord
100
AcDbLayerTableRecord
  2
INTFCLR_18
 70
0
 62
7
  6
CONTINUOUS
370
-3
390
F
  0
LAYER
  5
211
100
AcDbSymbolTableRecord
100
AcDbLayerTableRecord
  2
INTF_BLANK
 70
0
 62
7
  6
CONTINUOUS
370
-3
390
F
  0
LAYER
  5
212
100
AcDbSymbolTableRecord
100
AcDbLayerTableRecord
  2
INTF_YELLOW
 70
0
 62
7
  6
CONTINUOUS
370
-3
390
F
  0
LAYER
  5
213
100
AcDbSymbolTableRecord
100
AcDbLayerTableRecord
  2
_BLACK_HOLE
 70
0
 62
7
  6
CONTINUOUS
370
-3
390
F
  0
ENDTAB
  0
TABLE
  2
STYLE
  5
3
100
AcDbSymbolTable
 70
1
  0
STYLE
  5
11
100
AcDbSymbolTableRecord
100
AcDbTextStyleTableRecord
  2
STANDARD
 70
0
 40
0.0
 41
0.8
 50
0.0
 71
0
 42
0.2
  3
txt
  4

  0
STYLE
  5
214
100
AcDbSymbolTableRecord
100
AcDbTextStyleTableRecord
  2
TEXTSTYLE_1
 70
0
 40
0.0
 41
0.8
 50
0.0
 71
0
 42
0.2
  3
gdt
  4

  0
ENDTAB
  0
TABLE
  2
VIEW
  5
6
100
AcDbSymbolTable
 70
0
  0
ENDTAB
  0
TABLE
  2
UCS
  5
7
100
AcDbSymbolTable
 70
0
  0
ENDTAB
  0
TABLE
  2
APPID
  5
9
100
AcDbSymbolTable
 70
1
  0
APPID
  5
215
100
AcDbSymbolTableRecord
100
AcDbRegAppTableRecord
  2
ACAD
 70
0
  0
ENDTAB
  0
TABLE
  2
BLOCK_RECORD
  5
1
100
AcDbSymbolTable
 70
0
  0
BLOCK_RECORD
  5
216
100
AcDbSymbolTableRecord
100
AcDbBlockTableRecord
  2
*Model_Space
  0
BLOCK_RECORD
  5
217
100
AcDbSymbolTableRecord
100
AcDbBlockTableRecord
  2
*Paper_Space
  0
BLOCK_RECORD
  5
218
100
AcDbSymbolTableRecord
100
AcDbBlockTableRecord
  2
_FILLED
  0
ENDTAB
  0
TABLE
  2
DIMSTYLE
  5
A
100
AcDbSymbolTable
 70
1
100
AcDbDimStyleTable
 71
0
  0
DIMSTYLE
105
219
100
AcDbSymbolTableRecord
100
AcDbDimStyleTableRecord
  2
STANDARD
 70
0
  3

  4

 40
1.0
 41
1.2817783866
 42
1.0
 43
0.38
 44
1.0
 45
0.0
 46
0.0
 47
0.01
 48
0.01
140
1.7944897413
141
0.09
142
0.0
143
25.4
144
1.0
145
0.0
146
1.0
147
0.625
 71
1
 72
0
 73
0
 74
0
 75
0
 76
0
 77
1
 78
8
 79
2
170
0
171
1
172
0
173
0
174
0
175
0
176
0
177
0
178
0
270
2
179
2
271
2
272
2
273
2
274
2
275
0
280
0
281
0
282
0
283
1
284
8
285
0
286
0
287
3
288
0
340
11
278
46
341
218
342
218
343
218
344
218
  0
ENDTAB
  0
ENDSEC
  0
SECTION
  2
BLOCKS
  0
BLOCK
  5
20
100
AcDbEntity
  8
0
100
AcDbBlockBegin
  2
*Model_Space
 70
0
 10
0.0
 20
0.0
 30
0.0
  3
*Model_Space
  1

  0
ENDBLK
  5
21
100
AcDbEntity
  8
0
100
AcDbBlockEnd
  0
BLOCK
  5
1C
100
AcDbEntity
  8
0
100
AcDbBlockBegin
  2
*Paper_Space
 70
0
 10
0.0
 20
0.0
 30
0.0
  3
*Paper_Space
  1

  0
ENDBLK
  5
1D
100
AcDbEntity
  8
0
100
AcDbBlockEnd
  0
BLOCK
  5
21A
100
AcDbEntity
  8
0
100
AcDbBlockBegin
  2
_FILLED
 70
64
 10
0.0
 20
0.0
  3
_FILLED
  1

  0
SOLID
  5
21B
100
AcDbEntity
  8
0
  6
BYBLOCK
 62
0
100
AcDbTrace
 10
0.0
 20
0.0
 11
-1.0
 21
0.25
 12
-1.0
 22
-0.25
 13
-1.0
 23
-0.25
  0
ENDBLK
  5
21C
100
AcDbEntity
  8
0
  6
BYBLOCK
 62
0
100
AcDbBlockEnd
  0
ENDSEC
  0
SECTION
  2
ENTITIES
  0
LINE
  5
21D
100
AcDbEntity
  8
00_COMPONENTS_1
100
AcDbLine
 62
7
  6
CONTINUOUS
 10
12.5507597764
 20
118.2161516701
 11
12.5507597764
 21
95.5161755126
  0
LINE
  5
21E
100
AcDbEntity
  8
00_COMPONENTS_1
100
AcDbLine
 62
7
  6
CONTINUOUS
 10
12.5507597764
 20
60.7654491289
 11
12.5507597764
 21
54.8661755126
  0
LINE
  5
21F
100
AcDbEntity
  8
00_COMPONENTS_1
100
AcDbLine
 62
7
  6
CONTINUOUS
 10
12.5507597764
 20
53.3661755126
 11
12.5507597764
 21
41.2661755126
  0
LINE
  5
220
100
AcDbEntity
  8
INTFCLR_18
100
AcDbLine
 62
7
420
3368703
  6
CONTINUOUS
 10
12.5507597764
 20
34.3818637031
 11
12.5507597764
 21
118.2661755126
  0
LINE
  5
221
100
AcDbEntity
  8
00_COMPONENTS_1
100
AcDbLine
 62
7
  6
CONTINUOUS
 10
14.0507597764
 20
54.3661755126
 11
14.0507597764
 21
54.2661755126
  0
LINE
  5
222
100
AcDbEntity
  8
INTFCLR_18
100
AcDbLine
 62
7
420
3368703
  6
CONTINUOUS
 10
18.0507597764
 20
95.5161755126
 11
18.212298238
 21
96.4161755126
  0
LINE
  5
223
100
AcDbEntity
  8
00_COMPONENTS_1
100
AcDbLine
 62
7
  6
CONTINUOUS
 10
18.0548303071
 20
95.5617265347
 11
18.212298238
 21
96.4161755126
  0
LINE
  5
224
100
AcDbEntity
  8
03_AXES_1
100
AcDbLine
 62
2
  6
CONTINUOUS
 10
16.2507597764
 20
115.6535671003
 11
16.2507597764
 21
116.3154593421
  0
LINE
  5
225
100
AcDbEntity
  8
INTFCLR_18
100
AcDbLine
 62
7
420
3368703
  6
CONTINUOUS
 10
16.7507597764
 20
62.8161755126
 11
16.7507597764
 21
61.4161755126
  0
LINE
  5
226
100
AcDbEntity
  8
00_COMPONENTS_1
100
AcDbLine
 62
7
  6
CONTINUOUS
 10
16.7507597764
 20
61.4161755126
 11
16.7507597764
 21
62.8161755126
  0
LINE
  5
227
100
AcDbEntity
  8
00_COMPONENTS_1
100
AcDbLine
 62
7
  6
CONTINUOUS
 10
17.0507597764
 20
95.5161755126
 11
17.0507597764
 21
99.4161755126
  0
LINE
  5
228
100
AcDbEntity
  8
INTFCLR_18
100
AcDbLine
 62
7
420
3368703
  6
CONTINUOUS
 10
18.0507597764
 20
61.4161755126
 11
18.0507597764
 21
95.5661755126
  0
LINE
  5
229
100
AcDbEntity
  8
00_COMPONENTS_1
100
AcDbLine
 62
7
  6
CONTINUOUS
 10
18.7507597764
 20
99.4161755126
 11
18.7507597764
 21
96.4161755126
  0
LINE
  5
22A
100
AcDbEntity
  8
INTFCLR_18
100
AcDbLine
 62
7
420
3368703
  6
CONTINUOUS
 10
18.7507597764
 20
96.4161755126
 11
18.7507597764
 21
99.4161755126
  0
LINE
  5
22B
100
AcDbEntity
  8
INTFCLR_18
100
AcDbLine
 62
7
420
3368703
  6
CONTINUOUS
 10
19.5507597764
 20
118.2661755126
 11
19.5507597764
 21
41.2661755126
  0
LINE
  5
22C
100
AcDbEntity
  8
00_COMPONENTS_1
100
AcDbLine
 62
7
  6
CONTINUOUS
 10
19.5507597764
 20
41.2661755126
 11
19.5507597764
 21
61.2161755121
  0
LINE
  5
22D
100
AcDbEntity
  8
00_COMPONENTS_1
100
AcDbLine
 62
7
  6
CONTINUOUS
 10
19.5507597764
 20
98.2161755121
 11
19.5507597764
 21
118.2161516701
  0
LINE
  5
22E
100
AcDbEntity
  8
00_COMPONENTS_1
100
AcDbLine
 62
7
  6
CONTINUOUS
 10
18.0507597764
 20
61.4161755126
 11
18.0548303071
 21
95.5617265347
  0
LINE
  5
22F
100
AcDbEntity
  8
00_COMPONENTS_1
100
AcDbLine
 62
7
  6
CONTINUOUS
 10
16.3507597764
 20
63.2161755126
 11
16.7507597764
 21
62.8161755126
  0
LINE
  5
230
100
AcDbEntity
  8
INTFCLR_18
100
AcDbLine
 62
7
420
3368703
  6
CONTINUOUS
 10
16.3507597764
 20
63.2161755126
 11
16.7507597764
 21
62.8161755126
  0
LINE
  5
231
100
AcDbEntity
  8
00_COMPONENTS_1
100
AcDbLine
 62
7
  6
CONTINUOUS
 10
19.5507597764
 20
41.2661755126
 11
12.5507597764
 21
41.2661755126
  0
LINE
  5
232
100
AcDbEntity
  8
INTFCLR_18
100
AcDbLine
 62
7
420
3368703
  6
CONTINUOUS
 10
19.5507597764
 20
41.2661755126
 11
12.5507597764
 21
41.2661755126
  0
LINE
  5
233
100
AcDbEntity
  8
00_COMPONENTS_1
100
AcDbLine
 62
7
  6
CONTINUOUS
 10
19.5507597764
 20
41.9459274037
 11
12.5507597764
 21
41.9459274037
  0
LINE
  5
234
100
AcDbEntity
  8
INTFCLR_18
100
AcDbLine
 62
7
420
3368703
  6
CONTINUOUS
 10
76.5998686845
 20
43.7161755126
 11
41.5507597764
 21
43.7161755126
  0
LINE
  5
235
100
AcDbEntity
  8
00_COMPONENTS_1
100
AcDbLine
 62
7
  6
CONTINUOUS
 10
41.5507597764
 20
43.7161755126
 11
76.5997160742
 21
43.7161755126
  0
LINE
  5
236
100
AcDbEntity
  8
00_COMPONENTS_1
100
AcDbLine
 62
7
  6
CONTINUOUS
 10
12.5507597764
 20
43.7999770255
 11
19.5507597764
 21
43.7999770255
  0
LINE
  5
237
100
AcDbEntity
  8
00_COMPONENTS_1
100
AcDbLine
 62
7
  6
CONTINUOUS
 10
41.5507597764
 20
46.7661755126
 11
19.5507597764
 21
46.7661755126
  0
LINE
  5
238
100
AcDbEntity
  8
INTFCLR_18
100
AcDbLine
 62
7
420
3368703
  6
CONTINUOUS
 10
41.5507597764
 20
46.7661755126
 11
19.5507597764
 21
46.7661755126
  0
LINE
  5
239
100
AcDbEntity
  8
00_COMPONENTS_1
100
AcDbLine
 62
7
  6
CONTINUOUS
 10
19.5507597764
 20
48.7161755121
 11
41.5507597764
 21
48.7161755121
  0
LINE
  5
23A
100
AcDbEntity
  8
00_COMPONENTS_1
100
AcDbLine
 62
7
  6
CONTINUOUS
 10
28.5507597764
 20
112.7158509328
 11
28.5507597764
 21
111.8380974331
  0
LINE
  5
23B
100
AcDbEntity
  8
03_AXES_1
100
AcDbLine
 62
2
  6
CONTINUOUS
 10
75.4313012632
 20
49.2161755126
 11
76.141848204
 21
49.2161755126
  0
LINE
  5
23C
100
AcDbEntity
  8
03_AXES_1
100
AcDbLine
 62
2
  6
CONTINUOUS
 10
76.5581457915
 20
49.2161755126
 11
76.5997972586
 21
49.2161755126
  0
LINE
  5
23D
100
AcDbEntity
  8
INTFCLR_18
100
AcDbLine
 62
7
420
3368703
  6
CONTINUOUS
 10
91.3007597764
 20
53.0661755126
 11
76.5998686845
 21
53.0661755126
  0
LINE
  5
23E
100
AcDbEntity
  8
INTFCLR_18
100
AcDbLine
 62
7
420
3368703
  6
CONTINUOUS
 10
91.3007597764
 20
53.7561755126
 11
89.3007598376
 21
53.7561755126
  0
LINE
  5
23F
100
AcDbEntity
  8
00_COMPONENTS_1
100
AcDbLine
 62
7
  6
CONTINUOUS
 10
74.6007597764
 20
53.7561755126
 11
91.1007544738
 21
53.7561755126
  0
LINE
  5
240
100
AcDbEntity
  8
00_COMPONENTS_1
100
AcDbLine
 62
7
  6
CONTINUOUS
 10
13.5507597764
 20
53.7661755126
 11
12.9507597764
 21
53.7661755126
  0
LINE
  5
241
100
AcDbEntity
  8
00_COMPONENTS_1
100
AcDbLine
 62
7
  6
CONTINUOUS
 10
13.5507597764
 20
54.8661755126
 11
12.5507597764
 21
54.8661755126
  0
LINE
  5
242
100
AcDbEntity
  8
03_AXES_1
100
AcDbLine
 62
2
  6
CONTINUOUS
 10
90.8695900913
 20
60.5661755126
 11
91.0921961487
 21
60.5661755126
  0
LINE
  5
243
100
AcDbEntity
  8
00_COMPONENTS_1
100
AcDbLine
 62
7
  6
CONTINUOUS
 10
17.4507597764
 20
60.8161755126
 11
17.3507597764
 21
60.8161755126
  0
LINE
  5
244
100
AcDbEntity
  8
INTFCLR_18
100
AcDbLine
 62
7
420
3368703
  6
CONTINUOUS
 10
17.3507597764
 20
60.8161755126
 11
17.4507597764
 21
60.8161755126
  0
LINE
  5
245
100
AcDbEntity
  8
INTFCLR_18
100
AcDbLine
 62
7
420
3368703
  6
CONTINUOUS
 10
41.5507597764
 20
43.7161755126
 11
41.5507597764
 21
46.7661755126
  0
LINE
  5
246
100
AcDbEntity
  8
00_COMPONENTS_1
100
AcDbLine
 62
7
  6
CONTINUOUS
 10
41.5507597764
 20
43.7161755126
 11
41.5507597764
 21
61.2161755121
  0
LINE
  5
247
100
AcDbEntity
  8
00_COMPONENTS_1
100
AcDbLine
 62
7
  6
CONTINUOUS
 10
41.5507597764
 20
98.2161755121
 11
41.5507597764
 21
115.6661755126
  0
LINE
  5
248
100
AcDbEntity
  8
INTFCLR_18
100
AcDbLine
 62
7
420
3368703
  6
CONTINUOUS
 10
41.5507597764
 20
112.7751285823
 11
41.5507597764
 21
115.6661755126
  0
LINE
  5
249
100
AcDbEntity
  8
00_COMPONENTS_1
100
AcDbLine
 62
7
  6
CONTINUOUS
 10
12.5507597764
 20
53.3661755126
 11
12.9507597764
 21
53.7661755126
  0
LINE
  5
24A
100
AcDbEntity
  8
00_COMPONENTS_1
100
AcDbLine
 62
7
  6
CONTINUOUS
 10
12.5507597764
 20
60.7654491289
 11
16.0507597764
 21
63.2161755126
  0
LINE
  5
24B
100
AcDbEntity
  8
INTFCLR_18
100
AcDbLine
 62
7
420
3368703
  6
CONTINUOUS
 10
12.5507597764
 20
60.7654491289
 11
16.0507597764
 21
63.2161755126
  0
LINE
  5
24C
100
AcDbEntity
  8
00_COMPONENTS_1
100
AcDbLine
 62
7
  6
CONTINUOUS
 10
41.5507597764
 20
61.2161755121
 11
19.5507597764
 21
61.2161755121
  0
LINE
  5
24D
100
AcDbEntity
  8
00_COMPONENTS_1
100
AcDbLine
 62
7
  6
CONTINUOUS
 10
16.7507597764
 20
62.2161755126
 11
18.0507597764
 21
62.2161755126
  0
LINE
  5
24E
100
AcDbEntity
  8
00_COMPONENTS_1
100
AcDbLine
 62
7
  6
CONTINUOUS
 10
16.3507597764
 20
63.2161755126
 11
16.0507597764
 21
63.2161755126
  0
LINE
  5
24F
100
AcDbEntity
  8
INTFCLR_18
100
AcDbLine
 62
7
420
3368703
  6
CONTINUOUS
 10
16.0507597764
 20
63.2161755126
 11
16.3507597764
 21
63.2161755126
  0
LINE
  5
250
100
AcDbEntity
  8
INTFCLR_18
100
AcDbLine
 62
7
420
3368703
  6
CONTINUOUS
 10
12.5507597764
 20
63.2661755126
 11
18.0507597764
 21
63.2661755126
  0
LINE
  5
251
100
AcDbEntity
  8
00_COMPONENTS_1
100
AcDbLine
 62
7
  6
CONTINUOUS
 10
89.3007597764
 20
64.8561755126
 11
91.3007597764
 21
64.8561755126
  0
LINE
  5
252
100
AcDbEntity
  8
00_COMPONENTS_1
100
AcDbLine
 62
7
  6
CONTINUOUS
 10
13.5507597764
 20
99.4161755126
 11
12.5507597764
 21
100.4161755126
  0
LINE
  5
253
100
AcDbEntity
  8
INTFCLR_18
100
AcDbLine
 62
7
420
3368703
  6
CONTINUOUS
 10
13.5507597764
 20
99.4161755126
 11
12.5507597764
 21
100.4161755126
  0
LINE
  5
254
100
AcDbEntity
  8
00_COMPONENTS_1
100
AcDbLine
 62
7
  6
CONTINUOUS
 10
98.1007597764
 20
65.1661755126
 11
91.4007597764
 21
65.1661755126
  0
LINE
  5
255
100
AcDbEntity
  8
00_COMPONENTS_1
100
AcDbLine
 62
7
  6
CONTINUOUS
 10
91.4007597764
 20
69.1661755126
 11
98.1007597764
 21
69.1661755126
  0
LINE
  5
256
100
AcDbEntity
  8
00_COMPONENTS_1
100
AcDbLine
 62
7
  6
CONTINUOUS
 10
98.1007597764
 20
90.5161755126
 11
91.4007597764
 21
90.5161755126
  0
LINE
  5
257
100
AcDbEntity
  8
00_COMPONENTS_1
100
AcDbLine
 62
7
  6
CONTINUOUS
 10
74.6007597764
 20
43.7161755126
 11
74.6007597764
 21
53.7561755126
  0
LINE
  5
258
100
AcDbEntity
  8
00_COMPONENTS_1
100
AcDbLine
 62
7
  6
CONTINUOUS
 10
74.6007597764
 20
105.6161755126
 11
74.6007597764
 21
115.6661755126
  0
LINE
  5
259
100
AcDbEntity
  8
00_COMPONENTS_1
100
AcDbLine
 62
7
  6
CONTINUOUS
 10
89.3007597764
 20
94.5161755126
 11
91.3007597764
 21
94.5161755126
  0
LINE
  5
25A
100
AcDbEntity
  8
00_COMPONENTS_1
100
AcDbLine
 62
7
  6
CONTINUOUS
 10
91.4007597764
 20
94.5161755126
 11
98.1007597764
 21
94.5161755126
  0
LINE
  5
25B
100
AcDbEntity
  8
00_COMPONENTS_1
100
AcDbLine
 62
7
  6
CONTINUOUS
 10
17.0507597764
 20
95.5161755126
 11
12.5507597764
 21
95.5161755126
  0
LINE
  5
25C
100
AcDbEntity
  8
INTFCLR_18
100
AcDbLine
 62
7
420
3368703
  6
CONTINUOUS
 10
18.0507597764
 20
95.5661755126
 11
12.5507597764
 21
95.5661755126
  0
LINE
  5
25D
100
AcDbEntity
  8
00_COMPONENTS_1
100
AcDbLine
 62
7
  6
CONTINUOUS
 10
18.7507597764
 20
96.4161755126
 11
18.212298238
 21
96.4161755126
  0
LINE
  5
25E
100
AcDbEntity
  8
INTFCLR_18
100
AcDbLine
 62
7
420
3368703
  6
CONTINUOUS
 10
18.212298238
 20
96.4161755126
 11
18.7507597764
 21
96.4161755126
  0
LINE
  5
25F
100
AcDbEntity
  8
00_COMPONENTS_1
100
AcDbLine
 62
7
  6
CONTINUOUS
 10
76.5997959247
 20
43.7161755126
 11
76.5997959247
 21
46.0165044583
  0
LINE
  5
260
100
AcDbEntity
  8
00_COMPONENTS_1
100
AcDbLine
 62
7
  6
CONTINUOUS
 10
76.5997959247
 20
52.415846567
 11
76.5997959247
 21
53.7561755126
  0
LINE
  5
261
100
AcDbEntity
  8
00_COMPONENTS_1
100
AcDbLine
 62
7
  6
CONTINUOUS
 10
76.5997959247
 20
105.6161755126
 11
76.5997959247
 21
107.0165044583
  0
LINE
  5
262
100
AcDbEntity
  8
00_COMPONENTS_1
100
AcDbLine
 62
7
  6
CONTINUOUS
 10
76.5997959247
 20
113.415846567
 11
76.5997959247
 21
115.6661755126
  0
LINE
  5
263
100
AcDbEntity
  8
INTFCLR_18
100
AcDbLine
 62
7
420
3368703
  6
CONTINUOUS
 10
76.5998686845
 20
53.0661755126
 11
76.5998686845
 21
43.7161755126
  0
LINE
  5
264
100
AcDbEntity
  8
INTFCLR_18
100
AcDbLine
 62
7
420
3368703
  6
CONTINUOUS
 10
76.6050176054
 20
115.6661755126
 11
76.6050176054
 21
106.6661755126
  0
LINE
  5
265
100
AcDbEntity
  8
INTFCLR_18
100
AcDbLine
 62
7
420
3368703
  6
CONTINUOUS
 10
76.6050176054
 20
52.415846567
 11
76.6050176054
 21
46.0161755126
  0
LINE
  5
266
100
AcDbEntity
  8
00_COMPONENTS_1
100
AcDbLine
 62
7
  6
CONTINUOUS
 10
41.5507597764
 20
98.2161755121
 11
19.5507597764
 21
98.2161755121
  0
LINE
  5
267
100
AcDbEntity
  8
03_AXES_1
100
AcDbLine
 62
2
  6
CONTINUOUS
 10
90.8695900913
 20
99.1661755126
 11
91.0921961487
 21
99.1661755126
  0
LINE
  5
268
100
AcDbEntity
  8
INTFCLR_18
100
AcDbLine
 62
7
420
3368703
  6
CONTINUOUS
 10
18.7507597764
 20
99.4161755126
 11
13.5507597764
 21
99.4161755126
  0
LINE
  5
269
100
AcDbEntity
  8
00_COMPONENTS_1
100
AcDbLine
 62
7
  6
CONTINUOUS
 10
13.5507597764
 20
99.4161755126
 11
18.7507597764
 21
99.4161755126
  0
LINE
  5
26A
100
AcDbEntity
  8
00_COMPONENTS_1
100
AcDbLine
 62
7
  6
CONTINUOUS
 10
91.1007544738
 20
105.6161755126
 11
74.6007597764
 21
105.6161755126
  0
LINE
  5
26B
100
AcDbEntity
  8
INTFCLR_18
100
AcDbLine
 62
7
420
3368703
  6
CONTINUOUS
 10
76.6050176054
 20
106.6661755126
 11
91.3007597764
 21
106.6661755126
  0
LINE
  5
26C
100
AcDbEntity
  8
00_COMPONENTS_1
100
AcDbLine
 62
7
  6
CONTINUOUS
 10
89.3007597764
 20
53.7561755126
 11
89.3007597764
 21
64.8561755126
  0
LINE
  5
26D
100
AcDbEntity
  8
00_COMPONENTS_1
100
AcDbLine
 62
7
  6
CONTINUOUS
 10
89.3007597764
 20
94.5161755126
 11
89.3007597764
 21
105.6161755126
  0
LINE
  5
26E
100
AcDbEntity
  8
00_COMPONENTS_1
100
AcDbLine
 62
7
  6
CONTINUOUS
 10
91.1007597764
 20
105.6161755126
 11
91.1007597764
 21
94.5161755126
  0
LINE
  5
26F
100
AcDbEntity
  8
00_COMPONENTS_1
100
AcDbLine
 62
7
  6
CONTINUOUS
 10
91.1007597764
 20
64.8561755126
 11
91.1007597764
 21
53.7561755126
  0
LINE
  5
270
100
AcDbEntity
  8
INTFCLR_18
100
AcDbLine
 62
7
420
3368703
  6
CONTINUOUS
 10
91.3007597764
 20
106.6661755126
 11
91.3007597764
 21
53.0661755126
  0
LINE
  5
271
100
AcDbEntity
  8
00_COMPONENTS_1
100
AcDbLine
 62
7
  6
CONTINUOUS
 10
91.3007597764
 20
64.8561755126
 11
91.3007597764
 21
94.5161755126
  0
LINE
  5
272
100
AcDbEntity
  8
00_COMPONENTS_1
100
AcDbLine
 62
7
  6
CONTINUOUS
 10
91.4007597764
 20
65.1661755126
 11
91.4007597764
 21
94.5161755126
  0
LINE
  5
273
100
AcDbEntity
  8
03_AXES_1
100
AcDbLine
 62
2
  6
CONTINUOUS
 10
75.4351390164
 20
110.2161755126
 11
76.1394506926
 21
110.2161755126
  0
LINE
  5
274
100
AcDbEntity
  8
03_AXES_1
100
AcDbLine
 62
2
  6
CONTINUOUS
 10
76.5581457915
 20
110.2161755126
 11
76.5997952223
 21
110.2161755126
  0
LINE
  5
275
100
AcDbEntity
  8
00_COMPONENTS_1
100
AcDbLine
 62
7
  6
CONTINUOUS
 10
41.5507597764
 20
110.7161755121
 11
19.5507597764
 21
110.7161755121
  0
LINE
  5
276
100
AcDbEntity
  8
00_COMPONENTS_1
100
AcDbLine
 62
7
  6
CONTINUOUS
 10
19.5507597764
 20
111.8380974332
 11
28.5507597764
 21
111.8380974332
  0
LINE
  5
277
100
AcDbEntity
  8
00_COMPONENTS_1
100
AcDbLine
 62
7
  6
CONTINUOUS
 10
19.5507597764
 20
112.0012337911
 11
12.5507597764
 21
112.0012337911
  0
LINE
  5
278
100
AcDbEntity
  8
00_COMPONENTS_1
100
AcDbLine
 62
7
  6
CONTINUOUS
 10
28.5507597764
 20
112.7161755122
 11
41.5507597764
 21
112.7161755122
  0
LINE
  5
279
100
AcDbEntity
  8
INTFCLR_18
100
AcDbLine
 62
7
420
3368703
  6
CONTINUOUS
 10
19.5507597764
 20
112.7751285823
 11
41.5507597764
 21
112.7751285823
  0
LINE
  5
27A
100
AcDbEntity
  8
00_COMPONENTS_1
100
AcDbLine
 62
7
  6
CONTINUOUS
 10
12.5507597764
 20
113.9316199008
 11
19.5507597764
 21
113.9316199008
  0
LINE
  5
27B
100
AcDbEntity
  8
00_COMPONENTS_1
100
AcDbLine
 62
7
  6
CONTINUOUS
 10
76.5997160742
 20
115.6661755126
 11
41.5507597764
 21
115.6661755126
  0
LINE
  5
27C
100
AcDbEntity
  8
INTFCLR_18
100
AcDbLine
 62
7
420
3368703
  6
CONTINUOUS
 10
41.5507597764
 20
115.6661755126
 11
91.3007597764
 21
115.6661755126
  0
LINE
  5
27D
100
AcDbEntity
  8
00_COMPONENTS_1
100
AcDbLine
 62
7
  6
CONTINUOUS
 10
12.5507597764
 20
116.7161755126
 11
19.5507597764
 21
116.7161755126
  0
LINE
  5
27E
100
AcDbEntity
  8
00_COMPONENTS_1
100
AcDbLine
 62
7
  6
CONTINUOUS
 10
98.1007597764
 20
65.1661755126
 11
98.1007597764
 21
94.5161755126
  0
LINE
  5
27F
100
AcDbEntity
  8
00_COMPONENTS_1
100
AcDbLine
 62
7
  6
CONTINUOUS
 10
19.5507597764
 20
117.0452460952
 11
12.5507597764
 21
117.0452460952
  0
LINE
  5
280
100
AcDbEntity
  8
00_COMPONENTS_1
100
AcDbLine
 62
7
  6
CONTINUOUS
 10
12.5507597764
 20
118.0025137409
 11
19.5507597764
 21
118.0025137409
  0
LINE
  5
281
100
AcDbEntity
  8
00_COMPONENTS_1
100
AcDbLine
 62
7
  6
CONTINUOUS
 10
12.5507597764
 20
118.2161755126
 11
19.5507597764
 21
118.2161755126
  0
LINE
  5
282
100
AcDbEntity
  8
INTFCLR_18
100
AcDbLine
 62
7
420
3368703
  6
CONTINUOUS
 10
12.5507597764
 20
118.2661755126
 11
19.5507597764
 21
118.2661755126
  0
ARC
  5
283
100
AcDbEntity
  8
00_COMPONENTS_1
100
AcDbCircle
 62
7
  6
CONTINUOUS
 10
17.3507597764
 20
61.4161755126
 40
0.6
100
AcDbArc
 50
180.0
 51
270.0
  0
ARC
  5
284
100
AcDbEntity
  8
00_COMPONENTS_1
100
AcDbCircle
 62
7
  6
CONTINUOUS
 10
17.4507597764
 20
61.4161755126
 40
0.6
100
AcDbArc
 50
270.0
 51
359.9999999998
  0
ARC
  5
285
100
AcDbEntity
  8
INTFCLR_18
100
AcDbCircle
 62
7
420
3368703
  6
CONTINUOUS
 10
17.3507597764
 20
61.4161755126
 40
0.6
100
AcDbArc
 50
180.0
 51
270.0
  0
ARC
  5
286
100
AcDbEntity
  8
INTFCLR_18
100
AcDbCircle
 62
7
420
3368703
  6
CONTINUOUS
 10
17.4507597764
 20
61.4161755126
 40
0.6
100
AcDbArc
 50
270.0
 51
360.0
  0
ARC
  5
287
100
AcDbEntity
  8
00_COMPONENTS_1
100
AcDbCircle
 62
7
  6
CONTINUOUS
 10
13.5507597764
 20
54.2661755126
 40
0.5
100
AcDbArc
 50
270.0
 51
360.0
  0
ARC
  5
288
100
AcDbEntity
  8
00_COMPONENTS_1
100
AcDbCircle
 62
7
  6
CONTINUOUS
 10
13.5507597764
 20
54.3661755126
 40
0.5
100
AcDbArc
 50
0.0
 51
90.0
  0
SPLINE
  5
289
100
AcDbEntity
  8
00_COMPONENTS_1
100
AcDbSpline
 62
7
  6
CONTINUOUS
 70
0
 71
3
 72
22
 73
18
 74
0
 42
0.0000001
 43
0.0000001
 44
0.0000000001
 40
0.0
 40
0.0
 40
0.0
 40
0.0
 40
0.002082846
 40
0.0060828
 40
0.0123362546
 40
0.0209038561
 40
0.0449615261
 40
0.0781220837
 40
0.1201133853
 40
0.1705229934
 40
0.2289005521
 40
0.2946739311
 40
0.367223354
 40
0.4458607924
 40
0.6182835773
 40
0.8054531588
 40
1.0
 40
1.0
 40
1.0
 40
1.0
 10
91.0186101217
 20
63.8161063015
 30
0.0
 10
91.0163467978
 20
63.8161030873
 30
0.0
 10
91.0110281486
 20
63.8104422555
 30
0.0
 10
91.0064040944
 20
63.7983984301
 30
0.0
 10
91.0005072113
 20
63.7785180182
 30
0.0
 10
90.9919137435
 20
63.7372800424
 30
0.0
 10
90.9812718885
 20
63.666447322
 30
0.0
 10
90.9690849019
 20
63.559375042
 30
0.0
 10
90.9566348307
 20
63.4234743743
 30
0.0
 10
90.9442105191
 20
63.2601052062
 30
0.0
 10
90.9320583004
 20
63.0708025547
 30
0.0
 10
90.9204044971
 20
62.8573739477
 30
0.0
 10
90.9094860795
 20
62.6218642496
 30
0.0
 10
90.8957729359
 20
62.2704786141
 30
0.0
 10
90.8820806198
 20
61.7944584229
 30
0.0
 10
90.8719080462
 20
61.1923765295
 30
0.0
 10
90.8695900913
 20
60.7775799866
 30
0.0
 10
90.8695900913
 20
60.5661755126
 30
0.0
  0
SPLINE
  5
28A
100
AcDbEntity
  8
00_COMPONENTS_1
100
AcDbSpline
 62
7
  6
CONTINUOUS
 70
0
 71
3
 72
20
 73
16
 74
0
 42
0.0000001
 43
0.0000001
 44
0.0000000001
 40
0.0
 40
0.0
 40
0.0
 40
0.0
 40
0.0117301727
 40
0.0197179261
 40
0.0295490342
 40
0.0552120248
 40
0.0891899379
 40
0.131454927
 40
0.181720766
 40
0.2396177426
 40
0.3046496298
 40
0.4538048535
 40
0.6237497556
 40
0.8082167458
 40
1.0
 40
1.0
 40
1.0
 40
1.0
 10
75.8278032597
 20
52.416112837
 30
0.0
 10
75.8150313438
 20
52.4161028857
 30
0.0
 10
75.7942369548
 20
52.4045681691
 30
0.0
 10
75.7732257228
 20
52.3805281219
 30
0.0
 10
75.747236972
 20
52.3406373417
 30
0.0
 10
75.7167369987
 20
52.2711263072
 30
0.0
 10
75.6823510328
 20
52.1655505891
 30
0.0
 10
75.6485819358
 20
52.0319249736
 30
0.0
 10
75.6156939589
 20
51.8714380617
 30
0.0
 10
75.5842769119
 20
51.6854651351
 30
0.0
 10
75.5429831543
 20
51.3920811522
 30
0.0
 10
75.4993748922
 20
50.9759856199
 30
0.0
 10
75.4608801703
 20
50.4289691546
 30
0.0
 10
75.4367591974
 20
49.8346769694
 30
0.0
 10
75.4313012632
 20
49.4249908814
 30
0.0
 10
75.4313012632
 20
49.2161755126
 30
0.0
  0
SPLINE
  5
28B
100
AcDbEntity
  8
00_COMPONENTS_1
100
AcDbSpline
 62
7
  6
CONTINUOUS
 70
0
 71
3
 72
15
 73
11
 74
0
 42
0.0000001
 43
0.0000001
 44
0.0000000001
 40
0.0
 40
0.0
 40
0.0
 40
0.0
 40
0.0216480386
 40
0.046421425
 40
0.0802225052
 40
0.1734904583
 40
0.2979430395
 40
0.4488957568
 40
0.6205881275
 40
1.0
 40
1.0
 40
1.0
 40
1.0
 10
76.5997926017
 20
46.0165061578
 30
0.0
 10
76.5997809862
 20
46.0395972739
 30
0.0
 10
76.5979769606
 20
46.0890936478
 30
0.0
 10
76.5963194613
 20
46.1746441343
 30
0.0
 10
76.5924610827
 20
46.3365648845
 30
0.0
 10
76.5868321033
 20
46.6047929347
 30
0.0
 10
76.5793392573
 20
46.9979719898
 30
0.0
 10
76.5719341853
 20
47.4748172794
 30
0.0
 10
76.5632504028
 20
48.223625108
 30
0.0
 10
76.5604678298
 20
48.8114716563
 30
0.0
 10
76.5604678298
 20
49.2161755126
 30
0.0
  0
SPLINE
  5
28C
100
AcDbEntity
  8
00_COMPONENTS_1
100
AcDbSpline
 62
7
  6
CONTINUOUS
 70
0
 71
3
 72
20
 73
16
 74
0
 42
0.0000001
 43
0.0000001
 44
0.0000000001
 40
0.0
 40
0.0
 40
0.0
 40
0.0
 40
0.0117356756
 40
0.0197247665
 40
0.0295497324
 40
0.0552137062
 40
0.0892088761
 40
0.1314555994
 40
0.1817237042
 40
0.2396224138
 40
0.3046540942
 40
0.4538118935
 40
0.6237436282
 40
0.808245022
 40
1.0
 40
1.0
 40
1.0
 40
1.0
 10
75.8278174472
 20
107.0442382982
 30
0.0
 10
75.8151516234
 20
107.0442383132
 30
0.0
 10
75.7945477883
 20
107.0557267898
 30
0.0
 10
75.7737212722
 20
107.0795457143
 30
0.0
 10
75.7479434939
 20
107.1190746234
 30
0.0
 10
75.7177263946
 20
107.187998157
 30
0.0
 10
75.6836757251
 20
107.2926575674
 30
0.0
 10
75.6501966804
 20
107.4251109137
 30
0.0
 10
75.6176646563
 20
107.5841889146
 30
0.0
 10
75.5865768244
 20
107.7685432476
 30
0.0
 10
75.5457184867
 20
108.0593682026
 30
0.0
 10
75.5024839715
 20
108.471800145
 30
0.0
 10
75.4643938098
 20
109.0140500342
 30
0.0
 10
75.4405732839
 20
109.6031241036
 30
0.0
 10
75.4351390164
 20
110.0092223847
 30
0.0
 10
75.4351390164
 20
110.2161755126
 30
0.0
  0
SPLINE
  5
28D
100
AcDbEntity
  8
00_COMPONENTS_1
100
AcDbSpline
 62
7
  6
CONTINUOUS
 70
0
 71
3
 72
20
 73
16
 74
0
 42
0.0000001
 43
0.0000001
 44
0.0000000001
 40
0.0
 40
0.0
 40
0.0
 40
0.0
 40
0.0117293152
 40
0.019731131
 40
0.0295837122
 40
0.0552901589
 40
0.0892728368
 40
0.1314815179
 40
0.1816840803
 40
0.2395592741
 40
0.3046014824
 40
0.4538060458
 40
0.6237564955
 40
0.8082153961
 40
1.0
 40
1.0
 40
1.0
 40
1.0
 10
75.827803354
 20
113.388224345
 30
0.0
 10
75.8151441559
 20
113.3882345346
 30
0.0
 10
75.7945097723
 20
113.3767656151
 30
0.0
 10
75.7737192402
 20
113.3528589991
 30
0.0
 10
75.7479828723
 20
113.3131990588
 30
0.0
 10
75.7177962611
 20
113.2441986965
 30
0.0
 10
75.6837278226
 20
113.1395525005
 30
0.0
 10
75.6502409807
 20
113.0072282143
 30
0.0
 10
75.6176509491
 20
112.8482988956
 30
0.0
 10
75.5865488915
 20
112.6640285541
 30
0.0
 10
75.5456785455
 20
112.3731623987
 30
0.0
 10
75.5025535469
 20
111.9606279345
 30
0.0
 10
75.4644357068
 20
111.4183470756
 30
0.0
 10
75.4405328962
 20
110.829257581
 30
0.0
 10
75.4351390164
 20
110.4231645863
 30
0.0
 10
75.4351390164
 20
110.2161755126
 30
0.0
  0
SPLINE
  5
28E
100
AcDbEntity
  8
00_COMPONENTS_1
100
AcDbSpline
 62
7
  6
CONTINUOUS
 70
0
 71
3
 72
15
 73
11
 74
0
 42
0.0000001
 43
0.0000001
 44
0.0000000001
 40
0.0
 40
0.0
 40
0.0
 40
0.0
 40
0.0213688216
 40
0.0459501812
 40
0.0797217117
 40
0.1732666322
 40
0.2977508613
 40
0.448760374
 40
0.6205484999
 40
1.0
 40
1.0
 40
1.0
 40
1.0
 10
76.5997947677
 20
113.4149288752
 30
0.0
 10
76.5998023373
 20
113.3921421099
 30
0.0
 10
76.5979609724
 20
113.3431628139
 30
0.0
 10
76.596316618
 20
113.2581710036
 30
0.0
 10
76.5924534218
 20
113.0962374437
 30
0.0
 10
76.5868488515
 20
112.8277881571
 30
0.0
 10
76.5793288546
 20
112.4343324055
 30
0.0
 10
76.571937846
 20
111.9574269241
 30
0.0
 10
76.5632520218
 20
111.2086285201
 30
0.0
 10
76.5604678298
 20
110.6208058143
 30
0.0
 10
76.5604678298
 20
110.2161755126
 30
0.0
  0
SPLINE
  5
28F
100
AcDbEntity
  8
00_COMPONENTS_1
100
AcDbSpline
 62
7
  6
CONTINUOUS
 70
0
 71
3
 72
22
 73
18
 74
0
 42
0.0000001
 43
0.0000001
 44
0.0000000001
 40
0.0
 40
0.0
 40
0.0
 40
0.0
 40
0.1945474941
 40
0.3817077999
 40
0.5541237131
 40
0.6327595573
 40
0.7053038736
 40
0.7710734532
 40
0.8294494433
 40
0.8798655594
 40
0.9218678717
 40
0.955037694
 40
0.9791023658
 40
0.9876710729
 40
0.993923233
 40
0.9979199161
 40
1.0
 40
1.0
 40
1.0
 40
1.0
 10
90.8695900913
 20
99.1661755126
 30
0.0
 10
90.8695900913
 20
98.9547698698
 30
0.0
 10
90.8719083202
 20
98.5399817973
 30
0.0
 10
90.8820806645
 20
97.9379154301
 30
0.0
 10
90.8957718051
 20
97.4619134731
 30
0.0
 10
90.9094816248
 20
97.110541699
 30
0.0
 10
90.9204003716
 20
96.8750429223
 30
0.0
 10
90.9320542851
 20
96.6616252528
 30
0.0
 10
90.9442075805
 20
96.4723210248
 30
0.0
 10
90.9566322288
 20
96.3089341363
 30
0.0
 10
90.9690821112
 20
96.1730039823
 30
0.0
 10
90.9812692143
 20
96.0659015334
 30
0.0
 10
90.9919123916
 20
95.9950499797
 30
0.0
 10
91.0005048558
 20
95.9538038761
 30
0.0
 10
91.0064041918
 20
95.9339283056
 30
0.0
 10
91.0110233969
 20
95.9218904816
 30
0.0
 10
91.0163497827
 20
95.9162419713
 30
0.0
 10
91.0186101097
 20
95.916245482
 30
0.0
  0
SPLINE
  5
290
100
AcDbEntity
  8
00_COMPONENTS_1
100
AcDbSpline
 62
7
  6
CONTINUOUS
 70
0
 71
3
 72
15
 73
11
 74
0
 42
0.0000001
 43
0.0000001
 44
0.0000000001
 40
0.0
 40
0.0
 40
0.0
 40
0.0
 40
0.3794477559
 40
0.5511606574
 40
0.7021090455
 40
0.8265841597
 40
0.9198739353
 40
0.953650567
 40
0.9783942896
 40
1.0
 40
1.0
 40
1.0
 40
1.0
 10
76.5604678298
 20
110.2161755126
 30
0.0
 10
76.5604678298
 20
109.811460401
 30
0.0
 10
76.5632514002
 20
109.223592936
 30
0.0
 10
76.5719332368
 20
108.4747795215
 30
0.0
 10
76.5793358856
 20
107.9979247317
 30
0.0
 10
76.5868305637
 20
107.6047292161
 30
0.0
 10
76.5924639749
 20
107.3364980421
 30
0.0
 10
76.5963232528
 20
107.1746224319
 30
0.0
 10
76.5979719487
 20
107.0891806148
 30
0.0
 10
76.5997980407
 20
107.039764309
 30
0.0
 10
76.5997934163
 20
107.0167198788
 30
0.0
  0
SPLINE
  5
291
100
AcDbEntity
  8
00_COMPONENTS_1
100
AcDbSpline
 62
7
  6
CONTINUOUS
 70
0
 71
3
 72
27
 73
23
 74
0
 42
0.0000001
 43
0.0000001
 44
0.0000000001
 40
0.0
 40
0.0
 40
0.0
 40
0.0
 40
0.0158556915
 40
0.0290705691
 40
0.0462603853
 40
0.0674633816
 40
0.0926314186
 40
0.1215853639
 40
0.1540373883
 40
0.2282284788
 40
0.3127698208
 40
0.4999882881
 40
0.687174455
 40
0.7717112215
 40
0.8459580845
 40
0.8784088885
 40
0.9073533658
 40
0.932522415
 40
0.9537390543
 40
0.9709415518
 40
0.9841560453
 40
1.0
 40
1.0
 40
1.0
 40
1.0
 10
13.7507597764
 20
116.0241196292
 30
0.0
 10
13.7507597764
 20
115.9969742739
 30
0.0
 10
13.7952892639
 20
115.9565182157
 30
0.0
 10
13.8627603981
 20
115.9212785821
 30
0.0
 10
13.9460834351
 20
115.8883668797
 30
0.0
 10
14.0499198702
 20
115.8569154705
 30
0.0
 10
14.1753243004
 20
115.8260828466
 30
0.0
 10
14.3205936533
 20
115.796725662
 30
0.0
 10
14.5495455781
 20
115.7580643838
 30
0.0
 10
14.8743881947
 20
115.7168694291
 30
0.0
 10
15.4646864544
 20
115.6669381716
 30
0.0
 10
16.2506549027
 20
115.6433623888
 30
0.0
 10
17.0366291354
 20
115.6668475156
 30
0.0
 10
17.62694195
 20
115.7169474512
 30
0.0
 10
17.9518887684
 20
115.7579996664
 30
0.0
 10
18.1809148532
 20
115.7966913071
 30
0.0
 10
18.3261604741
 20
115.8260839217
 30
0.0
 10
18.451566876
 20
115.8569406118
 30
0.0
 10
18.5554549176
 20
115.8883865919
 30
0.0
 10
18.6388266839
 20
115.9212825143
 30
0.0
 10
18.7063299668
 20
115.9564981967
 30
0.0
 10
18.7507597764
 20
115.9969943675
 30
0.0
 10
18.7507597764
 20
116.0241196292
 30
0.0
  0
SPLINE
  5
292
100
AcDbEntity
  8
00_COMPONENTS_1
100
AcDbSpline
 62
7
  6
CONTINUOUS
 70
0
 71
3
 72
22
 73
18
 74
0
 42
0.0000001
 43
0.0000001
 44
0.0000000001
 40
0.0
 40
0.0
 40
0.0
 40
0.0
 40
0.1945536971
 40
0.3817037027
 40
0.5541115065
 40
0.6327525463
 40
0.7053038173
 40
0.7710791865
 40
0.8294582717
 40
0.8798726293
 40
0.9218711282
 40
0.9550377452
 40
0.9790991737
 40
0.9876672608
 40
0.993920042
 40
0.9979184847
 40
1.0
 40
1.0
 40
1.0
 40
1.0
 10
90.8695900913
 20
99.1661755126
 30
0.0
 10
90.8695900913
 20
99.3775901531
 30
0.0
 10
90.8719159682
 20
99.7923781126
 30
0.0
 10
90.8820704475
 20
100.3944379425
 30
0.0
 10
90.8957759012
 20
100.8704303501
 30
0.0
 10
90.9095040776
 20
101.2218095326
 30
0.0
 10
90.9204212725
 20
101.4573303746
 30
0.0
 10
90.9320626394
 20
101.6707682304
 30
0.0
 10
90.9442053073
 20
101.8600829628
 30
0.0
 10
90.956630884
 20
102.0234688721
 30
0.0
 10
90.9690858445
 20
102.1593904844
 30
0.0
 10
90.9812738864
 20
102.2664826381
 30
0.0
 10
90.9919137662
 20
102.3373277974
 30
0.0
 10
91.0005042421
 20
102.3785709745
 30
0.0
 10
91.0064009484
 20
102.3984497686
 30
0.0
 10
91.0110219559
 20
102.4104909662
 30
0.0
 10
91.0163436541
 20
102.4161467971
 30
0.0
 10
91.0186055633
 20
102.4161470091
 30
0.0
  0
SPLINE
  5
293
100
AcDbEntity
  8
00_COMPONENTS_1
100
AcDbSpline
 62
7
  6
CONTINUOUS
 70
0
 71
3
 72
22
 73
18
 74
0
 42
0.0000001
 43
0.0000001
 44
0.0000000001
 40
0.0
 40
0.0
 40
0.0
 40
0.0
 40
0.194560045
 40
0.3817428034
 40
0.5541322167
 40
0.6327539498
 40
0.7053137492
 40
0.7711147297
 40
0.8295102957
 40
0.8799087656
 40
0.9218774085
 40
0.9550275569
 40
0.9790871057
 40
0.9876574549
 40
0.9939135703
 40
0.9979160225
 40
1.0
 40
1.0
 40
1.0
 40
1.0
 10
90.8695900913
 20
60.5661755126
 30
0.0
 10
90.8695900913
 20
60.3547555399
 30
0.0
 10
90.8719139873
 20
59.9399281332
 30
0.0
 10
90.8820740301
 20
59.3378503661
 30
0.0
 10
90.8957721385
 20
58.8618666703
 30
0.0
 10
90.9094975131
 20
58.5105216959
 30
0.0
 10
90.9204164201
 20
58.2749865374
 30
0.0
 10
90.9320636899
 20
58.0614955035
 30
0.0
 10
90.9442088754
 20
57.8721538008
 30
0.0
 10
90.9566346404
 20
57.7088010134
 30
0.0
 10
90.9690904714
 20
57.5729483128
 30
0.0
 10
90.9812792686
 20
57.4659099208
 30
0.0
 10
90.9919182513
 20
57.3950825667
 30
0.0
 10
91.0005092429
 20
57.3538362257
 30
0.0
 10
91.0064048981
 20
57.3339456253
 30
0.0
 10
91.0110291606
 20
57.3218960843
 30
0.0
 10
91.016345534
 20
57.3162269391
 30
0.0
 10
91.0186100964
 20
57.3162219144
 30
0.0
  0
SPLINE
  5
294
100
AcDbEntity
  8
00_COMPONENTS_1
100
AcDbSpline
 62
7
  6
CONTINUOUS
 70
0
 71
3
 72
20
 73
16
 74
0
 42
0.0000001
 43
0.0000001
 44
0.0000000001
 40
0.0
 40
0.0
 40
0.0
 40
0.0
 40
0.191770616
 40
0.3762215653
 40
0.5461642389
 40
0.6953552233
 40
0.760409179
 40
0.8182952671
 40
0.8685105731
 40
0.9107306207
 40
0.9447130399
 40
0.9704152072
 40
0.9802651524
 40
0.9882651379
 40
1.0
 40
1.0
 40
1.0
 40
1.0
 10
75.4313012632
 20
49.2161755126
 30
0.0
 10
75.4313012632
 20
49.0073665479
 30
0.0
 10
75.4367632309
 20
48.5976972538
 30
0.0
 10
75.4608927672
 20
48.0034181289
 30
0.0
 10
75.4993952367
 20
47.456363856
 30
0.0
 10
75.54299266
 20
47.0401919906
 30
0.0
 10
75.5842637345
 20
46.746742637
 30
0.0
 10
75.6156738593
 20
46.5608049027
 30
0.0
 10
75.6485839986
 20
46.4004340871
 30
0.0
 10
75.6823882584
 20
46.2669150996
 30
0.0
 10
75.7167812592
 20
46.1613399807
 30
0.0
 10
75.7472543082
 20
46.0917449406
 30
0.0
 10
75.7732276414
 20
46.0517495264
 30
0.0
 10
75.7942216405
 20
46.0276465112
 30
0.0
 10
75.8150257283
 20
46.0160614987
 30
0.0
 10
75.827803202
 20
46.0160541481
 30
0.0
  0
SPLINE
  5
295
100
AcDbEntity
  8
00_COMPONENTS_1
100
AcDbSpline
 62
7
  6
CONTINUOUS
 70
0
 71
3
 72
15
 73
11
 74
0
 42
0.0000001
 43
0.0000001
 44
0.0000000001
 40
0.0
 40
0.0
 40
0.0
 40
0.0
 40
0.379411207
 40
0.5511033225
 40
0.7020561575
 40
0.8265090846
 40
0.9197773317
 40
0.9535785288
 40
0.9783519487
 40
1.0
 40
1.0
 40
1.0
 40
1.0
 10
76.5604678298
 20
49.2161755126
 30
0.0
 10
76.5604678298
 20
49.6208786611
 30
0.0
 10
76.563250358
 20
50.2087242307
 30
0.0
 10
76.5719341302
 20
50.9575312068
 30
0.0
 10
76.5793391795
 20
51.4343767217
 30
0.0
 10
76.5868321447
 20
51.8275565847
 30
0.0
 10
76.5924611044
 20
52.0957854439
 30
0.0
 10
76.5963194725
 20
52.2577066693
 30
0.0
 10
76.597976943
 20
52.343257331
 30
0.0
 10
76.5997810155
 20
52.3927537535
 30
0.0
 10
76.5997926315
 20
52.4158448833
 30
0.0
  0
SPLINE
  5
296
100
AcDbEntity
  8
00_COMPONENTS_1
100
AcDbSpline
 62
7
  6
CONTINUOUS
 70
0
 71
3
 72
22
 73
18
 74
0
 42
0.0000001
 43
0.0000001
 44
0.0000000001
 40
0.0
 40
0.0
 40
0.0
 40
0.0
 40
0.1947150641
 40
0.382039625
 40
0.5545976235
 40
0.6332869237
 40
0.7058677915
 40
0.7716521816
 40
0.8300171893
 40
0.8803935078
 40
0.9223272409
 40
0.955401241
 40
0.9793467899
 40
0.9878493309
 40
0.9940330464
 40
0.9979630709
 40
1.0
 40
1.0
 40
1.0
 40
1.0
 10
91.0921961487
 20
60.5661755126
 30
0.0
 10
91.0921961487
 20
60.777510791
 30
0.0
 10
91.0917628431
 20
61.1921602298
 30
0.0
 10
91.0896697427
 20
61.7940933277
 30
0.0
 10
91.0863509501
 20
62.270090651
 30
0.0
 10
91.0823471788
 20
62.6215374198
 30
0.0
 10
91.0787613646
 20
62.8570926981
 30
0.0
 10
91.0744437839
 20
63.0705719327
 30
0.0
 10
91.0693414041
 20
63.2599301122
 30
0.0
 10
91.0634111626
 20
63.4233549281
 30
0.0
 10
91.0566611505
 20
63.5592995452
 30
0.0
 10
91.0491530482
 20
63.6663954226
 30
0.0
 10
91.041680758
 20
63.7372518489
 30
0.0
 10
91.034998936
 20
63.7785273622
 30
0.0
 10
91.0299834066
 20
63.798384657
 30
0.0
 10
91.0259937523
 20
63.8104430127
 30
0.0
 10
91.0208209139
 20
63.816109441
 30
0.0
 10
91.0186101217
 20
63.8161063015
 30
0.0
  0
SPLINE
  5
297
100
AcDbEntity
  8
00_COMPONENTS_1
100
AcDbSpline
 62
7
  6
CONTINUOUS
 70
0
 71
3
 72
22
 73
18
 74
0
 42
0.0000001
 43
0.0000001
 44
0.0000000001
 40
0.0
 40
0.0
 40
0.0
 40
0.0
 40
0.002039725
 40
0.0059729996
 40
0.0121578984
 40
0.0206591975
 40
0.0445975537
 40
0.0776624231
 40
0.1195858137
 40
0.1699562514
 40
0.2283228472
 40
0.294110725
 40
0.3666963822
 40
0.4453873148
 40
0.6179521454
 40
0.805285525
 40
1.0
 40
1.0
 40
1.0
 40
1.0
 10
91.0186101097
 20
95.916245482
 30
0.0
 10
91.0208239304
 20
95.9162489205
 30
0.0
 10
91.0259888306
 20
95.9219276286
 30
0.0
 10
91.0299838175
 20
95.9339914445
 30
0.0
 10
91.0349969781
 20
95.9538533004
 30
0.0
 10
91.0416805608
 20
95.9951200632
 30
0.0
 10
91.0491518859
 20
96.0659575816
 30
0.0
 10
91.0566593328
 20
96.1730240541
 30
0.0
 10
91.0634099973
 20
96.3089408092
 30
0.0
 10
91.0693403967
 20
96.4723492983
 30
0.0
 10
91.0744419112
 20
96.6617061591
 30
0.0
 10
91.0787600823
 20
96.8751955506
 30
0.0
 10
91.0823459705
 20
97.1107609944
 30
0.0
 10
91.0863505303
 20
97.4622212564
 30
0.0
 10
91.0896700789
 20
97.9382361399
 30
0.0
 10
91.0917627448
 20
98.5401840752
 30
0.0
 10
91.0921961487
 20
98.9548414043
 30
0.0
 10
91.0921961487
 20
99.1661755126
 30
0.0
  0
SPLINE
  5
298
100
AcDbEntity
  8
00_COMPONENTS_1
100
AcDbSpline
 62
7
  6
CONTINUOUS
 70
0
 71
3
 72
29
 73
25
 74
0
 42
0.0000001
 43
0.0000001
 44
0.0000000001
 40
0.0
 40
0.0
 40
0.0
 40
0.0
 40
0.0154480058
 40
0.0214386025
 40
0.0284075313
 40
0.0453636898
 40
0.0663870272
 40
0.0914376401
 40
0.1203405435
 40
0.1528081905
 40
0.2272036885
 40
0.3120406668
 40
0.4999849797
 40
0.6879104038
 40
0.7727481925
 40
0.8471774125
 40
0.8796451872
 40
0.9085454548
 40
0.9336024135
 40
0.9546397605
 40
0.9716067841
 40
0.978576693
 40
0.9845644878
 40
1.0
 40
1.0
 40
1.0
 40
1.0
 10
18.7507597764
 20
116.0241196292
 30
0.0
 10
18.7507597764
 20
116.0504196185
 30
0.0
 10
18.716400189
 20
116.080389447
 30
0.0
 10
18.6751327579
 20
116.1028641716
 30
0.0
 10
18.6282169921
 20
116.1237887897
 30
0.0
 10
18.5555681764
 20
116.1475721189
 30
0.0
 10
18.4512513157
 20
116.1733384389
 30
0.0
 10
18.3258345315
 20
116.1971901916
 30
0.0
 10
18.1803157134
 20
116.2191408333
 30
0.0
 10
17.9508339819
 20
116.2469504632
 30
0.0
 10
17.6255640807
 20
116.2748056083
 30
0.0
 10
17.0353150364
 20
116.3069302343
 30
0.0
 10
16.2508543401
 20
116.3206818786
 30
0.0
 10
15.4663893831
 20
116.3069621484
 30
0.0
 10
14.8761172263
 20
116.2747897675
 30
0.0
 10
14.5507838188
 20
116.2469828974
 30
0.0
 10
14.3212504733
 20
116.2191543384
 30
0.0
 10
14.1757278869
 20
116.1971853256
 30
0.0
 10
14.0502827135
 20
116.173321746
 30
0.0
 10
13.9459119414
 20
116.147555564
 30
0.0
 10
13.8732133686
 20
116.1237801716
 30
0.0
 10
13.826280349
 20
116.1028593229
 30
0.0
 10
13.7850275522
 20
116.0803947446
 30
0.0
 10
13.7507597764
 20
116.0503983483
 30
0.0
 10
13.7507597764
 20
116.0241196292
 30
0.0
  0
SPLINE
  5
299
100
AcDbEntity
  8
00_COMPONENTS_1
100
AcDbSpline
 62
7
  6
CONTINUOUS
 70
0
 71
3
 72
21
 73
17
 74
0
 42
0.0000001
 43
0.0000001
 44
0.0000000001
 40
0.0
 40
0.0
 40
0.0
 40
0.0
 40
0.1922525952
 40
0.3771889454
 40
0.5475272083
 40
0.6969148278
 40
0.7619683203
 40
0.8197945319
 40
0.8698823111
 40
0.911880173
 40
0.9455283861
 40
0.9708148326
 40
0.9804526291
 40
0.9882604842
 40
0.9945669999
 40
1.0
 40
1.0
 40
1.0
 40
1.0
 10
76.141848204
 20
49.2161755126
 30
0.0
 10
76.141848204
 20
49.4247395679
 30
0.0
 10
76.1384683936
 20
49.8339387461
 30
0.0
 10
76.1232671311
 20
50.4277612728
 30
0.0
 10
76.098070412
 20
50.9746991961
 30
0.0
 10
76.068033615
 20
51.3911287314
 30
0.0
 10
76.0379346081
 20
51.6849796863
 30
0.0
 10
76.0142087721
 20
51.8711450436
 30
0.0
 10
75.9883975701
 20
52.0317414939
 30
0.0
 10
75.9608177502
 20
52.1654200401
 30
0.0
 10
75.9316120269
 20
52.2709903967
 30
0.0
 10
75.9044517587
 20
52.3406372733
 30
0.0
 10
75.8806517756
 20
52.3805673365
 30
0.0
 10
75.8639827573
 20
52.4004211823
 30
0.0
 10
75.8465282661
 20
52.4130423342
 30
0.0
 10
75.8336972149
 20
52.4161174292
 30
0.0
 10
75.8278032597
 20
52.416112837
 30
0.0
  0
SPLINE
  5
29A
100
AcDbEntity
  8
00_COMPONENTS_1
100
AcDbSpline
 62
7
  6
CONTINUOUS
 70
0
 71
3
 72
22
 73
18
 74
0
 42
0.0000001
 43
0.0000001
 44
0.0000000001
 40
0.0
 40
0.0
 40
0.0
 40
0.0
 40
0.0020381168
 40
0.0059697563
 40
0.0121542859
 40
0.020656036
 40
0.0445973619
 40
0.0776675877
 40
0.1195949025
 40
0.1699659232
 40
0.2283294664
 40
0.2941138499
 40
0.3666999597
 40
0.4453933106
 40
0.6179468187
 40
0.8052738739
 40
1.0
 40
1.0
 40
1.0
 40
1.0
 10
91.0186055633
 20
102.4161470091
 30
0.0
 10
91.0208176719
 20
102.4161472165
 30
0.0
 10
91.0259867777
 20
102.4104746015
 30
0.0
 10
91.0299782898
 20
102.3984132333
 30
0.0
 10
91.0349920069
 20
102.3785531213
 30
0.0
 10
91.0416742452
 20
102.337282062
 30
0.0
 10
91.0491464006
 20
102.2664342123
 30
0.0
 10
91.0566558925
 20
102.1593530147
 30
0.0
 10
91.0634124403
 20
102.0234239773
 30
0.0
 10
91.0693460002
 20
101.860011715
 30
0.0
 10
91.074443562
 20
101.6706585846
 30
0.0
 10
91.0787558819
 20
101.4571727311
 30
0.0
 10
91.0823413078
 20
101.2216046992
 30
0.0
 10
91.0863550337
 20
100.8701488396
 30
0.0
 10
91.0896773764
 20
100.3941438698
 30
0.0
 10
91.0917596263
 20
99.792194057
 30
0.0
 10
91.0921961487
 20
99.3775251996
 30
0.0
 10
91.0921961487
 20
99.1661755126
 30
0.0
  0
SPLINE
  5
29B
100
AcDbEntity
  8
00_COMPONENTS_1
100
AcDbSpline
 62
7
  6
CONTINUOUS
 70
0
 71
3
 72
21
 73
17
 74
0
 42
0.0000001
 43
0.0000001
 44
0.0000000001
 40
0.0
 40
0.0
 40
0.0
 40
0.0
 40
0.0054337366
 40
0.011747543
 40
0.0195714926
 40
0.0292299706
 40
0.0545527695
 40
0.0882000096
 40
0.1301492379
 40
0.1801870777
 40
0.2380012613
 40
0.3030681772
 40
0.4524811042
 40
0.6228168323
 40
0.8077520743
 40
1.0
 40
1.0
 40
1.0
 40
1.0
 10
75.827803202
 20
46.0160541481
 30
0.0
 10
75.8336981563
 20
46.0160507569
 30
0.0
 10
75.8465376314
 20
46.0191435288
 30
0.0
 10
75.8639880001
 20
46.0318184888
 30
0.0
 10
75.8806463498
 20
46.0517439749
 30
0.0
 10
75.9044316898
 20
46.0917755781
 30
0.0
 10
75.9315758906
 20
46.1614929359
 30
0.0
 10
75.9607899306
 20
46.2670491752
 30
0.0
 10
75.9884000026
 20
46.4006155542
 30
0.0
 10
76.0142245218
 20
46.5610945674
 30
0.0
 10
76.0379410927
 20
46.747214584
 30
0.0
 10
76.0680253943
 20
47.0411061994
 30
0.0
 10
76.098052222
 20
47.4575897428
 30
0.0
 10
76.1232562231
 20
48.0045693089
 30
0.0
 10
76.1384642105
 20
48.5984027425
 30
0.0
 10
76.141848204
 20
49.0076094728
 30
0.0
 10
76.141848204
 20
49.2161755126
 30
0.0
  0
SPLINE
  5
29C
100
AcDbEntity
  8
00_COMPONENTS_1
100
AcDbSpline
 62
7
  6
CONTINUOUS
 70
0
 71
3
 72
20
 73
16
 74
0
 42
0.0000001
 43
0.0000001
 44
0.0000000001
 40
0.0
 40
0.0
 40
0.0
 40
0.0
 40
0.1922878213
 40
0.3772239366
 40
0.5476161869
 40
0.6970811091
 40
0.7621387949
 40
0.8199466746
 40
0.870008518
 40
0.9119914176
 40
0.945651404
 40
0.9709725309
 40
0.9806282874
 40
0.9884509361
 40
1.0
 40
1.0
 40
1.0
 40
1.0
 10
76.1394506926
 20
110.2161755126
 30
0.0
 10
76.1394506926
 20
110.4229151364
 30
0.0
 10
76.1361019962
 20
110.8284983352
 30
0.0
 10
76.1209659066
 20
111.417112739
 30
0.0
 10
76.0959276403
 20
111.9593045599
 30
0.0
 10
76.0661332881
 20
112.3721600648
 30
0.0
 10
76.0362482333
 20
112.663450362
 30
0.0
 10
76.0126945637
 20
112.847904262
 30
0.0
 10
75.9870613483
 20
113.0069966377
 30
0.0
 10
75.9597082345
 20
113.1394365688
 30
0.0
 10
75.9306647393
 20
113.2440997691
 30
0.0
 10
75.9038804727
 20
113.3131706611
 30
0.0
 10
75.8800826791
 20
113.3528600407
 30
0.0
 10
75.860446357
 20
113.3768453468
 30
0.0
 10
75.8402204085
 20
113.3882143503
 30
0.0
 10
75.827803354
 20
113.388224345
 30
0.0
  0
SPLINE
  5
29D
100
AcDbEntity
  8
00_COMPONENTS_1
100
AcDbSpline
 62
7
  6
CONTINUOUS
 70
0
 71
3
 72
22
 73
18
 74
0
 42
0.0000001
 43
0.0000001
 44
0.0000000001
 40
0.0
 40
0.0
 40
0.0
 40
0.0
 40
0.0020366183
 40
0.0059685606
 40
0.0121569504
 40
0.0206638293
 40
0.0446121556
 40
0.0776737997
 40
0.119573656
 40
0.1699298619
 40
0.2283139157
 40
0.2941298027
 40
0.366727509
 40
0.445404069
 40
0.6179402917
 40
0.8052836614
 40
1.0
 40
1.0
 40
1.0
 40
1.0
 10
91.0186100964
 20
57.3162219144
 30
0.0
 10
91.0208205625
 20
57.3162170097
 30
0.0
 10
91.0259959377
 20
57.3218869628
 30
0.0
 10
91.0299819212
 20
57.3339523734
 30
0.0
 10
91.0349963572
 20
57.3538229653
 30
0.0
 10
91.041676204
 20
57.3951116092
 30
0.0
 10
91.049148043
 20
57.4659629571
 30
0.0
 10
91.056654335
 20
57.5730123042
 30
0.0
 10
91.0634105905
 20
57.708885391
 30
0.0
 10
91.069342441
 20
57.8722733109
 30
0.0
 10
91.0744405338
 20
58.0616658882
 30
0.0
 10
91.0787564224
 20
58.2752196907
 30
0.0
 10
91.08234221
 20
58.5108151403
 30
0.0
 10
91.0863509941
 20
58.8622449548
 30
0.0
 10
91.0896720066
 20
59.3382283341
 30
0.0
 10
91.0917616623
 20
59.9401635328
 30
0.0
 10
91.0921961487
 20
60.3548374721
 30
0.0
 10
91.0921961487
 20
60.5661755126
 30
0.0
  0
SPLINE
  5
29E
100
AcDbEntity
  8
00_COMPONENTS_1
100
AcDbSpline
 62
7
  6
CONTINUOUS
 70
0
 71
3
 72
20
 73
16
 74
0
 42
0.0000001
 43
0.0000001
 44
0.0000000001
 40
0.0
 40
0.0
 40
0.0
 40
0.0
 40
0.1922703718
 40
0.3772698724
 40
0.5476232881
 40
0.6970389834
 40
0.7620978936
 40
0.8199400638
 40
0.8700588966
 40
0.9120627141
 40
0.9457335329
 40
0.9710164276
 40
0.9806469459
 40
0.9884568406
 40
1.0
 40
1.0
 40
1.0
 40
1.0
 10
76.1394506926
 20
110.2161755126
 30
0.0
 10
76.1394506926
 20
110.0094604669
 30
0.0
 10
76.1360681539
 20
109.6038397138
 30
0.0
 10
76.1209976256
 20
109.0152331251
 30
0.0
 10
76.0959704087
 20
108.4730812206
 30
0.0
 10
76.0660951995
 20
108.0603374515
 30
0.0
 10
76.0362277258
 20
107.7690686967
 30
0.0
 10
76.0126972953
 20
107.5845175516
 30
0.0
 10
75.9871102944
 20
107.4252992932
 30
0.0
 10
75.9597124511
 20
107.2927745808
 30
0.0
 10
75.9306858544
 20
107.188118352
 30
0.0
 10
75.9038880765
 20
107.1191101376
 30
0.0
 10
75.8800608527
 20
107.0795332214
 30
0.0
 10
75.8604272667
 20
107.0556158658
 30
0.0
 10
75.8402278082
 20
107.0442382835
 30
0.0
 10
75.8278174472
 20
107.0442382982
 30
0.0
  0
ENDSEC
  0
SECTION
  2
OBJECTS
  0
DICTIONARY
  5
C
100
AcDbDictionary
280
0
281
1
  3
ACAD_GROUP
350
D
  3
ACAD_MLINESTYLE
350
17
  3
ACAD_LAYOUT
350
1A
  3
ACAD_PLOTSETTINGS
350
19
  3
ACAD_PLOTSTYLENAME
350
E
  0
DICTIONARY
  5
D
102
{ACAD_REACTORS
330
C
102
}
100
AcDbDictionary
280
0
281
1
  0
ACDBDICTIONARYWDFLT
  5
E
102
{ACAD_REACTORS
330
C
102
}
100
AcDbDictionary
281
1
  3
Normal
350
F
100
AcDbDictionaryWithDefault
340
F
  0
DICTIONARY
  5
17
102
{ACAD_REACTORS
330
C
102
}
100
AcDbDictionary
280
0
281
1
  3
Standard
350
18
  0
DICTIONARY
  5
19
102
{ACAD_REACTORS
330
C
102
}
100
AcDbDictionary
281
1
  0
DICTIONARY
  5
1A
102
{ACAD_REACTORS
330
C
102
}
100
AcDbDictionary
281
1
  3
Model
350
29F
  3
Layout1
350
2A0
  0
ACDBPLACEHOLDER
  5
F
102
{ACAD_REACTORS
330
E
102
}
  0
MLINESTYLE
  5
18
102
{ACAD_REACTORS
330
17
102
}
100
AcDbMlineStyle
  2
STANDARD
 70
0
  3

 62
256
 51
90.0
 52
90.0
 71
2
 49
0.5
 62
256
  6
BYLAYER
 49
-0.5
 62
256
  6
BYLAYER
  0
LAYOUT
  5
29F
102
{ACAD_REACTORS
330
1A
102
}
100
AcDbPlotSettings
  1

  2
none_device
  4

  6

 40
0.0
 41
0.0
 42
0.0
 43
0.0
 44
210.0
 45
297.0
 46
0.0
 47
0.0
 48
0.0
 49
0.0
140
0.0
141
0.0
142
1.0
143
1.0
 70
1024
 72
1
 73
0
 74
0
  7

 75
0
147
1.0
148
0.0
149
0.0
100
AcDbLayout
  1
Model
 70
0
 71
0
 10
0.0
 20
0.0
 11
210.0
 21
297.0
 12
0.0
 22
0.0
 32
0.0
 14
0.0
 24
0.0
 34
0.0
 15
0.0
 25
0.0
 35
0.0
146
0.0
 13
0.0
 23
0.0
 33
0.0
 16
1.0
 26
0.0
 36
0.0
 17
0.0
 27
1.0
 37
0.0
 76
0
330
216
345
0
346
0
  0
LAYOUT
  5
2A0
102
{ACAD_REACTORS
330
1A
102
}
100
AcDbPlotSettings
  1

  2
none_device
  4

  6

 40
0.0
 41
0.0
 42
0.0
 43
0.0
 44
210.0
 45
297.0
 46
0.0
 47
0.0
 48
0.0
 49
0.0
140
0.0
141
0.0
142
1.0
143
1.0
 70
0
 72
1
 73
0
 74
0
  7

 75
0
147
1.0
148
0.0
149
0.0
100
AcDbLayout
  1
Layout1
 70
0
 71
1
 10
0.0
 20
0.0
 11
210.0
 21
297.0
 12
0.0
 22
0.0
 32
0.0
 14
0.0
 24
0.0
 34
0.0
 15
0.0
 25
0.0
 35
0.0
146
0.0
 13
0.0
 23
0.0
 33
0.0
 16
1.0
 26
0.0
 36
0.0
 17
0.0
 27
1.0
 37
0.0
 76
0
330
217
345
0
346
0
  0
ENDSEC
  0
EOF
