999
DXF file: C:\Users\sesa63760\Dev\_Creo\CAD\MCADID0004132_3D-CAD\drw0001_1.dxf
999
Pro/ENGINEER 2019471 by Parametric Technology Corporation
  0
SECTION
  2
HEADER
  9
$ACADVER
  1
AC1024
  9
$DWGCODEPAGE
  3
ANSI_1252
  9
$EXTMAX
 10
61.3693105129
 20
86.7937391539
 30
0.0
  9
$EXTMIN
 10
0.0
 20
0.0
 30
0.0
  9
$LIMMIN
 10
0.0
 20
0.0
  9
$LIMMAX
 10
61.3693105129
 20
86.7937391539
  9
$VIEWCTR
 10
30.6846552564
 20
43.396869577
  9
$VIEWSIZE
 40
86.7937391539
  9
$CLAYER
  8
0
  9
$LTSCALE
 40
5.6576659597
  9
$CELTYPE
  6
BYLAYER
  9
$DIMSCALE
 40
1.0
  9
$DIMASZ
 40
0.7305870299
  9
$DIMEXO
 40
1.0
  9
$DIMDLI
 40
3.9089328449
  9
$DIMEXE
 40
1.0
  9
$DIMCEN
 40
0.9257998843
  9
$DIMLFAC
 40
1.0
  9
$DIMBLK
  1
_FILLED
  9
$DIMALT
 70
0
  9
$DIMALTF
 40
0.0393700787
  9
$DIMTXT
 40
1.0228218419
  9
$DIMTOL
 70
1
  9
$DIMLIM
 70
0
  9
$DIMTFAC
 40
1.0
  9
$DIMTP
 40
0.01
  9
$DIMTM
 40
0.01
  9
$DIMGAP
 40
0.625
  9
$DIMDSEP
 70
46
  9
$AUNITS
 70
0
  9
$PDMODE
 70
3
  9
$PDSIZE
 40
0.3125
  9
$HANDSEED
  5
2F5
  9
$TILEMODE
 70
1
  9
$MEASUREMENT
 70
1
  9
$INSUNITS
 70
4
  0
ENDSEC
  0
SECTION
  2
CLASSES
  0
CLASS
  1
ACDBDICTIONARYWDFLT
  2
AcDbDictionaryWithDefault
  3
AutoCAD 2000
 90
0
 91
1
280
0
281
0
  0
CLASS
  1
ACDBPLACEHOLDER
  2
AcDbPlaceHolder
  3
AutoCAD 2000
 90
0
 91
1
280
0
281
0
  0
CLASS
  1
LAYOUT
  2
AcDbLayout
  3
AutoCAD 2000
 90
0
 91
0
280
0
281
0
  0
ENDSEC
  0
SECTION
  2
TABLES
  0
TABLE
  2
VPORT
  5
8
100
AcDbSymbolTable
 70
2
  0
VPORT
  5
1F4
100
AcDbSymbolTableRecord
100
AcDbViewportTableRecord
  2
*ACTIVE
 70
0
 10
0.0
 20
0.0
 11
1.0
 21
1.0
 12
30.6846552564
 22
43.396869577
 13
0.0
 23
0.0
 14
1.0
 24
1.0
 15
0.0
 25
0.0
 16
0.0
 26
0.0
 36
1.0
 17
0.0
 27
0.0
 37
0.0
 40
86.7937391539
 41
0.7070707071
 42
50.0
 43
0.0
 44
0.0
 50
0.0
 51
0.0
 71
0
 72
100
 73
1
 74
1
 75
0
 76
0
 77
0
 78
0
  0
ENDTAB
  0
TABLE
  2
LTYPE
  5
5
100
AcDbSymbolTable
 70
6
  0
LTYPE
  5
14
100
AcDbSymbolTableRecord
100
AcDbLinetypeTableRecord
  2
BYBLOCK
 70
0
  3

 72
65
 73
0
 40
0.0
  0
LTYPE
  5
15
100
AcDbSymbolTableRecord
100
AcDbLinetypeTableRecord
  2
BYLAYER
 70
0
  3

 72
65
 73
0
 40
0.0
  0
LTYPE
  5
16
100
AcDbSymbolTableRecord
100
AcDbLinetypeTableRecord
  2
CONTINUOUS
 70
64
  3
Solid line
 72
65
 73
0
 40
0.0
  0
LTYPE
  5
1F5
100
AcDbSymbolTableRecord
100
AcDbLinetypeTableRecord
  2
CENTER
 70
64
  3
____ _ ____ _ ____ _ ____ _ ____ _ ____ _ ____
 72
65
 73
4
 40
0.6
 49
0.375
 74
0
 49
-0.075
 74
0
 49
0.075
 74
0
 49
-0.075
 74
0
  0
LTYPE
  5
1F6
100
AcDbSymbolTableRecord
100
AcDbLinetypeTableRecord
  2
HIDDEN
 70
64
  3
- - - - - - - - - - - - - - - - - - - -
 72
65
 73
2
 40
0.2
 49
0.1
 74
0
 49
-0.1
 74
0
  0
LTYPE
  5
1F7
100
AcDbSymbolTableRecord
100
AcDbLinetypeTableRecord
  2
PHANTOM
 70
64
  3
_____ _ _ _____ _ _ _____ _ _ _____
 72
65
 73
6
 40
0.8
 49
0.45
 74
0
 49
-0.05
 74
0
 49
0.1
 74
0
 49
-0.05
 74
0
 49
0.1
 74
0
 49
-0.05
 74
0
  0
LTYPE
  5
1F8
100
AcDbSymbolTableRecord
100
AcDbLinetypeTableRecord
  2
DOT
 70
64
  3
. . . . . . . . . . . . . . . . . . . .
 72
65
 73
2
 40
0.2
 49
0.1
 74
0
 49
-0.1
 74
0
  0
LTYPE
  5
1F9
100
AcDbSymbolTableRecord
100
AcDbLinetypeTableRecord
  2
DASHED
 70
64
  3
- - - - - - - - - - - - - - - - - - - -
 72
65
 73
2
 40
0.2
 49
0.1
 74
0
 49
-0.1
 74
0
  0
ENDTAB
  0
TABLE
  2
LAYER
  5
2
100
AcDbSymbolTable
 70
36
  0
LAYER
  5
10
100
AcDbSymbolTableRecord
100
AcDbLayerTableRecord
  2
0
 70
0
 62
7
  6
CONTINUOUS
370
-3
390
F
  0
LAYER
  5
1FA
100
AcDbSymbolTableRecord
100
AcDbLayerTableRecord
  2
DEFAULT_1
 70
0
 62
7
  6
CENTER
370
-3
390
F
  0
LAYER
  5
1FB
100
AcDbSymbolTableRecord
100
AcDbLayerTableRecord
  2
DEFAULT_2
 70
0
 62
7
  6
HIDDEN
370
-3
390
F
  0
LAYER
  5
1FC
100
AcDbSymbolTableRecord
100
AcDbLayerTableRecord
  2
DEFAULT_3
 70
0
 62
7
  6
PHANTOM
370
-3
390
F
  0
LAYER
  5
1FD
100
AcDbSymbolTableRecord
100
AcDbLayerTableRecord
  2
00_COMPONENTS
 70
0
 62
7
  6
CONTINUOUS
370
-3
390
F
  0
LAYER
  5
1FE
100
AcDbSymbolTableRecord
100
AcDbLayerTableRecord
  2
01_1_DEFAULT_DATUMS
 70
0
 62
7
  6
CONTINUOUS
370
-3
390
F
  0
LAYER
  5
1FF
100
AcDbSymbolTableRecord
100
AcDbLayerTableRecord
  2
01_PLANES
 70
0
 62
7
  6
CONTINUOUS
370
-3
390
F
  0
LAYER
  5
200
100
AcDbSymbolTableRecord
100
AcDbLayerTableRecord
  2
02_COORD_SYS
 70
0
 62
7
  6
CONTINUOUS
370
-3
390
F
  0
LAYER
  5
201
100
AcDbSymbolTableRecord
100
AcDbLayerTableRecord
  2
03_AXES
 70
0
 62
7
  6
CONTINUOUS
370
-3
390
F
  0
LAYER
  5
202
100
AcDbSymbolTableRecord
100
AcDbLayerTableRecord
  2
04_POINTS
 70
0
 62
7
  6
CONTINUOUS
370
-3
390
F
  0
LAYER
  5
203
100
AcDbSymbolTableRecord
100
AcDbLayerTableRecord
  2
05_CURVES
 70
0
 62
7
  6
CONTINUOUS
370
-3
390
F
  0
LAYER
  5
204
100
AcDbSymbolTableRecord
100
AcDbLayerTableRecord
  2
06_SURFS
 70
0
 62
7
  6
CONTINUOUS
370
-3
390
F
  0
LAYER
  5
205
100
AcDbSymbolTableRecord
100
AcDbLayerTableRecord
  2
07_COSMETICS
 70
0
 62
7
  6
CONTINUOUS
370
-3
390
F
  0
LAYER
  5
206
100
AcDbSymbolTableRecord
100
AcDbLayerTableRecord
  2
10_NOTES
 70
0
 62
7
  6
CONTINUOUS
370
-3
390
F
  0
LAYER
  5
207
100
AcDbSymbolTableRecord
100
AcDbLayerTableRecord
  2
11_NOTES_PUB
 70
0
 62
7
  6
CONTINUOUS
370
-3
390
F
  0
LAYER
  5
208
100
AcDbSymbolTableRecord
100
AcDbLayerTableRecord
  2
13_REF_GTOL
 70
0
 62
7
  6
CONTINUOUS
370
-3
390
F
  0
LAYER
  5
209
100
AcDbSymbolTableRecord
100
AcDbLayerTableRecord
  2
16_MISC
 70
0
 62
7
  6
CONTINUOUS
370
-3
390
F
  0
LAYER
  5
20A
100
AcDbSymbolTableRecord
100
AcDbLayerTableRecord
  2
17_NO_PRINT
 70
0
 62
7
  6
CONTINUOUS
370
-3
390
F
  0
LAYER
  5
20B
100
AcDbSymbolTableRecord
100
AcDbLayerTableRecord
  2
18_DATUM_CAMS_JOINTS
 70
0
 62
7
  6
CONTINUOUS
370
-3
390
F
  0
LAYER
  5
20C
100
AcDbSymbolTableRecord
100
AcDbLayerTableRecord
  2
19_DATUM_FUNCTIONAL
 70
0
 62
7
  6
CONTINUOUS
370
-3
390
F
  0
LAYER
  5
20D
100
AcDbSymbolTableRecord
100
AcDbLayerTableRecord
  2
20_DATUM_KINEMATIC_SCHEME
 70
0
 62
7
  6
CONTINUOUS
370
-3
390
F
  0
ENDTAB
  0
TABLE
  2
STYLE
  5
3
100
AcDbSymbolTable
 70
1
  0
STYLE
  5
11
100
AcDbSymbolTableRecord
100
AcDbTextStyleTableRecord
  2
STANDARD
 70
0
 40
0.0
 41
1.0
 50
0.0
 71
0
 42
0.2
  3
ARIAL.TTF
  4

  0
STYLE
  5
20E
100
AcDbSymbolTableRecord
100
AcDbTextStyleTableRecord
  2
TEXTSTYLE_1
 70
0
 40
0.0
 41
0.8
 50
0.0
 71
0
 42
0.2
  3
gdt
  4

  0
ENDTAB
  0
TABLE
  2
VIEW
  5
6
100
AcDbSymbolTable
 70
0
  0
ENDTAB
  0
TABLE
  2
UCS
  5
7
100
AcDbSymbolTable
 70
0
  0
ENDTAB
  0
TABLE
  2
APPID
  5
9
100
AcDbSymbolTable
 70
1
  0
APPID
  5
20F
100
AcDbSymbolTableRecord
100
AcDbRegAppTableRecord
  2
ACAD
 70
0
  0
ENDTAB
  0
TABLE
  2
BLOCK_RECORD
  5
1
100
AcDbSymbolTable
 70
0
  0
BLOCK_RECORD
  5
210
100
AcDbSymbolTableRecord
100
AcDbBlockTableRecord
  2
*Model_Space
  0
BLOCK_RECORD
  5
211
100
AcDbSymbolTableRecord
100
AcDbBlockTableRecord
  2
*Paper_Space
  0
BLOCK_RECORD
  5
212
100
AcDbSymbolTableRecord
100
AcDbBlockTableRecord
  2
_FILLED
  0
ENDTAB
  0
TABLE
  2
DIMSTYLE
  5
A
100
AcDbSymbolTable
 70
1
100
AcDbDimStyleTable
 71
0
  0
DIMSTYLE
105
213
100
AcDbSymbolTableRecord
100
AcDbDimStyleTableRecord
  2
STANDARD
 70
0
  3

  4

 40
1.0
 41
0.7305870299
 42
1.0
 43
0.38
 44
1.0
 45
0.0
 46
0.0
 47
0.01
 48
0.01
140
1.0228218419
141
0.09
142
0.0
143
25.4
144
1.0
145
0.0
146
1.0
147
0.625
 71
1
 72
0
 73
0
 74
0
 75
0
 76
0
 77
1
 78
8
 79
2
170
0
171
1
172
0
173
0
174
0
175
0
176
0
177
0
178
0
270
2
179
2
271
2
272
2
273
2
274
2
275
0
280
0
281
0
282
0
283
1
284
8
285
0
286
0
287
3
288
0
340
11
278
46
341
212
342
212
343
212
344
212
  0
ENDTAB
  0
ENDSEC
  0
SECTION
  2
BLOCKS
  0
BLOCK
  5
20
100
AcDbEntity
  8
0
100
AcDbBlockBegin
  2
*Model_Space
 70
0
 10
0.0
 20
0.0
 30
0.0
  3
*Model_Space
  1

  0
ENDBLK
  5
21
100
AcDbEntity
  8
0
100
AcDbBlockEnd
  0
BLOCK
  5
1C
100
AcDbEntity
  8
0
100
AcDbBlockBegin
  2
*Paper_Space
 70
0
 10
0.0
 20
0.0
 30
0.0
  3
*Paper_Space
  1

  0
ENDBLK
  5
1D
100
AcDbEntity
  8
0
100
AcDbBlockEnd
  0
BLOCK
  5
214
100
AcDbEntity
  8
0
100
AcDbBlockBegin
  2
_FILLED
 70
64
 10
0.0
 20
0.0
  3
_FILLED
  1

  0
SOLID
  5
215
100
AcDbEntity
  8
0
  6
BYBLOCK
 62
0
100
AcDbTrace
 10
0.0
 20
0.0
 11
-1.0
 21
0.25
 12
-1.0
 22
-0.25
 13
-1.0
 23
-0.25
  0
ENDBLK
  5
216
100
AcDbEntity
  8
0
  6
BYBLOCK
 62
0
100
AcDbBlockEnd
  0
ENDSEC
  0
SECTION
  2
ENTITIES
  0
LINE
  5
217
100
AcDbEntity
  8
0
100
AcDbLine
 62
7
  6
BYLAYER
 10
20.4677657724
 20
76.7222428777
 11
7.7398967026
 21
69.373848108
  0
LINE
  5
218
100
AcDbEntity
  8
0
100
AcDbLine
 62
7
  6
BYLAYER
 10
9.2366900649
 20
69.2259848707
 11
21.9645591348
 21
76.5743796404
  0
LINE
  5
219
100
AcDbEntity
  8
0
100
AcDbLine
 62
7
  6
BYLAYER
 10
7.8266558153
 20
65.9611666268
 11
9.2408752656
 21
67.9731324597
  0
LINE
  5
21A
100
AcDbEntity
  8
0
100
AcDbLine
 62
7
  6
BYLAYER
 10
9.2689961708
 20
67.9533661544
 11
7.897366199
 21
66.0019910422
  0
LINE
  5
21B
100
AcDbEntity
  8
0
100
AcDbLine
 62
7
  6
BYLAYER
 10
7.8266558153
 20
65.9611666268
 11
7.897366199
 21
66.0019910422
  0
LINE
  5
21C
100
AcDbEntity
  8
0
100
AcDbLine
 62
7
  6
BYLAYER
 10
26.1194784221
 20
74.1755901393
 11
13.3916093522
 21
66.8271953696
  0
LINE
  5
21D
100
AcDbEntity
  8
0
100
AcDbLine
 62
7
  6
BYLAYER
 10
13.5330312973
 20
66.7455472187
 11
26.2609003671
 21
74.0939419883
  0
LINE
  5
21E
100
AcDbEntity
  8
0
100
AcDbLine
 62
7
  6
BYLAYER
 10
13.3916093522
 20
66.5116607954
 11
13.5330312973
 21
66.593310306
  0
LINE
  5
21F
100
AcDbEntity
  8
0
100
AcDbLine
 62
7
  6
BYLAYER
 10
7.8248359584
 20
61.6540856641
 11
8.1076774932
 21
61.8173833256
  0
LINE
  5
220
100
AcDbEntity
  8
0
100
AcDbLine
 62
7
  6
BYLAYER
 10
9.2408752656
 20
62.3162377758
 11
9.3115856493
 21
62.3570621912
  0
LINE
  5
221
100
AcDbEntity
  8
0
100
AcDbLine
 62
7
  6
BYLAYER
 10
15.110001984
 20
20.1270506655
 11
14.4381800779
 21
20.4063036909
  0
LINE
  5
222
100
AcDbEntity
  8
0
100
AcDbLine
 62
7
  6
BYLAYER
 10
15.2595994477
 20
19.6468737382
 11
14.9157583567
 21
19.8022646837
  0
LINE
  5
223
100
AcDbEntity
  8
0
100
AcDbLine
 62
7
  6
BYLAYER
 10
13.4835336165
 20
62.6952405906
 11
12.0693141662
 21
60.6832747577
  0
LINE
  5
224
100
AcDbEntity
  8
0
100
AcDbLine
 62
7
  6
BYLAYER
 10
14.0492213966
 20
62.2869977453
 11
14.1906457855
 21
62.3686486669
  0
LINE
  5
225
100
AcDbEntity
  8
0
100
AcDbLine
 62
7
  6
BYLAYER
 10
7.1195460902
 20
68.0026681176
 11
7.1195460902
 21
41.8743348674
  0
LINE
  5
226
100
AcDbEntity
  8
0
100
AcDbLine
 62
7
  6
BYLAYER
 10
7.1195460902
 20
41.4701928789
 11
7.1195460902
 21
29.6267986105
  0
LINE
  5
227
100
AcDbEntity
  8
0
100
AcDbLine
 62
7
  6
BYLAYER
 10
7.8248359584
 20
61.6540856641
 11
7.8248359584
 21
41.8051424876
  0
LINE
  5
228
100
AcDbEntity
  8
0
100
AcDbLine
 62
7
  6
BYLAYER
 10
8.1076774932
 20
61.8173833256
 11
8.1076774932
 21
41.9684401492
  0
LINE
  5
229
100
AcDbEntity
  8
0
100
AcDbLine
 62
7
  6
BYLAYER
 10
14.1843178597
 20
60.5759201718
 11
14.4671593946
 21
60.7392178333
  0
LINE
  5
22A
100
AcDbEntity
  8
0
100
AcDbLine
 62
7
  6
BYLAYER
 10
14.4671593946
 20
59.2891446963
 11
14.1843178597
 21
59.1258470348
  0
LINE
  5
22B
100
AcDbEntity
  8
0
100
AcDbLine
 62
7
  6
BYLAYER
 10
14.3463118048
 20
59.0148737833
 11
14.0634702699
 21
58.8515761218
  0
LINE
  5
22C
100
AcDbEntity
  8
0
100
AcDbLine
 62
7
  6
BYLAYER
 10
7.1195460902
 20
29.6267986105
 11
17.3671669262
 21
23.7104658076
  0
LINE
  5
22D
100
AcDbEntity
  8
0
100
AcDbLine
 62
7
  6
BYLAYER
 10
17.7261919674
 20
23.5031872927
 11
40.3579014961
 21
10.4370592994
  0
LINE
  5
22E
100
AcDbEntity
  8
0
100
AcDbLine
 62
7
  6
BYLAYER
 10
18.0161069547
 20
24.1441459763
 11
34.8808089589
 21
14.4075260061
  0
LINE
  5
22F
100
AcDbEntity
  8
0
100
AcDbLine
 62
7
  6
BYLAYER
 10
18.2989484896
 20
24.3074436378
 11
35.1636504938
 21
14.5708236677
  0
LINE
  5
230
100
AcDbEntity
  8
0
100
AcDbLine
 62
7
  6
BYLAYER
 10
37.5252642715
 20
13.3265109098
 11
40.3537031721
 21
11.6935478917
  0
LINE
  5
231
100
AcDbEntity
  8
0
100
AcDbLine
 62
7
  6
BYLAYER
 10
40.3890574586
 20
11.7547846976
 11
37.5959746552
 21
13.3673353252
  0
LINE
  5
232
100
AcDbEntity
  8
0
100
AcDbLine
 62
7
  6
BYLAYER
 10
7.1195460902
 20
41.8743348674
 11
17.7261919674
 21
23.5031872927
  0
LINE
  5
233
100
AcDbEntity
  8
0
100
AcDbLine
 62
7
  6
BYLAYER
 10
11.4447869605
 20
23.7800771609
 11
11.4447869605
 21
27.1296761222
  0
LINE
  5
234
100
AcDbEntity
  8
0
100
AcDbLine
 62
7
  6
BYLAYER
 10
12.2986124141
 20
16.0483751798
 11
12.2986124141
 21
20.2283275094
  0
LINE
  5
235
100
AcDbEntity
  8
0
100
AcDbLine
 62
7
  6
BYLAYER
 10
18.0161069547
 20
24.1441459763
 11
7.8248359584
 21
41.8051424876
  0
LINE
  5
236
100
AcDbEntity
  8
0
100
AcDbLine
 62
7
  6
BYLAYER
 10
8.1076774932
 20
41.9684401492
 11
18.2989484896
 21
24.3074436378
  0
LINE
  5
237
100
AcDbEntity
  8
0
100
AcDbLine
 62
7
  6
BYLAYER
 10
13.3916093522
 20
66.8271953696
 11
13.3916093522
 21
66.5116607954
  0
LINE
  5
238
100
AcDbEntity
  8
0
100
AcDbLine
 62
7
  6
BYLAYER
 10
13.5330312973
 20
66.4300126445
 11
13.5330312973
 21
66.7455472187
  0
LINE
  5
239
100
AcDbEntity
  8
0
100
AcDbLine
 62
7
  6
BYLAYER
 10
14.1843178597
 20
60.5759201718
 11
14.1843178597
 21
59.1258470348
  0
LINE
  5
23A
100
AcDbEntity
  8
0
100
AcDbLine
 62
7
  6
BYLAYER
 10
14.4671593946
 20
60.7392178333
 11
14.4671593946
 21
59.2891446963
  0
LINE
  5
23B
100
AcDbEntity
  8
0
100
AcDbLine
 62
7
  6
BYLAYER
 10
40.3537031721
 20
17.3504425756
 11
37.5252642715
 21
18.9834055937
  0
LINE
  5
23C
100
AcDbEntity
  8
0
100
AcDbLine
 62
7
  6
BYLAYER
 10
35.870956141
 20
20.8166780032
 11
36.6035040562
 21
20.3937508351
  0
LINE
  5
23D
100
AcDbEntity
  8
0
100
AcDbLine
 62
7
  6
BYLAYER
 10
36.1537976759
 20
20.9799756648
 11
36.8864423979
 21
20.5569926065
  0
LINE
  5
23E
100
AcDbEntity
  8
0
100
AcDbLine
 62
7
  6
BYLAYER
 10
17.3671669262
 20
23.7104658076
 11
17.3671669262
 21
24.1250334533
  0
LINE
  5
23F
100
AcDbEntity
  8
0
100
AcDbLine
 62
7
  6
BYLAYER
 10
44.5966774041
 20
18.6046949352
 11
44.3138203907
 21
18.7679988136
  0
LINE
  5
240
100
AcDbEntity
  8
0
100
AcDbLine
 62
7
  6
BYLAYER
 10
7.4695422745
 20
41.268127059
 11
7.1195460902
 21
41.4701928789
  0
LINE
  5
241
100
AcDbEntity
  8
0
100
AcDbLine
 62
7
  6
BYLAYER
 10
9.2408752656
 20
62.3162377758
 11
7.8266558153
 21
65.9611666268
  0
LINE
  5
242
100
AcDbEntity
  8
0
100
AcDbLine
 62
7
  6
BYLAYER
 10
7.897366199
 20
66.0019910422
 11
9.3115856493
 21
62.3570621912
  0
LINE
  5
243
100
AcDbEntity
  8
0
100
AcDbLine
 62
7
  6
BYLAYER
 10
13.5330312973
 20
66.4337446665
 11
14.1653733073
 21
62.3832394089
  0
LINE
  5
244
100
AcDbEntity
  8
0
100
AcDbLine
 62
7
  6
BYLAYER
 10
14.0492213966
 20
62.2869977453
 11
13.3910529243
 21
66.5061789672
  0
LINE
  5
245
100
AcDbEntity
  8
0
100
AcDbLine
 62
7
  6
BYLAYER
 10
39.8940818507
 20
23.5239275874
 11
40.6011915759
 21
23.1156868329
  0
LINE
  5
246
100
AcDbEntity
  8
0
100
AcDbLine
 62
7
  6
BYLAYER
 10
40.1769233856
 20
23.687225249
 11
40.6011915759
 21
23.4422794365
  0
LINE
  5
247
100
AcDbEntity
  8
0
100
AcDbLine
 62
7
  6
BYLAYER
 10
40.6011915759
 20
25.8101448094
 11
39.8940818507
 21
26.2183855639
  0
LINE
  5
248
100
AcDbEntity
  8
0
100
AcDbLine
 62
7
  6
BYLAYER
 10
7.1195460902
 20
41.4701928789
 11
7.2945456943
 21
41.5712283443
  0
LINE
  5
249
100
AcDbEntity
  8
0
100
AcDbLine
 62
7
  6
BYLAYER
 10
7.8248359584
 20
41.8051424876
 11
8.1076774932
 21
41.9684401492
  0
LINE
  5
24A
100
AcDbEntity
  8
0
100
AcDbLine
 62
7
  6
BYLAYER
 10
52.7987460157
 20
19.9924827886
 11
53.0816030291
 21
19.8291789102
  0
LINE
  5
24B
100
AcDbEntity
  8
0
100
AcDbLine
 62
7
  6
BYLAYER
 10
12.0693141662
 20
66.3401694416
 11
13.4835336165
 21
62.6952405906
  0
LINE
  5
24C
100
AcDbEntity
  8
0
100
AcDbLine
 62
7
  6
BYLAYER
 10
23.8651012246
 20
13.909139903
 11
23.8651012246
 21
13.9834118763
  0
LINE
  5
24D
100
AcDbEntity
  8
0
100
AcDbLine
 62
7
  6
BYLAYER
 10
24.9921508233
 20
16.0483751798
 11
24.9921508233
 21
19.3082788928
  0
LINE
  5
24E
100
AcDbEntity
  8
0
100
AcDbLine
 62
7
  6
BYLAYER
 10
39.8940818507
 20
29.7293459576
 11
40.6011915759
 21
29.3211052031
  0
LINE
  5
24F
100
AcDbEntity
  8
0
100
AcDbLine
 62
7
  6
BYLAYER
 10
40.1769233856
 20
29.8926436191
 11
40.6011915759
 21
29.6476978067
  0
LINE
  5
250
100
AcDbEntity
  8
0
100
AcDbLine
 62
7
  6
BYLAYER
 10
52.7984255941
 20
23.6665586713
 11
53.0812826074
 21
23.5032547929
  0
LINE
  5
251
100
AcDbEntity
  8
0
100
AcDbLine
 62
7
  6
BYLAYER
 10
40.6011915759
 20
32.0155631796
 11
39.8940818507
 21
32.4238039341
  0
LINE
  5
252
100
AcDbEntity
  8
0
100
AcDbLine
 62
7
  6
BYLAYER
 10
26.1194784221
 20
74.0122924777
 11
26.1194784221
 21
74.1755901393
  0
LINE
  5
253
100
AcDbEntity
  8
0
100
AcDbLine
 62
7
  6
BYLAYER
 10
54.498066778
 20
25.9572105819
 11
54.2152097646
 21
26.1205144603
  0
LINE
  5
254
100
AcDbEntity
  8
0
100
AcDbLine
 62
7
  6
BYLAYER
 10
37.5252642715
 20
13.3265109098
 11
36.1110448212
 21
16.9714397608
  0
LINE
  5
255
100
AcDbEntity
  8
0
100
AcDbLine
 62
7
  6
BYLAYER
 10
36.1817552049
 20
17.0122641762
 11
37.5959746552
 21
13.3673353252
  0
LINE
  5
256
100
AcDbEntity
  8
0
100
AcDbLine
 62
7
  6
BYLAYER
 10
53.7861185728
 20
58.2026093578
 11
41.058249503
 21
50.8542145881
  0
LINE
  5
257
100
AcDbEntity
  8
0
100
AcDbLine
 62
7
  6
BYLAYER
 10
39.8940818507
 20
35.9347643278
 11
40.6011915759
 21
35.5265235733
  0
LINE
  5
258
100
AcDbEntity
  8
0
100
AcDbLine
 62
7
  6
BYLAYER
 10
40.1769233856
 20
36.0980619893
 11
40.6011915759
 21
35.8531161769
  0
LINE
  5
259
100
AcDbEntity
  8
0
100
AcDbLine
 62
7
  6
BYLAYER
 10
40.6011915759
 20
38.2209815498
 11
39.8940818507
 21
38.6292223043
  0
LINE
  5
25A
100
AcDbEntity
  8
0
100
AcDbLine
 62
7
  6
BYLAYER
 10
40.3537031721
 20
17.3504425756
 11
41.7679226224
 21
13.7055137246
  0
LINE
  5
25B
100
AcDbEntity
  8
0
100
AcDbLine
 62
7
  6
BYLAYER
 10
42.4750454709
 20
48.4084306343
 11
55.2029145407
 21
55.756825404
  0
LINE
  5
25C
100
AcDbEntity
  8
0
100
AcDbLine
 62
7
  6
BYLAYER
 10
35.4443073552
 20
14.7328712588
 11
35.4443073552
 21
20.5796405097
  0
LINE
  5
25D
100
AcDbEntity
  8
0
100
AcDbLine
 62
7
  6
BYLAYER
 10
55.2029145407
 20
53.3874070901
 11
42.4750454709
 21
46.0390123204
  0
LINE
  5
25E
100
AcDbEntity
  8
0
100
AcDbLine
 62
7
  6
BYLAYER
 10
42.4750454709
 20
45.875711837
 11
55.2029145407
 21
53.2241066067
  0
LINE
  5
25F
100
AcDbEntity
  8
0
100
AcDbLine
 62
7
  6
BYLAYER
 10
13.7576690739
 20
58.8888095413
 11
8.3883343547
 21
61.9887262573
  0
LINE
  5
260
100
AcDbEntity
  8
0
100
AcDbLine
 62
7
  6
BYLAYER
 10
9.2408752656
 20
62.3162377758
 11
12.0693141662
 21
60.6832747577
  0
LINE
  5
261
100
AcDbEntity
  8
0
100
AcDbLine
 62
7
  6
BYLAYER
 10
12.1046684527
 20
60.7445115636
 11
9.3115856493
 21
62.3570621912
  0
LINE
  5
262
100
AcDbEntity
  8
0
100
AcDbLine
 62
7
  6
BYLAYER
 10
37.1670024526
 20
20.7283914283
 11
37.1670024526
 21
47.1398450836
  0
LINE
  5
263
100
AcDbEntity
  8
0
100
AcDbLine
 62
7
  6
BYLAYER
 10
53.0812826074
 20
47.9998682801
 11
44.5966774041
 21
43.1013084225
  0
LINE
  5
264
100
AcDbEntity
  8
0
100
AcDbLine
 62
7
  6
BYLAYER
 10
36.4586044686
 20
48.3668195726
 11
14.747816256
 21
60.9012654244
  0
LINE
  5
265
100
AcDbEntity
  8
0
100
AcDbLine
 62
7
  6
BYLAYER
 10
14.0492213966
 20
62.2869977453
 11
42.4750454709
 21
45.875711837
  0
LINE
  5
266
100
AcDbEntity
  8
0
100
AcDbLine
 62
7
  6
BYLAYER
 10
42.4750454709
 20
46.0390123204
 11
14.1653733073
 21
62.3832394089
  0
LINE
  5
267
100
AcDbEntity
  8
0
100
AcDbLine
 62
7
  6
BYLAYER
 10
39.8940818507
 20
38.6292223043
 11
39.8940818507
 21
35.9347643278
  0
LINE
  5
268
100
AcDbEntity
  8
0
100
AcDbLine
 62
7
  6
BYLAYER
 10
39.8940818507
 20
32.4238039341
 11
39.8940818507
 21
29.7293459576
  0
LINE
  5
269
100
AcDbEntity
  8
0
100
AcDbLine
 62
7
  6
BYLAYER
 10
39.8940818507
 20
26.2183855639
 11
39.8940818507
 21
23.5239275874
  0
LINE
  5
26A
100
AcDbEntity
  8
0
100
AcDbLine
 62
7
  6
BYLAYER
 10
40.1769233856
 20
38.4659273622
 11
40.1769233856
 21
36.0980619893
  0
LINE
  5
26B
100
AcDbEntity
  8
0
100
AcDbLine
 62
7
  6
BYLAYER
 10
40.1769233856
 20
32.260508992
 11
40.1769233856
 21
29.8926436191
  0
LINE
  5
26C
100
AcDbEntity
  8
0
100
AcDbLine
 62
7
  6
BYLAYER
 10
40.1769233856
 20
26.0550906219
 11
40.1769233856
 21
23.687225249
  0
LINE
  5
26D
100
AcDbEntity
  8
0
100
AcDbLine
 62
7
  6
BYLAYER
 10
40.6011915759
 20
23.1156868329
 11
40.6011915759
 21
25.8101448094
  0
LINE
  5
26E
100
AcDbEntity
  8
0
100
AcDbLine
 62
7
  6
BYLAYER
 10
40.6011915759
 20
29.3211052031
 11
40.6011915759
 21
32.0155631796
  0
LINE
  5
26F
100
AcDbEntity
  8
0
100
AcDbLine
 62
7
  6
BYLAYER
 10
40.6011915759
 20
35.5265235733
 11
40.6011915759
 21
38.2209815498
  0
LINE
  5
270
100
AcDbEntity
  8
0
100
AcDbLine
 62
7
  6
BYLAYER
 10
42.4750454709
 20
11.6605582078
 11
42.4750454709
 21
45.875711837
  0
LINE
  5
271
100
AcDbEntity
  8
0
100
AcDbLine
 62
7
  6
BYLAYER
 10
42.4750454709
 20
46.0390123204
 11
42.4750454709
 21
48.4084306343
  0
LINE
  5
272
100
AcDbEntity
  8
0
100
AcDbLine
 62
7
  6
BYLAYER
 10
18.0161069547
 20
24.1441459763
 11
18.2989484896
 21
24.3074436378
  0
LINE
  5
273
100
AcDbEntity
  8
0
100
AcDbLine
 62
7
  6
BYLAYER
 10
17.3671669262
 20
23.7104658076
 11
17.5466809978
 21
23.8141076865
  0
LINE
  5
274
100
AcDbEntity
  8
0
100
AcDbLine
 62
7
  6
BYLAYER
 10
40.1769233856
 20
36.0980619893
 11
39.8940818507
 21
35.9347643278
  0
LINE
  5
275
100
AcDbEntity
  8
0
100
AcDbLine
 62
7
  6
BYLAYER
 10
12.0693141662
 20
66.3401694416
 11
9.2408752656
 21
67.9731324597
  0
LINE
  5
276
100
AcDbEntity
  8
0
100
AcDbLine
 62
7
  6
BYLAYER
 10
41.058249503
 20
50.8542145881
 11
13.5330312973
 21
66.7455472187
  0
LINE
  5
277
100
AcDbEntity
  8
0
100
AcDbLine
 62
7
  6
BYLAYER
 10
13.3916093522
 20
66.8271953696
 11
9.2366900649
 21
69.2259848707
  0
LINE
  5
278
100
AcDbEntity
  8
0
100
AcDbLine
 62
7
  6
BYLAYER
 10
43.1798932335
 20
40.6473526334
 11
43.1798932335
 21
19.422699045
  0
LINE
  5
279
100
AcDbEntity
  8
0
100
AcDbLine
 62
7
  6
BYLAYER
 10
44.5963569825
 20
17.3797563151
 11
44.5963569825
 21
14.9302490637
  0
LINE
  5
27A
100
AcDbEntity
  8
0
100
AcDbLine
 62
7
  6
BYLAYER
 10
40.1769233856
 20
29.8926436191
 11
39.8940818507
 21
29.7293459576
  0
LINE
  5
27B
100
AcDbEntity
  8
0
100
AcDbLine
 62
7
  6
BYLAYER
 10
54.2152097646
 20
47.3451680487
 11
54.498066778
 21
47.1818641703
  0
LINE
  5
27C
100
AcDbEntity
  8
0
100
AcDbLine
 62
7
  6
BYLAYER
 10
36.1110448212
 20
16.9714397608
 11
37.5252642715
 21
18.9834055937
  0
LINE
  5
27D
100
AcDbEntity
  8
0
100
AcDbLine
 62
7
  6
BYLAYER
 10
37.5533851766
 20
18.9636392884
 11
36.1817552049
 21
17.0122641762
  0
LINE
  5
27E
100
AcDbEntity
  8
0
100
AcDbLine
 62
7
  6
BYLAYER
 10
22.9239444422
 20
20.0829186838
 11
22.3750048806
 21
19.8022646837
  0
LINE
  5
27F
100
AcDbEntity
  8
0
100
AcDbLine
 62
7
  6
BYLAYER
 10
22.0311637897
 20
19.6468737382
 11
22.3750048806
 21
19.8022646837
  0
LINE
  5
280
100
AcDbEntity
  8
0
100
AcDbLine
 62
7
  6
BYLAYER
 10
22.1807612534
 20
20.1270506655
 11
22.8525831595
 21
20.4063036909
  0
LINE
  5
281
100
AcDbEntity
  8
0
100
AcDbLine
 62
7
  6
BYLAYER
 10
52.7987460157
 20
22.1153795636
 11
52.7987460157
 21
19.9924827886
  0
LINE
  5
282
100
AcDbEntity
  8
0
100
AcDbLine
 62
7
  6
BYLAYER
 10
53.0816030291
 20
19.8291789102
 11
53.0816030291
 21
22.2786861616
  0
LINE
  5
283
100
AcDbEntity
  8
0
100
AcDbLine
 62
7
  6
BYLAYER
 10
40.1769233856
 20
23.687225249
 11
39.8940818507
 21
23.5239275874
  0
LINE
  5
284
100
AcDbEntity
  8
0
100
AcDbLine
 62
7
  6
BYLAYER
 10
35.8518667311
 20
21.0102113573
 11
35.5690251962
 21
20.8469136957
  0
LINE
  5
285
100
AcDbEntity
  8
0
100
AcDbLine
 62
7
  6
BYLAYER
 10
35.870956141
 20
20.8166780032
 11
36.1537976759
 21
20.9799756648
  0
LINE
  5
286
100
AcDbEntity
  8
0
100
AcDbLine
 62
7
  6
BYLAYER
 10
55.2029145407
 20
53.2241066067
 11
55.0614901518
 21
53.3057561685
  0
LINE
  5
287
100
AcDbEntity
  8
0
100
AcDbLine
 62
7
  6
BYLAYER
 10
54.2152097646
 20
26.1205144603
 11
54.2152097646
 21
47.3451680487
  0
LINE
  5
288
100
AcDbEntity
  8
0
100
AcDbLine
 62
7
  6
BYLAYER
 10
54.498066778
 20
25.9572105819
 11
54.498066778
 21
47.1818641703
  0
LINE
  5
289
100
AcDbEntity
  8
0
100
AcDbLine
 62
7
  6
BYLAYER
 10
55.2029145407
 20
55.756825404
 11
55.2029145407
 21
53.3874070901
  0
LINE
  5
28A
100
AcDbEntity
  8
0
100
AcDbLine
 62
7
  6
BYLAYER
 10
55.2029145407
 20
53.2241066067
 11
55.2029145407
 21
19.0089529775
  0
LINE
  5
28B
100
AcDbEntity
  8
0
100
AcDbLine
 62
7
  6
BYLAYER
 10
36.8863455911
 20
20.5570484966
 11
36.6035040562
 21
20.3937508351
  0
LINE
  5
28C
100
AcDbEntity
  8
0
100
AcDbLine
 62
7
  6
BYLAYER
 10
21.9645591348
 20
76.5743796404
 11
26.1194784221
 21
74.1755901393
  0
LINE
  5
28D
100
AcDbEntity
  8
0
100
AcDbLine
 62
7
  6
BYLAYER
 10
26.2609003671
 20
74.0939419883
 11
53.7861185728
 21
58.2026093578
  0
LINE
  5
28E
100
AcDbEntity
  8
0
100
AcDbLine
 62
7
  6
BYLAYER
 10
41.7679226224
 20
13.7055137246
 11
40.3537031721
 21
11.6935478917
  0
LINE
  5
28F
100
AcDbEntity
  8
0
100
AcDbLine
 62
7
  6
BYLAYER
 10
36.1110448212
 20
16.9714397608
 11
36.1817552049
 21
17.0122641762
  0
LINE
  5
290
100
AcDbEntity
  8
0
100
AcDbLine
 62
7
  6
BYLAYER
 10
35.1636504938
 20
14.5708236677
 11
34.8808089589
 21
14.4075260061
  0
LINE
  5
291
100
AcDbEntity
  8
0
100
AcDbLine
 62
7
  6
BYLAYER
 10
44.3138203907
 20
18.7679988136
 11
52.7984255941
 21
23.6665586713
  0
LINE
  5
292
100
AcDbEntity
  8
0
100
AcDbLine
 62
7
  6
BYLAYER
 10
44.5966774041
 20
18.6046949352
 11
53.0812826074
 21
23.5032547929
  0
LINE
  5
293
100
AcDbEntity
  8
0
100
AcDbLine
 62
7
  6
BYLAYER
 10
37.5252642715
 20
13.3265109098
 11
37.5959746552
 21
13.3673353252
  0
LINE
  5
294
100
AcDbEntity
  8
0
100
AcDbLine
 62
7
  6
BYLAYER
 10
53.0816030291
 20
22.2786861616
 11
44.5963569825
 21
17.3797563151
  0
LINE
  5
295
100
AcDbEntity
  8
0
100
AcDbLine
 62
7
  6
BYLAYER
 10
52.7987460157
 20
19.9924827886
 11
44.5963569825
 21
15.2568595401
  0
LINE
  5
296
100
AcDbEntity
  8
0
100
AcDbLine
 62
7
  6
BYLAYER
 10
44.5963569825
 20
14.9302490637
 11
53.0816030291
 21
19.8291789102
  0
LINE
  5
297
100
AcDbEntity
  8
0
100
AcDbLine
 62
7
  6
BYLAYER
 10
55.2029145407
 20
19.0089529775
 11
42.4750454709
 21
11.6605582078
  0
LINE
  5
298
100
AcDbEntity
  8
0
100
AcDbLine
 62
7
  6
BYLAYER
 10
54.5865962835
 20
17.6306141067
 11
41.8587272137
 21
10.282219337
  0
ARC
  5
299
100
AcDbEntity
  8
0
100
AcDbCircle
 62
7
  6
BYLAYER
 10
19.6624252076
 20
28.0818896344
 40
8.3121441389
100
AcDbArc
 50
292.5689473657
 51
293.5839306077
  0
ARC
  5
29A
100
AcDbEntity
  8
0
100
AcDbCircle
 62
7
  6
BYLAYER
 10
17.8419879593
 20
26.2871382398
 40
7.1145166419
100
AcDbArc
 50
245.7132526765
 51
248.6024192217
  0
ARC
  5
29B
100
AcDbEntity
  8
0
100
AcDbCircle
 62
7
  6
BYLAYER
 10
19.4899223248
 20
26.1883628265
 40
7.0075506829
100
AcDbArc
 50
291.3163918522
 51
294.312225505
  0
ARC
  5
29C
100
AcDbEntity
  8
0
100
AcDbCircle
 62
7
  6
BYLAYER
 10
20.2858722617
 20
24.664895427
 40
5.2871481637
100
AcDbArc
 50
299.9311771179
 51
304.3987656341
  0
ARC
  5
29D
100
AcDbEntity
  8
0
100
AcDbCircle
 62
7
  6
BYLAYER
 10
20.9487197668
 20
17.458913476
 40
4.5520031499
100
AcDbArc
 50
308.9565873024
 51
309.3295366284
  0
ARC
  5
29E
100
AcDbEntity
  8
0
100
AcDbCircle
 62
7
  6
BYLAYER
 10
52.3833248208
 20
18.9929683759
 40
2.8196350289
100
AcDbArc
 50
0.00026566
 51
0.3248133549
  0
ARC
  5
29F
100
AcDbEntity
  8
0
100
AcDbCircle
 62
7
  6
BYLAYER
 10
39.6554557524
 20
11.6445736062
 40
2.8196350274
100
AcDbArc
 50
0.0002656599
 51
0.324813355
  0
ARC
  5
2A0
100
AcDbEntity
  8
0
100
AcDbCircle
 62
7
  6
BYLAYER
 10
36.239961661
 20
47.1484775478
 40
0.9270809828
100
AcDbArc
 50
359.4664857552
 51
0.0007174673
  0
ARC
  5
2A1
100
AcDbEntity
  8
0
100
AcDbCircle
 62
7
  6
BYLAYER
 10
36.4076809166
 20
20.719001134
 40
0.7593795972
100
AcDbArc
 50
0.0012633292
 51
0.7085230456
  0
ARC
  5
2A2
100
AcDbEntity
  8
0
100
AcDbCircle
 62
7
  6
BYLAYER
 10
8.8669990292
 20
61.8267736199
 40
0.7593795971
100
AcDbArc
 50
180.0012633291
 51
180.7085230453
  0
ARC
  5
2A3
100
AcDbEntity
  8
0
100
AcDbCircle
 62
7
  6
BYLAYER
 10
8.5841574943
 20
61.6634759584
 40
0.7593795971
100
AcDbArc
 50
180.0012633291
 51
180.7085230453
  0
ARC
  5
2A4
100
AcDbEntity
  8
0
100
AcDbCircle
 62
7
  6
BYLAYER
 10
34.6973705533
 20
14.7172374368
 40
0.7471003966
100
AcDbArc
 50
0.0036151503
 51
1.1990589344
  0
ARC
  5
2A5
100
AcDbEntity
  8
0
100
AcDbCircle
 62
7
  6
BYLAYER
 10
13.6279381977
 20
59.1187756298
 40
0.5564245978
100
AcDbArc
 50
0.0013343273
 51
0.7281715576
  0
ARC
  5
2A6
100
AcDbEntity
  8
0
100
AcDbCircle
 62
7
  6
BYLAYER
 10
13.9107797326
 20
59.2820732914
 40
0.5564245978
100
AcDbArc
 50
0.0013343273
 51
0.7281715576
  0
SPLINE
  5
2A7
100
AcDbEntity
  8
0
100
AcDbSpline
 62
7
  6
BYLAYER
 70
0
 71
3
 72
26
 73
22
 74
0
 42
0.0000001
 43
0.0000001
 44
0.0000000001
 40
0.0
 40
0.0
 40
0.0
 40
0.0
 40
0.0623759095
 40
0.1287184777
 40
0.1983047651
 40
0.2702786463
 40
0.3436516668
 40
0.4173812746
 40
0.49040344
 40
0.5616873053
 40
0.6302814859
 40
0.6953658561
 40
0.756310415
 40
0.8127449477
 40
0.8392685624
 40
0.8646905799
 40
0.9124626479
 40
0.9351058538
 40
0.9571098652
 40
0.9786691389
 40
1.0
 40
1.0
 40
1.0
 40
1.0
 10
22.3362961146
 20
11.7782376327
 30
0.0
 10
22.1487745842
 20
11.6699726729
 30
0.0
 10
21.7468743538
 20
11.4718277094
 30
0.0
 10
21.0985859413
 20
11.2369060407
 30
0.0
 10
20.3979836271
 20
11.0590754212
 30
0.0
 10
19.6601182803
 20
10.9420575714
 30
0.0
 10
18.9005868927
 20
10.8883682689
 30
0.0
 10
18.1356129831
 20
10.899124661
 30
0.0
 10
17.3815086812
 20
10.9741179292
 30
0.0
 10
16.654351193
 20
11.1117476692
 30
0.0
 10
15.9695975977
 20
11.3090953355
 30
0.0
 10
15.3416874113
 20
11.5620634874
 30
0.0
 10
14.7839246224
 20
11.8654205373
 30
0.0
 10
14.3790028008
 20
12.1612696238
 30
0.0
 10
14.1037027216
 20
12.4183501909
 30
0.0
 10
13.8716136238
 20
12.6755331858
 30
0.0
 10
13.6831011106
 20
12.9529739268
 30
0.0
 10
13.5490999835
 20
13.2451284624
 30
0.0
 10
13.4780623286
 20
13.4643045426
 30
0.0
 10
13.4352160279
 20
13.6860301164
 30
0.0
 10
13.4256798158
 20
13.8350922275
 30
0.0
 10
13.4256796601
 20
13.9091398903
 30
0.0
  0
SPLINE
  5
2A8
100
AcDbEntity
  8
0
100
AcDbSpline
 62
7
  6
BYLAYER
 70
0
 71
3
 72
23
 73
19
 74
0
 42
0.0000001
 43
0.0000001
 44
0.0000000001
 40
0.0
 40
0.0
 40
0.0
 40
0.0
 40
0.0569384039
 40
0.1167080113
 40
0.1789491267
 40
0.2432940806
 40
0.3092916315
 40
0.3764469309
 40
0.4442403651
 40
0.5121350252
 40
0.5795922403
 40
0.6460830511
 40
0.7111032627
 40
0.7741861142
 40
0.8349161654
 40
0.8929490644
 40
0.9480269029
 40
1.0
 40
1.0
 40
1.0
 40
1.0
 10
23.1332438465
 20
13.4573653309
 30
0.0
 10
22.9654962399
 20
13.3605167832
 30
0.0
 10
22.6118861972
 20
13.1785925055
 30
0.0
 10
22.0483345741
 20
12.9467316458
 30
0.0
 10
21.4445009244
 20
12.7516447921
 30
0.0
 10
20.8076564154
 20
12.5956206687
 30
0.0
 10
20.1452337336
 20
12.480437087
 30
0.0
 10
19.4650671001
 20
12.407481573
 30
0.0
 10
18.7752037527
 20
12.3776323577
 30
0.0
 10
18.0838037246
 20
12.3912072155
 30
0.0
 10
17.399047985
 20
12.4480563958
 30
0.0
 10
16.7290395083
 20
12.547534941
 30
0.0
 10
16.0816908057
 20
12.6884307463
 30
0.0
 10
15.4646384166
 20
12.8691010372
 30
0.0
 10
14.8851630908
 20
13.0874549805
 30
0.0
 10
14.3500334222
 20
13.3409420973
 30
0.0
 10
13.8656003317
 20
13.6266045597
 30
0.0
 10
13.5715080438
 20
13.8428190004
 30
0.0
 10
13.4354473986
 20
13.9557263011
 30
0.0
  0
SPLINE
  5
2A9
100
AcDbEntity
  8
0
100
AcDbSpline
 62
7
  6
BYLAYER
 70
0
 71
3
 72
13
 73
9
 74
0
 42
0.0000001
 43
0.0000001
 44
0.0000000001
 40
0.0
 40
0.0
 40
0.0
 40
0.0
 40
0.2784588622
 40
0.5339657255
 40
0.6547545897
 40
0.7719409372
 40
0.8866167113
 40
1.0
 40
1.0
 40
1.0
 40
1.0
 10
13.4354473986
 20
13.9557263011
 30
0.0
 10
13.2598440454
 20
14.1014473552
 30
0.0
 10
12.9433736992
 20
14.4070874863
 30
0.0
 10
12.6321084837
 20
14.8492521224
 30
0.0
 10
12.4584691366
 20
15.2154042153
 30
0.0
 10
12.3664860789
 20
15.4901584053
 30
0.0
 10
12.3110018158
 20
15.7683405219
 30
0.0
 10
12.2986138186
 20
15.9554600057
 30
0.0
 10
12.2986197748
 20
16.0483751796
 30
0.0
  0
SPLINE
  5
2AA
100
AcDbEntity
  8
0
100
AcDbSpline
 62
7
  6
BYLAYER
 70
0
 71
3
 72
15
 73
11
 74
0
 42
0.0000001
 43
0.0000001
 44
0.0000000001
 40
0.0
 40
0.0
 40
0.0
 40
0.0
 40
0.1529919163
 40
0.2975835593
 40
0.4333272114
 40
0.5602255383
 40
0.67882866
 40
0.7903231903
 40
0.8965645612
 40
1.0
 40
1.0
 40
1.0
 40
1.0
 10
14.4381801545
 20
20.4063037523
 30
0.0
 10
14.2135332461
 20
20.4996800527
 30
0.0
 10
13.7840525395
 20
20.7002218479
 30
0.0
 10
13.1901056055
 20
21.0518741262
 30
0.0
 10
12.6713251057
 20
21.4419316835
 30
0.0
 10
12.2349707897
 20
21.8654151477
 30
0.0
 10
11.8873462544
 20
22.317044386
 30
0.0
 10
11.6339651958
 20
22.7912085753
 30
0.0
 10
11.4795585085
 20
23.2812265643
 30
0.0
 10
11.4447866731
 20
23.6155990729
 30
0.0
 10
11.4447869605
 20
23.7800771609
 30
0.0
  0
SPLINE
  5
2AB
100
AcDbEntity
  8
0
100
AcDbSpline
 62
7
  6
BYLAYER
 70
0
 71
3
 72
11
 73
7
 74
0
 42
0.0000001
 43
0.0000001
 44
0.0000000001
 40
0.0
 40
0.0
 40
0.0
 40
0.0
 40
0.2620352552
 40
0.5140041052
 40
0.7588499244
 40
1.0
 40
1.0
 40
1.0
 40
1.0
 10
12.6908924277
 20
21.4965543679
 30
0.0
 10
12.6276457289
 20
21.3975821766
 30
0.0
 10
12.5151399725
 20
21.195665603
 30
0.0
 10
12.3906992909
 20
20.8779309943
 30
0.0
 10
12.315440507
 20
20.5546198604
 30
0.0
 10
12.2986267039
 20
20.3364207641
 30
0.0
 10
12.2986197748
 20
20.2283275093
 30
0.0
  0
SPLINE
  5
2AC
100
AcDbEntity
  8
0
100
AcDbSpline
 62
7
  6
BYLAYER
 70
0
 71
3
 72
15
 73
11
 74
0
 42
0.0000001
 43
0.0000001
 44
0.0000000001
 40
0.0
 40
0.0
 40
0.0
 40
0.0
 40
0.1171641653
 40
0.2408973991
 40
0.3692623431
 40
0.500006889
 40
0.6307537248
 40
0.759118637
 40
0.8828565825
 40
1.0
 40
1.0
 40
1.0
 40
1.0
 10
22.0311484649
 20
19.6468850399
 30
0.0
 10
21.7837564838
 20
19.5350666764
 30
0.0
 10
21.2595779235
 20
19.3385562287
 30
0.0
 10
20.4283799575
 20
19.1292873863
 30
0.0
 10
19.5490377281
 20
19.0013753466
 30
0.0
 10
18.6453268741
 20
18.9583781678
 30
0.0
 10
17.7416177987
 20
19.0013918389
 30
0.0
 10
16.862258194
 20
19.1293031336
 30
0.0
 10
16.0311065391
 20
19.3386030653
 30
0.0
 10
15.5069598861
 20
19.5350878669
 30
0.0
 10
15.2596092302
 20
19.6468809341
 30
0.0
  0
SPLINE
  5
2AD
100
AcDbEntity
  8
0
100
AcDbSpline
 62
7
  6
BYLAYER
 70
0
 71
3
 72
11
 73
7
 74
0
 42
0.0000001
 43
0.0000001
 44
0.0000000001
 40
0.0
 40
0.0
 40
0.0
 40
0.0
 40
0.2684930592
 40
0.52492258
 40
0.7687848879
 40
1.0
 40
1.0
 40
1.0
 40
1.0
 10
14.9157620974
 20
19.8022674429
 30
0.0
 10
14.7686925094
 20
19.8687271484
 30
0.0
 10
14.4856732519
 20
20.0090130033
 30
0.0
 10
14.0887780902
 20
20.2467254948
 30
0.0
 10
13.7323096654
 20
20.5051459448
 30
0.0
 10
13.5179953035
 20
20.6947800257
 30
0.0
 10
13.4192035775
 20
20.7925349267
 30
0.0
  0
SPLINE
  5
2AE
100
AcDbEntity
  8
0
100
AcDbSpline
 62
7
  6
BYLAYER
 70
0
 71
3
 72
14
 73
10
 74
0
 42
0.0000001
 43
0.0000001
 44
0.0000000001
 40
0.0
 40
0.0
 40
0.0
 40
0.0
 40
0.1131683407
 40
0.2276496534
 40
0.3446864968
 40
0.4653820427
 40
0.5906657336
 40
0.7212481963
 40
1.0
 40
1.0
 40
1.0
 40
1.0
 10
24.9921434626
 20
16.04837518
 30
0.0
 10
24.992137448
 20
15.9545483258
 30
0.0
 10
24.9795100204
 20
15.7655714479
 30
0.0
 10
24.9229420296
 20
15.4846677376
 30
0.0
 10
24.8291240964
 20
15.2073261203
 30
0.0
 10
24.6988039266
 20
14.935282263
 30
0.0
 10
24.5327851541
 20
14.6701309845
 30
0.0
 10
24.2596138816
 20
14.3203162194
 30
0.0
 10
24.0124534018
 20
14.0843513804
 30
0.0
 10
23.8336870117
 20
13.9378771695
 30
0.0
  0
SPLINE
  5
2AF
100
AcDbEntity
  8
0
100
AcDbSpline
 62
7
  6
BYLAYER
 70
0
 71
3
 72
9
 73
5
 74
0
 42
0.0000001
 43
0.0000001
 44
0.0000000001
 40
0.0
 40
0.0
 40
0.0
 40
0.0
 40
0.2418562858
 40
1.0
 40
1.0
 40
1.0
 40
1.0
 10
23.8107069491
 20
13.9191730837
 30
0.0
 10
23.7592773985
 20
13.8775902661
 30
0.0
 10
23.542912777
 20
13.7102790576
 30
0.0
 10
23.3127879937
 20
13.5610245739
 30
0.0
 10
23.1332438465
 20
13.4573653309
 30
0.0
  0
SPLINE
  5
2B0
100
AcDbEntity
  8
0
100
AcDbSpline
 62
7
  6
BYLAYER
 70
0
 71
3
 72
15
 73
11
 74
0
 42
0.0000001
 43
0.0000001
 44
0.0000000001
 40
0.0
 40
0.0
 40
0.0
 40
0.0
 40
0.1080111784
 40
0.218057787
 40
0.3319951378
 40
0.4513555536
 40
0.5772633803
 40
0.7104881291
 40
0.8514445735
 40
1.0
 40
1.0
 40
1.0
 40
1.0
 10
23.8650835773
 20
13.9091399158
 30
0.0
 10
23.8650837851
 20
13.8103255813
 30
0.0
 10
23.8479452538
 20
13.6104313096
 30
0.0
 10
23.7713326851
 20
13.3151867594
 30
0.0
 10
23.6449118203
 20
13.0262922446
 30
0.0
 10
23.4702422902
 20
12.746700581
 30
0.0
 10
23.2493278799
 20
12.478908424
 30
0.0
 10
22.9843736879
 20
12.2252825565
 30
0.0
 10
22.6780346021
 20
11.9882247215
 30
0.0
 10
22.4539946465
 20
11.8461905062
 30
0.0
 10
22.3362961146
 20
11.7782376327
 30
0.0
  0
SPLINE
  5
2B1
100
AcDbEntity
  8
0
100
AcDbSpline
 62
7
  6
BYLAYER
 70
0
 71
3
 72
11
 73
7
 74
0
 42
0.0000001
 43
0.0000001
 44
0.0000000001
 40
0.0
 40
0.0
 40
0.0
 40
0.0
 40
0.2220749195
 40
0.461120121
 40
0.7201616047
 40
1.0
 40
1.0
 40
1.0
 40
1.0
 10
23.7304339442
 20
20.0696883081
 30
0.0
 10
23.6740254134
 20
19.9290829197
 30
0.0
 10
23.5233537801
 20
19.6498950597
 30
0.0
 10
23.2101827497
 20
19.2682535638
 30
0.0
 10
22.8098274669
 20
18.9168763035
 30
0.0
 10
22.5016244986
 20
18.7143456652
 30
0.0
 10
22.3362961146
 20
18.618893848
 30
0.0
  0
SPLINE
  5
2B2
100
AcDbEntity
  8
0
100
AcDbSpline
 62
7
  6
BYLAYER
 70
0
 71
3
 72
26
 73
22
 74
0
 42
0.0000001
 43
0.0000001
 44
0.0000000001
 40
0.0
 40
0.0
 40
0.0
 40
0.0
 40
0.0623760196
 40
0.1287184444
 40
0.198304287
 40
0.2702785553
 40
0.3436519814
 40
0.4173804554
 40
0.4904017301
 40
0.561685085
 40
0.6302791634
 40
0.6953638038
 40
0.7563088614
 40
0.8127439705
 40
0.8392678549
 40
0.8646901204
 40
0.912462548
 40
0.9351058824
 40
0.9571099593
 40
0.9786692246
 40
1.0
 40
1.0
 40
1.0
 40
1.0
 10
22.3362961146
 20
18.618893848
 30
0.0
 10
22.1487741268
 20
18.5106286241
 30
0.0
 10
21.7468736709
 20
18.3124836774
 30
0.0
 10
21.0985865166
 20
18.0775622079
 30
0.0
 10
20.3979847346
 20
17.8997301788
 30
0.0
 10
19.6601175143
 20
17.782713291
 30
0.0
 10
18.9005869596
 20
17.729021877
 30
0.0
 10
18.1356181511
 20
17.7397787393
 30
0.0
 10
17.3815219855
 20
17.814769254
 30
0.0
 10
16.654368703
 20
17.9523958568
 30
0.0
 10
15.9696151982
 20
18.1497412487
 30
0.0
 10
15.3417015988
 20
18.4027083707
 30
0.0
 10
14.7839333474
 20
18.7060660224
 30
0.0
 10
14.3790063356
 20
19.0019166027
 30
0.0
 10
14.1037029027
 20
19.2589995153
 30
0.0
 10
13.8716108915
 20
19.5161843308
 30
0.0
 10
13.6830971363
 20
19.7936276222
 30
0.0
 10
13.5490948641
 20
20.085784036
 30
0.0
 10
13.4780582563
 20
20.3049612923
 30
0.0
 10
13.4352114743
 20
20.5266867709
 30
0.0
 10
13.4256752962
 20
20.6757487028
 30
0.0
 10
13.4256753873
 20
20.7497961183
 30
0.0
  0
SPLINE
  5
2B3
100
AcDbEntity
  8
0
100
AcDbSpline
 62
7
  6
BYLAYER
 70
0
 71
3
 72
15
 73
11
 74
0
 42
0.0000001
 43
0.0000001
 44
0.0000000001
 40
0.0
 40
0.0
 40
0.0
 40
0.0
 40
0.1180434689
 40
0.2419430409
 40
0.3699244256
 40
0.4999990791
 40
0.6300735709
 40
0.7580557438
 40
0.8819544925
 40
1.0
 40
1.0
 40
1.0
 40
1.0
 10
15.1100088839
 20
20.1270561987
 30
0.0
 10
15.3728745237
 20
20.0177931295
 30
0.0
 10
15.9253515678
 20
19.8258736126
 30
0.0
 10
16.7950685433
 20
19.6213271092
 30
0.0
 10
17.7090571996
 20
19.4965863769
 30
0.0
 10
18.6453773244
 20
19.4546804926
 30
0.0
 10
19.5816994385
 20
19.4965825962
 30
0.0
 10
20.4956882482
 20
19.6213221529
 30
0.0
 10
21.365408652
 20
19.8258693345
 30
0.0
 10
21.9178955608
 20
20.0177736834
 30
0.0
 10
22.1807604853
 20
20.1270512814
 30
0.0
  0
SPLINE
  5
2B4
100
AcDbEntity
  8
0
100
AcDbSpline
 62
7
  6
BYLAYER
 70
0
 71
3
 72
15
 73
11
 74
0
 42
0.0000001
 43
0.0000001
 44
0.0000000001
 40
0.0
 40
0.0
 40
0.0
 40
0.0
 40
0.1180428777
 40
0.2419429728
 40
0.3699246846
 40
0.4999995625
 40
0.6300744448
 40
0.7580562084
 40
0.8819561618
 40
1.0
 40
1.0
 40
1.0
 40
1.0
 10
22.8525838471
 20
20.4063031395
 30
0.0
 10
22.5397711741
 20
20.2762687623
 30
0.0
 10
21.8823013068
 20
20.0478938676
 30
0.0
 10
20.8473143166
 20
19.8044704866
 30
0.0
 10
19.7596367982
 20
19.6560284351
 30
0.0
 10
18.6453856781
 20
19.6061586013
 30
0.0
 10
17.5311340837
 20
19.6560272537
 30
0.0
 10
16.4434575667
 20
19.8044707703
 30
0.0
 10
15.4084650594
 20
20.0478865246
 30
0.0
 10
14.7509993657
 20
20.2762779227
 30
0.0
 10
14.4381801545
 20
20.4063037523
 30
0.0
  0
SPLINE
  5
2B5
100
AcDbEntity
  8
0
100
AcDbSpline
 62
7
  6
BYLAYER
 70
0
 71
3
 72
26
 73
22
 74
0
 42
0.0000001
 43
0.0000001
 44
0.0000000001
 40
0.0
 40
0.0
 40
0.0
 40
0.0
 40
0.0213304502
 40
0.0428894533
 40
0.0648930589
 40
0.0875364689
 40
0.1109840732
 40
0.1353696547
 40
0.1872670299
 40
0.2437009707
 40
0.304645054
 40
0.3697290111
 40
0.4383225065
 40
0.5096050748
 40
0.5826252275
 40
0.6563525533
 40
0.7297250666
 40
0.8016980669
 40
0.8712844536
 40
0.9376229684
 40
1.0
 40
1.0
 40
1.0
 40
1.0
 10
12.2986197748
 20
20.2283275093
 30
0.0
 10
12.2986140032
 20
20.138291808
 30
0.0
 10
12.3102358827
 20
19.9570462887
 30
0.0
 10
12.3623211172
 20
19.6874414422
 30
0.0
 10
12.4486759047
 20
19.4209484064
 30
0.0
 10
12.5688007876
 20
19.1591591956
 30
0.0
 10
12.7218451968
 20
18.9034138427
 30
0.0
 10
12.9738601708
 20
18.5654603746
 30
0.0
 10
13.3712657346
 20
18.1662563919
 30
0.0
 10
13.9500760136
 20
17.7433768982
 30
0.0
 10
14.6283818727
 20
17.3744260677
 30
0.0
 10
15.3918454534
 20
17.0668624853
 30
0.0
 10
16.2244659402
 20
16.8269030929
 30
0.0
 10
17.1086277545
 20
16.659569353
 30
0.0
 10
18.02554992
 20
16.5683890084
 30
0.0
 10
18.9556909698
 20
16.5553057757
 30
0.0
 10
19.8792190184
 20
16.6205884283
 30
0.0
 10
20.7764149578
 20
16.7628633769
 30
0.0
 10
21.6282811288
 20
16.9791034103
 30
0.0
 10
22.4165530112
 20
17.2647381401
 30
0.0
 10
22.9052250155
 20
17.5056717129
 30
0.0
 10
23.1332438465
 20
17.6373176606
 30
0.0
  0
SPLINE
  5
2B6
100
AcDbEntity
  8
0
100
AcDbSpline
 62
7
  6
BYLAYER
 70
0
 71
3
 72
15
 73
11
 74
0
 42
0.0000001
 43
0.0000001
 44
0.0000000001
 40
0.0
 40
0.0
 40
0.0
 40
0.0
 40
0.1186699683
 40
0.2426970355
 40
0.3704353863
 40
0.5000672995
 40
0.6296901513
 40
0.7574008885
 40
0.8813837184
 40
1.0
 40
1.0
 40
1.0
 40
1.0
 10
22.0372914858
 20
19.6602178427
 30
0.0
 10
21.7818460233
 20
19.5603832312
 30
0.0
 10
21.2477741376
 20
19.3851422133
 30
0.0
 10
20.4110771948
 20
19.1983811266
 30
0.0
 10
19.5357869336
 20
19.0848009427
 30
0.0
 10
18.641104344
 20
19.0469168629
 30
0.0
 10
17.7465167959
 20
19.0855329983
 30
0.0
 10
16.8715072171
 20
19.199826551
 30
0.0
 10
16.0352592638
 20
19.387269349
 30
0.0
 10
15.5015699174
 20
19.5629571235
 30
0.0
 10
15.2463456954
 20
19.6630165406
 30
0.0
  0
SPLINE
  5
2B7
100
AcDbEntity
  8
0
100
AcDbSpline
 62
7
  6
BYLAYER
 70
0
 71
3
 72
12
 73
8
 74
0
 42
0.0000001
 43
0.0000001
 44
0.0000000001
 40
0.0
 40
0.0
 40
0.0
 40
0.0
 40
0.2800249477
 40
0.5390175706
 40
0.7778756543
 40
0.8907874785
 40
1.0
 40
1.0
 40
1.0
 40
1.0
 10
23.1332438465
 20
17.6373176606
 30
0.0
 10
23.3360144987
 20
17.7543866524
 30
0.0
 10
23.7137898307
 20
18.0029233298
 30
0.0
 10
24.203574076
 20
18.4343493059
 30
0.0
 10
24.5278523203
 20
18.8329092873
 30
0.0
 10
24.7245614048
 20
19.1650318825
 30
0.0
 10
24.8021663213
 20
19.3342504969
 30
0.0
 10
24.8354996078
 20
19.4192658223
 30
0.0
  0
SPLINE
  5
2B8
100
AcDbEntity
  8
0
100
AcDbSpline
 62
7
  6
BYLAYER
 70
0
 71
3
 72
14
 73
10
 74
0
 42
0.0000001
 43
0.0000001
 44
0.0000000001
 40
0.0
 40
0.0
 40
0.0
 40
0.0
 40
0.2892462924
 40
0.4225713129
 40
0.5485187968
 40
0.6678929344
 40
0.7818648239
 40
0.8919543833
 40
1.0
 40
1.0
 40
1.0
 40
1.0
 10
55.2029598496
 20
18.9929814495
 30
0.0
 10
55.2029598496
 20
18.8421550802
 30
0.0
 10
55.1853194269
 20
18.6207288526
 30
0.0
 10
55.1172838108
 20
18.342412341
 30
0.0
 10
55.0480162403
 20
18.1569556198
 30
0.0
 10
54.9597469615
 20
17.9910269042
 30
0.0
 10
54.8531224407
 20
17.8462718073
 30
0.0
 10
54.7292089808
 20
17.7242396717
 30
0.0
 10
54.635377374
 20
17.6588027325
 30
0.0
 10
54.5865851886
 20
17.6306333322
 30
0.0
  0
SPLINE
  5
2B9
100
AcDbEntity
  8
0
100
AcDbSpline
 62
7
  6
BYLAYER
 70
0
 71
3
 72
12
 73
8
 74
0
 42
0.0000001
 43
0.0000001
 44
0.0000000001
 40
0.0
 40
0.0
 40
0.0
 40
0.0
 40
0.1081605964
 40
0.2183671552
 40
0.4513455026
 40
0.710442995
 40
1.0
 40
1.0
 40
1.0
 40
1.0
 10
43.5944756963
 20
18.5047713784
 30
0.0
 10
43.5616576463
 20
18.5237183954
 30
0.0
 10
43.4985466021
 20
18.5677424559
 30
0.0
 10
43.3853892253
 20
18.6791026297
 30
0.0
 10
43.273250139
 20
18.8618388001
 30
0.0
 10
43.1952845443
 20
19.1267447312
 30
0.0
 10
43.1798932335
 20
19.3196523433
 30
0.0
 10
43.1798932335
 20
19.421100537
 30
0.0
  0
SPLINE
  5
2BA
100
AcDbEntity
  8
0
100
AcDbSpline
 62
7
  6
BYLAYER
 70
0
 71
3
 72
11
 73
7
 74
0
 42
0.0000001
 43
0.0000001
 44
0.0000000001
 40
0.0
 40
0.0
 40
0.0
 40
0.0
 40
0.2191029547
 40
0.4528198703
 40
0.7118610108
 40
1.0
 40
1.0
 40
1.0
 40
1.0
 10
14.3533911047
 20
60.9337603414
 30
0.0
 10
14.3794888917
 20
60.9488278109
 30
0.0
 10
14.4391154534
 20
60.9709274535
 30
0.0
 10
14.5382395274
 20
60.9748749472
 30
0.0
 10
14.6439985243
 20
60.9514078583
 30
0.0
 10
14.7130795392
 20
60.9203419156
 30
0.0
 10
14.747816256
 20
60.9012654244
 30
0.0
  0
SPLINE
  5
2BB
100
AcDbEntity
  8
0
100
AcDbSpline
 62
7
  6
BYLAYER
 70
0
 71
3
 72
11
 73
7
 74
0
 42
0.0000001
 43
0.0000001
 44
0.0000000001
 40
0.0
 40
0.0
 40
0.0
 40
0.0
 40
0.2177452494
 40
0.4508833356
 40
0.7104564376
 40
1.0
 40
1.0
 40
1.0
 40
1.0
 10
7.9898369875
 20
62.028207184
 30
0.0
 10
8.0161164833
 20
62.0433796834
 30
0.0
 10
8.0764786026
 20
62.0653624031
 30
0.0
 10
8.1768259331
 20
62.0678796962
 30
0.0
 10
8.2837204319
 20
62.0420163939
 30
0.0
 10
8.3532955606
 20
62.0089623852
 30
0.0
 10
8.3882375479
 20
61.9887821475
 30
0.0
  0
SPLINE
  5
2BC
100
AcDbEntity
  8
0
100
AcDbSpline
 62
7
  6
BYLAYER
 70
0
 71
3
 72
11
 73
7
 74
0
 42
0.0000001
 43
0.0000001
 44
0.0000000001
 40
0.0
 40
0.0
 40
0.0
 40
0.0
 40
0.2187088668
 40
0.4522616537
 40
0.7114705162
 40
1.0
 40
1.0
 40
1.0
 40
1.0
 10
35.5690412986
 20
20.8468857693
 30
0.0
 10
35.549617956
 20
20.8356743038
 30
0.0
 10
35.5132026767
 20
20.8053797301
 30
0.0
 10
35.473979014
 20
20.7427092825
 30
0.0
 10
35.4501211185
 20
20.6654989066
 30
0.0
 10
35.4447579265
 20
20.6092234642
 30
0.0
 10
35.4443073552
 20
20.5796405097
 30
0.0
  0
SPLINE
  5
2BD
100
AcDbEntity
  8
0
100
AcDbSpline
 62
7
  6
BYLAYER
 70
0
 71
3
 72
15
 73
11
 74
0
 42
0.0000001
 43
0.0000001
 44
0.0000000001
 40
0.0
 40
0.0
 40
0.0
 40
0.0
 40
0.1140363431
 40
0.2371676223
 40
0.3667117475
 40
0.4996861221
 40
0.6327041456
 40
0.762375694
 40
0.8857079904
 40
1.0
 40
1.0
 40
1.0
 40
1.0
 10
53.7861185728
 20
58.2026093578
 30
0.0
 10
53.8827977243
 20
58.1469009927
 30
0.0
 10
54.0738303091
 20
58.0132015003
 30
0.0
 10
54.3368351676
 20
57.7677457737
 30
0.0
 10
54.5792876669
 20
57.4774086429
 30
0.0
 10
54.7921863015
 20
57.1532320716
 30
0.0
 10
54.9675334967
 20
56.8071600524
 30
0.0
 10
55.0989447621
 20
56.4520777993
 30
0.0
 10
55.1813130248
 20
56.101301277
 30
0.0
 10
55.2025245454
 20
55.8686557092
 30
0.0
 10
55.2029145407
 20
55.756825404
 30
0.0
  0
SPLINE
  5
2BE
100
AcDbEntity
  8
0
100
AcDbSpline
 62
7
  6
BYLAYER
 70
0
 71
3
 72
11
 73
7
 74
0
 42
0.0000001
 43
0.0000001
 44
0.0000000001
 40
0.0
 40
0.0
 40
0.0
 40
0.0
 40
0.2286208998
 40
0.4667399854
 40
0.7221332183
 40
1.0
 40
1.0
 40
1.0
 40
1.0
 10
38.3968288172
 20
16.8970877738
 30
0.0
 10
38.437052723
 20
16.9203073423
 30
0.0
 10
38.5257863628
 20
16.957050885
 30
0.0
 10
38.6722620535
 20
16.97823455
 30
0.0
 10
38.8295719881
 20
16.9661393918
 30
0.0
 10
38.9347481969
 20
16.9377388313
 30
0.0
 10
38.9879867581
 20
16.9189730287
 30
0.0
  0
SPLINE
  5
2BF
100
AcDbEntity
  8
0
100
AcDbSpline
 62
7
  6
BYLAYER
 70
0
 71
3
 72
9
 73
5
 74
0
 42
0.0000001
 43
0.0000001
 44
0.0000000001
 40
0.0
 40
0.0
 40
0.0
 40
0.0
 40
0.2447014214
 40
1.0
 40
1.0
 40
1.0
 40
1.0
 10
38.9879867581
 20
16.9189730287
 30
0.0
 10
38.9978779391
 20
16.9154865342
 30
0.0
 10
39.0380986332
 20
16.9006726403
 30
0.0
 10
39.0775035173
 20
16.8836656896
 30
0.0
 10
39.1067408884
 20
16.8697703254
 30
0.0
  0
SPLINE
  5
2C0
100
AcDbEntity
  8
0
100
AcDbSpline
 62
7
  6
BYLAYER
 70
0
 71
3
 72
9
 73
5
 74
0
 42
0.0000001
 43
0.0000001
 44
0.0000000001
 40
0.0
 40
0.0
 40
0.0
 40
0.0
 40
0.2554955373
 40
1.0
 40
1.0
 40
1.0
 40
1.0
 10
40.3492593312
 20
14.7176443647
 30
0.0
 10
40.3483865737
 20
14.7067333663
 30
0.0
 10
40.3444454879
 20
14.6640727637
 30
0.0
 10
40.338363844
 20
14.6216020345
 30
0.0
 10
40.3325022464
 20
14.5902494703
 30
0.0
  0
SPLINE
  5
2C1
100
AcDbEntity
  8
0
100
AcDbSpline
 62
7
  6
BYLAYER
 70
0
 71
3
 72
11
 73
7
 74
0
 42
0.0000001
 43
0.0000001
 44
0.0000000001
 40
0.0
 40
0.0
 40
0.0
 40
0.0
 40
0.2777050148
 40
0.5331834802
 40
0.7713620506
 40
1.0
 40
1.0
 40
1.0
 40
1.0
 10
40.3325022464
 20
14.5902494703
 30
0.0
 10
40.322134001
 20
14.5347917084
 30
0.0
 10
40.2941161295
 20
14.4295262276
 30
0.0
 10
40.2259694107
 20
14.2872284624
 30
0.0
 10
40.1343871542
 20
14.1709133718
 30
0.0
 10
40.0581751913
 20
14.112435016
 30
0.0
 10
40.0179465591
 20
14.0892127192
 30
0.0
  0
SPLINE
  5
2C2
100
AcDbEntity
  8
0
100
AcDbSpline
 62
7
  6
BYLAYER
 70
0
 71
3
 72
11
 73
7
 74
0
 42
0.0000001
 43
0.0000001
 44
0.0000000001
 40
0.0
 40
0.0
 40
0.0
 40
0.0
 40
0.2286208998
 40
0.4667399854
 40
0.7221332183
 40
1.0
 40
1.0
 40
1.0
 40
1.0
 10
10.1124398113
 20
65.8868146398
 30
0.0
 10
10.1526637171
 20
65.9100342083
 30
0.0
 10
10.241397357
 20
65.946777751
 30
0.0
 10
10.3878730476
 20
65.967961416
 30
0.0
 10
10.5451829823
 20
65.9558662577
 30
0.0
 10
10.6503591911
 20
65.9274656973
 30
0.0
 10
10.7035977522
 20
65.9086998947
 30
0.0
  0
SPLINE
  5
2C3
100
AcDbEntity
  8
0
100
AcDbSpline
 62
7
  6
BYLAYER
 70
0
 71
3
 72
9
 73
5
 74
0
 42
0.0000001
 43
0.0000001
 44
0.0000000001
 40
0.0
 40
0.0
 40
0.0
 40
0.0
 40
0.2447014214
 40
1.0
 40
1.0
 40
1.0
 40
1.0
 10
10.7035977522
 20
65.9086998947
 30
0.0
 10
10.7134889332
 20
65.9052134002
 30
0.0
 10
10.7537096273
 20
65.8903995063
 30
0.0
 10
10.7931145114
 20
65.8733925556
 30
0.0
 10
10.8223518826
 20
65.8594971914
 30
0.0
  0
SPLINE
  5
2C4
100
AcDbEntity
  8
0
100
AcDbSpline
 62
7
  6
BYLAYER
 70
0
 71
3
 72
12
 73
8
 74
0
 42
0.0000001
 43
0.0000001
 44
0.0000000001
 40
0.0
 40
0.0
 40
0.0
 40
0.0
 40
0.2889865228
 40
0.5479919203
 40
0.7811523881
 40
0.8915725763
 40
1.0
 40
1.0
 40
1.0
 40
1.0
 10
53.0812826074
 20
47.9998682801
 30
0.0
 10
53.1690099518
 20
48.0496298997
 30
0.0
 10
53.3435042601
 20
48.1310001069
 30
0.0
 10
53.6111041208
 20
48.1938504887
 30
0.0
 10
53.8246352513
 20
48.1870350818
 30
0.0
 10
53.9771319482
 20
48.1443295221
 30
0.0
 10
54.0466815883
 20
48.1117314048
 30
0.0
 10
54.079453692
 20
48.0928108466
 30
0.0
  0
SPLINE
  5
2C5
100
AcDbEntity
  8
0
100
AcDbSpline
 62
7
  6
BYLAYER
 70
0
 71
3
 72
15
 73
11
 74
0
 42
0.0000001
 43
0.0000001
 44
0.0000000001
 40
0.0
 40
0.0
 40
0.0
 40
0.0
 40
0.1141596725
 40
0.2373662528
 40
0.3670251727
 40
0.5000628104
 40
0.6330917046
 40
0.7627250765
 40
0.8858914135
 40
1.0
 40
1.0
 40
1.0
 40
1.0
 10
43.1798932335
 20
40.6489511415
 30
0.0
 10
43.1798932335
 20
40.760901921
 30
0.0
 10
43.2004270019
 20
40.9938910084
 30
0.0
 10
43.2822032803
 20
41.3453673926
 30
0.0
 10
43.4132601666
 20
41.7013628465
 30
0.0
 10
43.5885954543
 20
42.0484841538
 30
0.0
 10
43.8017109471
 20
42.373750311
 30
0.0
 10
44.0446078801
 20
42.665048655
 30
0.0
 10
44.3081841968
 20
42.91135825
 30
0.0
 10
44.4997212494
 20
43.0454401248
 30
0.0
 10
44.5966774041
 20
43.1013084225
 30
0.0
  0
SPLINE
  5
2C6
100
AcDbEntity
  8
0
100
AcDbSpline
 62
7
  6
BYLAYER
 70
0
 71
3
 72
14
 73
10
 74
0
 42
0.0000001
 43
0.0000001
 44
0.0000000001
 40
0.0
 40
0.0
 40
0.0
 40
0.0
 40
0.289589014
 40
0.4230081463
 40
0.5489860041
 40
0.6683230573
 40
0.7821947682
 40
0.8921329347
 40
1.0
 40
1.0
 40
1.0
 40
1.0
 10
40.3579014961
 20
10.4370592994
 30
0.0
 10
40.4895082675
 20
10.3601508142
 30
0.0
 10
40.6916984392
 20
10.2626638799
 30
0.0
 10
40.9691936776
 20
10.1802785885
 30
0.0
 10
41.1661838932
 20
10.1463543876
 30
0.0
 10
41.3557138436
 20
10.1390543156
 30
0.0
 10
41.5359925065
 20
10.1586407777
 30
0.0
 10
41.7050965937
 20
10.2049902541
 30
0.0
 10
41.8095445384
 20
10.2538501245
 30
0.0
 10
41.8587161187
 20
10.2822385625
 30
0.0
  0
SPLINE
  5
2C7
100
AcDbEntity
  8
0
100
AcDbSpline
 62
7
  6
BYLAYER
 70
0
 71
3
 72
15
 73
11
 74
0
 42
0.0000001
 43
0.0000001
 44
0.0000000001
 40
0.0
 40
0.0
 40
0.0
 40
0.0
 40
0.1137078241
 40
0.2366875545
 40
0.3662353749
 40
0.4993243097
 40
0.6325074055
 40
0.7623299737
 40
0.8857426399
 40
1.0
 40
1.0
 40
1.0
 40
1.0
 10
36.4586044686
 20
48.3668195726
 30
0.0
 10
36.5069405039
 20
48.3395111076
 30
0.0
 10
36.602535531
 20
48.2735684335
 30
0.0
 10
36.7341847032
 20
48.1518599361
 30
0.0
 10
36.8556300254
 20
48.0073833873
 30
0.0
 10
36.9622866265
 20
47.8457275091
 30
0.0
 10
37.0500798362
 20
47.6729493334
 30
0.0
 10
37.1157585392
 20
47.4955922636
 30
0.0
 10
37.1567260812
 20
47.3204208914
 30
0.0
 10
37.1670426437
 20
47.2042743486
 30
0.0
 10
37.1670426437
 20
47.1484891568
 30
0.0
  0
SPLINE
  5
2C8
100
AcDbEntity
  8
0
100
AcDbSpline
 62
7
  6
BYLAYER
 70
0
 71
3
 72
11
 73
7
 74
0
 42
0.0000001
 43
0.0000001
 44
0.0000000001
 40
0.0
 40
0.0
 40
0.0
 40
0.0
 40
0.2914354572
 40
0.5517389755
 40
0.7841046708
 40
1.0
 40
1.0
 40
1.0
 40
1.0
 10
13.7576690739
 20
58.8888095413
 30
0.0
 10
13.7843305413
 20
58.872375818
 30
0.0
 10
13.8374995746
 20
58.8452497589
 30
0.0
 10
13.9196002566
 20
58.8231163641
 30
0.0
 10
13.9968645319
 20
58.8234920077
 30
0.0
 10
14.0433576772
 20
58.8400095058
 30
0.0
 10
14.0634528128
 20
58.8516064321
 30
0.0
  0
SPLINE
  5
2C9
100
AcDbEntity
  8
0
100
AcDbSpline
 62
7
  6
BYLAYER
 70
0
 71
3
 72
11
 73
7
 74
0
 42
0.0000001
 43
0.0000001
 44
0.0000000001
 40
0.0
 40
0.0
 40
0.0
 40
0.0
 40
0.2895217532
 40
0.5491194016
 40
0.7822617235
 40
1.0
 40
1.0
 40
1.0
 40
1.0
 10
35.4444709483
 20
14.717284576
 30
0.0
 10
35.4444709483
 20
14.6778821622
 30
0.0
 10
35.4384493725
 20
14.6029020601
 30
0.0
 10
35.408145104
 20
14.4998618271
 30
0.0
 10
35.357010733
 20
14.4162242126
 30
0.0
 10
35.3089465153
 20
14.3759061333
 30
0.0
 10
35.2832815382
 20
14.3610930706
 30
0.0
  0
SPLINE
  5
2CA
100
AcDbEntity
  8
0
100
AcDbSpline
 62
7
  6
BYLAYER
 70
0
 71
3
 72
11
 73
7
 74
0
 42
0.0000001
 43
0.0000001
 44
0.0000000001
 40
0.0
 40
0.0
 40
0.0
 40
0.0
 40
0.2895400803
 40
0.5491167136
 40
0.7822544844
 40
1.0
 40
1.0
 40
1.0
 40
1.0
 10
37.1670605136
 20
20.7190178778
 30
0.0
 10
37.1670605136
 20
20.6786665524
 30
0.0
 10
37.1608992487
 20
20.6018850158
 30
0.0
 10
37.1298595762
 20
20.4963735956
 30
0.0
 10
37.0775013319
 20
20.4107274173
 30
0.0
 10
37.0282816304
 20
20.3694428185
 30
0.0
 10
37.0020014234
 20
20.3542699084
 30
0.0
  0
SPLINE
  5
2CB
100
AcDbEntity
  8
0
100
AcDbSpline
 62
7
  6
BYLAYER
 70
0
 71
3
 72
9
 73
5
 74
0
 42
0.0000001
 43
0.0000001
 44
0.0000000001
 40
0.0
 40
0.0
 40
0.0
 40
0.0
 40
0.2554955373
 40
1.0
 40
1.0
 40
1.0
 40
1.0
 10
12.0648703253
 20
63.7073712306
 30
0.0
 10
12.0639975678
 20
63.6964602323
 30
0.0
 10
12.060056482
 20
63.6537996297
 30
0.0
 10
12.0539748381
 20
63.6113289005
 30
0.0
 10
12.0481132405
 20
63.5799763363
 30
0.0
  0
SPLINE
  5
2CC
100
AcDbEntity
  8
0
100
AcDbSpline
 62
7
  6
BYLAYER
 70
0
 71
3
 72
11
 73
7
 74
0
 42
0.0000001
 43
0.0000001
 44
0.0000000001
 40
0.0
 40
0.0
 40
0.0
 40
0.0
 40
0.2777050148
 40
0.5331834802
 40
0.7713620506
 40
1.0
 40
1.0
 40
1.0
 40
1.0
 10
12.0481132405
 20
63.5799763363
 30
0.0
 10
12.0377449951
 20
63.5245185744
 30
0.0
 10
12.0097271236
 20
63.4192530936
 30
0.0
 10
11.9415804048
 20
63.2769553284
 30
0.0
 10
11.8499981483
 20
63.1606402378
 30
0.0
 10
11.7737861854
 20
63.102161882
 30
0.0
 10
11.7335575532
 20
63.0789395852
 30
0.0
  0
SPLINE
  5
2CD
100
AcDbEntity
  8
0
100
AcDbSpline
 62
7
  6
BYLAYER
 70
0
 71
3
 72
14
 73
10
 74
0
 42
0.0000001
 43
0.0000001
 44
0.0000000001
 40
0.0
 40
0.0
 40
0.0
 40
0.0
 40
0.1080456548
 40
0.2181350412
 40
0.3321074602
 40
0.4514819449
 40
0.5774291967
 40
0.7107520055
 40
1.0
 40
1.0
 40
1.0
 40
1.0
 10
7.7399077537
 20
69.3738289672
 30
0.0
 10
7.6908002207
 20
69.3454768233
 30
0.0
 10
7.5963619767
 20
69.2796165874
 30
0.0
 10
7.4716446099
 20
69.1567969145
 30
0.0
 10
7.3643325623
 20
69.0111032312
 30
0.0
 10
7.2754918997
 20
68.8441010257
 30
0.0
 10
7.2057795845
 20
68.6574445848
 30
0.0
 10
7.1372963847
 20
68.3773305762
 30
0.0
 10
7.119536302
 20
68.1544710425
 30
0.0
 10
7.1195460902
 20
68.0026681176
 30
0.0
  0
SPLINE
  5
2CE
100
AcDbEntity
  8
0
100
AcDbSpline
 62
7
  6
BYLAYER
 70
0
 71
3
 72
14
 73
10
 74
0
 42
0.0000001
 43
0.0000001
 44
0.0000000001
 40
0.0
 40
0.0
 40
0.0
 40
0.0
 40
0.1080575066
 40
0.2181569083
 40
0.3321360417
 40
0.451513015
 40
0.5774581811
 40
0.7107753385
 40
1.0
 40
1.0
 40
1.0
 40
1.0
 10
20.4677768236
 20
76.7222237369
 30
0.0
 10
20.5168589066
 20
76.7505611874
 30
0.0
 10
20.6210571035
 20
76.799395152
 30
0.0
 10
20.7896830404
 20
76.8459885457
 30
0.0
 10
20.9694060707
 20
76.8661002654
 30
0.0
 10
21.1583408181
 20
76.8595898591
 30
0.0
 10
21.3547296797
 20
76.8267137063
 30
0.0
 10
21.6313915501
 20
76.7461009146
 30
0.0
 10
21.8331608742
 20
76.6501819068
 30
0.0
 10
21.9645591348
 20
76.5743796404
 30
0.0
  0
SPLINE
  5
2CF
100
AcDbEntity
  8
0
100
AcDbSpline
 62
7
  6
BYLAYER
 70
0
 71
3
 72
15
 73
11
 74
0
 42
0.0000001
 43
0.0000001
 44
0.0000000001
 40
0.0
 40
0.0
 40
0.0
 40
0.0
 40
0.1141246457
 40
0.2373507783
 40
0.3669802175
 40
0.5000088173
 40
0.6330295777
 40
0.76267407
 40
0.8858448296
 40
1.0
 40
1.0
 40
1.0
 40
1.0
 10
10.7258050996
 20
65.9203826167
 30
0.0
 10
10.8177538635
 20
65.8672971741
 30
0.0
 10
10.9994109546
 20
65.7399091923
 30
0.0
 10
11.2494161982
 20
65.5060991664
 30
0.0
 10
11.4797546147
 20
65.2296061469
 30
0.0
 10
11.6818363867
 20
64.9209967608
 30
0.0
 10
11.8480818096
 20
64.5916756687
 30
0.0
 10
11.9722897326
 20
64.2539739339
 30
0.0
 10
12.0498415261
 20
63.9205844404
 30
0.0
 10
12.0693069534
 20
63.6995891195
 30
0.0
 10
12.0693057381
 20
63.5933880351
 30
0.0
  0
SPLINE
  5
2D0
100
AcDbEntity
  8
0
100
AcDbSpline
 62
7
  6
BYLAYER
 70
0
 71
3
 72
15
 73
11
 74
0
 42
0.0000001
 43
0.0000001
 44
0.0000000001
 40
0.0
 40
0.0
 40
0.0
 40
0.0
 40
0.1141246457
 40
0.2373507783
 40
0.3669802175
 40
0.5000088173
 40
0.6330295777
 40
0.76267407
 40
0.8858448296
 40
1.0
 40
1.0
 40
1.0
 40
1.0
 10
39.0101941055
 20
16.9306557507
 30
0.0
 10
39.1021428694
 20
16.8775703081
 30
0.0
 10
39.2837999604
 20
16.7501823263
 30
0.0
 10
39.533805204
 20
16.5163723004
 30
0.0
 10
39.7641436206
 20
16.2398792809
 30
0.0
 10
39.9662253926
 20
15.9312698948
 30
0.0
 10
40.1324708155
 20
15.6019488027
 30
0.0
 10
40.2566787385
 20
15.2642470679
 30
0.0
 10
40.334230532
 20
14.9308575744
 30
0.0
 10
40.3536959593
 20
14.7098622535
 30
0.0
 10
40.353694744
 20
14.6036611691
 30
0.0
  0
SPLINE
  5
2D1
100
AcDbEntity
  8
0
100
AcDbSpline
 62
7
  6
BYLAYER
 70
0
 71
3
 72
11
 73
7
 74
0
 42
0.0000001
 43
0.0000001
 44
0.0000000001
 40
0.0
 40
0.0
 40
0.0
 40
0.0
 40
0.2895400803
 40
0.5491167136
 40
0.7822544844
 40
1.0
 40
1.0
 40
1.0
 40
1.0
 10
7.8247778973
 20
61.6634592146
 30
0.0
 10
7.8247778973
 20
61.70381054
 30
0.0
 10
7.8309391622
 20
61.7805920766
 30
0.0
 10
7.8619788347
 20
61.8861034969
 30
0.0
 10
7.914337079
 20
61.9717496752
 30
0.0
 10
7.9635567805
 20
62.0130342739
 30
0.0
 10
7.9898369875
 20
62.028207184
 30
0.0
  0
SPLINE
  5
2D2
100
AcDbEntity
  8
0
100
AcDbSpline
 62
7
  6
BYLAYER
 70
0
 71
3
 72
9
 73
5
 74
0
 42
0.0000001
 43
0.0000001
 44
0.0000000001
 40
0.0
 40
0.0
 40
0.0
 40
0.0
 40
0.2302891109
 40
1.0
 40
1.0
 40
1.0
 40
1.0
 10
14.5161502139
 20
60.9639677912
 30
0.0
 10
14.5083398196
 20
60.9480406112
 30
0.0
 10
14.4792313714
 20
60.8765124396
 30
0.0
 10
14.4684269351
 20
60.7984950334
 30
0.0
 10
14.4671593946
 20
60.7392178333
 30
0.0
  0
SPLINE
  5
2D3
100
AcDbEntity
  8
0
100
AcDbSpline
 62
7
  6
BYLAYER
 70
0
 71
3
 72
11
 73
7
 74
0
 42
0.0000001
 43
0.0000001
 44
0.0000000001
 40
0.0
 40
0.0
 40
0.0
 40
0.0
 40
0.2193779335
 40
0.4562763971
 40
0.7159852525
 40
1.0
 40
1.0
 40
1.0
 40
1.0
 10
43.4644596439
 20
18.6034195527
 30
0.0
 10
43.526812308
 20
18.5855567105
 30
0.0
 10
43.6620976436
 20
18.5663758075
 30
0.0
 10
43.8743400094
 20
18.5870921763
 30
0.0
 10
44.0963490512
 20
18.6545217271
 30
0.0
 10
44.2411344193
 20
18.7259520613
 30
0.0
 10
44.3138203907
 20
18.7679988136
 30
0.0
  0
SPLINE
  5
2D4
100
AcDbEntity
  8
0
100
AcDbSpline
 62
7
  6
BYLAYER
 70
0
 71
3
 72
11
 73
7
 74
0
 42
0.0000001
 43
0.0000001
 44
0.0000000001
 40
0.0
 40
0.0
 40
0.0
 40
0.0
 40
0.2896444539
 40
0.5492408266
 40
0.7823384954
 40
1.0
 40
1.0
 40
1.0
 40
1.0
 10
35.870956141
 20
20.8166780032
 30
0.0
 10
35.8444807556
 20
20.8320126032
 30
0.0
 10
35.7917682268
 20
20.8571469687
 30
0.0
 10
35.7107596602
 20
20.8768576081
 30
0.0
 10
35.6347040005
 20
20.8750225025
 30
0.0
 10
35.5889541049
 20
20.8583797611
 30
0.0
 10
35.5690412986
 20
20.8468857693
 30
0.0
  0
SPLINE
  5
2D5
100
AcDbEntity
  8
0
100
AcDbSpline
 62
7
  6
BYLAYER
 70
0
 71
3
 72
9
 73
5
 74
0
 42
0.0000001
 43
0.0000001
 44
0.0000000001
 40
0.0
 40
0.0
 40
0.0
 40
0.0
 40
0.2746072911
 40
1.0
 40
1.0
 40
1.0
 40
1.0
 10
12.0693057381
 20
63.5933880351
 30
0.0
 10
12.0693051055
 20
63.5381023804
 30
0.0
 10
12.0601085864
 20
63.3373241519
 30
0.0
 10
12.0099638922
 20
63.1352047018
 30
0.0
 10
11.941249909
 20
63.006339491
 30
0.0
  0
SPLINE
  5
2D6
100
AcDbEntity
  8
0
100
AcDbSpline
 62
7
  6
BYLAYER
 70
0
 71
3
 72
15
 73
11
 74
0
 42
0.0000001
 43
0.0000001
 44
0.0000000001
 40
0.0
 40
0.0
 40
0.0
 40
0.0
 40
0.119318592
 40
0.2326800337
 40
0.34410333
 40
0.4579603848
 40
0.5781555552
 40
0.7076528418
 40
0.8482222494
 40
1.0
 40
1.0
 40
1.0
 40
1.0
 10
11.941249909
 20
63.006339491
 30
0.0
 10
11.9152307929
 20
62.9575436167
 30
0.0
 10
11.8550435043
 20
62.8669095938
 30
0.0
 10
11.7379628641
 20
62.7564592201
 30
0.0
 10
11.5994973471
 20
62.6791616959
 30
0.0
 10
11.4434791629
 20
62.6370042061
 30
0.0
 10
11.2738641052
 20
62.6305066027
 30
0.0
 10
11.0942531492
 20
62.6590237143
 30
0.0
 10
10.9082525182
 20
62.7215971157
 30
0.0
 10
10.7867242834
 20
62.7825025201
 30
0.0
 10
10.7258050996
 20
62.8176734316
 30
0.0
  0
SPLINE
  5
2D7
100
AcDbEntity
  8
0
100
AcDbSpline
 62
7
  6
BYLAYER
 70
0
 71
3
 72
9
 73
5
 74
0
 42
0.0000001
 43
0.0000001
 44
0.0000000001
 40
0.0
 40
0.0
 40
0.0
 40
0.0
 40
0.2296577598
 40
1.0
 40
1.0
 40
1.0
 40
1.0
 10
8.1530994509
 20
62.0565852402
 30
0.0
 10
8.1454083765
 20
62.0402885458
 30
0.0
 10
8.1169694045
 20
61.9669344332
 30
0.0
 10
8.1076194322
 20
61.8872028049
 30
0.0
 10
8.1076194322
 20
61.8267568762
 30
0.0
  0
SPLINE
  5
2D8
100
AcDbEntity
  8
0
100
AcDbSpline
 62
7
  6
BYLAYER
 70
0
 71
3
 72
12
 73
8
 74
0
 42
0.0000001
 43
0.0000001
 44
0.0000000001
 40
0.0
 40
0.0
 40
0.0
 40
0.0
 40
0.1081708673
 40
0.2183762057
 40
0.4513306981
 40
0.7105191088
 40
1.0
 40
1.0
 40
1.0
 40
1.0
 10
11.7335575532
 20
63.0789395852
 30
0.0
 10
11.7069763465
 20
63.063595373
 30
0.0
 10
11.6505215664
 20
63.0372046213
 30
0.0
 10
11.5266228705
 20
63.0028775005
 30
0.0
 10
11.3530209185
 20
62.9982424767
 30
0.0
 10
11.1356750793
 20
63.0508622981
 30
0.0
 10
10.9941313952
 20
63.1181570696
 30
0.0
 10
10.9229986822
 20
63.1592246316
 30
0.0
  0
SPLINE
  5
2D9
100
AcDbEntity
  8
0
100
AcDbSpline
 62
7
  6
BYLAYER
 70
0
 71
3
 72
14
 73
10
 74
0
 42
0.0000001
 43
0.0000001
 44
0.0000000001
 40
0.0
 40
0.0
 40
0.0
 40
0.0
 40
0.1080456167
 40
0.2181351761
 40
0.3321070656
 40
0.4514812032
 40
0.5774286871
 40
0.7107537076
 40
1.0
 40
1.0
 40
1.0
 40
1.0
 10
41.8587161187
 20
10.2822385625
 30
0.0
 10
41.9075083042
 20
10.3104079628
 30
0.0
 10
42.0013399109
 20
10.375844902
 30
0.0
 10
42.1252533709
 20
10.4978770377
 30
0.0
 10
42.2318778916
 20
10.6426321345
 30
0.0
 10
42.3201471705
 20
10.8085608501
 30
0.0
 10
42.389414741
 20
10.9940175713
 30
0.0
 10
42.457450357
 20
11.2723340829
 30
0.0
 10
42.4750907798
 20
11.4937603105
 30
0.0
 10
42.4750907798
 20
11.6445866799
 30
0.0
  0
SPLINE
  5
2DA
100
AcDbEntity
  8
0
100
AcDbSpline
 62
7
  6
BYLAYER
 70
0
 71
3
 72
15
 73
11
 74
0
 42
0.0000001
 43
0.0000001
 44
0.0000000001
 40
0.0
 40
0.0
 40
0.0
 40
0.0
 40
0.1142919716
 40
0.237624203
 40
0.367295727
 40
0.5003137416
 40
0.6332881252
 40
0.7628322748
 40
0.885963619
 40
1.0
 40
1.0
 40
1.0
 40
1.0
 10
42.4750454709
 20
48.4084306343
 30
0.0
 10
42.4746554757
 20
48.5202609023
 30
0.0
 10
42.4534439989
 20
48.7529063723
 30
0.0
 10
42.3710757598
 20
49.1036827727
 30
0.0
 10
42.2396645697
 20
49.4587649487
 30
0.0
 10
42.0643174253
 20
49.8048369676
 30
0.0
 10
41.8514188156
 20
50.1290135834
 30
0.0
 10
41.6089662869
 20
50.4193508179
 30
0.0
 10
41.3459613344
 20
50.6648066254
 30
0.0
 10
41.1549286866
 20
50.7985062045
 30
0.0
 10
41.058249503
 20
50.8542145881
 30
0.0
  0
SPLINE
  5
2DB
100
AcDbEntity
  8
0
100
AcDbSpline
 62
7
  6
BYLAYER
 70
0
 71
3
 72
11
 73
7
 74
0
 42
0.0000001
 43
0.0000001
 44
0.0000000001
 40
0.0
 40
0.0
 40
0.0
 40
0.0
 40
0.2164083034
 40
0.448985024
 40
0.7090844224
 40
1.0
 40
1.0
 40
1.0
 40
1.0
 10
35.2832815382
 20
14.3610930706
 30
0.0
 10
35.2568059833
 20
14.3458121665
 30
0.0
 10
35.1956751681
 20
14.3239420856
 30
0.0
 10
35.0940704193
 20
14.3228766971
 30
0.0
 10
34.9860283181
 20
14.3511779848
 30
0.0
 10
34.9159607941
 20
14.3862415447
 30
0.0
 10
34.8808089589
 20
14.4075260061
 30
0.0
  0
SPLINE
  5
2DC
100
AcDbEntity
  8
0
100
AcDbSpline
 62
7
  6
BYLAYER
 70
0
 71
3
 72
11
 73
7
 74
0
 42
0.0000001
 43
0.0000001
 44
0.0000000001
 40
0.0
 40
0.0
 40
0.0
 40
0.0
 40
0.217735822
 40
0.4508800137
 40
0.7104855037
 40
1.0
 40
1.0
 40
1.0
 40
1.0
 10
14.0634528128
 20
58.8516064321
 30
0.0
 10
14.0827046999
 20
58.8627167187
 30
0.0
 10
14.1187575737
 20
58.8929605157
 30
0.0
 10
14.1571152574
 20
58.9556977774
 30
0.0
 10
14.1798445634
 20
59.0329902064
 30
0.0
 10
14.1843627954
 20
59.0892332274
 30
0.0
 10
14.1843627954
 20
59.1187885881
 30
0.0
  0
SPLINE
  5
2DD
100
AcDbEntity
  8
0
100
AcDbSpline
 62
7
  6
BYLAYER
 70
0
 71
3
 72
11
 73
7
 74
0
 42
0.0000001
 43
0.0000001
 44
0.0000000001
 40
0.0
 40
0.0
 40
0.0
 40
0.0
 40
0.2176616388
 40
0.4507593334
 40
0.7103555159
 40
1.0
 40
1.0
 40
1.0
 40
1.0
 10
35.8518828323
 20
21.0101834321
 30
0.0
 10
35.8717956569
 20
21.0216774211
 30
0.0
 10
35.9175455645
 20
21.0383201812
 30
0.0
 10
35.9936012234
 20
21.0401552534
 30
0.0
 10
36.0746097848
 20
21.0204446567
 30
0.0
 10
36.1273222873
 20
20.9953102666
 30
0.0
 10
36.1537976759
 20
20.9799756648
 30
0.0
  0
SPLINE
  5
2DE
100
AcDbEntity
  8
0
100
AcDbSpline
 62
7
  6
BYLAYER
 70
0
 71
3
 72
22
 73
18
 74
0
 42
0.0000001
 43
0.0000001
 44
0.0000000001
 40
0.0
 40
0.0
 40
0.0
 40
0.0
 40
0.065115917
 40
0.1349049129
 40
0.208227683
 40
0.2838947188
 40
0.4364482577
 40
0.5106506302
 40
0.5816387303
 40
0.6483122718
 40
0.7098868402
 40
0.7660317212
 40
0.8170068726
 40
0.8638382144
 40
0.9083614233
 40
0.9529646042
 40
1.0
 40
1.0
 40
1.0
 40
1.0
 10
10.7258050996
 20
62.8176734316
 30
0.0
 10
10.6472917912
 20
62.8630020858
 30
0.0
 10
10.4916155395
 20
62.9693006922
 30
0.0
 10
10.2737070428
 20
63.1614048121
 30
0.0
 10
10.0684105297
 20
63.3872637695
 30
0.0
 10
9.8187903649
 20
63.7254328164
 30
0.0
 10
9.6185431806
 20
64.0995045221
 30
0.0
 10
9.4793495395
 20
64.4905782231
 30
0.0
 10
9.4105317309
 20
64.7780789382
 30
0.0
 10
9.378375254
 20
65.0543445598
 30
0.0
 10
9.3838734122
 20
65.3119556095
 30
0.0
 10
9.4271289615
 20
65.5440807258
 30
0.0
 10
9.5078444744
 20
65.7444922585
 30
0.0
 10
9.6250189739
 20
65.9071138322
 30
0.0
 10
9.7762316193
 20
66.025529448
 30
0.0
 10
9.9558099632
 20
66.094073784
 30
0.0
 10
10.0846008856
 20
66.1050523964
 30
0.0
 10
10.1500579329
 20
66.1031085152
 30
0.0
  0
SPLINE
  5
2DF
100
AcDbEntity
  8
0
100
AcDbSpline
 62
7
  6
BYLAYER
 70
0
 71
3
 72
10
 73
6
 74
0
 42
0.0000001
 43
0.0000001
 44
0.0000000001
 40
0.0
 40
0.0
 40
0.0
 40
0.0
 40
0.2271177991
 40
0.5958152503
 40
1.0
 40
1.0
 40
1.0
 40
1.0
 10
10.1500579329
 20
66.1031085152
 30
0.0
 10
10.1961734254
 20
66.101739021
 30
0.0
 10
10.3169795543
 20
66.0884059775
 30
0.0
 10
10.5130532726
 20
66.0307612765
 30
0.0
 10
10.6547001043
 20
65.9614341761
 30
0.0
 10
10.7258050996
 20
65.9203826167
 30
0.0
  0
SPLINE
  5
2E0
100
AcDbEntity
  8
0
100
AcDbSpline
 62
7
  6
BYLAYER
 70
0
 71
3
 72
19
 73
15
 74
0
 42
0.0000001
 43
0.0000001
 44
0.0000000001
 40
0.0
 40
0.0
 40
0.0
 40
0.0
 40
0.0623896193
 40
0.1288274772
 40
0.2703439212
 40
0.4174347322
 40
0.5617126965
 40
0.6953216091
 40
0.7563167018
 40
0.8127979594
 40
0.8647375089
 40
0.9125512016
 40
0.957158603
 40
1.0
 40
1.0
 40
1.0
 40
1.0
 10
10.9229986822
 20
63.1592246316
 30
0.0
 10
10.8647929019
 20
63.1928289943
 30
0.0
 10
10.7490997041
 20
63.2701956899
 30
0.0
 10
10.5258967873
 20
63.4579486161
 30
0.0
 10
10.271832559
 20
63.74706141
 30
0.0
 10
10.0265236663
 20
64.1461022933
 30
0.0
 10
9.8541562916
 20
64.5725365068
 30
0.0
 10
9.7806150053
 20
64.9330817415
 30
0.0
 10
9.7736438226
 20
65.2041161377
 30
0.0
 10
9.793297791
 20
65.3862021187
 30
0.0
 10
9.8374206989
 20
65.5494521311
 30
0.0
 10
9.9055265526
 20
65.6904610522
 30
0.0
 10
9.9967290272
 20
65.8057265531
 30
0.0
 10
10.0724699802
 20
65.863741738
 30
0.0
 10
10.1124398113
 20
65.8868146398
 30
0.0
  0
SPLINE
  5
2E1
100
AcDbEntity
  8
0
100
AcDbSpline
 62
7
  6
BYLAYER
 70
0
 71
3
 72
12
 73
8
 74
0
 42
0.0000001
 43
0.0000001
 44
0.0000000001
 40
0.0
 40
0.0
 40
0.0
 40
0.0
 40
0.2896110878
 40
0.5487280307
 40
0.7816842151
 40
0.8918672157
 40
1.0
 40
1.0
 40
1.0
 40
1.0
 10
44.5966774041
 20
18.6046949352
 30
0.0
 10
44.5087173932
 20
18.5538125886
 30
0.0
 10
44.3337458306
 20
18.4704093808
 30
0.0
 10
44.0649817694
 20
18.4051723104
 30
0.0
 10
43.8503418794
 20
18.4108016526
 30
0.0
 10
43.6971065452
 20
18.4531253476
 30
0.0
 10
43.6273337042
 20
18.4858012924
 30
0.0
 10
43.5944756963
 20
18.5047713784
 30
0.0
  0
SPLINE
  5
2E2
100
AcDbEntity
  8
0
100
AcDbSpline
 62
7
  6
BYLAYER
 70
0
 71
3
 72
15
 73
11
 74
0
 42
0.0000001
 43
0.0000001
 44
0.0000000001
 40
0.0
 40
0.0
 40
0.0
 40
0.0
 40
0.1143541462
 40
0.2376232512
 40
0.3671507429
 40
0.5000015218
 40
0.6328520891
 40
0.7623789608
 40
0.8856471125
 40
1.0
 40
1.0
 40
1.0
 40
1.0
 10
54.498066778
 20
25.9572105819
 30
0.0
 10
54.4972201132
 20
25.8451293871
 30
0.0
 10
54.4753174989
 20
25.6121729167
 30
0.0
 10
54.3923997205
 20
25.2610537059
 30
0.0
 10
54.2608677555
 20
24.9057314154
 30
0.0
 10
54.0857410923
 20
24.5592943741
 30
0.0
 10
53.873283105
 20
24.2344111556
 30
0.0
 10
53.6313333105
 20
23.9428402875
 30
0.0
 10
53.3687166838
 20
23.6954729964
 30
0.0
 10
53.1779235091
 20
23.5600277674
 30
0.0
 10
53.0812826074
 20
23.5032547929
 30
0.0
  0
SPLINE
  5
2E3
100
AcDbEntity
  8
0
100
AcDbSpline
 62
7
  6
BYLAYER
 70
0
 71
3
 72
11
 73
7
 74
0
 42
0.0000001
 43
0.0000001
 44
0.0000000001
 40
0.0
 40
0.0
 40
0.0
 40
0.0
 40
0.2177452494
 40
0.4508833356
 40
0.7104564376
 40
1.0
 40
1.0
 40
1.0
 40
1.0
 10
37.0020014234
 20
20.3542699084
 30
0.0
 10
36.9757219276
 20
20.339097409
 30
0.0
 10
36.9153598083
 20
20.3171146894
 30
0.0
 10
36.8150124778
 20
20.3145973962
 30
0.0
 10
36.708117979
 20
20.3404606985
 30
0.0
 10
36.6385428503
 20
20.3735147072
 30
0.0
 10
36.603600863
 20
20.3936949449
 30
0.0
  0
SPLINE
  5
2E4
100
AcDbEntity
  8
0
100
AcDbSpline
 62
7
  6
BYLAYER
 70
0
 71
3
 72
22
 73
18
 74
0
 42
0.0000001
 43
0.0000001
 44
0.0000000001
 40
0.0
 40
0.0
 40
0.0
 40
0.0
 40
0.065115917
 40
0.1349049129
 40
0.208227683
 40
0.2838947188
 40
0.4364482577
 40
0.5106506302
 40
0.5816387303
 40
0.6483122718
 40
0.7098868402
 40
0.7660317212
 40
0.8170068726
 40
0.8638382144
 40
0.9083614233
 40
0.9529646042
 40
1.0
 40
1.0
 40
1.0
 40
1.0
 10
39.0101941055
 20
13.8279465656
 30
0.0
 10
38.9316807971
 20
13.8732752198
 30
0.0
 10
38.7760045454
 20
13.9795738262
 30
0.0
 10
38.5580960487
 20
14.1716779461
 30
0.0
 10
38.3527995355
 20
14.3975369035
 30
0.0
 10
38.1031793707
 20
14.7357059504
 30
0.0
 10
37.9029321865
 20
15.1097776561
 30
0.0
 10
37.7637385454
 20
15.5008513571
 30
0.0
 10
37.6949207368
 20
15.7883520722
 30
0.0
 10
37.6627642598
 20
16.0646176938
 30
0.0
 10
37.6682624181
 20
16.3222287435
 30
0.0
 10
37.7115179674
 20
16.5543538598
 30
0.0
 10
37.7922334803
 20
16.7547653925
 30
0.0
 10
37.9094079798
 20
16.9173869662
 30
0.0
 10
38.0606206252
 20
17.035802582
 30
0.0
 10
38.2401989691
 20
17.104346918
 30
0.0
 10
38.3689898914
 20
17.1153255304
 30
0.0
 10
38.4344469388
 20
17.1133816492
 30
0.0
  0
SPLINE
  5
2E5
100
AcDbEntity
  8
0
100
AcDbSpline
 62
7
  6
BYLAYER
 70
0
 71
3
 72
10
 73
6
 74
0
 42
0.0000001
 43
0.0000001
 44
0.0000000001
 40
0.0
 40
0.0
 40
0.0
 40
0.0
 40
0.2271177991
 40
0.5958152503
 40
1.0
 40
1.0
 40
1.0
 40
1.0
 10
38.4344469388
 20
17.1133816492
 30
0.0
 10
38.4805624313
 20
17.112012155
 30
0.0
 10
38.6013685602
 20
17.0986791115
 30
0.0
 10
38.7974422785
 20
17.0410344105
 30
0.0
 10
38.9390891102
 20
16.9717073101
 30
0.0
 10
39.0101941055
 20
16.9306557507
 30
0.0
  0
SPLINE
  5
2E6
100
AcDbEntity
  8
0
100
AcDbSpline
 62
7
  6
BYLAYER
 70
0
 71
3
 72
19
 73
15
 74
0
 42
0.0000001
 43
0.0000001
 44
0.0000000001
 40
0.0
 40
0.0
 40
0.0
 40
0.0
 40
0.0623896193
 40
0.1288274772
 40
0.2703439212
 40
0.4174347322
 40
0.5617126965
 40
0.6953216091
 40
0.7563167018
 40
0.8127979594
 40
0.8647375089
 40
0.9125512016
 40
0.957158603
 40
1.0
 40
1.0
 40
1.0
 40
1.0
 10
39.2073876881
 20
14.1694977656
 30
0.0
 10
39.1491819077
 20
14.2031021283
 30
0.0
 10
39.03348871
 20
14.2804688239
 30
0.0
 10
38.8102857931
 20
14.4682217501
 30
0.0
 10
38.5562215649
 20
14.757334544
 30
0.0
 10
38.3109126722
 20
15.1563754273
 30
0.0
 10
38.1385452975
 20
15.5828096408
 30
0.0
 10
38.0650040111
 20
15.9433548755
 30
0.0
 10
38.0580328285
 20
16.2143892718
 30
0.0
 10
38.0776867969
 20
16.3964752527
 30
0.0
 10
38.1218097047
 20
16.5597252651
 30
0.0
 10
38.1899155585
 20
16.7007341862
 30
0.0
 10
38.2811180331
 20
16.8159996871
 30
0.0
 10
38.3568589861
 20
16.8740148721
 30
0.0
 10
38.3968288172
 20
16.8970877738
 30
0.0
  0
SPLINE
  5
2E7
100
AcDbEntity
  8
0
100
AcDbSpline
 62
7
  6
BYLAYER
 70
0
 71
3
 72
12
 73
8
 74
0
 42
0.0000001
 43
0.0000001
 44
0.0000000001
 40
0.0
 40
0.0
 40
0.0
 40
0.0
 40
0.1081708673
 40
0.2183762057
 40
0.4513306981
 40
0.7105191088
 40
1.0
 40
1.0
 40
1.0
 40
1.0
 10
40.0179465591
 20
14.0892127192
 30
0.0
 10
39.9913653524
 20
14.073868507
 30
0.0
 10
39.9349105722
 20
14.0474777553
 30
0.0
 10
39.8110118764
 20
14.0131506345
 30
0.0
 10
39.6374099244
 20
14.0085156107
 30
0.0
 10
39.4200640852
 20
14.0611354321
 30
0.0
 10
39.2785204011
 20
14.1284302036
 30
0.0
 10
39.2073876881
 20
14.1694977656
 30
0.0
  0
SPLINE
  5
2E8
100
AcDbEntity
  8
0
100
AcDbSpline
 62
7
  6
BYLAYER
 70
0
 71
3
 72
15
 73
11
 74
0
 42
0.0000001
 43
0.0000001
 44
0.0000000001
 40
0.0
 40
0.0
 40
0.0
 40
0.0
 40
0.1143528509
 40
0.2376209399
 40
0.3671477882
 40
0.4999983469
 40
0.6328491344
 40
0.7623766495
 40
0.8856458173
 40
1.0
 40
1.0
 40
1.0
 40
1.0
 10
52.7984255941
 20
23.6665586713
 30
0.0
 10
52.8950664648
 20
23.7233316276
 30
0.0
 10
53.0858595788
 20
23.8587767729
 30
0.0
 10
53.3484761152
 20
24.1061439854
 30
0.0
 10
53.5904258814
 20
24.3977147537
 30
0.0
 10
53.8028838926
 20
24.7225979298
 30
0.0
 10
53.9780106044
 20
25.0690349716
 30
0.0
 10
54.1095426417
 20
25.4243573365
 30
0.0
 10
54.1924604431
 20
25.7754766649
 30
0.0
 10
54.2143630996
 20
26.0084332297
 30
0.0
 10
54.2152097646
 20
26.1205144603
 30
0.0
  0
SPLINE
  5
2E9
100
AcDbEntity
  8
0
100
AcDbSpline
 62
7
  6
BYLAYER
 70
0
 71
3
 72
10
 73
6
 74
0
 42
0.0000001
 43
0.0000001
 44
0.0000000001
 40
0.0
 40
0.0
 40
0.0
 40
0.0
 40
0.2780494973
 40
0.5372908067
 40
1.0
 40
1.0
 40
1.0
 40
1.0
 10
54.2152097646
 20
47.3451680487
 30
0.0
 10
54.2146876682
 20
47.4136801317
 30
0.0
 10
54.206346706
 20
47.5462901946
 30
0.0
 10
54.1598121243
 20
47.7884214152
 30
0.0
 10
54.0873438384
 20
47.9560310221
 30
0.0
 10
54.0212701254
 20
48.0489498706
 30
0.0
  0
SPLINE
  5
2EA
100
AcDbEntity
  8
0
100
AcDbSpline
 62
7
  6
BYLAYER
 70
0
 71
3
 72
9
 73
5
 74
0
 42
0.0000001
 43
0.0000001
 44
0.0000000001
 40
0.0
 40
0.0
 40
0.0
 40
0.0
 40
0.2542197473
 40
1.0
 40
1.0
 40
1.0
 40
1.0
 10
54.0212701254
 20
48.0489498706
 30
0.0
 10
54.0143169641
 20
48.0587280367
 30
0.0
 10
53.986114238
 20
48.096576104
 30
0.0
 10
53.9544464876
 20
48.1318624097
 30
0.0
 10
53.9290684975
 20
48.1562524472
 30
0.0
  0
SPLINE
  5
2EB
100
AcDbEntity
  8
0
100
AcDbSpline
 62
7
  6
BYLAYER
 70
0
 71
3
 72
14
 73
10
 74
0
 42
0.0000001
 43
0.0000001
 44
0.0000000001
 40
0.0
 40
0.0
 40
0.0
 40
0.0
 40
0.2892246615
 40
0.4225418189
 40
0.548486985
 40
0.6678639583
 40
0.7818430917
 40
0.8919424934
 40
1.0
 40
1.0
 40
1.0
 40
1.0
 10
9.2366900649
 20
69.2259848707
 30
0.0
 10
9.1052918043
 20
69.3017871371
 30
0.0
 10
8.9035224803
 20
69.3977061449
 30
0.0
 10
8.6268606099
 20
69.4783189366
 30
0.0
 10
8.4304717482
 20
69.5111950894
 30
0.0
 10
8.2415370009
 20
69.5177054957
 30
0.0
 10
8.0618139705
 20
69.4975937761
 30
0.0
 10
7.8931880337
 20
69.4510003823
 30
0.0
 10
7.7889898367
 20
69.4021664177
 30
0.0
 10
7.7399077537
 20
69.3738289672
 30
0.0
  0
SPLINE
  5
2EC
100
AcDbEntity
  8
0
100
AcDbSpline
 62
7
  6
BYLAYER
 70
0
 71
3
 72
12
 73
8
 74
0
 42
0.0000001
 43
0.0000001
 44
0.0000000001
 40
0.0
 40
0.0
 40
0.0
 40
0.0
 40
0.1084266507
 40
0.2188461837
 40
0.4520060151
 40
0.7110119933
 40
1.0
 40
1.0
 40
1.0
 40
1.0
 10
54.079453692
 20
48.0928108466
 30
0.0
 10
54.1122268736
 20
48.073889666
 30
0.0
 10
54.175235358
 20
48.0299565361
 30
0.0
 10
54.2884731263
 20
47.9192406544
 30
0.0
 10
54.4011462649
 20
47.7377182777
 30
0.0
 10
54.4805193768
 20
47.4745337068
 30
0.0
 10
54.4972981783
 20
47.2827236453
 30
0.0
 10
54.498066778
 20
47.1818641703
 30
0.0
  0
SPLINE
  5
2ED
100
AcDbEntity
  8
0
100
AcDbSpline
 62
7
  6
BYLAYER
 70
0
 71
3
 72
9
 73
5
 74
0
 42
0.0000001
 43
0.0000001
 44
0.0000000001
 40
0.0
 40
0.0
 40
0.0
 40
0.0
 40
0.2746072911
 40
1.0
 40
1.0
 40
1.0
 40
1.0
 10
40.353694744
 20
14.6036611691
 30
0.0
 10
40.3536941114
 20
14.5483755144
 30
0.0
 10
40.3444975922
 20
14.3475972859
 30
0.0
 10
40.294352898
 20
14.1454778358
 30
0.0
 10
40.2256389149
 20
14.016612625
 30
0.0
  0
SPLINE
  5
2EE
100
AcDbEntity
  8
0
100
AcDbSpline
 62
7
  6
BYLAYER
 70
0
 71
3
 72
15
 73
11
 74
0
 42
0.0000001
 43
0.0000001
 44
0.0000000001
 40
0.0
 40
0.0
 40
0.0
 40
0.0
 40
0.119318592
 40
0.2326800337
 40
0.34410333
 40
0.4579603848
 40
0.5781555552
 40
0.7076528418
 40
0.8482222494
 40
1.0
 40
1.0
 40
1.0
 40
1.0
 10
40.2256389149
 20
14.016612625
 30
0.0
 10
40.1996197987
 20
13.9678167507
 30
0.0
 10
40.1394325102
 20
13.8771827278
 30
0.0
 10
40.0223518699
 20
13.7667323541
 30
0.0
 10
39.883886353
 20
13.6894348299
 30
0.0
 10
39.7278681688
 20
13.6472773401
 30
0.0
 10
39.5582531111
 20
13.6407797367
 30
0.0
 10
39.3786421551
 20
13.6692968483
 30
0.0
 10
39.1926415241
 20
13.7318702497
 30
0.0
 10
39.0711132892
 20
13.7927756541
 30
0.0
 10
39.0101941055
 20
13.8279465656
 30
0.0
  0
SPLINE
  5
2EF
100
AcDbEntity
  8
0
100
AcDbSpline
 62
7
  6
BYLAYER
 70
0
 71
3
 72
11
 73
7
 74
0
 42
0.0000001
 43
0.0000001
 44
0.0000000001
 40
0.0
 40
0.0
 40
0.0
 40
0.0
 40
0.2895144488
 40
0.5491201542
 40
0.7822643268
 40
1.0
 40
1.0
 40
1.0
 40
1.0
 10
14.4672043303
 20
59.2820862496
 30
0.0
 10
14.4672043303
 20
59.2525308943
 30
0.0
 10
14.4626860589
 20
59.1962878639
 30
0.0
 10
14.4399567945
 20
59.1189954047
 30
0.0
 10
14.4015990724
 20
59.0562581647
 30
0.0
 10
14.3655462298
 20
59.0260143587
 30
0.0
 10
14.3462943498
 20
59.014904091
 30
0.0
  0
SPLINE
  5
2F0
100
AcDbEntity
  8
0
100
AcDbSpline
 62
7
  6
BYLAYER
 70
0
 71
3
 72
11
 73
7
 74
0
 42
0.0000001
 43
0.0000001
 44
0.0000000001
 40
0.0
 40
0.0
 40
0.0
 40
0.0
 40
0.2881399898
 40
0.5471816526
 40
0.7808981251
 40
1.0
 40
1.0
 40
1.0
 40
1.0
 10
14.1843178597
 20
60.5759201718
 30
0.0
 10
14.1851651154
 20
60.6155425295
 30
0.0
 10
14.1928012508
 20
60.6909037647
 30
0.0
 10
14.2253576825
 20
60.7942305701
 30
0.0
 10
14.2783393408
 20
60.8781032662
 30
0.0
 10
14.3272927305
 20
60.9186925329
 30
0.0
 10
14.3533911047
 20
60.9337603414
 30
0.0
  0
SPLINE
  5
2F1
100
AcDbEntity
  8
0
100
AcDbSpline
 62
7
  6
BYLAYER
 70
0
 71
3
 72
9
 73
5
 74
0
 42
0.0000001
 43
0.0000001
 44
0.0000000001
 40
0.0
 40
0.0
 40
0.0
 40
0.0
 40
0.2717660798
 40
1.0
 40
1.0
 40
1.0
 40
1.0
 10
36.8864423979
 20
20.5569926065
 30
0.0
 10
36.904897544
 20
20.5463341047
 30
0.0
 10
36.9743451909
 20
20.5101171045
 30
0.0
 10
37.0512950445
 20
20.4861858362
 30
0.0
 10
37.1082081642
 20
20.4814713508
 30
0.0
  0
SPLINE
  5
2F2
100
AcDbEntity
  8
0
100
AcDbSpline
 62
7
  6
BYLAYER
 70
0
 71
3
 72
9
 73
5
 74
0
 42
0.0000001
 43
0.0000001
 44
0.0000000001
 40
0.0
 40
0.0
 40
0.0
 40
0.0
 40
0.528849429
 40
1.0
 40
1.0
 40
1.0
 40
1.0
 10
35.1636504938
 20
14.5708236677
 30
0.0
 10
35.1997397011
 20
14.5489716267
 30
0.0
 10
35.2715886741
 20
14.513171865
 30
0.0
 10
35.3498848081
 20
14.4934525407
 30
0.0
 10
35.3872852447
 20
14.4897183121
 30
0.0
  0
ENDSEC
  0
SECTION
  2
OBJECTS
  0
DICTIONARY
  5
C
100
AcDbDictionary
280
0
281
1
  3
ACAD_GROUP
350
D
  3
ACAD_MLINESTYLE
350
17
  3
ACAD_LAYOUT
350
1A
  3
ACAD_PLOTSETTINGS
350
19
  3
ACAD_PLOTSTYLENAME
350
E
  0
DICTIONARY
  5
D
102
{ACAD_REACTORS
330
C
102
}
100
AcDbDictionary
280
0
281
1
  0
ACDBDICTIONARYWDFLT
  5
E
102
{ACAD_REACTORS
330
C
102
}
100
AcDbDictionary
281
1
  3
Normal
350
F
100
AcDbDictionaryWithDefault
340
F
  0
DICTIONARY
  5
17
102
{ACAD_REACTORS
330
C
102
}
100
AcDbDictionary
280
0
281
1
  3
Standard
350
18
  0
DICTIONARY
  5
19
102
{ACAD_REACTORS
330
C
102
}
100
AcDbDictionary
281
1
  0
DICTIONARY
  5
1A
102
{ACAD_REACTORS
330
C
102
}
100
AcDbDictionary
281
1
  3
Model
350
2F3
  3
Layout1
350
2F4
  0
ACDBPLACEHOLDER
  5
F
102
{ACAD_REACTORS
330
E
102
}
  0
MLINESTYLE
  5
18
102
{ACAD_REACTORS
330
17
102
}
100
AcDbMlineStyle
  2
STANDARD
 70
0
  3

 62
256
 51
90.0
 52
90.0
 71
2
 49
0.5
 62
256
  6
BYLAYER
 49
-0.5
 62
256
  6
BYLAYER
  0
LAYOUT
  5
2F3
102
{ACAD_REACTORS
330
1A
102
}
100
AcDbPlotSettings
  1

  2
none_device
  4

  6

 40
0.0
 41
0.0
 42
0.0
 43
0.0
 44
210.0
 45
297.0
 46
0.0
 47
0.0
 48
0.0
 49
0.0
140
0.0
141
0.0
142
1.0
143
1.0
 70
1024
 72
1
 73
0
 74
0
  7

 75
0
147
1.0
148
0.0
149
0.0
100
AcDbLayout
  1
Model
 70
0
 71
0
 10
0.0
 20
0.0
 11
210.0
 21
297.0
 12
0.0
 22
0.0
 32
0.0
 14
0.0
 24
0.0
 34
0.0
 15
0.0
 25
0.0
 35
0.0
146
0.0
 13
0.0
 23
0.0
 33
0.0
 16
1.0
 26
0.0
 36
0.0
 17
0.0
 27
1.0
 37
0.0
 76
0
330
210
345
0
346
0
  0
LAYOUT
  5
2F4
102
{ACAD_REACTORS
330
1A
102
}
100
AcDbPlotSettings
  1

  2
none_device
  4

  6

 40
0.0
 41
0.0
 42
0.0
 43
0.0
 44
210.0
 45
297.0
 46
0.0
 47
0.0
 48
0.0
 49
0.0
140
0.0
141
0.0
142
1.0
143
1.0
 70
0
 72
1
 73
0
 74
0
  7

 75
0
147
1.0
148
0.0
149
0.0
100
AcDbLayout
  1
Layout1
 70
0
 71
1
 10
0.0
 20
0.0
 11
210.0
 21
297.0
 12
0.0
 22
0.0
 32
0.0
 14
0.0
 24
0.0
 34
0.0
 15
0.0
 25
0.0
 35
0.0
146
0.0
 13
0.0
 23
0.0
 33
0.0
 16
1.0
 26
0.0
 36
0.0
 17
0.0
 27
1.0
 37
0.0
 76
0
330
211
345
0
346
0
  0
ENDSEC
  0
EOF
